999
\"DXF R12 Output\" (www.mydxf.blogspot.com)
 0 
SECTION
 2 
HEADER
 9 
$ACADVER
 1 
AC1009
 9 
$EXTMIN
 10 
 0 
 20 
 0 
 9 
$EXTMAX
 10 
 8.5 
 20 
 11 
 0 
ENDSEC
 0 
SECTION
 2 
ENTITIES
0
LINE
8
Layer 1
10
16.449820
20
0.639008
11
12.002213
21
1.358277
0
LINE
8
Layer 1
10
12.002213
20
1.358277
11
7.808962
21
2.534750
0
LINE
8
Layer 1
10
7.808962
20
2.534750
11
4.161418
21
4.067745
0
LINE
8
Layer 1
10
4.161418
20
4.067745
11
2.633333
21
4.936477
0
LINE
8
Layer 1
10
2.633333
20
4.936477
11
1.350931
21
5.856585
0
LINE
8
Layer 1
10
1.350931
20
5.856585
11
0.504264
21
6.551380
0
LINE
8
Layer 1
10
0.504264
20
6.551380
11
1.492043
21
6.257939
0
LINE
8
Layer 1
10
1.492043
20
6.257939
11
3.506446
21
6.002348
0
LINE
8
Layer 1
10
3.506446
20
6.002348
11
6.519061
21
5.946114
0
LINE
8
Layer 1
10
6.519061
20
5.946114
11
9.610000
21
6.077857
0
LINE
8
Layer 1
10
9.610000
20
6.077857
11
11.859377
21
6.386195
0
LINE
8
Layer 1
10
11.859377
20
6.386195
11
13.454127
21
6.890775
0
LINE
8
Layer 1
10
13.454127
20
6.890775
11
14.996792
21
7.545743
0
LINE
8
Layer 1
10
14.996792
20
7.545743
11
16.339137
21
8.279732
0
LINE
8
Layer 1
10
16.339137
20
8.279732
11
17.332929
21
9.021377
0
LINE
8
Layer 1
10
17.332929
20
9.021377
11
17.735362
21
9.448321
0
LINE
8
Layer 1
10
17.735362
20
9.448321
11
17.940003
21
9.883545
0
LINE
8
Layer 1
10
17.940003
20
9.883545
11
17.931205
21
11.507193
0
LINE
8
Layer 1
10
17.931205
20
11.507193
11
17.921968
21
12.584423
0
LINE
8
Layer 1
10
17.921968
20
12.584423
11
18.069141
21
13.594501
0
LINE
8
Layer 1
10
18.069141
20
13.594501
11
18.368131
21
14.530238
0
LINE
8
Layer 1
10
18.368131
20
14.530238
11
18.814345
21
15.384449
0
LINE
8
Layer 1
10
18.814345
20
15.384449
11
19.403190
21
16.149946
0
LINE
8
Layer 1
10
19.403190
20
16.149946
11
20.130073
21
16.819542
0
LINE
8
Layer 1
10
20.130073
20
16.819542
11
20.990401
21
17.386049
0
LINE
8
Layer 1
10
20.990401
20
17.386049
11
21.979582
21
17.842281
0
LINE
8
Layer 1
10
21.979582
20
17.842281
11
22.972719
21
18.325079
0
LINE
8
Layer 1
10
22.972719
20
18.325079
11
23.416027
21
18.748976
0
LINE
8
Layer 1
10
23.416027
20
18.748976
11
23.884370
21
20.962888
0
LINE
8
Layer 1
10
23.884370
20
20.962888
11
24.256086
21
21.683385
0
LINE
8
Layer 1
10
24.256086
20
21.683385
11
24.807019
21
22.374346
0
LINE
8
Layer 1
10
24.807019
20
22.374346
11
25.756072
21
23.201594
0
LINE
8
Layer 1
10
25.756072
20
23.201594
11
26.651098
21
23.655551
0
LINE
8
Layer 1
10
26.651098
20
23.655551
11
27.313656
21
23.920123
0
LINE
8
Layer 1
10
27.313656
20
23.920123
11
27.301293
21
24.450638
0
LINE
8
Layer 1
10
27.301293
20
24.450638
11
26.969355
21
26.661861
0
LINE
8
Layer 1
10
26.969355
20
26.661861
11
27.063086
21
28.390344
0
LINE
8
Layer 1
10
27.063086
20
28.390344
11
27.625116
21
30.075506
0
LINE
8
Layer 1
10
27.625116
20
30.075506
11
28.664258
21
31.735760
0
LINE
8
Layer 1
10
28.664258
20
31.735760
11
30.189325
21
33.389522
0
LINE
8
Layer 1
10
30.189325
20
33.389522
11
31.584276
21
34.580939
0
LINE
8
Layer 1
10
31.584276
20
34.580939
11
32.405704
21
35.076486
0
LINE
8
Layer 1
10
32.405704
20
35.076486
11
32.693125
21
35.105601
0
LINE
8
Layer 1
10
32.693125
20
35.105601
11
32.784365
21
35.313186
0
LINE
8
Layer 1
10
32.784365
20
35.313186
11
32.361649
21
36.985186
0
LINE
8
Layer 1
10
32.361649
20
36.985186
11
32.007791
21
39.054123
0
LINE
8
Layer 1
10
32.007791
20
39.054123
11
32.049381
21
40.014560
0
LINE
8
Layer 1
10
32.049381
20
40.014560
11
32.241697
21
40.942836
0
LINE
8
Layer 1
10
32.241697
20
40.942836
11
33.093640
21
42.754488
0
LINE
8
Layer 1
10
33.093640
20
42.754488
11
34.593891
21
44.592237
0
LINE
8
Layer 1
10
34.593891
20
44.592237
11
36.026717
21
46.064655
0
LINE
8
Layer 1
10
36.026717
20
46.064655
11
34.478316
21
47.696682
0
LINE
8
Layer 1
10
34.478316
20
47.696682
11
32.557176
21
49.885806
0
LINE
8
Layer 1
10
32.557176
20
49.885806
11
31.010352
21
52.001136
0
LINE
8
Layer 1
10
31.010352
20
52.001136
11
29.843348
21
54.025278
0
LINE
8
Layer 1
10
29.843348
20
54.025278
11
29.061670
21
55.940838
0
LINE
8
Layer 1
10
29.061670
20
55.940838
11
28.670822
21
57.730420
0
LINE
8
Layer 1
10
28.670822
20
57.730420
11
28.676308
21
59.376631
0
LINE
8
Layer 1
10
28.676308
20
59.376631
11
29.083632
21
60.862076
0
LINE
8
Layer 1
10
29.083632
20
60.862076
11
29.898300
21
62.169362
0
LINE
8
Layer 1
10
29.898300
20
62.169362
11
30.753054
21
62.962274
0
LINE
8
Layer 1
10
30.753054
20
62.962274
11
31.882662
21
63.668881
0
LINE
8
Layer 1
10
31.882662
20
63.668881
11
33.233450
21
64.274680
0
LINE
8
Layer 1
10
33.233450
20
64.274680
11
34.751744
21
64.765172
0
LINE
8
Layer 1
10
34.751744
20
64.765172
11
36.383869
21
65.125852
0
LINE
8
Layer 1
10
36.383869
20
65.125852
11
38.076152
21
65.342221
0
LINE
8
Layer 1
10
38.076152
20
65.342221
11
39.774916
21
65.399777
0
LINE
8
Layer 1
10
39.774916
20
65.399777
11
41.426488
21
65.284017
0
LINE
8
Layer 1
10
41.426488
20
65.284017
11
43.119822
21
65.066048
0
LINE
8
Layer 1
10
43.119822
20
65.066048
11
41.652046
21
65.029046
0
LINE
8
Layer 1
10
41.652046
20
65.029046
11
39.140572
21
64.754727
0
LINE
8
Layer 1
10
39.140572
20
64.754727
11
36.890736
21
64.111554
0
LINE
8
Layer 1
10
36.890736
20
64.111554
11
35.093671
21
63.174175
0
LINE
8
Layer 1
10
35.093671
20
63.174175
11
34.424658
21
62.618487
0
LINE
8
Layer 1
10
34.424658
20
62.618487
11
33.940513
21
62.017241
0
LINE
8
Layer 1
10
33.940513
20
62.017241
11
33.439459
21
60.761646
0
LINE
8
Layer 1
10
33.439459
20
60.761646
11
33.367184
21
59.306780
0
LINE
8
Layer 1
10
33.367184
20
59.306780
11
33.724086
21
57.648321
0
LINE
8
Layer 1
10
33.724086
20
57.648321
11
34.510559
21
55.781945
0
LINE
8
Layer 1
10
34.510559
20
55.781945
11
35.440580
21
54.129963
0
LINE
8
Layer 1
10
35.440580
20
54.129963
11
36.362384
21
52.777541
0
LINE
8
Layer 1
10
36.362384
20
52.777541
11
37.104790
21
51.949012
0
LINE
8
Layer 1
10
37.104790
20
51.949012
11
37.355225
21
51.801311
0
LINE
8
Layer 1
10
37.355225
20
51.801311
11
37.496617
21
51.868708
0
LINE
8
Layer 1
10
37.496617
20
51.868708
11
38.291168
21
53.166751
0
LINE
8
Layer 1
10
38.291168
20
53.166751
11
39.421705
21
54.190064
0
LINE
8
Layer 1
10
39.421705
20
54.190064
11
40.864853
21
54.922699
0
LINE
8
Layer 1
10
40.864853
20
54.922699
11
42.597237
21
55.348708
0
LINE
8
Layer 1
10
42.597237
20
55.348708
11
43.341165
21
55.481655
0
LINE
8
Layer 1
10
43.341165
20
55.481655
11
43.785959
21
55.685054
0
LINE
8
Layer 1
10
43.785959
20
55.685054
11
44.067303
21
56.068572
0
LINE
8
Layer 1
10
44.067303
20
56.068572
11
44.320878
21
56.741876
0
LINE
8
Layer 1
10
44.320878
20
56.741876
11
45.057904
21
58.172995
0
LINE
8
Layer 1
10
45.057904
20
58.172995
11
46.224875
21
59.590280
0
LINE
8
Layer 1
10
46.224875
20
59.590280
11
47.627616
21
60.795559
0
LINE
8
Layer 1
10
47.627616
20
60.795559
11
49.071948
21
61.590662
0
LINE
8
Layer 1
10
49.071948
20
61.590662
11
51.210447
21
62.169819
0
LINE
8
Layer 1
10
51.210447
20
62.169819
11
51.526255
21
62.206455
0
LINE
8
Layer 1
10
51.526255
20
62.206455
11
51.680899
21
62.379229
0
LINE
8
Layer 1
10
51.680899
20
62.379229
11
51.622686
21
63.510374
0
LINE
8
Layer 1
10
51.622686
20
63.510374
11
51.220477
21
67.432464
0
LINE
8
Layer 1
10
51.220477
20
67.432464
11
51.438799
21
70.170858
0
LINE
8
Layer 1
10
51.438799
20
70.170858
11
51.798189
21
72.481130
0
LINE
8
Layer 1
10
51.798189
20
72.481130
11
50.906104
21
73.887141
0
LINE
8
Layer 1
10
50.906104
20
73.887141
11
49.909040
21
75.723741
0
LINE
8
Layer 1
10
49.909040
20
75.723741
11
49.255477
21
77.637557
0
LINE
8
Layer 1
10
49.255477
20
77.637557
11
48.891905
21
79.845430
0
LINE
8
Layer 1
10
48.891905
20
79.845430
11
48.764811
21
82.564199
0
LINE
8
Layer 1
10
48.764811
20
82.564199
11
48.733250
21
86.166359
0
LINE
8
Layer 1
10
48.733250
20
86.166359
11
46.401730
21
88.031803
0
LINE
8
Layer 1
10
46.401730
20
88.031803
11
44.118114
21
90.081789
0
LINE
8
Layer 1
10
44.118114
20
90.081789
11
42.068523
21
92.361668
0
LINE
8
Layer 1
10
42.068523
20
92.361668
11
40.290289
21
94.798675
0
LINE
8
Layer 1
10
40.290289
20
94.798675
11
38.820743
21
97.320044
0
LINE
8
Layer 1
10
38.820743
20
97.320044
11
37.697216
21
99.853012
0
LINE
8
Layer 1
10
37.697216
20
99.853012
11
36.957040
21
102.324813
0
LINE
8
Layer 1
10
36.957040
20
102.324813
11
36.637546
21
104.662682
0
LINE
8
Layer 1
10
36.637546
20
104.662682
11
36.776065
21
106.793854
0
LINE
8
Layer 1
10
36.776065
20
106.793854
11
37.119520
21
108.184347
0
LINE
8
Layer 1
10
37.119520
20
108.184347
11
37.612988
21
109.529036
0
LINE
8
Layer 1
10
37.612988
20
109.529036
11
38.255068
21
110.826921
0
LINE
8
Layer 1
10
38.255068
20
110.826921
11
39.044360
21
112.077006
0
LINE
8
Layer 1
10
39.044360
20
112.077006
11
41.058979
21
114.429777
0
LINE
8
Layer 1
10
41.058979
20
114.429777
11
43.645644
21
116.579364
0
LINE
8
Layer 1
10
43.645644
20
116.579364
11
46.793151
21
118.517781
0
LINE
8
Layer 1
10
46.793151
20
118.517781
11
50.490300
21
120.237041
0
LINE
8
Layer 1
10
50.490300
20
120.237041
11
54.725887
21
121.729157
0
LINE
8
Layer 1
10
54.725887
20
121.729157
11
59.488711
21
122.986145
0
LINE
8
Layer 1
10
59.488711
20
122.986145
11
65.274266
21
124.110454
0
LINE
8
Layer 1
10
65.274266
20
124.110454
11
66.098170
21
124.184790
0
LINE
8
Layer 1
10
66.098170
20
124.184790
11
66.233862
21
124.117021
0
LINE
8
Layer 1
10
66.233862
20
124.117021
11
64.004266
21
123.264538
0
LINE
8
Layer 1
10
64.004266
20
123.264538
11
58.413847
21
121.162879
0
LINE
8
Layer 1
10
58.413847
20
121.162879
11
54.549822
21
119.370579
0
LINE
8
Layer 1
10
54.549822
20
119.370579
11
52.362375
21
118.167265
0
LINE
8
Layer 1
10
52.362375
20
118.167265
11
50.469210
21
116.938391
0
LINE
8
Layer 1
10
50.469210
20
116.938391
11
48.869418
21
115.682943
0
LINE
8
Layer 1
10
48.869418
20
115.682943
11
47.562090
21
114.399905
0
LINE
8
Layer 1
10
47.562090
20
114.399905
11
46.546318
21
113.088261
0
LINE
8
Layer 1
10
46.546318
20
113.088261
11
45.821192
21
111.746998
0
LINE
8
Layer 1
10
45.821192
20
111.746998
11
45.385804
21
110.375100
0
LINE
8
Layer 1
10
45.385804
20
110.375100
11
45.239246
21
108.971551
0
LINE
8
Layer 1
10
45.239246
20
108.971551
11
45.389333
21
107.416410
0
LINE
8
Layer 1
10
45.389333
20
107.416410
11
45.870550
21
105.977191
0
LINE
8
Layer 1
10
45.870550
20
105.977191
11
46.720847
21
104.572846
0
LINE
8
Layer 1
10
46.720847
20
104.572846
11
47.978176
21
103.122329
0
LINE
8
Layer 1
10
47.978176
20
103.122329
11
48.926380
21
102.199573
0
LINE
8
Layer 1
10
48.926380
20
102.199573
11
49.681094
21
101.641194
0
LINE
8
Layer 1
10
49.681094
20
101.641194
11
50.516078
21
101.290669
0
LINE
8
Layer 1
10
50.516078
20
101.290669
11
51.705092
21
100.991475
0
LINE
8
Layer 1
10
51.705092
20
100.991475
11
53.638251
21
100.688808
0
LINE
8
Layer 1
10
53.638251
20
100.688808
11
55.260065
21
100.705948
0
LINE
8
Layer 1
10
55.260065
20
100.705948
11
56.601141
21
100.926728
0
LINE
8
Layer 1
10
56.601141
20
100.926728
11
57.155799
21
101.243455
0
LINE
8
Layer 1
10
57.155799
20
101.243455
11
56.985726
21
101.795476
0
LINE
8
Layer 1
10
56.985726
20
101.795476
11
56.152610
21
102.722138
0
LINE
8
Layer 1
10
56.152610
20
102.722138
11
54.642828
21
104.567381
0
LINE
8
Layer 1
10
54.642828
20
104.567381
11
54.163870
21
105.459560
0
LINE
8
Layer 1
10
54.163870
20
105.459560
11
53.865008
21
106.347827
0
LINE
8
Layer 1
10
53.865008
20
106.347827
11
53.743346
21
107.244470
0
LINE
8
Layer 1
10
53.743346
20
107.244470
11
53.795989
21
108.161776
0
LINE
8
Layer 1
10
53.795989
20
108.161776
11
54.412611
21
110.107530
0
LINE
8
Layer 1
10
54.412611
20
110.107530
11
55.298735
21
111.517373
0
LINE
8
Layer 1
10
55.298735
20
111.517373
11
56.615892
21
113.038957
0
LINE
8
Layer 1
10
56.615892
20
113.038957
11
58.131939
21
114.433358
0
LINE
8
Layer 1
10
58.131939
20
114.433358
11
59.614734
21
115.461652
0
LINE
8
Layer 1
10
59.614734
20
115.461652
11
60.807233
21
116.119044
0
LINE
8
Layer 1
10
60.807233
20
116.119044
11
59.633798
21
114.634535
0
LINE
8
Layer 1
10
59.633798
20
114.634535
11
58.259133
21
112.706755
0
LINE
8
Layer 1
10
58.259133
20
112.706755
11
57.551497
21
111.151796
0
LINE
8
Layer 1
10
57.551497
20
111.151796
11
57.452193
21
109.754941
0
LINE
8
Layer 1
10
57.452193
20
109.754941
11
57.902526
21
108.301477
0
LINE
8
Layer 1
10
57.902526
20
108.301477
11
58.478982
21
107.332745
0
LINE
8
Layer 1
10
58.478982
20
107.332745
11
59.255795
21
106.487608
0
LINE
8
Layer 1
10
59.255795
20
106.487608
11
60.191699
21
105.802925
0
LINE
8
Layer 1
10
60.191699
20
105.802925
11
61.245431
21
105.315552
0
LINE
8
Layer 1
10
61.245431
20
105.315552
11
62.668648
21
105.051302
0
LINE
8
Layer 1
10
62.668648
20
105.051302
11
64.566320
21
104.962711
0
LINE
8
Layer 1
10
64.566320
20
104.962711
11
66.463396
21
105.049950
0
LINE
8
Layer 1
10
66.463396
20
105.049950
11
67.884822
21
105.313186
0
LINE
8
Layer 1
10
67.884822
20
105.313186
11
68.692539
21
105.732851
0
LINE
8
Layer 1
10
68.692539
20
105.732851
11
68.927329
21
106.253846
0
LINE
8
Layer 1
10
68.927329
20
106.253846
11
68.587639
21
106.893369
0
LINE
8
Layer 1
10
68.587639
20
106.893369
11
67.671913
21
107.668616
0
LINE
8
Layer 1
10
67.671913
20
107.668616
11
66.836641
21
108.360871
0
LINE
8
Layer 1
10
66.836641
20
108.360871
11
66.613580
21
108.766937
0
LINE
8
Layer 1
10
66.613580
20
108.766937
11
67.506282
21
109.249495
0
LINE
8
Layer 1
10
67.506282
20
109.249495
11
69.176198
21
109.892104
0
LINE
8
Layer 1
10
69.176198
20
109.892104
11
73.317600
21
111.120352
0
LINE
8
Layer 1
10
73.317600
20
111.120352
11
76.373403
21
111.778592
0
LINE
8
Layer 1
10
76.373403
20
111.778592
11
79.190909
21
112.203972
0
LINE
8
Layer 1
10
79.190909
20
112.203972
11
82.423149
21
112.471259
0
LINE
8
Layer 1
10
82.423149
20
112.471259
11
86.723155
21
112.655223
0
LINE
8
Layer 1
10
86.723155
20
112.655223
11
92.776331
21
113.034093
0
LINE
8
Layer 1
10
92.776331
20
113.034093
11
93.993721
21
113.340842
0
LINE
8
Layer 1
10
93.993721
20
113.340842
11
94.261081
21
113.539859
0
LINE
8
Layer 1
10
94.261081
20
113.539859
11
94.343155
21
113.775518
0
LINE
8
Layer 1
10
94.343155
20
113.775518
11
91.983571
21
115.599718
0
LINE
8
Layer 1
10
91.983571
20
115.599718
11
89.244266
21
117.600380
0
LINE
8
Layer 1
10
89.244266
20
117.600380
11
86.496367
21
119.861174
0
LINE
8
Layer 1
10
86.496367
20
119.861174
11
83.942244
21
122.206299
0
LINE
8
Layer 1
10
83.942244
20
122.206299
11
81.784266
21
124.459955
0
LINE
8
Layer 1
10
81.784266
20
124.459955
11
80.178588
21
126.436191
0
LINE
8
Layer 1
10
80.178588
20
126.436191
11
78.647296
21
128.586348
0
LINE
8
Layer 1
10
78.647296
20
128.586348
11
77.384620
21
130.619603
0
LINE
8
Layer 1
10
77.384620
20
130.619603
11
76.584790
21
132.245134
0
LINE
8
Layer 1
10
76.584790
20
132.245134
11
76.294903
21
133.007597
0
LINE
8
Layer 1
10
76.294903
20
133.007597
11
78.686807
21
133.007597
0
LINE
8
Layer 1
10
78.686807
20
133.007597
11
80.376089
21
133.084140
0
LINE
8
Layer 1
10
80.376089
20
133.084140
11
81.078711
21
133.268167
0
LINE
8
Layer 1
10
81.078711
20
133.268167
11
80.418920
21
134.326500
0
LINE
8
Layer 1
10
80.418920
20
134.326500
11
77.762813
21
138.040767
0
LINE
8
Layer 1
10
77.762813
20
138.040767
11
75.179318
21
142.350004
0
LINE
8
Layer 1
10
75.179318
20
142.350004
11
73.734953
21
145.060187
0
LINE
8
Layer 1
10
73.734953
20
145.060187
11
76.041400
21
144.392146
0
LINE
8
Layer 1
10
76.041400
20
144.392146
11
79.302531
21
143.583781
0
LINE
8
Layer 1
10
79.302531
20
143.583781
11
80.199643
21
143.482357
0
LINE
8
Layer 1
10
80.199643
20
143.482357
11
80.514266
21
143.599347
0
LINE
8
Layer 1
10
80.514266
20
143.599347
11
79.423474
21
145.258195
0
LINE
8
Layer 1
10
79.423474
20
145.258195
11
77.560104
21
148.075449
0
LINE
8
Layer 1
10
77.560104
20
148.075449
11
75.875309
21
151.587456
0
LINE
8
Layer 1
10
75.875309
20
151.587456
11
75.023555
21
153.813113
0
LINE
8
Layer 1
10
75.023555
20
153.813113
11
74.361810
21
155.942990
0
LINE
8
Layer 1
10
74.361810
20
155.942990
11
74.017263
21
157.509845
0
LINE
8
Layer 1
10
74.017263
20
157.509845
11
74.003686
21
157.936125
0
LINE
8
Layer 1
10
74.003686
20
157.936125
11
74.117104
21
158.046433
0
LINE
8
Layer 1
10
74.117104
20
158.046433
11
81.784266
21
155.518736
0
LINE
8
Layer 1
10
81.784266
20
155.518736
11
94.358672
21
151.556568
0
LINE
8
Layer 1
10
94.358672
20
151.556568
11
104.261274
21
148.845412
0
LINE
8
Layer 1
10
104.261274
20
148.845412
11
108.499093
21
147.888740
0
LINE
8
Layer 1
10
108.499093
20
147.888740
11
112.415094
21
147.160551
0
LINE
8
Layer 1
10
112.415094
20
147.160551
11
116.124655
21
146.632756
0
LINE
8
Layer 1
10
116.124655
20
146.632756
11
119.743155
21
146.277265
0
LINE
8
Layer 1
10
119.743155
20
146.277265
11
125.426272
21
145.681792
0
LINE
8
Layer 1
10
125.426272
20
145.681792
11
129.825524
21
144.823049
0
LINE
8
Layer 1
10
129.825524
20
144.823049
11
131.665811
21
144.262766
0
LINE
8
Layer 1
10
131.665811
20
144.262766
11
133.331664
21
143.598041
0
LINE
8
Layer 1
10
133.331664
20
143.598041
11
134.871927
21
142.816000
0
LINE
8
Layer 1
10
134.871927
20
142.816000
11
136.335445
21
141.903769
0
LINE
8
Layer 1
10
136.335445
20
141.903769
11
137.590626
21
141.079809
0
LINE
8
Layer 1
10
137.590626
20
141.079809
11
138.496924
21
140.619787
0
LINE
8
Layer 1
10
138.496924
20
140.619787
11
139.376669
21
140.401239
0
LINE
8
Layer 1
10
139.376669
20
140.401239
11
140.552190
21
140.301703
0
LINE
8
Layer 1
10
140.552190
20
140.301703
11
142.010484
21
140.128502
0
LINE
8
Layer 1
10
142.010484
20
140.128502
11
143.106571
21
139.755170
0
LINE
8
Layer 1
10
143.106571
20
139.755170
11
143.967377
21
139.116038
0
LINE
8
Layer 1
10
143.967377
20
139.116038
11
144.719822
21
138.145439
0
LINE
8
Layer 1
10
144.719822
20
138.145439
11
145.223909
21
137.518792
0
LINE
8
Layer 1
10
145.223909
20
137.518792
11
145.643242
21
137.251802
0
LINE
8
Layer 1
10
145.643242
20
137.251802
11
146.627699
21
136.951848
0
LINE
8
Layer 1
10
146.627699
20
136.951848
11
148.198875
21
136.223159
0
LINE
8
Layer 1
10
148.198875
20
136.223159
11
151.469666
21
134.304873
0
LINE
8
Layer 1
10
151.469666
20
134.304873
11
153.122985
21
132.989149
0
LINE
8
Layer 1
10
153.122985
20
132.989149
11
154.682176
21
131.485288
0
LINE
8
Layer 1
10
154.682176
20
131.485288
11
156.115270
21
129.840959
0
LINE
8
Layer 1
10
156.115270
20
129.840959
11
157.390301
21
128.103833
0
LINE
8
Layer 1
10
157.390301
20
128.103833
11
158.475302
21
126.321582
0
LINE
8
Layer 1
10
158.475302
20
126.321582
11
159.338305
21
124.541875
0
LINE
8
Layer 1
10
159.338305
20
124.541875
11
159.947344
21
122.812384
0
LINE
8
Layer 1
10
159.947344
20
122.812384
11
160.270452
21
121.180778
0
LINE
8
Layer 1
10
160.270452
20
121.180778
11
160.466027
21
119.372848
0
LINE
8
Layer 1
10
160.466027
20
119.372848
11
159.154591
21
119.558000
0
LINE
8
Layer 1
10
159.154591
20
119.558000
11
156.643711
21
119.908661
0
LINE
8
Layer 1
10
156.643711
20
119.908661
11
155.444266
21
120.074171
0
LINE
8
Layer 1
10
155.444266
20
120.074171
11
154.184240
21
118.016949
0
LINE
8
Layer 1
10
154.184240
20
118.016949
11
151.691022
21
114.271516
0
LINE
8
Layer 1
10
151.691022
20
114.271516
11
149.141959
21
111.076768
0
LINE
8
Layer 1
10
149.141959
20
111.076768
11
146.562666
21
108.461723
0
LINE
8
Layer 1
10
146.562666
20
108.461723
11
143.978757
21
106.455396
0
LINE
8
Layer 1
10
143.978757
20
106.455396
11
141.820130
21
104.921471
0
LINE
8
Layer 1
10
141.820130
20
104.921471
11
144.014266
21
105.240596
0
LINE
8
Layer 1
10
144.014266
20
105.240596
11
149.675395
21
106.129164
0
LINE
8
Layer 1
10
149.675395
20
106.129164
11
155.303155
21
106.743952
0
LINE
8
Layer 1
10
155.303155
20
106.743952
11
159.551302
21
107.185222
0
LINE
8
Layer 1
10
159.551302
20
107.185222
11
160.635469
21
107.433608
0
LINE
8
Layer 1
10
160.635469
20
107.433608
11
161.572521
21
107.791778
0
LINE
8
Layer 1
10
161.572521
20
107.791778
11
162.620777
21
108.248676
0
LINE
8
Layer 1
10
162.620777
20
108.248676
11
162.449860
21
110.850657
0
LINE
8
Layer 1
10
162.449860
20
110.850657
11
162.522998
21
113.795739
0
LINE
8
Layer 1
10
162.522998
20
113.795739
11
162.766003
21
115.151517
0
LINE
8
Layer 1
10
162.766003
20
115.151517
11
163.145744
21
116.427006
0
LINE
8
Layer 1
10
163.145744
20
116.427006
11
163.661557
21
117.620371
0
LINE
8
Layer 1
10
163.661557
20
117.620371
11
164.312774
21
118.729776
0
LINE
8
Layer 1
10
164.312774
20
118.729776
11
165.098730
21
119.753388
0
LINE
8
Layer 1
10
165.098730
20
119.753388
11
166.018760
21
120.689370
0
LINE
8
Layer 1
10
166.018760
20
120.689370
11
166.993653
21
121.478954
0
LINE
8
Layer 1
10
166.993653
20
121.478954
11
167.956320
21
122.045493
0
LINE
8
Layer 1
10
167.956320
20
122.045493
11
169.010751
21
122.438454
0
LINE
8
Layer 1
10
169.010751
20
122.438454
11
170.260933
21
122.707301
0
LINE
8
Layer 1
10
170.260933
20
122.707301
11
171.588690
21
123.171670
0
LINE
8
Layer 1
10
171.588690
20
123.171670
11
173.083155
21
124.384452
0
LINE
8
Layer 1
10
173.083155
20
124.384452
11
174.638839
21
125.725189
0
LINE
8
Layer 1
10
174.638839
20
125.725189
11
176.136898
21
126.743707
0
LINE
8
Layer 1
10
176.136898
20
126.743707
11
177.574159
21
127.439507
0
LINE
8
Layer 1
10
177.574159
20
127.439507
11
178.947445
21
127.812091
0
LINE
8
Layer 1
10
178.947445
20
127.812091
11
180.253584
21
127.860957
0
LINE
8
Layer 1
10
180.253584
20
127.860957
11
181.489401
21
127.585608
0
LINE
8
Layer 1
10
181.489401
20
127.585608
11
182.651720
21
126.985544
0
LINE
8
Layer 1
10
182.651720
20
126.985544
11
183.737369
21
126.060265
0
LINE
8
Layer 1
10
183.737369
20
126.060265
11
184.830016
21
125.097289
0
LINE
8
Layer 1
10
184.830016
20
125.097289
11
185.222845
21
124.952724
0
LINE
8
Layer 1
10
185.222845
20
124.952724
11
185.604472
21
124.980051
0
LINE
8
Layer 1
10
185.604472
20
124.980051
11
186.438967
21
125.006871
0
LINE
8
Layer 1
10
186.438967
20
125.006871
11
187.511735
21
124.800931
0
LINE
8
Layer 1
10
187.511735
20
124.800931
11
188.613658
21
124.418783
0
LINE
8
Layer 1
10
188.613658
20
124.418783
11
189.535618
21
123.916976
0
LINE
8
Layer 1
10
189.535618
20
123.916976
11
190.300309
21
123.194822
0
LINE
8
Layer 1
10
190.300309
20
123.194822
11
191.023412
21
122.252822
0
LINE
8
Layer 1
10
191.023412
20
122.252822
11
191.770897
21
121.352110
0
LINE
8
Layer 1
10
191.770897
20
121.352110
11
192.172356
21
121.194126
0
LINE
8
Layer 1
10
192.172356
20
121.194126
11
192.710204
21
121.154263
0
LINE
8
Layer 1
10
192.710204
20
121.154263
11
194.223205
21
120.930151
0
LINE
8
Layer 1
10
194.223205
20
120.930151
11
195.483490
21
120.262650
0
LINE
8
Layer 1
10
195.483490
20
120.262650
11
196.481811
21
119.159010
0
LINE
8
Layer 1
10
196.481811
20
119.159010
11
197.208919
21
117.626486
0
LINE
8
Layer 1
10
197.208919
20
117.626486
11
197.530117
21
116.394095
0
LINE
8
Layer 1
10
197.530117
20
116.394095
11
197.679574
21
115.100690
0
LINE
8
Layer 1
10
197.679574
20
115.100690
11
197.655447
21
113.736747
0
LINE
8
Layer 1
10
197.655447
20
113.736747
11
197.455894
21
112.292746
0
LINE
8
Layer 1
10
197.455894
20
112.292746
11
196.523133
21
109.126481
0
LINE
8
Layer 1
10
196.523133
20
109.126481
11
194.866548
21
105.525722
0
LINE
8
Layer 1
10
194.866548
20
105.525722
11
193.407010
21
103.210101
0
LINE
8
Layer 1
10
193.407010
20
103.210101
11
191.559721
21
101.281081
0
LINE
8
Layer 1
10
191.559721
20
101.281081
11
189.024881
21
99.483724
0
LINE
8
Layer 1
10
189.024881
20
99.483724
11
185.502688
21
97.563091
0
LINE
8
Layer 1
10
185.502688
20
97.563091
11
183.776588
21
96.513311
0
LINE
8
Layer 1
10
183.776588
20
96.513311
11
181.997288
21
95.050800
0
LINE
8
Layer 1
10
181.997288
20
95.050800
11
180.092271
21
93.108542
0
LINE
8
Layer 1
10
180.092271
20
93.108542
11
177.989024
21
90.619526
0
LINE
8
Layer 1
10
177.989024
20
90.619526
11
174.976642
21
87.044214
0
LINE
8
Layer 1
10
174.976642
20
87.044214
11
171.905483
21
83.775811
0
LINE
8
Layer 1
10
171.905483
20
83.775811
11
168.788671
21
80.824518
0
LINE
8
Layer 1
10
168.788671
20
80.824518
11
165.639332
21
78.200538
0
LINE
8
Layer 1
10
165.639332
20
78.200538
11
162.470591
21
75.914071
0
LINE
8
Layer 1
10
162.470591
20
75.914071
11
159.295574
21
73.975318
0
LINE
8
Layer 1
10
159.295574
20
73.975318
11
156.127406
21
72.394480
0
LINE
8
Layer 1
10
156.127406
20
72.394480
11
152.979213
21
71.181759
0
LINE
8
Layer 1
10
152.979213
20
71.181759
11
151.289060
21
70.466689
0
LINE
8
Layer 1
10
151.289060
20
70.466689
11
150.817244
21
70.028378
0
LINE
8
Layer 1
10
150.817244
20
70.028378
11
150.395074
21
69.398777
0
LINE
8
Layer 1
10
150.395074
20
69.398777
11
149.293759
21
67.945870
0
LINE
8
Layer 1
10
149.293759
20
67.945870
11
147.600732
21
66.139580
0
LINE
8
Layer 1
10
147.600732
20
66.139580
11
145.709674
21
64.372422
0
LINE
8
Layer 1
10
145.709674
20
64.372422
11
144.014266
21
63.036910
0
LINE
8
Layer 1
10
144.014266
20
63.036910
11
140.545498
21
60.961282
0
LINE
8
Layer 1
10
140.545498
20
60.961282
11
137.099822
21
59.332032
0
LINE
8
Layer 1
10
137.099822
20
59.332032
11
134.418711
21
58.168182
0
LINE
8
Layer 1
10
134.418711
20
58.168182
11
133.430933
21
57.673536
0
LINE
8
Layer 1
10
133.430933
20
57.673536
11
135.265377
21
57.821548
0
LINE
8
Layer 1
10
135.265377
20
57.821548
11
142.885377
21
58.820806
0
LINE
8
Layer 1
10
142.885377
20
58.820806
11
151.241630
21
60.266978
0
LINE
8
Layer 1
10
151.241630
20
60.266978
11
158.457945
21
61.967438
0
LINE
8
Layer 1
10
158.457945
20
61.967438
11
164.490375
21
63.898674
0
LINE
8
Layer 1
10
164.490375
20
63.898674
11
167.048899
21
64.943485
0
LINE
8
Layer 1
10
167.048899
20
64.943485
11
169.294971
21
66.037172
0
LINE
8
Layer 1
10
169.294971
20
66.037172
11
171.223098
21
67.176797
0
LINE
8
Layer 1
10
171.223098
20
67.176797
11
172.827786
21
68.359420
0
LINE
8
Layer 1
10
172.827786
20
68.359420
11
174.103543
21
69.582102
0
LINE
8
Layer 1
10
174.103543
20
69.582102
11
175.044874
21
70.841904
0
LINE
8
Layer 1
10
175.044874
20
70.841904
11
175.646286
21
72.135887
0
LINE
8
Layer 1
10
175.646286
20
72.135887
11
175.902285
21
73.461111
0
LINE
8
Layer 1
10
175.902285
20
73.461111
11
175.807379
21
74.814638
0
LINE
8
Layer 1
10
175.807379
20
74.814638
11
175.356074
21
76.193529
0
LINE
8
Layer 1
10
175.356074
20
76.193529
11
174.626884
21
77.408445
0
LINE
8
Layer 1
10
174.626884
20
77.408445
11
173.627675
21
78.668745
0
LINE
8
Layer 1
10
173.627675
20
78.668745
11
172.838417
21
79.633890
0
LINE
8
Layer 1
10
172.838417
20
79.633890
11
172.613997
21
80.139179
0
LINE
8
Layer 1
10
172.613997
20
80.139179
11
173.399451
21
80.207017
0
LINE
8
Layer 1
10
173.399451
20
80.207017
11
174.911416
21
79.940875
0
LINE
8
Layer 1
10
174.911416
20
79.940875
11
176.693254
21
79.446224
0
LINE
8
Layer 1
10
176.693254
20
79.446224
11
178.288326
21
78.828539
0
LINE
8
Layer 1
10
178.288326
20
78.828539
11
180.006003
21
77.799268
0
LINE
8
Layer 1
10
180.006003
20
77.799268
11
181.525644
21
76.560451
0
LINE
8
Layer 1
10
181.525644
20
76.560451
11
182.293505
21
75.696790
0
LINE
8
Layer 1
10
182.293505
20
75.696790
11
182.871768
21
74.831460
0
LINE
8
Layer 1
10
182.871768
20
74.831460
11
183.260648
21
73.964749
0
LINE
8
Layer 1
10
183.260648
20
73.964749
11
183.460357
21
73.096942
0
LINE
8
Layer 1
10
183.460357
20
73.096942
11
183.471110
21
72.228328
0
LINE
8
Layer 1
10
183.471110
20
72.228328
11
183.293122
21
71.359191
0
LINE
8
Layer 1
10
183.293122
20
71.359191
11
182.926605
21
70.489819
0
LINE
8
Layer 1
10
182.926605
20
70.489819
11
182.371775
21
69.620499
0
LINE
8
Layer 1
10
182.371775
20
69.620499
11
180.698028
21
67.883161
0
LINE
8
Layer 1
10
180.698028
20
67.883161
11
178.273593
21
66.149468
0
LINE
8
Layer 1
10
178.273593
20
66.149468
11
175.100183
21
64.421715
0
LINE
8
Layer 1
10
175.100183
20
64.421715
11
171.179510
21
62.702194
0
LINE
8
Layer 1
10
171.179510
20
62.702194
11
166.188327
21
60.926139
0
LINE
8
Layer 1
10
166.188327
20
60.926139
11
160.582385
21
59.302874
0
LINE
8
Layer 1
10
160.582385
20
59.302874
11
154.600523
21
57.873905
0
LINE
8
Layer 1
10
154.600523
20
57.873905
11
148.481578
21
56.680739
0
LINE
8
Layer 1
10
148.481578
20
56.680739
11
142.464388
21
55.764879
0
LINE
8
Layer 1
10
142.464388
20
55.764879
11
136.787793
21
55.167833
0
LINE
8
Layer 1
10
136.787793
20
55.167833
11
131.690629
21
54.931105
0
LINE
8
Layer 1
10
131.690629
20
54.931105
11
127.411737
21
55.096201
0
LINE
8
Layer 1
10
127.411737
20
55.096201
11
124.214763
21
55.416597
0
LINE
8
Layer 1
10
124.214763
20
55.416597
11
122.595465
21
53.917413
0
LINE
8
Layer 1
10
122.595465
20
53.917413
11
120.084683
21
51.960729
0
LINE
8
Layer 1
10
120.084683
20
51.960729
11
117.024445
21
50.189007
0
LINE
8
Layer 1
10
117.024445
20
50.189007
11
113.564127
21
48.677460
0
LINE
8
Layer 1
10
113.564127
20
48.677460
11
109.853106
21
47.501305
0
LINE
8
Layer 1
10
109.853106
20
47.501305
11
107.441944
21
46.875119
0
LINE
8
Layer 1
10
107.441944
20
46.875119
11
106.868383
21
45.138580
0
LINE
8
Layer 1
10
106.868383
20
45.138580
11
106.074351
21
42.908152
0
LINE
8
Layer 1
10
106.074351
20
42.908152
11
106.037193
21
42.639762
0
LINE
8
Layer 1
10
106.037193
20
42.639762
11
106.364194
21
42.492529
0
LINE
8
Layer 1
10
106.364194
20
42.492529
11
108.917960
21
42.424110
0
LINE
8
Layer 1
10
108.917960
20
42.424110
11
111.925090
21
42.565055
0
LINE
8
Layer 1
10
111.925090
20
42.565055
11
114.665525
21
42.957985
0
LINE
8
Layer 1
10
114.665525
20
42.957985
11
117.109504
21
43.588220
0
LINE
8
Layer 1
10
117.109504
20
43.588220
11
119.227269
21
44.441081
0
LINE
8
Layer 1
10
119.227269
20
44.441081
11
120.989058
21
45.501888
0
LINE
8
Layer 1
10
120.989058
20
45.501888
11
122.365113
21
46.755960
0
LINE
8
Layer 1
10
122.365113
20
46.755960
11
123.325672
21
48.188619
0
LINE
8
Layer 1
10
123.325672
20
48.188619
11
123.840977
21
49.785185
0
LINE
8
Layer 1
10
123.840977
20
49.785185
11
124.081588
21
50.701372
0
LINE
8
Layer 1
10
124.081588
20
50.701372
11
124.271641
21
50.677639
0
LINE
8
Layer 1
10
124.271641
20
50.677639
11
124.597753
21
50.406176
0
LINE
8
Layer 1
10
124.597753
20
50.406176
11
125.291216
21
49.607461
0
LINE
8
Layer 1
10
125.291216
20
49.607461
11
125.756230
21
48.697925
0
LINE
8
Layer 1
10
125.756230
20
48.697925
11
125.995861
21
47.711861
0
LINE
8
Layer 1
10
125.995861
20
47.711861
11
126.013176
21
46.683562
0
LINE
8
Layer 1
10
126.013176
20
46.683562
11
125.811241
21
45.647321
0
LINE
8
Layer 1
10
125.811241
20
45.647321
11
125.393122
21
44.637432
0
LINE
8
Layer 1
10
125.393122
20
44.637432
11
124.761887
21
43.688187
0
LINE
8
Layer 1
10
124.761887
20
43.688187
11
123.920603
21
42.833880
0
LINE
8
Layer 1
10
123.920603
20
42.833880
11
122.598400
21
41.907603
0
LINE
8
Layer 1
10
122.598400
20
41.907603
11
120.951788
21
41.072193
0
LINE
8
Layer 1
10
120.951788
20
41.072193
11
119.002815
21
40.333105
0
LINE
8
Layer 1
10
119.002815
20
40.333105
11
116.773527
21
39.695796
0
LINE
8
Layer 1
10
116.773527
20
39.695796
11
114.285973
21
39.165722
0
LINE
8
Layer 1
10
114.285973
20
39.165722
11
111.562199
21
38.748340
0
LINE
8
Layer 1
10
111.562199
20
38.748340
11
105.494181
21
38.273479
0
LINE
8
Layer 1
10
105.494181
20
38.273479
11
100.351649
21
38.094531
0
LINE
8
Layer 1
10
100.351649
20
38.094531
11
99.832962
21
37.131385
0
LINE
8
Layer 1
10
99.832962
20
37.131385
11
98.851049
21
35.816218
0
LINE
8
Layer 1
10
98.851049
20
35.816218
11
97.340721
21
34.364387
0
LINE
8
Layer 1
10
97.340721
20
34.364387
11
95.559492
21
32.996495
0
LINE
8
Layer 1
10
95.559492
20
32.996495
11
93.764882
21
31.933145
0
LINE
8
Layer 1
10
93.764882
20
31.933145
11
91.310457
21
30.930527
0
LINE
8
Layer 1
10
91.310457
20
30.930527
11
88.502617
21
30.116835
0
LINE
8
Layer 1
10
88.502617
20
30.116835
11
85.523078
21
29.535860
0
LINE
8
Layer 1
10
85.523078
20
29.535860
11
82.553559
21
29.231392
0
LINE
8
Layer 1
10
82.553559
20
29.231392
11
79.371738
21
29.065268
0
LINE
8
Layer 1
10
79.371738
20
29.065268
11
78.930356
21
28.135123
0
LINE
8
Layer 1
10
78.930356
20
28.135123
11
78.231582
21
27.108125
0
LINE
8
Layer 1
10
78.231582
20
27.108125
11
77.129402
21
25.952354
0
LINE
8
Layer 1
10
77.129402
20
25.952354
11
75.841181
21
24.871219
0
LINE
8
Layer 1
10
75.841181
20
24.871219
11
74.584286
21
24.068128
0
LINE
8
Layer 1
10
74.584286
20
24.068128
11
72.531908
21
23.179309
0
LINE
8
Layer 1
10
72.531908
20
23.179309
11
70.303701
21
22.529288
0
LINE
8
Layer 1
10
70.303701
20
22.529288
11
67.835365
21
22.103335
0
LINE
8
Layer 1
10
67.835365
20
22.103335
11
65.062600
21
21.886720
0
LINE
8
Layer 1
10
65.062600
20
21.886720
11
61.323155
21
21.738409
0
LINE
8
Layer 1
10
61.323155
20
21.738409
11
61.323155
21
20.960455
0
LINE
8
Layer 1
10
61.323155
20
20.960455
11
61.053865
21
19.976914
0
LINE
8
Layer 1
10
61.053865
20
19.976914
11
60.353077
21
18.772781
0
LINE
8
Layer 1
10
60.353077
20
18.772781
11
59.381411
21
17.578404
0
LINE
8
Layer 1
10
59.381411
20
17.578404
11
58.299488
21
16.624133
0
LINE
8
Layer 1
10
58.299488
20
16.624133
11
56.955252
21
15.928509
0
LINE
8
Layer 1
10
56.955252
20
15.928509
11
55.337625
21
15.472224
0
LINE
8
Layer 1
10
55.337625
20
15.472224
11
53.564988
21
15.151645
0
LINE
8
Layer 1
10
53.564988
20
15.151645
11
53.375360
21
13.825971
0
LINE
8
Layer 1
10
53.375360
20
13.825971
11
53.102572
21
12.660296
0
LINE
8
Layer 1
10
53.102572
20
12.660296
11
52.636782
21
11.611351
0
LINE
8
Layer 1
10
52.636782
20
11.611351
11
51.982039
21
10.682368
0
LINE
8
Layer 1
10
51.982039
20
10.682368
11
51.142392
21
9.876579
0
LINE
8
Layer 1
10
51.142392
20
9.876579
11
50.121892
21
9.197219
0
LINE
8
Layer 1
10
50.121892
20
9.197219
11
48.924586
21
8.647519
0
LINE
8
Layer 1
10
48.924586
20
8.647519
11
47.554525
21
8.230713
0
LINE
8
Layer 1
10
47.554525
20
8.230713
11
46.015758
21
7.950033
0
LINE
8
Layer 1
10
46.015758
20
7.950033
11
44.676676
21
7.750632
0
LINE
8
Layer 1
10
44.676676
20
7.750632
11
43.812879
21
7.499277
0
LINE
8
Layer 1
10
43.812879
20
7.499277
11
43.114872
21
7.058887
0
LINE
8
Layer 1
10
43.114872
20
7.058887
11
42.273155
21
6.292382
0
LINE
8
Layer 1
10
42.273155
20
6.292382
11
40.863669
21
5.057712
0
LINE
8
Layer 1
10
40.863669
20
5.057712
11
39.611553
21
4.338103
0
LINE
8
Layer 1
10
39.611553
20
4.338103
11
38.173293
21
3.998288
0
LINE
8
Layer 1
10
38.173293
20
3.998288
11
36.205377
21
3.902995
0
LINE
8
Layer 1
10
36.205377
20
3.902995
11
33.788607
21
3.762660
0
LINE
8
Layer 1
10
33.788607
20
3.762660
11
32.267841
21
3.216808
0
LINE
8
Layer 1
10
32.267841
20
3.216808
11
30.707733
21
2.502697
0
LINE
8
Layer 1
10
30.707733
20
2.502697
11
28.927485
21
1.884101
0
LINE
8
Layer 1
10
28.927485
20
1.884101
11
24.908481
21
0.966359
0
LINE
8
Layer 1
10
24.908481
20
0.966359
11
20.614652
21
0.529392
0
LINE
8
Layer 1
10
20.614652
20
0.529392
11
18.490872
21
0.511764
0
LINE
8
Layer 1
10
18.490872
20
0.511764
11
16.449820
21
0.639008
0
LINE
8
Layer 1
10
16.449820
20
0.639008
11
16.449820
21
0.639008
0
LINE
8
Layer 1
10
29.964061
20
5.699362
11
30.108636
21
5.855326
0
LINE
8
Layer 1
10
30.108636
20
5.855326
11
30.088842
21
6.019246
0
LINE
8
Layer 1
10
30.088842
20
6.019246
11
29.650970
21
6.330491
0
LINE
8
Layer 1
10
29.650970
20
6.330491
11
28.840086
21
6.552164
0
LINE
8
Layer 1
10
28.840086
20
6.552164
11
27.845834
21
6.603334
0
LINE
8
Layer 1
10
27.845834
20
6.603334
11
26.713527
21
6.684256
0
LINE
8
Layer 1
10
26.713527
20
6.684256
11
25.624145
21
6.976308
0
LINE
8
Layer 1
10
25.624145
20
6.976308
11
24.501226
21
7.391824
0
LINE
8
Layer 1
10
24.501226
20
7.391824
11
24.401814
21
7.332743
0
LINE
8
Layer 1
10
24.401814
20
7.332743
11
24.511080
21
7.107479
0
LINE
8
Layer 1
10
24.511080
20
7.107479
11
26.150514
21
6.122458
0
LINE
8
Layer 1
10
26.150514
20
6.122458
11
27.269849
21
5.703976
0
LINE
8
Layer 1
10
27.269849
20
5.703976
11
28.346849
21
5.486388
0
LINE
8
Layer 1
10
28.346849
20
5.486388
11
29.279068
21
5.481062
0
LINE
8
Layer 1
10
29.279068
20
5.481062
11
29.964061
21
5.699362
0
LINE
8
Layer 1
10
29.964061
20
5.699362
11
29.964061
21
5.699362
0
LINE
8
Layer 1
10
38.187757
20
7.501788
11
39.082084
21
8.047699
0
LINE
8
Layer 1
10
39.082084
20
8.047699
11
39.512779
21
8.450916
0
LINE
8
Layer 1
10
39.512779
20
8.450916
11
39.475343
21
8.621422
0
LINE
8
Layer 1
10
39.475343
20
8.621422
11
39.270472
21
8.761449
0
LINE
8
Layer 1
10
39.270472
20
8.761449
11
38.539845
21
8.931490
0
LINE
8
Layer 1
10
38.539845
20
8.931490
11
37.683737
21
8.923892
0
LINE
8
Layer 1
10
37.683737
20
8.923892
11
37.064990
21
8.701509
0
LINE
8
Layer 1
10
37.064990
20
8.701509
11
36.217423
21
8.232411
0
LINE
8
Layer 1
10
36.217423
20
8.232411
11
34.945629
21
7.911529
0
LINE
8
Layer 1
10
34.945629
20
7.911529
11
33.373046
21
7.759390
0
LINE
8
Layer 1
10
33.373046
20
7.759390
11
31.623113
21
7.796522
0
LINE
8
Layer 1
10
31.623113
20
7.796522
11
30.069469
21
7.868091
0
LINE
8
Layer 1
10
30.069469
20
7.868091
11
29.527192
21
7.793931
0
LINE
8
Layer 1
10
29.527192
20
7.793931
11
30.221013
21
7.469385
0
LINE
8
Layer 1
10
30.221013
20
7.469385
11
31.481117
21
7.177364
0
LINE
8
Layer 1
10
31.481117
20
7.177364
11
34.679323
21
6.873311
0
LINE
8
Layer 1
10
34.679323
20
6.873311
11
36.757416
21
6.983777
0
LINE
8
Layer 1
10
36.757416
20
6.983777
11
38.187757
21
7.501788
0
LINE
8
Layer 1
10
38.187757
20
7.501788
11
38.187757
21
7.501788
0
LINE
8
Layer 1
10
46.647190
20
11.737639
11
47.809913
21
12.479734
0
LINE
8
Layer 1
10
47.809913
20
12.479734
11
48.609315
21
13.396831
0
LINE
8
Layer 1
10
48.609315
20
13.396831
11
49.050359
21
14.496998
0
LINE
8
Layer 1
10
49.050359
20
14.496998
11
49.138007
21
15.788304
0
LINE
8
Layer 1
10
49.138007
20
15.788304
11
49.046488
21
17.243453
0
LINE
8
Layer 1
10
49.046488
20
17.243453
11
50.457600
21
17.428199
0
LINE
8
Layer 1
10
50.457600
20
17.428199
11
52.118013
21
17.817546
0
LINE
8
Layer 1
10
52.118013
20
17.817546
11
53.411041
21
18.527146
0
LINE
8
Layer 1
10
53.411041
20
18.527146
11
54.392793
21
19.600991
0
LINE
8
Layer 1
10
54.392793
20
19.600991
11
55.119380
21
21.083070
0
LINE
8
Layer 1
10
55.119380
20
21.083070
11
55.255856
21
21.705067
0
LINE
8
Layer 1
10
55.255856
20
21.705067
11
55.090243
21
22.099884
0
LINE
8
Layer 1
10
55.090243
20
22.099884
11
54.576323
21
22.308567
0
LINE
8
Layer 1
10
54.576323
20
22.308567
11
53.667877
21
22.372165
0
LINE
8
Layer 1
10
53.667877
20
22.372165
11
52.789595
21
22.237888
0
LINE
8
Layer 1
10
52.789595
20
22.237888
11
52.600426
21
21.991069
0
LINE
8
Layer 1
10
52.600426
20
21.991069
11
52.481141
21
21.558086
0
LINE
8
Layer 1
10
52.481141
20
21.558086
11
52.130192
21
20.727414
0
LINE
8
Layer 1
10
52.130192
20
20.727414
11
51.455862
21
20.077133
0
LINE
8
Layer 1
10
51.455862
20
20.077133
11
50.473833
21
19.609350
0
LINE
8
Layer 1
10
50.473833
20
19.609350
11
49.199787
21
19.326173
0
LINE
8
Layer 1
10
49.199787
20
19.326173
11
47.649404
21
19.229710
0
LINE
8
Layer 1
10
47.649404
20
19.229710
11
45.838365
21
19.322068
0
LINE
8
Layer 1
10
45.838365
20
19.322068
11
43.782351
21
19.605356
0
LINE
8
Layer 1
10
43.782351
20
19.605356
11
41.497044
21
20.081680
0
LINE
8
Layer 1
10
41.497044
20
20.081680
11
39.309822
21
20.491425
0
LINE
8
Layer 1
10
39.309822
20
20.491425
11
39.991152
21
20.050205
0
LINE
8
Layer 1
10
39.991152
20
20.050205
11
41.665977
21
19.339260
0
LINE
8
Layer 1
10
41.665977
20
19.339260
11
45.781101
21
17.970918
0
LINE
8
Layer 1
10
45.781101
20
17.970918
11
48.573512
21
17.157979
0
LINE
8
Layer 1
10
48.573512
20
17.157979
11
48.550030
21
16.584253
0
LINE
8
Layer 1
10
48.550030
20
16.584253
11
48.122149
21
15.574724
0
LINE
8
Layer 1
10
48.122149
20
15.574724
11
47.470095
21
14.480484
0
LINE
8
Layer 1
10
47.470095
20
14.480484
11
46.774097
21
13.652624
0
LINE
8
Layer 1
10
46.774097
20
13.652624
11
45.675756
21
12.896617
0
LINE
8
Layer 1
10
45.675756
20
12.896617
11
44.330993
21
12.447782
0
LINE
8
Layer 1
10
44.330993
20
12.447782
11
42.503054
21
12.258502
0
LINE
8
Layer 1
10
42.503054
20
12.258502
11
39.955182
21
12.281160
0
LINE
8
Layer 1
10
39.955182
20
12.281160
11
37.563463
21
12.304087
0
LINE
8
Layer 1
10
37.563463
20
12.304087
11
36.653433
21
12.176481
0
LINE
8
Layer 1
10
36.653433
20
12.176481
11
38.166558
21
11.562556
0
LINE
8
Layer 1
10
38.166558
20
11.562556
11
40.579822
21
10.987693
0
LINE
8
Layer 1
10
40.579822
20
10.987693
11
42.068866
21
10.908803
0
LINE
8
Layer 1
10
42.068866
20
10.908803
11
43.773983
21
11.031915
0
LINE
8
Layer 1
10
43.773983
20
11.031915
11
45.398862
21
11.320402
0
LINE
8
Layer 1
10
45.398862
20
11.320402
11
46.647190
21
11.737639
0
LINE
8
Layer 1
10
46.647190
20
11.737639
11
46.647190
21
11.737639
0
LINE
8
Layer 1
10
69.619038
20
25.492287
11
71.195597
21
26.155511
0
LINE
8
Layer 1
10
71.195597
20
26.155511
11
72.508886
21
27.036652
0
LINE
8
Layer 1
10
72.508886
20
27.036652
11
73.407724
21
28.009037
0
LINE
8
Layer 1
10
73.407724
20
28.009037
11
73.740933
21
28.945992
0
LINE
8
Layer 1
10
73.740933
20
28.945992
11
73.673226
21
29.428255
0
LINE
8
Layer 1
10
73.673226
20
29.428255
11
73.372232
21
29.735860
0
LINE
8
Layer 1
10
73.372232
20
29.735860
11
71.483155
21
30.136829
0
LINE
8
Layer 1
10
71.483155
20
30.136829
11
70.331456
21
30.159434
0
LINE
8
Layer 1
10
70.331456
20
30.159434
11
70.033833
21
29.928386
0
LINE
8
Layer 1
10
70.033833
20
29.928386
11
69.743848
21
29.467310
0
LINE
8
Layer 1
10
69.743848
20
29.467310
11
69.174975
21
28.739178
0
LINE
8
Layer 1
10
69.174975
20
28.739178
11
68.354684
21
28.181426
0
LINE
8
Layer 1
10
68.354684
20
28.181426
11
67.240773
21
27.772975
0
LINE
8
Layer 1
10
67.240773
20
27.772975
11
65.791040
21
27.492743
0
LINE
8
Layer 1
10
65.791040
20
27.492743
11
64.228759
21
27.371521
0
LINE
8
Layer 1
10
64.228759
20
27.371521
11
62.544706
21
27.413290
0
LINE
8
Layer 1
10
62.544706
20
27.413290
11
58.897671
21
27.966287
0
LINE
8
Layer 1
10
58.897671
20
27.966287
11
55.022710
21
29.112700
0
LINE
8
Layer 1
10
55.022710
20
29.112700
11
51.092600
21
30.813494
0
LINE
8
Layer 1
10
51.092600
20
30.813494
11
47.776488
21
32.362862
0
LINE
8
Layer 1
10
47.776488
20
32.362862
11
48.713703
21
31.617107
0
LINE
8
Layer 1
10
48.713703
20
31.617107
11
50.915431
21
30.199314
0
LINE
8
Layer 1
10
50.915431
20
30.199314
11
55.452933
21
27.612292
0
LINE
8
Layer 1
10
55.452933
20
27.612292
11
59.468700
21
26.044957
0
LINE
8
Layer 1
10
59.468700
20
26.044957
11
61.373511
21
25.518304
0
LINE
8
Layer 1
10
61.373511
20
25.518304
11
63.201348
21
25.164232
0
LINE
8
Layer 1
10
63.201348
20
25.164232
11
64.946014
21
24.983667
0
LINE
8
Layer 1
10
64.946014
20
24.983667
11
66.601315
21
24.977537
0
LINE
8
Layer 1
10
66.601315
20
24.977537
11
68.161054
21
25.146767
0
LINE
8
Layer 1
10
68.161054
20
25.146767
11
69.619038
21
25.492287
0
LINE
8
Layer 1
10
69.619038
20
25.492287
11
69.619038
21
25.492287
0
LINE
8
Layer 1
10
86.582044
20
33.929588
11
88.674016
21
34.589574
0
LINE
8
Layer 1
10
88.674016
20
34.589574
11
90.533155
21
35.353806
0
LINE
8
Layer 1
10
90.533155
20
35.353806
11
91.976710
21
36.166827
0
LINE
8
Layer 1
10
91.976710
20
36.166827
11
93.292158
21
37.065329
0
LINE
8
Layer 1
10
93.292158
20
37.065329
11
94.201945
21
37.840548
0
LINE
8
Layer 1
10
94.201945
20
37.840548
11
94.428516
21
38.283718
0
LINE
8
Layer 1
10
94.428516
20
38.283718
11
92.605228
21
38.463152
0
LINE
8
Layer 1
10
92.605228
20
38.463152
11
91.027059
21
38.297029
0
LINE
8
Layer 1
10
91.027059
20
38.297029
11
89.698635
21
37.499282
0
LINE
8
Layer 1
10
89.698635
20
37.499282
11
88.513579
21
36.726709
0
LINE
8
Layer 1
10
88.513579
20
36.726709
11
87.092110
21
36.058540
0
LINE
8
Layer 1
10
87.092110
20
36.058540
11
85.348090
21
35.460313
0
LINE
8
Layer 1
10
85.348090
20
35.460313
11
83.195377
21
34.897568
0
LINE
8
Layer 1
10
83.195377
20
34.897568
11
80.352253
21
34.480158
0
LINE
8
Layer 1
10
80.352253
20
34.480158
11
75.857600
21
34.370930
0
LINE
8
Layer 1
10
75.857600
20
34.370930
11
69.366488
21
34.555128
0
LINE
8
Layer 1
10
69.366488
20
34.555128
11
67.955377
21
34.739323
0
LINE
8
Layer 1
10
67.955377
20
34.739323
11
69.225377
21
34.349123
0
LINE
8
Layer 1
10
69.225377
20
34.349123
11
71.023320
21
33.908673
0
LINE
8
Layer 1
10
71.023320
20
33.908673
11
73.140566
21
33.573932
0
LINE
8
Layer 1
10
73.140566
20
33.573932
11
77.906725
21
33.231876
0
LINE
8
Layer 1
10
77.906725
20
33.231876
11
82.671377
21
33.343559
0
LINE
8
Layer 1
10
82.671377
20
33.343559
11
84.786738
21
33.575993
0
LINE
8
Layer 1
10
84.786738
20
33.575993
11
86.582044
21
33.929588
0
LINE
8
Layer 1
10
86.582044
20
33.929588
11
86.582044
21
33.929588
0
LINE
8
Layer 1
10
92.508711
20
41.250571
11
95.463152
21
42.258864
0
LINE
8
Layer 1
10
95.463152
20
42.258864
11
98.109885
21
43.554232
0
LINE
8
Layer 1
10
98.109885
20
43.554232
11
100.181738
21
44.982462
0
LINE
8
Layer 1
10
100.181738
20
44.982462
11
100.918592
21
45.698208
0
LINE
8
Layer 1
10
100.918592
20
45.698208
11
101.411535
21
46.389338
0
LINE
8
Layer 1
10
101.411535
20
46.389338
11
101.496207
21
46.659289
0
LINE
8
Layer 1
10
101.496207
20
46.659289
11
101.329955
21
46.835459
0
LINE
8
Layer 1
10
101.329955
20
46.835459
11
99.851193
21
47.080842
0
LINE
8
Layer 1
10
99.851193
20
47.080842
11
98.025410
21
47.276365
0
LINE
8
Layer 1
10
98.025410
20
47.276365
11
96.576735
21
45.973881
0
LINE
8
Layer 1
10
96.576735
20
45.973881
11
95.484632
21
45.117343
0
LINE
8
Layer 1
10
95.484632
20
45.117343
11
94.192633
21
44.321683
0
LINE
8
Layer 1
10
94.192633
20
44.321683
11
91.121265
21
42.953338
0
LINE
8
Layer 1
10
91.121265
20
42.953338
11
87.587259
21
41.949518
0
LINE
8
Layer 1
10
87.587259
20
41.949518
11
83.815247
21
41.390895
0
LINE
8
Layer 1
10
83.815247
20
41.390895
11
81.078711
21
41.124923
0
LINE
8
Layer 1
10
81.078711
20
41.124923
11
79.244266
21
40.984698
0
LINE
8
Layer 1
10
79.244266
20
40.984698
11
77.833155
21
40.923055
0
LINE
8
Layer 1
10
77.833155
20
40.923055
11
78.962044
21
40.706082
0
LINE
8
Layer 1
10
78.962044
20
40.706082
11
81.251572
21
40.575353
0
LINE
8
Layer 1
10
81.251572
20
40.575353
11
85.170933
21
40.565730
0
LINE
8
Layer 1
10
85.170933
20
40.565730
11
89.703242
21
40.745515
0
LINE
8
Layer 1
10
89.703242
20
40.745515
11
92.508711
21
41.250571
0
LINE
8
Layer 1
10
92.508711
20
41.250571
11
92.508711
21
41.250571
0
LINE
8
Layer 1
10
106.478711
20
51.479131
11
110.599192
21
52.297243
0
LINE
8
Layer 1
10
110.599192
20
52.297243
11
114.220433
21
53.458389
0
LINE
8
Layer 1
10
114.220433
20
53.458389
11
116.580792
21
54.697208
0
LINE
8
Layer 1
10
116.580792
20
54.697208
11
117.416702
21
55.273252
0
LINE
8
Layer 1
10
117.416702
20
55.273252
11
117.662043
21
55.596118
0
LINE
8
Layer 1
10
117.662043
20
55.596118
11
115.823560
21
55.956477
0
LINE
8
Layer 1
10
115.823560
20
55.956477
11
114.117074
21
56.037343
0
LINE
8
Layer 1
10
114.117074
20
56.037343
11
112.477632
21
55.390296
0
LINE
8
Layer 1
10
112.477632
20
55.390296
11
110.502434
21
54.591136
0
LINE
8
Layer 1
10
110.502434
20
54.591136
11
107.996686
21
53.858933
0
LINE
8
Layer 1
10
107.996686
20
53.858933
11
105.197352
21
53.253438
0
LINE
8
Layer 1
10
105.197352
20
53.253438
11
102.341398
21
52.834405
0
LINE
8
Layer 1
10
102.341398
20
52.834405
11
98.510646
21
52.643504
0
LINE
8
Layer 1
10
98.510646
20
52.643504
11
93.435265
21
52.668333
0
LINE
8
Layer 1
10
93.435265
20
52.668333
11
88.273390
21
52.881918
0
LINE
8
Layer 1
10
88.273390
20
52.881918
11
84.183155
21
53.257289
0
LINE
8
Layer 1
10
84.183155
20
53.257289
11
79.808711
21
53.837758
0
LINE
8
Layer 1
10
79.808711
20
53.837758
11
78.759368
21
53.887482
0
LINE
8
Layer 1
10
78.759368
20
53.887482
11
79.237344
21
53.648595
0
LINE
8
Layer 1
10
79.237344
20
53.648595
11
83.889683
21
52.578294
0
LINE
8
Layer 1
10
83.889683
20
52.578294
11
89.799266
21
51.631293
0
LINE
8
Layer 1
10
89.799266
20
51.631293
11
95.685934
21
51.125039
0
LINE
8
Layer 1
10
95.685934
20
51.125039
11
101.321734
21
51.070621
0
LINE
8
Layer 1
10
101.321734
20
51.070621
11
106.478711
21
51.479131
0
LINE
8
Layer 1
10
106.478711
20
51.479131
11
106.478711
21
51.479131
0
LINE
8
Layer 1
10
123.976488
20
58.903269
11
126.946992
21
59.488976
0
LINE
8
Layer 1
10
126.946992
20
59.488976
11
129.727871
21
60.191156
0
LINE
8
Layer 1
10
129.727871
20
60.191156
11
132.316333
21
61.008605
0
LINE
8
Layer 1
10
132.316333
20
61.008605
11
134.709590
21
61.940123
0
LINE
8
Layer 1
10
134.709590
20
61.940123
11
136.904849
21
62.984508
0
LINE
8
Layer 1
10
136.904849
20
62.984508
11
138.899321
21
64.140558
0
LINE
8
Layer 1
10
138.899321
20
64.140558
11
140.690216
21
65.407071
0
LINE
8
Layer 1
10
140.690216
20
65.407071
11
142.274742
21
66.782846
0
LINE
8
Layer 1
10
142.274742
20
66.782846
11
144.446801
21
69.224442
0
LINE
8
Layer 1
10
144.446801
20
69.224442
11
145.167711
21
70.227396
0
LINE
8
Layer 1
10
145.167711
20
70.227396
11
145.293740
21
70.636486
0
LINE
8
Layer 1
10
145.293740
20
70.636486
11
142.713512
21
69.660067
0
LINE
8
Layer 1
10
142.713512
20
69.660067
11
140.603531
21
68.641086
0
LINE
8
Layer 1
10
140.603531
20
68.641086
11
139.056886
21
67.545128
0
LINE
8
Layer 1
10
139.056886
20
67.545128
11
136.502487
21
65.577179
0
LINE
8
Layer 1
10
136.502487
20
65.577179
11
133.389865
21
63.868239
0
LINE
8
Layer 1
10
133.389865
20
63.868239
11
129.718298
21
62.418138
0
LINE
8
Layer 1
10
129.718298
20
62.418138
11
125.487061
21
61.226705
0
LINE
8
Layer 1
10
125.487061
20
61.226705
11
120.695430
21
60.293769
0
LINE
8
Layer 1
10
120.695430
20
60.293769
11
115.342681
21
59.619160
0
LINE
8
Layer 1
10
115.342681
20
59.619160
11
109.428090
21
59.202708
0
LINE
8
Layer 1
10
109.428090
20
59.202708
11
102.950933
21
59.044242
0
LINE
8
Layer 1
10
102.950933
20
59.044242
11
99.246818
21
58.992771
0
LINE
8
Layer 1
10
99.246818
20
58.992771
11
97.871111
21
58.901923
0
LINE
8
Layer 1
10
97.871111
20
58.901923
11
99.330770
21
58.651887
0
LINE
8
Layer 1
10
99.330770
20
58.651887
11
102.090424
21
58.473379
0
LINE
8
Layer 1
10
102.090424
20
58.473379
11
109.940305
21
58.330863
0
LINE
8
Layer 1
10
109.940305
20
58.330863
11
118.281933
21
58.474214
0
LINE
8
Layer 1
10
118.281933
20
58.474214
11
121.656271
21
58.653038
0
LINE
8
Layer 1
10
121.656271
20
58.653038
11
123.976488
21
58.903269
0
LINE
8
Layer 1
10
123.976488
20
58.903269
11
123.976488
21
58.903269
0
LINE
8
Layer 1
10
108.484450
20
69.904198
11
112.325380
21
70.724826
0
LINE
8
Layer 1
10
112.325380
20
70.724826
11
116.097647
21
71.693070
0
LINE
8
Layer 1
10
116.097647
20
71.693070
11
119.760068
21
72.793633
0
LINE
8
Layer 1
10
119.760068
20
72.793633
11
123.271463
21
74.011222
0
LINE
8
Layer 1
10
123.271463
20
74.011222
11
126.590651
21
75.330541
0
LINE
8
Layer 1
10
126.590651
20
75.330541
11
129.676449
21
76.736296
0
LINE
8
Layer 1
10
129.676449
20
76.736296
11
132.487678
21
78.213192
0
LINE
8
Layer 1
10
132.487678
20
78.213192
11
134.983155
21
79.745933
0
LINE
8
Layer 1
10
134.983155
20
79.745933
11
138.345595
21
82.170252
0
LINE
8
Layer 1
10
138.345595
20
82.170252
11
140.063155
21
83.659718
0
LINE
8
Layer 1
10
140.063155
20
83.659718
11
139.462110
21
83.467727
0
LINE
8
Layer 1
10
139.462110
20
83.467727
11
138.017044
21
82.707624
0
LINE
8
Layer 1
10
138.017044
20
82.707624
11
130.890933
21
79.090610
0
LINE
8
Layer 1
10
130.890933
20
79.090610
11
124.523827
21
76.155790
0
LINE
8
Layer 1
10
124.523827
20
76.155790
11
118.605865
21
73.721628
0
LINE
8
Layer 1
10
118.605865
20
73.721628
11
113.044881
21
71.752771
0
LINE
8
Layer 1
10
113.044881
20
71.752771
11
107.748711
21
70.213866
0
LINE
8
Layer 1
10
107.748711
20
70.213866
11
105.336514
21
69.559939
0
LINE
8
Layer 1
10
105.336514
20
69.559939
11
104.659941
21
69.288302
0
LINE
8
Layer 1
10
104.659941
20
69.288302
11
108.484450
21
69.904198
0
LINE
8
Layer 1
10
108.484450
20
69.904198
11
108.484450
21
69.904198
0
LINE
8
Layer 1
10
135.124266
20
71.480257
11
139.616812
21
72.939257
0
LINE
8
Layer 1
10
139.616812
20
72.939257
11
143.913571
21
74.721027
0
LINE
8
Layer 1
10
143.913571
20
74.721027
11
147.826255
21
76.738431
0
LINE
8
Layer 1
10
147.826255
20
76.738431
11
151.166570
21
78.904332
0
LINE
8
Layer 1
10
151.166570
20
78.904332
11
155.238648
21
82.334398
0
LINE
8
Layer 1
10
155.238648
20
82.334398
11
157.039314
21
84.090248
0
LINE
8
Layer 1
10
157.039314
20
84.090248
11
158.208760
21
85.433555
0
LINE
8
Layer 1
10
158.208760
20
85.433555
11
158.552365
21
85.949380
0
LINE
8
Layer 1
10
158.552365
20
85.949380
11
158.541764
21
86.029665
0
LINE
8
Layer 1
10
158.541764
20
86.029665
11
158.359471
21
85.966267
0
LINE
8
Layer 1
10
158.359471
20
85.966267
11
155.162044
21
83.896908
0
LINE
8
Layer 1
10
155.162044
20
83.896908
11
150.712385
21
81.071929
0
LINE
8
Layer 1
10
150.712385
20
81.071929
11
146.015105
21
78.334379
0
LINE
8
Layer 1
10
146.015105
20
78.334379
11
141.340461
21
75.835267
0
LINE
8
Layer 1
10
141.340461
20
75.835267
11
136.958711
21
73.725603
0
LINE
8
Layer 1
10
136.958711
20
73.725603
11
130.582098
21
71.179347
0
LINE
8
Layer 1
10
130.582098
20
71.179347
11
127.719909
21
70.189081
0
LINE
8
Layer 1
10
127.719909
20
70.189081
11
126.180367
21
69.790866
0
LINE
8
Layer 1
10
126.180367
20
69.790866
11
125.548808
21
69.540117
0
LINE
8
Layer 1
10
125.548808
20
69.540117
11
126.506846
21
69.590844
0
LINE
8
Layer 1
10
126.506846
20
69.590844
11
129.036602
21
70.055617
0
LINE
8
Layer 1
10
129.036602
20
70.055617
11
135.124266
21
71.480257
0
LINE
8
Layer 1
10
135.124266
20
71.480257
11
135.124266
21
71.480257
0
LINE
8
Layer 1
10
95.512698
20
75.726852
11
102.818370
21
76.923160
0
LINE
8
Layer 1
10
102.818370
20
76.923160
11
106.454574
21
77.669640
0
LINE
8
Layer 1
10
106.454574
20
77.669640
11
108.144855
21
78.144672
0
LINE
8
Layer 1
10
108.144855
20
78.144672
11
108.015009
21
78.219929
0
LINE
8
Layer 1
10
108.015009
20
78.219929
11
107.466488
21
78.151262
0
LINE
8
Layer 1
10
107.466488
20
78.151262
11
103.454327
21
77.699301
0
LINE
8
Layer 1
10
103.454327
20
77.699301
11
97.699514
21
77.452760
0
LINE
8
Layer 1
10
97.699514
20
77.452760
11
91.536522
21
77.440604
0
LINE
8
Layer 1
10
91.536522
20
77.440604
11
86.299822
21
77.691801
0
LINE
8
Layer 1
10
86.299822
20
77.691801
11
82.444635
21
78.124244
0
LINE
8
Layer 1
10
82.444635
20
78.124244
11
78.606329
21
78.718641
0
LINE
8
Layer 1
10
78.606329
20
78.718641
11
74.804217
21
79.469908
0
LINE
8
Layer 1
10
74.804217
20
79.469908
11
71.057615
21
80.372961
0
LINE
8
Layer 1
10
71.057615
20
80.372961
11
67.385837
21
81.422716
0
LINE
8
Layer 1
10
67.385837
20
81.422716
11
63.808197
21
82.614088
0
LINE
8
Layer 1
10
63.808197
20
82.614088
11
60.344009
21
83.941993
0
LINE
8
Layer 1
10
60.344009
20
83.941993
11
57.012589
21
85.401348
0
LINE
8
Layer 1
10
57.012589
20
85.401348
11
55.110817
21
86.237137
0
LINE
8
Layer 1
10
55.110817
20
86.237137
11
54.411894
21
86.435777
0
LINE
8
Layer 1
10
54.411894
20
86.435777
11
55.364271
21
85.708870
0
LINE
8
Layer 1
10
55.364271
20
85.708870
11
57.416372
21
84.432904
0
LINE
8
Layer 1
10
57.416372
20
84.432904
11
62.484581
21
81.625307
0
LINE
8
Layer 1
10
62.484581
20
81.625307
11
67.454073
21
79.410507
0
LINE
8
Layer 1
10
67.454073
20
79.410507
11
72.599328
21
77.667688
0
LINE
8
Layer 1
10
72.599328
20
77.667688
11
77.900186
21
76.402655
0
LINE
8
Layer 1
10
77.900186
20
76.402655
11
83.336488
21
75.621213
0
LINE
8
Layer 1
10
83.336488
20
75.621213
11
89.281581
21
75.487816
0
LINE
8
Layer 1
10
89.281581
20
75.487816
11
95.512698
21
75.726852
0
LINE
8
Layer 1
10
95.512698
20
75.726852
11
95.512698
21
75.726852
0
LINE
8
Layer 1
10
156.181560
20
77.422810
11
158.400675
21
78.435377
0
LINE
8
Layer 1
10
158.400675
20
78.435377
11
160.562157
21
79.618295
0
LINE
8
Layer 1
10
160.562157
20
79.618295
11
162.661901
21
80.968290
0
LINE
8
Layer 1
10
162.661901
20
80.968290
11
164.695801
21
82.482087
0
LINE
8
Layer 1
10
164.695801
20
82.482087
11
166.659752
21
84.156413
0
LINE
8
Layer 1
10
166.659752
20
84.156413
11
168.549649
21
85.987992
0
LINE
8
Layer 1
10
168.549649
20
85.987992
11
170.361385
21
87.973553
0
LINE
8
Layer 1
10
170.361385
20
87.973553
11
172.090856
21
90.109819
0
LINE
8
Layer 1
10
172.090856
20
90.109819
11
175.700423
21
94.558302
0
LINE
8
Layer 1
10
175.700423
20
94.558302
11
178.957791
21
97.970436
0
LINE
8
Layer 1
10
178.957791
20
97.970436
11
179.962769
21
98.981766
0
LINE
8
Layer 1
10
179.962769
20
98.981766
11
179.938356
21
99.045987
0
LINE
8
Layer 1
10
179.938356
20
99.045987
11
179.574266
21
98.832114
0
LINE
8
Layer 1
10
179.574266
20
98.832114
11
176.804079
21
96.337600
0
LINE
8
Layer 1
10
176.804079
20
96.337600
11
171.530933
21
91.251430
0
LINE
8
Layer 1
10
171.530933
20
91.251430
11
165.898266
21
85.800246
0
LINE
8
Layer 1
10
165.898266
20
85.800246
11
161.856125
21
82.168261
0
LINE
8
Layer 1
10
161.856125
20
82.168261
11
158.453333
21
79.557949
0
LINE
8
Layer 1
10
158.453333
20
79.557949
11
154.738711
21
77.171784
0
LINE
8
Layer 1
10
154.738711
20
77.171784
11
154.049734
21
76.723318
0
LINE
8
Layer 1
10
154.049734
20
76.723318
11
153.955488
21
76.624771
0
LINE
8
Layer 1
10
153.955488
20
76.624771
11
154.034565
21
76.611146
0
LINE
8
Layer 1
10
154.034565
20
76.611146
11
156.181560
21
77.422810
0
LINE
8
Layer 1
10
156.181560
20
77.422810
11
156.181560
21
77.422810
0
LINE
8
Layer 1
10
107.607600
20
92.680570
11
112.790796
21
93.751690
0
LINE
8
Layer 1
10
112.790796
20
93.751690
11
118.502798
21
94.456759
0
LINE
8
Layer 1
10
118.502798
20
94.456759
11
124.446922
21
94.769861
0
LINE
8
Layer 1
10
124.446922
20
94.769861
11
130.326488
21
94.665080
0
LINE
8
Layer 1
10
130.326488
20
94.665080
11
134.928393
21
94.487373
0
LINE
8
Layer 1
10
134.928393
20
94.487373
11
133.235059
21
95.170244
0
LINE
8
Layer 1
10
133.235059
20
95.170244
11
129.953069
21
95.985350
0
LINE
8
Layer 1
10
129.953069
20
95.985350
11
126.073427
21
96.466371
0
LINE
8
Layer 1
10
126.073427
20
96.466371
11
122.001036
21
96.582882
0
LINE
8
Layer 1
10
122.001036
20
96.582882
11
118.140799
21
96.304458
0
LINE
8
Layer 1
10
118.140799
20
96.304458
11
114.763225
21
95.667919
0
LINE
8
Layer 1
10
114.763225
20
95.667919
11
111.146972
21
94.693052
0
LINE
8
Layer 1
10
111.146972
20
94.693052
11
107.812249
21
93.539175
0
LINE
8
Layer 1
10
107.812249
20
93.539175
11
105.279266
21
92.365601
0
LINE
8
Layer 1
10
105.279266
20
92.365601
11
104.898006
21
92.225772
0
LINE
8
Layer 1
10
104.898006
20
92.225772
11
104.788135
21
92.435762
0
LINE
8
Layer 1
10
104.788135
20
92.435762
11
105.023621
21
93.239359
0
LINE
8
Layer 1
10
105.023621
20
93.239359
11
105.628783
21
94.570004
0
LINE
8
Layer 1
10
105.628783
20
94.570004
11
107.381771
21
97.669562
0
LINE
8
Layer 1
10
107.381771
20
97.669562
11
108.297957
21
99.251283
0
LINE
8
Layer 1
10
108.297957
20
99.251283
11
108.275322
21
99.581280
0
LINE
8
Layer 1
10
108.275322
20
99.581280
11
108.000236
21
99.843138
0
LINE
8
Layer 1
10
108.000236
20
99.843138
11
106.730710
21
100.434010
0
LINE
8
Layer 1
10
106.730710
20
100.434010
11
104.518942
21
101.171873
0
LINE
8
Layer 1
10
104.518942
20
101.171873
11
101.903551
21
101.893839
0
LINE
8
Layer 1
10
101.903551
20
101.893839
11
99.423155
21
102.437017
0
LINE
8
Layer 1
10
99.423155
20
102.437017
11
95.083116
21
102.894410
0
LINE
8
Layer 1
10
95.083116
20
102.894410
11
90.465274
21
102.907057
0
LINE
8
Layer 1
10
90.465274
20
102.907057
11
86.534435
21
102.517496
0
LINE
8
Layer 1
10
86.534435
20
102.517496
11
85.128143
21
102.185181
0
LINE
8
Layer 1
10
85.128143
20
102.185181
11
84.255404
21
101.768267
0
LINE
8
Layer 1
10
84.255404
20
101.768267
11
83.961743
21
101.493450
0
LINE
8
Layer 1
10
83.961743
20
101.493450
11
84.465377
21
101.715677
0
LINE
8
Layer 1
10
84.465377
20
101.715677
11
85.914747
21
102.023207
0
LINE
8
Layer 1
10
85.914747
20
102.023207
11
88.333790
21
102.181981
0
LINE
8
Layer 1
10
88.333790
20
102.181981
11
91.115331
21
102.174352
0
LINE
8
Layer 1
10
91.115331
20
102.174352
11
93.652199
21
101.982674
0
LINE
8
Layer 1
10
93.652199
20
101.982674
11
98.105360
21
101.282665
0
LINE
8
Layer 1
10
98.105360
20
101.282665
11
101.839618
21
100.471746
0
LINE
8
Layer 1
10
101.839618
20
100.471746
11
104.508148
21
99.638952
0
LINE
8
Layer 1
10
104.508148
20
99.638952
11
105.334382
21
99.242177
0
LINE
8
Layer 1
10
105.334382
20
99.242177
11
105.764124
21
98.873321
0
LINE
8
Layer 1
10
105.764124
20
98.873321
11
105.667058
21
98.249622
0
LINE
8
Layer 1
10
105.667058
20
98.249622
11
105.194436
21
97.137206
0
LINE
8
Layer 1
10
105.194436
20
97.137206
11
104.696784
21
95.868697
0
LINE
8
Layer 1
10
104.696784
20
95.868697
11
104.355355
21
94.450107
0
LINE
8
Layer 1
10
104.355355
20
94.450107
11
104.216584
21
93.144835
0
LINE
8
Layer 1
10
104.216584
20
93.144835
11
104.326907
21
92.216280
0
LINE
8
Layer 1
10
104.326907
20
92.216280
11
104.585824
21
91.911749
0
LINE
8
Layer 1
10
104.585824
20
91.911749
11
104.999423
21
91.939096
0
LINE
8
Layer 1
10
104.999423
20
91.939096
11
107.607600
21
92.680570
0
LINE
8
Layer 1
10
107.607600
20
92.680570
11
107.607600
21
92.680570
0
LINE
8
Layer 1
10
189.435991
20
104.522448
11
190.438157
21
105.750894
0
LINE
8
Layer 1
10
190.438157
20
105.750894
11
191.313968
21
107.353381
0
LINE
8
Layer 1
10
191.313968
20
107.353381
11
192.105534
21
109.422641
0
LINE
8
Layer 1
10
192.105534
20
109.422641
11
192.854967
21
112.051403
0
LINE
8
Layer 1
10
192.854967
20
112.051403
11
193.271147
21
113.999724
0
LINE
8
Layer 1
10
193.271147
20
113.999724
11
193.346931
21
115.025576
0
LINE
8
Layer 1
10
193.346931
20
115.025576
11
193.265464
21
115.143007
0
LINE
8
Layer 1
10
193.265464
20
115.143007
11
193.108845
21
114.970335
0
LINE
8
Layer 1
10
193.108845
20
114.970335
11
192.583412
21
113.675374
0
LINE
8
Layer 1
10
192.583412
20
113.675374
11
191.172506
21
110.076379
0
LINE
8
Layer 1
10
191.172506
20
110.076379
11
189.558157
21
107.118753
0
LINE
8
Layer 1
10
189.558157
20
107.118753
11
187.702755
21
104.744704
0
LINE
8
Layer 1
10
187.702755
20
104.744704
11
185.568692
21
102.896441
0
LINE
8
Layer 1
10
185.568692
20
102.896441
11
182.945724
21
101.057433
0
LINE
8
Layer 1
10
182.945724
20
101.057433
11
182.909772
21
100.975003
0
LINE
8
Layer 1
10
182.909772
20
100.975003
11
183.322209
21
101.107158
0
LINE
8
Layer 1
10
183.322209
20
101.107158
11
185.196799
21
101.904100
0
LINE
8
Layer 1
10
185.196799
20
101.904100
11
187.753586
21
103.223849
0
LINE
8
Layer 1
10
187.753586
20
103.223849
11
189.435991
21
104.522448
0
LINE
8
Layer 1
10
189.435991
20
104.522448
11
189.435991
21
104.522448
0
LINE
8
Layer 1
10
136.996557
20
107.040779
11
139.295059
21
108.279311
0
LINE
8
Layer 1
10
139.295059
20
108.279311
11
141.327728
21
109.611488
0
LINE
8
Layer 1
10
141.327728
20
109.611488
11
143.238300
21
111.141645
0
LINE
8
Layer 1
10
143.238300
20
111.141645
11
145.170514
21
112.974120
0
LINE
8
Layer 1
10
145.170514
20
112.974120
11
146.905045
21
114.916074
0
LINE
8
Layer 1
10
146.905045
20
114.916074
11
148.740712
21
117.227962
0
LINE
8
Layer 1
10
148.740712
20
117.227962
11
150.195550
21
119.271798
0
LINE
8
Layer 1
10
150.195550
20
119.271798
11
150.787600
21
120.409597
0
LINE
8
Layer 1
10
150.787600
20
120.409597
11
150.464376
21
120.595203
0
LINE
8
Layer 1
10
150.464376
20
120.595203
11
149.654816
21
120.552434
0
LINE
8
Layer 1
10
149.654816
20
120.552434
11
148.599087
21
120.317100
0
LINE
8
Layer 1
10
148.599087
20
120.317100
11
147.537356
21
119.925008
0
LINE
8
Layer 1
10
147.537356
20
119.925008
11
146.095496
21
119.060955
0
LINE
8
Layer 1
10
146.095496
20
119.060955
11
144.052596
21
117.557640
0
LINE
8
Layer 1
10
144.052596
20
117.557640
11
138.660649
21
113.019817
0
LINE
8
Layer 1
10
138.660649
20
113.019817
11
136.890810
21
111.581739
0
LINE
8
Layer 1
10
136.890810
20
111.581739
11
135.954979
21
111.102445
0
LINE
8
Layer 1
10
135.954979
20
111.102445
11
132.028280
21
113.550940
0
LINE
8
Layer 1
10
132.028280
20
113.550940
11
128.490630
21
115.850142
0
LINE
8
Layer 1
10
128.490630
20
115.850142
11
129.408561
21
117.020535
0
LINE
8
Layer 1
10
129.408561
20
117.020535
11
131.088695
21
118.977476
0
LINE
8
Layer 1
10
131.088695
20
118.977476
11
132.884971
21
120.777595
0
LINE
8
Layer 1
10
132.884971
20
120.777595
11
134.513079
21
122.156920
0
LINE
8
Layer 1
10
134.513079
20
122.156920
11
135.688711
21
122.851477
0
LINE
8
Layer 1
10
135.688711
20
122.851477
11
138.997542
21
123.157150
0
LINE
8
Layer 1
10
138.997542
20
123.157150
11
146.638021
21
123.376797
0
LINE
8
Layer 1
10
146.638021
20
123.376797
11
156.458446
21
123.553152
0
LINE
8
Layer 1
10
156.458446
20
123.553152
11
155.546239
21
125.387597
0
LINE
8
Layer 1
10
155.546239
20
125.387597
11
154.803983
21
126.658886
0
LINE
8
Layer 1
10
154.803983
20
126.658886
11
153.871351
21
127.890144
0
LINE
8
Layer 1
10
153.871351
20
127.890144
11
152.773047
21
129.061532
0
LINE
8
Layer 1
10
152.773047
20
129.061532
11
151.533774
21
130.153212
0
LINE
8
Layer 1
10
151.533774
20
130.153212
11
150.178236
21
131.145344
0
LINE
8
Layer 1
10
150.178236
20
131.145344
11
148.731137
21
132.018091
0
LINE
8
Layer 1
10
148.731137
20
132.018091
11
147.217179
21
132.751612
0
LINE
8
Layer 1
10
147.217179
20
132.751612
11
145.661067
21
133.326071
0
LINE
8
Layer 1
10
145.661067
20
133.326071
11
143.613324
21
133.854265
0
LINE
8
Layer 1
10
143.613324
20
133.854265
11
142.327648
21
132.921608
0
LINE
8
Layer 1
10
142.327648
20
132.921608
11
139.728962
21
130.679265
0
LINE
8
Layer 1
10
139.728962
20
130.679265
11
134.038103
21
125.843465
0
LINE
8
Layer 1
10
134.038103
20
125.843465
11
131.905035
21
124.032484
0
LINE
8
Layer 1
10
131.905035
20
124.032484
11
129.805780
21
122.010607
0
LINE
8
Layer 1
10
129.805780
20
122.010607
11
126.366977
21
118.004382
0
LINE
8
Layer 1
10
126.366977
20
118.004382
11
125.063011
21
116.260109
0
LINE
8
Layer 1
10
125.063011
20
116.260109
11
124.552281
21
115.343584
0
LINE
8
Layer 1
10
124.552281
20
115.343584
11
125.063692
21
114.788946
0
LINE
8
Layer 1
10
125.063692
20
114.788946
11
126.277314
21
113.816486
0
LINE
8
Layer 1
10
126.277314
20
113.816486
11
127.849050
21
112.508198
0
LINE
8
Layer 1
10
127.849050
20
112.508198
11
129.515751
21
110.873365
0
LINE
8
Layer 1
10
129.515751
20
110.873365
11
131.127357
21
109.069392
0
LINE
8
Layer 1
10
131.127357
20
109.069392
11
132.533808
21
107.253687
0
LINE
8
Layer 1
10
132.533808
20
107.253687
11
133.321356
21
106.204941
0
LINE
8
Layer 1
10
133.321356
20
106.204941
11
133.651461
21
105.936399
0
LINE
8
Layer 1
10
133.651461
20
105.936399
11
134.016829
21
105.834704
0
LINE
8
Layer 1
10
134.016829
20
105.834704
11
135.086480
21
106.120731
0
LINE
8
Layer 1
10
135.086480
20
106.120731
11
136.996557
21
107.040779
0
LINE
8
Layer 1
10
136.996557
20
107.040779
11
136.996557
21
107.040779
0
LINE
8
Layer 1
10
145.204400
20
130.319479
11
143.369495
21
130.821312
0
LINE
8
Layer 1
10
143.369495
20
130.821312
11
143.233166
21
131.094408
0
LINE
8
Layer 1
10
143.233166
20
131.094408
11
143.470774
21
131.480623
0
LINE
8
Layer 1
10
143.470774
20
131.480623
11
143.884457
21
131.727168
0
LINE
8
Layer 1
10
143.884457
20
131.727168
11
144.516348
21
131.819398
0
LINE
8
Layer 1
10
144.516348
20
131.819398
11
146.077534
21
131.629975
0
LINE
8
Layer 1
10
146.077534
20
131.629975
11
147.439886
21
131.090485
0
LINE
8
Layer 1
10
147.439886
20
131.090485
11
147.823234
21
130.745130
0
LINE
8
Layer 1
10
147.823234
20
130.745130
11
147.888957
21
130.379056
0
LINE
8
Layer 1
10
147.888957
20
130.379056
11
147.694024
21
130.117502
0
LINE
8
Layer 1
10
147.694024
20
130.117502
11
147.260460
21
130.022138
0
LINE
8
Layer 1
10
147.260460
20
130.022138
11
145.204400
21
130.319479
0
LINE
8
Layer 1
10
145.204400
20
130.319479
11
145.204400
21
130.319479
0
LINE
8
Layer 1
10
140.096740
20
116.539953
11
143.088772
21
119.351611
0
LINE
8
Layer 1
10
143.088772
20
119.351611
11
141.629393
21
118.833120
0
LINE
8
Layer 1
10
141.629393
20
118.833120
11
138.609734
21
117.479932
0
LINE
8
Layer 1
10
138.609734
20
117.479932
11
135.626801
21
116.036181
0
LINE
8
Layer 1
10
135.626801
20
116.036181
11
134.277600
21
115.246000
0
LINE
8
Layer 1
10
134.277600
20
115.246000
11
134.532225
21
114.847118
0
LINE
8
Layer 1
10
134.532225
20
114.847118
11
135.141277
21
114.376475
0
LINE
8
Layer 1
10
135.141277
20
114.376475
11
135.872521
21
113.983682
0
LINE
8
Layer 1
10
135.872521
20
113.983682
11
136.493724
21
113.818345
0
LINE
8
Layer 1
10
136.493724
20
113.818345
11
137.767761
21
114.617050
0
LINE
8
Layer 1
10
137.767761
20
114.617050
11
140.096740
21
116.539953
0
LINE
8
Layer 1
10
140.096740
20
116.539953
11
140.096740
21
116.539953
0
LINE
8
Layer 1
10
139.075377
20
119.027598
11
143.308711
21
120.923936
0
LINE
8
Layer 1
10
143.308711
20
120.923936
11
143.249352
21
121.047094
0
LINE
8
Layer 1
10
143.249352
20
121.047094
11
142.769089
21
121.116151
0
LINE
8
Layer 1
10
142.769089
20
121.116151
11
140.479227
21
121.096016
0
LINE
8
Layer 1
10
140.479227
20
121.096016
11
137.638780
21
120.861335
0
LINE
8
Layer 1
10
137.638780
20
120.861335
11
136.768496
21
120.600890
0
LINE
8
Layer 1
10
136.768496
20
120.600890
11
135.882278
21
120.167795
0
LINE
8
Layer 1
10
135.882278
20
120.167795
11
134.611367
21
119.311628
0
LINE
8
Layer 1
10
134.611367
20
119.311628
11
133.391809
21
118.242243
0
LINE
8
Layer 1
10
133.391809
20
118.242243
11
132.522188
21
117.253749
0
LINE
8
Layer 1
10
132.522188
20
117.253749
11
132.311911
21
116.881746
0
LINE
8
Layer 1
10
132.311911
20
116.881746
11
132.301087
21
116.640257
0
LINE
8
Layer 1
10
132.301087
20
116.640257
11
132.532180
21
116.528325
0
LINE
8
Layer 1
10
132.532180
20
116.528325
11
133.351011
21
116.752434
0
LINE
8
Layer 1
10
133.351011
20
116.752434
11
139.075377
21
119.027598
0
LINE
8
Layer 1
10
139.075377
20
119.027598
11
139.075377
21
119.027598
0
LINE
8
Layer 1
10
129.027030
20
126.210085
11
129.169015
21
126.353046
0
LINE
8
Layer 1
10
129.169015
20
126.353046
11
129.132665
21
126.509266
0
LINE
8
Layer 1
10
129.132665
20
126.509266
11
128.462586
21
126.942415
0
LINE
8
Layer 1
10
128.462586
20
126.942415
11
127.325075
21
127.665201
0
LINE
8
Layer 1
10
127.325075
20
127.665201
11
126.327597
21
128.572916
0
LINE
8
Layer 1
10
126.327597
20
128.572916
11
125.584038
21
129.542745
0
LINE
8
Layer 1
10
125.584038
20
129.542745
11
125.208281
21
130.451875
0
LINE
8
Layer 1
10
125.208281
20
130.451875
11
124.986434
21
131.221505
0
LINE
8
Layer 1
10
124.986434
20
131.221505
11
124.711892
21
131.662721
0
LINE
8
Layer 1
10
124.711892
20
131.662721
11
123.832020
21
131.829457
0
LINE
8
Layer 1
10
123.832020
20
131.829457
11
122.338688
21
131.868400
0
LINE
8
Layer 1
10
122.338688
20
131.868400
11
120.896109
21
131.788758
0
LINE
8
Layer 1
10
120.896109
20
131.788758
11
120.168498
21
131.599740
0
LINE
8
Layer 1
10
120.168498
20
131.599740
11
120.217238
21
130.991943
0
LINE
8
Layer 1
10
120.217238
20
130.991943
11
120.608390
21
129.957932
0
LINE
8
Layer 1
10
120.608390
20
129.957932
11
121.188234
21
128.838604
0
LINE
8
Layer 1
10
121.188234
20
128.838604
11
121.803053
21
127.974852
0
LINE
8
Layer 1
10
121.803053
20
127.974852
11
123.125654
21
126.961840
0
LINE
8
Layer 1
10
123.125654
20
126.961840
11
124.821329
21
126.215733
0
LINE
8
Layer 1
10
124.821329
20
126.215733
11
125.830080
21
126.045541
0
LINE
8
Layer 1
10
125.830080
20
126.045541
11
127.118465
21
125.987532
0
LINE
8
Layer 1
10
127.118465
20
125.987532
11
128.309708
21
126.042211
0
LINE
8
Layer 1
10
128.309708
20
126.042211
11
129.027030
21
126.210085
0
LINE
8
Layer 1
10
129.027030
20
126.210085
11
129.027030
21
126.210085
0
LINE
8
Layer 1
10
90.884669
20
128.079472
11
92.373190
21
128.941105
0
LINE
8
Layer 1
10
92.373190
20
128.941105
11
92.786454
21
129.390708
0
LINE
8
Layer 1
10
92.786454
20
129.390708
11
92.932044
21
129.813030
0
LINE
8
Layer 1
10
92.932044
20
129.813030
11
92.890155
21
129.978919
0
LINE
8
Layer 1
10
92.890155
20
129.978919
11
92.743906
21
130.017731
0
LINE
8
Layer 1
10
92.743906
20
130.017731
11
92.014822
21
129.698733
0
LINE
8
Layer 1
10
92.014822
20
129.698733
11
91.395948
21
129.447030
0
LINE
8
Layer 1
10
91.395948
20
129.447030
11
90.530074
21
129.294045
0
LINE
8
Layer 1
10
90.530074
20
129.294045
11
87.231068
21
129.197684
0
LINE
8
Layer 1
10
87.231068
20
129.197684
11
84.563058
21
129.135017
0
LINE
8
Layer 1
10
84.563058
20
129.135017
11
83.578073
21
128.984234
0
LINE
8
Layer 1
10
83.578073
20
128.984234
11
85.327936
21
128.218218
0
LINE
8
Layer 1
10
85.327936
20
128.218218
11
86.783240
21
127.831731
0
LINE
8
Layer 1
10
86.783240
20
127.831731
11
88.276684
21
127.677725
0
LINE
8
Layer 1
10
88.276684
20
127.677725
11
89.684937
21
127.759278
0
LINE
8
Layer 1
10
89.684937
20
127.759278
11
90.884669
21
128.079472
0
LINE
8
Layer 1
10
90.884669
20
128.079472
11
90.884669
21
128.079472
0
LINE
8
Layer 1
10
129.048947
20
129.509729
11
129.762798
21
129.858612
0
LINE
8
Layer 1
10
129.762798
20
129.858612
11
129.974319
21
130.170374
0
LINE
8
Layer 1
10
129.974319
20
130.170374
11
129.676320
21
130.498183
0
LINE
8
Layer 1
10
129.676320
20
130.498183
11
128.861611
21
130.895207
0
LINE
8
Layer 1
10
128.861611
20
130.895207
11
127.522471
21
131.276632
0
LINE
8
Layer 1
10
127.522471
20
131.276632
11
126.634285
21
131.178693
0
LINE
8
Layer 1
10
126.634285
20
131.178693
11
126.392292
21
130.966770
0
LINE
8
Layer 1
10
126.392292
20
130.966770
11
126.302629
21
130.655175
0
LINE
8
Layer 1
10
126.302629
20
130.655175
11
126.633074
21
129.759862
0
LINE
8
Layer 1
10
126.633074
20
129.759862
11
127.023877
21
129.287037
0
LINE
8
Layer 1
10
127.023877
20
129.287037
11
127.471321
21
129.096589
0
LINE
8
Layer 1
10
127.471321
20
129.096589
11
128.103610
21
129.175244
0
LINE
8
Layer 1
10
128.103610
20
129.175244
11
129.048947
21
129.509729
0
LINE
8
Layer 1
10
129.048947
20
129.509729
11
129.048947
21
129.509729
0
LINE
8
Layer 1
10
136.053968
20
136.272464
11
136.468388
21
136.656272
0
LINE
8
Layer 1
10
136.468388
20
136.656272
11
136.431850
21
137.017649
0
LINE
8
Layer 1
10
136.431850
20
137.017649
11
135.866029
21
137.461269
0
LINE
8
Layer 1
10
135.866029
20
137.461269
11
134.692602
21
138.091803
0
LINE
8
Layer 1
10
134.692602
20
138.091803
11
131.854313
21
139.334635
0
LINE
8
Layer 1
10
131.854313
20
139.334635
11
128.593726
21
140.268944
0
LINE
8
Layer 1
10
128.593726
20
140.268944
11
124.151327
21
141.065382
0
LINE
8
Layer 1
10
124.151327
20
141.065382
11
117.767600
21
141.894600
0
LINE
8
Layer 1
10
117.767600
20
141.894600
11
113.262477
21
142.507797
0
LINE
8
Layer 1
10
113.262477
20
142.507797
11
108.742060
21
143.278056
0
LINE
8
Layer 1
10
108.742060
20
143.278056
11
99.754250
21
145.264533
0
LINE
8
Layer 1
10
99.754250
20
145.264533
11
95.336309
21
146.468135
0
LINE
8
Layer 1
10
95.336309
20
146.468135
11
91.001980
21
147.803570
0
LINE
8
Layer 1
10
91.001980
20
147.803570
11
86.775989
21
149.264528
0
LINE
8
Layer 1
10
86.775989
20
149.264528
11
82.683062
21
150.844703
0
LINE
8
Layer 1
10
82.683062
20
150.844703
11
79.792232
21
151.852971
0
LINE
8
Layer 1
10
79.792232
20
151.852971
11
80.461436
21
151.355185
0
LINE
8
Layer 1
10
80.461436
20
151.355185
11
82.351105
21
150.338739
0
LINE
8
Layer 1
10
82.351105
20
150.338739
11
87.428711
21
147.955842
0
LINE
8
Layer 1
10
87.428711
20
147.955842
11
94.407082
21
145.297641
0
LINE
8
Layer 1
10
94.407082
20
145.297641
11
101.452222
21
143.217246
0
LINE
8
Layer 1
10
101.452222
20
143.217246
11
108.752829
21
141.666899
0
LINE
8
Layer 1
10
108.752829
20
141.666899
11
116.497600
21
140.598844
0
LINE
8
Layer 1
10
116.497600
20
140.598844
11
122.335062
21
139.855063
0
LINE
8
Layer 1
10
122.335062
20
139.855063
11
127.147087
21
138.956282
0
LINE
8
Layer 1
10
127.147087
20
138.956282
11
130.939953
21
137.901075
0
LINE
8
Layer 1
10
130.939953
20
137.901075
11
133.719940
21
136.688015
0
LINE
8
Layer 1
10
133.719940
20
136.688015
11
135.245644
21
135.913419
0
LINE
8
Layer 1
10
135.245644
20
135.913419
11
135.609082
21
135.974452
0
LINE
8
Layer 1
10
135.609082
20
135.974452
11
136.053968
21
136.272464
0
LINE
8
Layer 1
10
136.053968
20
136.272464
11
136.053968
21
136.272464
0
LINE
8
Layer 1
10
89.898155
20
137.427008
11
90.674221
21
138.024290
0
LINE
8
Layer 1
10
90.674221
20
138.024290
11
89.948803
21
138.179109
0
LINE
8
Layer 1
10
89.948803
20
138.179109
11
88.204777
21
138.264278
0
LINE
8
Layer 1
10
88.204777
20
138.264278
11
85.700101
21
138.466596
0
LINE
8
Layer 1
10
85.700101
20
138.466596
11
83.124822
21
139.002658
0
LINE
8
Layer 1
10
83.124822
20
139.002658
11
81.281117
21
139.431728
0
LINE
8
Layer 1
10
81.281117
20
139.431728
11
80.514266
21
139.476394
0
LINE
8
Layer 1
10
80.514266
20
139.476394
11
81.158635
21
138.967069
0
LINE
8
Layer 1
10
81.158635
20
138.967069
11
82.679435
21
138.190566
0
LINE
8
Layer 1
10
82.679435
20
138.190566
11
84.458206
21
137.434202
0
LINE
8
Layer 1
10
84.458206
20
137.434202
11
85.876488
21
136.985291
0
LINE
8
Layer 1
10
85.876488
20
136.985291
11
86.963608
21
136.855897
0
LINE
8
Layer 1
10
86.963608
20
136.855897
11
88.016105
21
136.888565
0
LINE
8
Layer 1
10
88.016105
20
136.888565
11
89.004211
21
137.080025
0
LINE
8
Layer 1
10
89.004211
20
137.080025
11
89.898155
21
137.427008
0
LINE
8
Layer 1
10
89.898155
20
137.427008
11
89.898155
21
137.427008
0
LINE
8
Layer 1
10
58.384908
20
7.722585
11
57.865252
21
8.572145
0
LINE
8
Layer 1
10
57.865252
20
8.572145
11
57.654266
21
9.394263
0
LINE
8
Layer 1
10
57.654266
20
9.394263
11
57.858740
21
10.186113
0
LINE
8
Layer 1
10
57.858740
20
10.186113
11
58.360371
21
11.015511
0
LINE
8
Layer 1
10
58.360371
20
11.015511
11
58.991471
21
11.663714
0
LINE
8
Layer 1
10
58.991471
20
11.663714
11
59.584353
21
11.911982
0
LINE
8
Layer 1
10
59.584353
20
11.911982
11
59.882505
21
11.864189
0
LINE
8
Layer 1
10
59.882505
20
11.864189
11
59.629822
21
11.734044
0
LINE
8
Layer 1
10
59.629822
20
11.734044
11
59.085770
21
11.448790
0
LINE
8
Layer 1
10
59.085770
20
11.448790
11
58.629291
21
11.037882
0
LINE
8
Layer 1
10
58.629291
20
11.037882
11
58.284547
21
10.529055
0
LINE
8
Layer 1
10
58.284547
20
10.529055
11
58.075697
21
9.950044
0
LINE
8
Layer 1
10
58.075697
20
9.950044
11
58.075250
21
9.143319
0
LINE
8
Layer 1
10
58.075250
20
9.143319
11
58.350191
21
8.304822
0
LINE
8
Layer 1
10
58.350191
20
8.304822
11
58.827194
21
7.586378
0
LINE
8
Layer 1
10
58.827194
20
7.586378
11
59.432932
21
7.139813
0
LINE
8
Layer 1
10
59.432932
20
7.139813
11
59.801955
21
6.943529
0
LINE
8
Layer 1
10
59.801955
20
6.943529
11
59.584353
21
6.872153
0
LINE
8
Layer 1
10
59.584353
20
6.872153
11
59.038637
21
7.114588
0
LINE
8
Layer 1
10
59.038637
20
7.114588
11
58.384908
21
7.722585
0
LINE
8
Layer 1
10
58.384908
20
7.722585
11
58.384908
21
7.722585
0
LINE
8
Layer 1
10
61.909308
20
7.679222
11
62.532925
21
8.520073
0
LINE
8
Layer 1
10
62.532925
20
8.520073
11
62.734266
21
9.394263
0
LINE
8
Layer 1
10
62.734266
20
9.394263
11
62.532925
21
10.268454
0
LINE
8
Layer 1
10
62.532925
20
10.268454
11
61.909308
21
11.109305
0
LINE
8
Layer 1
10
61.909308
20
11.109305
11
61.407167
21
11.691933
0
LINE
8
Layer 1
10
61.407167
20
11.691933
11
61.358340
21
11.934263
0
LINE
8
Layer 1
10
61.358340
20
11.934263
11
62.324409
21
11.187498
0
LINE
8
Layer 1
10
62.324409
20
11.187498
11
62.875592
21
10.229141
0
LINE
8
Layer 1
10
62.875592
20
10.229141
11
62.979689
21
9.142748
0
LINE
8
Layer 1
10
62.979689
20
9.142748
11
62.653058
21
8.085860
0
LINE
8
Layer 1
10
62.653058
20
8.085860
11
61.912057
21
7.216016
0
LINE
8
Layer 1
10
61.912057
20
7.216016
11
61.287371
21
6.896732
0
LINE
8
Layer 1
10
61.287371
20
6.896732
11
61.909308
21
7.679222
0
LINE
8
Layer 1
10
61.909308
20
7.679222
11
61.909308
21
7.679222
0
LINE
8
Layer 1
10
59.347600
20
9.236496
11
59.430502
21
10.344516
0
LINE
8
Layer 1
10
59.430502
20
10.344516
11
59.629822
21
10.805374
0
LINE
8
Layer 1
10
59.629822
20
10.805374
11
59.829141
21
10.598118
0
LINE
8
Layer 1
10
59.829141
20
10.598118
11
59.912044
21
10.099819
0
LINE
8
Layer 1
10
59.912044
20
10.099819
11
60.025818
21
9.580001
0
LINE
8
Layer 1
10
60.025818
20
9.580001
11
60.344233
21
9.394263
0
LINE
8
Layer 1
10
60.344233
20
9.394263
11
60.721607
21
9.531087
0
LINE
8
Layer 1
10
60.721607
20
9.531087
11
60.940405
21
9.855213
0
LINE
8
Layer 1
10
60.940405
20
9.855213
11
60.957380
21
10.237127
0
LINE
8
Layer 1
10
60.957380
20
10.237127
11
60.729281
21
10.547313
0
LINE
8
Layer 1
10
60.729281
20
10.547313
11
60.502189
21
10.749057
0
LINE
8
Layer 1
10
60.502189
20
10.749057
11
60.799071
21
10.801054
0
LINE
8
Layer 1
10
60.799071
20
10.801054
11
61.155593
21
10.683967
0
LINE
8
Layer 1
10
61.155593
20
10.683967
11
61.405110
21
10.403567
0
LINE
8
Layer 1
10
61.405110
20
10.403567
11
61.484193
21
10.077013
0
LINE
8
Layer 1
10
61.484193
20
10.077013
11
61.329412
21
9.821463
0
LINE
8
Layer 1
10
61.329412
20
9.821463
11
61.188666
21
9.402402
0
LINE
8
Layer 1
10
61.188666
20
9.402402
11
61.203188
21
8.612982
0
LINE
8
Layer 1
10
61.203188
20
8.612982
11
61.266443
21
7.820811
0
LINE
8
Layer 1
10
61.266443
20
7.820811
11
61.019975
21
8.335930
0
LINE
8
Layer 1
10
61.019975
20
8.335930
11
60.697747
21
8.861864
0
LINE
8
Layer 1
10
60.697747
20
8.861864
11
60.333464
21
9.090112
0
LINE
8
Layer 1
10
60.333464
20
9.090112
11
60.035454
21
8.998350
0
LINE
8
Layer 1
10
60.035454
20
8.998350
11
59.912044
21
8.564253
0
LINE
8
Layer 1
10
59.912044
20
8.564253
11
59.829141
21
8.126141
0
LINE
8
Layer 1
10
59.829141
20
8.126141
11
59.629822
21
7.842041
0
LINE
8
Layer 1
10
59.629822
20
7.842041
11
59.511803
21
7.877263
0
LINE
8
Layer 1
10
59.511803
20
7.877263
11
59.423003
21
8.133390
0
LINE
8
Layer 1
10
59.423003
20
8.133390
11
59.347600
21
9.236496
0
LINE
8
Layer 1
10
59.347600
20
9.236496
11
59.347600
21
9.236496
 0 
ENDSEC
 0 
EOF
