0
SECTION
2
HEADER
9
$ACADVER
1
AC1003
9
$INSBASE
10
0.0
20
0.0
30
0.0
9
$EXTMIN
10
0.000
20
0.000
30
0.0
9
$EXTMAX
10
754.000
20
800.000
30
0.0
9
$LIMMIN
10
0.000
20
0.000
9
$LIMMAX
10
754.000
20
800.000
9
$LTSCALE
40
1.0
9
$LUNITS
70
2
9
$LUPREC
70
3
9
$LIMCHECK
70
0
9
$UCSNAME
2

9
$UCSORG
10
0.0
20
0.0
30
0.0
9
$UCSXDIR
10
1.0
20
0.0
30
0.0
9
$UCSYDIR
10
0.0
20
1.0
30
0.0
9
$WORLDVIEW
70
1
9
$UNITMODE
70
0
0
ENDSEC
0
SECTION
2
TABLES
0
TABLE
2
VPORT
70
1
0
VPORT
2
*ACTIVE
70
0
10
0.0
20
0.0
11
1.0
21
1.0
12
377.000
22
400.000
13
0.0
23
0.0
14
1.0
24
1.0
15
0.0
25
0.0
16
0.0
26
0.0
36
1.0
17
0.0
27
0.0
37
0.0
40
500.0
41
1.061
42
50.0
43
0.0
44
0.0
50
0.0
51
0.0
71
0
72
100
73
1
74
1
75
0
76
0
77
0
78
0
0
ENDTAB
0
TABLE
2
LTYPE
70
1
0
LTYPE
2
CONTINUOUS
70
64
3
Solid line
72
65
73
0
40
0.000
0
ENDTAB
0
TABLE
2
LAYER
70
1
0
LAYER
2
0
70
64
62
7
6
CONTINUOUS
0
ENDTAB
0
ENDSEC
0
SECTION
2
BLOCKS
0
ENDSEC
0
SECTION
2
ENTITIES
0
POLYLINE
8
0
6
CONTINUOUS
66
1
62
7
10
0.0
20
0.0
30
0.000000
0
VERTEX
8
0
10
388.000000
20
678.000000
0
VERTEX
8
0
10
389.000000
20
681.000000
0
SEQEND
0
POLYLINE
8
0
6
CONTINUOUS
66
1
62
7
10
0.0
20
0.0
30
0.000000
0
VERTEX
8
0
10
377.000000
20
677.000000
0
VERTEX
8
0
10
376.541176
20
689.964706
0
VERTEX
8
0
10
373.647059
20
705.911765
0
VERTEX
8
0
10
372.647059
20
709.911765
0
VERTEX
8
0
10
370.000000
20
718.000000
0
VERTEX
8
0
10
370.000000
20
727.000000
0
VERTEX
8
0
10
371.200000
20
728.900000
0
VERTEX
8
0
10
371.800000
20
730.100000
0
VERTEX
8
0
10
373.000000
20
733.000000
0
VERTEX
8
0
10
381.000000
20
740.000000
0
VERTEX
8
0
10
382.000000
20
740.000000
0
VERTEX
8
0
10
392.000000
20
732.000000
0
VERTEX
8
0
10
392.230769
20
731.153846
0
VERTEX
8
0
10
397.000000
20
724.000000
0
VERTEX
8
0
10
397.000000
20
719.000000
0
VERTEX
8
0
10
391.384615
20
704.923077
0
VERTEX
8
0
10
388.000000
20
682.000000
0
VERTEX
8
0
10
389.000000
20
681.000000
0
SEQEND
0
POLYLINE
8
0
6
CONTINUOUS
66
1
62
7
10
0.0
20
0.0
30
0.000000
0
VERTEX
8
0
10
377.000000
20
675.000000
0
VERTEX
8
0
10
377.000000
20
677.000000
0
SEQEND
0
POLYLINE
8
0
6
CONTINUOUS
66
1
62
7
10
0.0
20
0.0
30
0.000000
0
VERTEX
8
0
10
409.000000
20
619.000000
0
VERTEX
8
0
10
408.000000
20
620.000000
0
VERTEX
8
0
10
409.000000
20
621.000000
0
VERTEX
8
0
10
410.000000
20
620.000000
0
SEQEND
0
POLYLINE
8
0
6
CONTINUOUS
66
1
62
7
10
0.0
20
0.0
30
0.000000
0
VERTEX
8
0
10
409.000000
20
619.000000
0
VERTEX
8
0
10
410.000000
20
620.000000
0
SEQEND
0
POLYLINE
8
0
6
CONTINUOUS
66
1
62
7
10
0.0
20
0.0
30
0.000000
0
VERTEX
8
0
10
410.000000
20
620.000000
0
VERTEX
8
0
10
424.000000
20
604.000000
0
VERTEX
8
0
10
424.900000
20
603.800000
0
VERTEX
8
0
10
428.000000
20
602.000000
0
VERTEX
8
0
10
442.000000
20
602.000000
0
VERTEX
8
0
10
448.900000
20
604.300000
0
VERTEX
8
0
10
450.100000
20
604.800000
0
VERTEX
8
0
10
461.000000
20
611.000000
0
VERTEX
8
0
10
468.200000
20
619.900000
0
VERTEX
8
0
10
471.647059
20
628.088235
0
VERTEX
8
0
10
472.352941
20
630.911765
0
VERTEX
8
0
10
474.000000
20
654.000000
0
VERTEX
8
0
10
470.615385
20
669.923077
0
VERTEX
8
0
10
463.300000
20
690.100000
0
VERTEX
8
0
10
458.769231
20
699.846154
0
VERTEX
8
0
10
445.240000
20
721.180000
0
VERTEX
8
0
10
430.000000
20
740.000000
0
VERTEX
8
0
10
408.000000
20
762.000000
0
VERTEX
8
0
10
385.100000
20
777.200000
0
VERTEX
8
0
10
383.100000
20
778.200000
0
VERTEX
8
0
10
380.000000
20
779.500000
0
VERTEX
8
0
10
375.846154
20
777.230769
0
VERTEX
8
0
10
347.000000
20
755.000000
0
VERTEX
8
0
10
327.249057
20
733.771698
0
VERTEX
8
0
10
317.769231
20
722.153846
0
VERTEX
8
0
10
304.230769
20
701.846154
0
VERTEX
8
0
10
296.300000
20
686.900000
0
VERTEX
8
0
10
289.700000
20
666.100000
0
VERTEX
8
0
10
287.000000
20
656.000000
0
VERTEX
8
0
10
287.000000
20
648.000000
0
VERTEX
8
0
10
289.405405
20
635.067568
0
VERTEX
8
0
10
292.300000
20
625.100000
0
VERTEX
8
0
10
294.800000
20
619.900000
0
VERTEX
8
0
10
298.000000
20
614.000000
0
VERTEX
8
0
10
307.900000
20
605.800000
0
VERTEX
8
0
10
320.000000
20
601.000000
0
VERTEX
8
0
10
331.000000
20
601.000000
0
VERTEX
8
0
10
332.900000
20
602.200000
0
VERTEX
8
0
10
334.100000
20
602.700000
0
VERTEX
8
0
10
344.820000
20
608.240000
0
VERTEX
8
0
10
354.000000
20
615.000000
0
VERTEX
8
0
10
355.000000
20
614.000000
0
VERTEX
8
0
10
355.000000
20
610.000000
0
VERTEX
8
0
10
352.647059
20
601.088235
0
VERTEX
8
0
10
352.200000
20
599.900000
0
VERTEX
8
0
10
342.230769
20
581.846154
0
VERTEX
8
0
10
337.245902
20
575.795082
0
VERTEX
8
0
10
326.800000
20
566.100000
0
VERTEX
8
0
10
326.000000
20
563.000000
0
VERTEX
8
0
10
329.230769
20
556.153846
0
VERTEX
8
0
10
331.000000
20
553.000000
0
VERTEX
8
0
10
334.900000
20
549.800000
0
VERTEX
8
0
10
336.000000
20
549.000000
0
VERTEX
8
0
10
340.000000
20
550.000000
0
VERTEX
8
0
10
346.000000
20
556.000000
0
VERTEX
8
0
10
351.760000
20
564.180000
0
VERTEX
8
0
10
359.700000
20
579.100000
0
VERTEX
8
0
10
360.300000
20
580.900000
0
VERTEX
8
0
10
366.000000
20
606.000000
0
VERTEX
8
0
10
366.000000
20
616.000000
0
VERTEX
8
0
10
362.647059
20
633.911765
0
VERTEX
8
0
10
361.200000
20
638.100000
0
VERTEX
8
0
10
356.754098
20
646.795082
0
VERTEX
8
0
10
349.000000
20
656.000000
0
VERTEX
8
0
10
335.000000
20
661.000000
0
VERTEX
8
0
10
329.000000
20
661.000000
0
VERTEX
8
0
10
325.100000
20
658.800000
0
VERTEX
8
0
10
323.900000
20
658.200000
0
VERTEX
8
0
10
317.000000
20
653.000000
0
VERTEX
8
0
10
315.000000
20
643.000000
0
VERTEX
8
0
10
319.000000
20
637.000000
0
VERTEX
8
0
10
325.000000
20
636.000000
0
VERTEX
8
0
10
337.900000
20
643.200000
0
VERTEX
8
0
10
339.000000
20
644.000000
0
VERTEX
8
0
10
341.000000
20
644.000000
0
VERTEX
8
0
10
344.000000
20
641.000000
0
VERTEX
8
0
10
346.000000
20
635.000000
0
VERTEX
8
0
10
344.000000
20
624.000000
0
VERTEX
8
0
10
335.100000
20
618.800000
0
VERTEX
8
0
10
330.100000
20
616.800000
0
VERTEX
8
0
10
329.000000
20
616.000000
0
VERTEX
8
0
10
321.000000
20
616.000000
0
VERTEX
8
0
10
315.000000
20
619.000000
0
VERTEX
8
0
10
307.000000
20
627.000000
0
VERTEX
8
0
10
306.200000
20
629.100000
0
VERTEX
8
0
10
305.800000
20
629.900000
0
VERTEX
8
0
10
303.000000
20
635.000000
0
VERTEX
8
0
10
303.000000
20
657.000000
0
VERTEX
8
0
10
306.352941
20
672.911765
0
VERTEX
8
0
10
306.800000
20
674.100000
0
VERTEX
8
0
10
308.000000
20
677.000000
0
VERTEX
8
0
10
315.000000
20
684.000000
0
VERTEX
8
0
10
326.100000
20
690.800000
0
VERTEX
8
0
10
332.000000
20
693.000000
0
VERTEX
8
0
10
325.000000
20
710.000000
0
VERTEX
8
0
10
327.800000
20
715.100000
0
VERTEX
8
0
10
341.000000
20
731.000000
0
VERTEX
8
0
10
359.000000
20
749.000000
0
VERTEX
8
0
10
371.180000
20
758.760000
0
VERTEX
8
0
10
371.846154
20
759.230769
0
VERTEX
8
0
10
378.000000
20
763.000000
0
VERTEX
8
0
10
382.000000
20
763.000000
0
VERTEX
8
0
10
384.900000
20
761.700000
0
VERTEX
8
0
10
396.769968
20
754.750799
0
VERTEX
8
0
10
425.000000
20
728.000000
0
VERTEX
8
0
10
435.800000
20
712.900000
0
VERTEX
8
0
10
436.500000
20
711.000000
0
VERTEX
8
0
10
432.754098
20
705.204918
0
VERTEX
8
0
10
428.000000
20
700.000000
0
VERTEX
8
0
10
428.000000
20
696.000000
0
VERTEX
8
0
10
431.000000
20
693.000000
0
VERTEX
8
0
10
438.153846
20
689.230769
0
VERTEX
8
0
10
438.820000
20
688.760000
0
VERTEX
8
0
10
447.000000
20
682.000000
0
VERTEX
8
0
10
453.769231
20
671.846154
0
VERTEX
8
0
10
456.700000
20
663.900000
0
VERTEX
8
0
10
457.300000
20
662.100000
0
VERTEX
8
0
10
459.000000
20
654.000000
0
VERTEX
8
0
10
459.000000
20
639.000000
0
VERTEX
8
0
10
454.760000
20
630.180000
0
VERTEX
8
0
10
452.000000
20
626.000000
0
VERTEX
8
0
10
444.153846
20
619.769231
0
VERTEX
8
0
10
438.076923
20
617.615385
0
VERTEX
8
0
10
434.000000
20
617.000000
0
VERTEX
8
0
10
426.000000
20
621.000000
0
VERTEX
8
0
10
419.800000
20
629.900000
0
VERTEX
8
0
10
418.800000
20
631.900000
0
VERTEX
8
0
10
417.000000
20
636.000000
0
VERTEX
8
0
10
418.000000
20
643.000000
0
VERTEX
8
0
10
423.000000
20
648.000000
0
VERTEX
8
0
10
426.000000
20
647.000000
0
VERTEX
8
0
10
427.000000
20
646.000000
0
VERTEX
8
0
10
428.000000
20
639.000000
0
VERTEX
8
0
10
431.000000
20
636.000000
0
VERTEX
8
0
10
436.000000
20
634.000000
0
VERTEX
8
0
10
438.000000
20
634.000000
0
VERTEX
8
0
10
443.000000
20
637.000000
0
VERTEX
8
0
10
444.600000
20
640.200000
0
VERTEX
8
0
10
446.000000
20
645.000000
0
VERTEX
8
0
10
444.300000
20
649.100000
0
VERTEX
8
0
10
442.756098
20
652.804878
0
VERTEX
8
0
10
436.000000
20
661.000000
0
VERTEX
8
0
10
433.900000
20
661.800000
0
VERTEX
8
0
10
429.088235
20
663.352941
0
VERTEX
8
0
10
423.000000
20
664.000000
0
VERTEX
8
0
10
417.900000
20
662.300000
0
VERTEX
8
0
10
414.180000
20
660.760000
0
VERTEX
8
0
10
410.000000
20
658.000000
0
VERTEX
8
0
10
405.769231
20
652.153846
0
VERTEX
8
0
10
403.800000
20
649.100000
0
VERTEX
8
0
10
402.420000
20
645.940000
0
VERTEX
8
0
10
401.580000
20
640.060000
0
VERTEX
8
0
10
400.000000
20
628.000000
0
VERTEX
8
0
10
400.000000
20
599.000000
0
VERTEX
8
0
10
402.300000
20
593.100000
0
VERTEX
8
0
10
404.300000
20
587.100000
0
VERTEX
8
0
10
413.230769
20
568.153846
0
VERTEX
8
0
10
431.000000
20
545.000000
0
VERTEX
8
0
10
432.000000
20
545.000000
0
VERTEX
8
0
10
433.200000
20
546.900000
0
VERTEX
8
0
10
436.200000
20
553.900000
0
VERTEX
8
0
10
439.000000
20
559.000000
0
VERTEX
8
0
10
439.000000
20
563.000000
0
VERTEX
8
0
10
424.760000
20
578.820000
0
VERTEX
8
0
10
422.240000
20
582.180000
0
VERTEX
8
0
10
417.200000
20
591.100000
0
VERTEX
8
0
10
416.300000
20
593.100000
0
VERTEX
8
0
10
409.405405
20
614.067568
0
VERTEX
8
0
10
409.000000
20
619.000000
0
SEQEND
0
POLYLINE
8
0
6
CONTINUOUS
66
1
62
7
10
0.0
20
0.0
30
0.000000
0
VERTEX
8
0
10
195.000000
20
518.000000
0
VERTEX
8
0
10
194.000000
20
518.000000
0
SEQEND
0
POLYLINE
8
0
6
CONTINUOUS
66
1
62
7
10
0.0
20
0.0
30
0.000000
0
VERTEX
8
0
10
634.000000
20
498.000000
0
VERTEX
8
0
10
632.000000
20
498.000000
0
SEQEND
0
POLYLINE
8
0
6
CONTINUOUS
66
1
62
7
10
0.0
20
0.0
30
0.000000
0
VERTEX
8
0
10
134.000000
20
496.000000
0
VERTEX
8
0
10
134.000000
20
497.000000
0
SEQEND
0
POLYLINE
8
0
6
CONTINUOUS
66
1
62
7
10
0.0
20
0.0
30
0.000000
0
VERTEX
8
0
10
136.000000
20
495.000000
0
VERTEX
8
0
10
134.000000
20
496.000000
0
SEQEND
0
POLYLINE
8
0
6
CONTINUOUS
66
1
62
7
10
0.0
20
0.0
30
0.000000
0
VERTEX
8
0
10
136.000000
20
495.000000
0
VERTEX
8
0
10
136.000000
20
496.000000
0
VERTEX
8
0
10
134.000000
20
497.000000
0
SEQEND
0
POLYLINE
8
0
6
CONTINUOUS
66
1
62
7
10
0.0
20
0.0
30
0.000000
0
VERTEX
8
0
10
138.000000
20
495.000000
0
VERTEX
8
0
10
136.000000
20
495.000000
0
SEQEND
0
POLYLINE
8
0
6
CONTINUOUS
66
1
62
7
10
0.0
20
0.0
30
0.000000
0
VERTEX
8
0
10
353.000000
20
490.000000
0
VERTEX
8
0
10
330.923077
20
493.615385
0
VERTEX
8
0
10
312.900000
20
498.700000
0
VERTEX
8
0
10
311.100000
20
499.300000
0
VERTEX
8
0
10
306.000000
20
502.000000
0
VERTEX
8
0
10
303.000000
20
502.000000
0
VERTEX
8
0
10
284.088235
20
494.647059
0
VERTEX
8
0
10
282.932432
20
494.405405
0
VERTEX
8
0
10
275.000000
20
493.000000
0
VERTEX
8
0
10
273.100000
20
494.200000
0
VERTEX
8
0
10
259.000000
20
501.000000
0
VERTEX
8
0
10
253.000000
20
501.000000
0
VERTEX
8
0
10
244.100000
20
496.800000
0
VERTEX
8
0
10
235.000000
20
493.000000
0
VERTEX
8
0
10
225.000000
20
493.000000
0
VERTEX
8
0
10
164.053846
20
498.430769
0
VERTEX
8
0
10
155.100000
20
502.200000
0
VERTEX
8
0
10
151.900000
20
503.800000
0
VERTEX
8
0
10
146.211765
20
507.247059
0
VERTEX
8
0
10
127.000000
20
525.000000
0
VERTEX
8
0
10
123.911765
20
524.352941
0
VERTEX
8
0
10
118.100000
20
522.700000
0
VERTEX
8
0
10
111.000000
20
519.000000
0
VERTEX
8
0
10
111.000000
20
516.000000
0
VERTEX
8
0
10
112.400000
20
513.200000
0
VERTEX
8
0
10
113.769231
20
510.846154
0
VERTEX
8
0
10
118.000000
20
506.000000
0
VERTEX
8
0
10
134.000000
20
497.000000
0
SEQEND
0
POLYLINE
8
0
6
CONTINUOUS
66
1
62
7
10
0.0
20
0.0
30
0.000000
0
VERTEX
8
0
10
357.000000
20
490.000000
0
VERTEX
8
0
10
353.000000
20
490.000000
0
SEQEND
0
POLYLINE
8
0
6
CONTINUOUS
66
1
62
7
10
0.0
20
0.0
30
0.000000
0
VERTEX
8
0
10
421.000000
20
490.000000
0
VERTEX
8
0
10
415.000000
20
491.000000
0
SEQEND
0
POLYLINE
8
0
6
CONTINUOUS
66
1
62
7
10
0.0
20
0.0
30
0.000000
0
VERTEX
8
0
10
421.000000
20
490.000000
0
VERTEX
8
0
10
436.911765
20
494.352941
0
VERTEX
8
0
10
456.900000
20
501.200000
0
VERTEX
8
0
10
459.900000
20
502.300000
0
VERTEX
8
0
10
463.000000
20
504.000000
0
VERTEX
8
0
10
470.000000
20
504.000000
0
VERTEX
8
0
10
471.100000
20
503.200000
0
VERTEX
8
0
10
479.100000
20
499.300000
0
VERTEX
8
0
10
480.900000
20
498.700000
0
VERTEX
8
0
10
494.000000
20
497.000000
0
VERTEX
8
0
10
496.900000
20
498.300000
0
VERTEX
8
0
10
504.180000
20
502.760000
0
VERTEX
8
0
10
512.000000
20
506.000000
0
VERTEX
8
0
10
516.000000
20
506.000000
0
VERTEX
8
0
10
517.100000
20
505.300000
0
VERTEX
8
0
10
524.820000
20
501.760000
0
VERTEX
8
0
10
528.846154
20
498.769231
0
VERTEX
8
0
10
537.000000
20
495.000000
0
VERTEX
8
0
10
546.000000
20
495.000000
0
VERTEX
8
0
10
591.946154
20
499.430769
0
VERTEX
8
0
10
593.067568
20
499.594595
0
VERTEX
8
0
10
611.911765
20
504.352941
0
VERTEX
8
0
10
623.100000
20
509.800000
0
VERTEX
8
0
10
626.000000
20
511.000000
0
VERTEX
8
0
10
637.000000
20
522.000000
0
VERTEX
8
0
10
637.000000
20
523.000000
0
VERTEX
8
0
10
642.900000
20
528.200000
0
VERTEX
8
0
10
644.000000
20
529.000000
0
VERTEX
8
0
10
650.100000
20
527.200000
0
VERTEX
8
0
10
653.000000
20
526.000000
0
VERTEX
8
0
10
659.000000
20
520.000000
0
VERTEX
8
0
10
654.000000
20
513.000000
0
VERTEX
8
0
10
653.180000
20
512.760000
0
VERTEX
8
0
10
634.000000
20
499.000000
0
VERTEX
8
0
10
634.000000
20
498.000000
0
SEQEND
0
POLYLINE
8
0
6
CONTINUOUS
66
1
62
7
10
0.0
20
0.0
30
0.000000
0
VERTEX
8
0
10
637.000000
20
484.000000
0
VERTEX
8
0
10
635.000000
20
485.000000
0
SEQEND
0
POLYLINE
8
0
6
CONTINUOUS
66
1
62
7
10
0.0
20
0.0
30
0.000000
0
VERTEX
8
0
10
637.000000
20
484.000000
0
VERTEX
8
0
10
638.000000
20
485.000000
0
VERTEX
8
0
10
650.000000
20
485.000000
0
VERTEX
8
0
10
667.900000
20
480.700000
0
VERTEX
8
0
10
669.088235
20
480.352941
0
VERTEX
8
0
10
678.000000
20
478.000000
0
VERTEX
8
0
10
679.100000
20
478.800000
0
VERTEX
8
0
10
691.000000
20
486.000000
0
VERTEX
8
0
10
693.200000
20
488.900000
0
VERTEX
8
0
10
694.500000
20
492.000000
0
VERTEX
8
0
10
694.200000
20
493.100000
0
VERTEX
8
0
10
693.000000
20
496.000000
0
VERTEX
8
0
10
686.000000
20
503.000000
0
VERTEX
8
0
10
683.900000
20
503.800000
0
VERTEX
8
0
10
680.000000
20
506.000000
0
VERTEX
8
0
10
665.900000
20
502.300000
0
VERTEX
8
0
10
661.100000
20
500.700000
0
VERTEX
8
0
10
650.053846
20
498.569231
0
VERTEX
8
0
10
634.000000
20
498.000000
0
SEQEND
0
POLYLINE
8
0
6
CONTINUOUS
66
1
62
7
10
0.0
20
0.0
30
0.000000
0
VERTEX
8
0
10
574.000000
20
463.000000
0
VERTEX
8
0
10
576.000000
20
464.000000
0
SEQEND
0
POLYLINE
8
0
6
CONTINUOUS
66
1
62
7
10
0.0
20
0.0
30
0.000000
0
VERTEX
8
0
10
197.000000
20
462.000000
0
VERTEX
8
0
10
196.000000
20
463.000000
0
VERTEX
8
0
10
197.000000
20
464.000000
0
VERTEX
8
0
10
198.000000
20
463.000000
0
SEQEND
0
POLYLINE
8
0
6
CONTINUOUS
66
1
62
7
10
0.0
20
0.0
30
0.000000
0
VERTEX
8
0
10
197.000000
20
462.000000
0
VERTEX
8
0
10
198.000000
20
463.000000
0
SEQEND
0
POLYLINE
8
0
6
CONTINUOUS
66
1
62
7
10
0.0
20
0.0
30
0.000000
0
VERTEX
8
0
10
421.000000
20
490.000000
0
VERTEX
8
0
10
445.911765
20
483.647059
0
VERTEX
8
0
10
464.000000
20
479.000000
0
VERTEX
8
0
10
471.000000
20
479.000000
0
VERTEX
8
0
10
482.900000
20
484.200000
0
VERTEX
8
0
10
484.088235
20
484.647059
0
VERTEX
8
0
10
496.000000
20
487.000000
0
VERTEX
8
0
10
512.000000
20
479.000000
0
VERTEX
8
0
10
519.100000
20
480.700000
0
VERTEX
8
0
10
536.000000
20
488.000000
0
VERTEX
8
0
10
570.053846
20
486.430769
0
VERTEX
8
0
10
585.951220
20
484.560976
0
VERTEX
8
0
10
609.100000
20
481.300000
0
VERTEX
8
0
10
614.100000
20
479.300000
0
VERTEX
8
0
10
619.846154
20
476.769231
0
VERTEX
8
0
10
625.846154
20
472.769231
0
VERTEX
8
0
10
636.000000
20
465.000000
0
VERTEX
8
0
10
639.200000
20
459.100000
0
VERTEX
8
0
10
642.000000
20
454.000000
0
VERTEX
8
0
10
644.100000
20
454.800000
0
VERTEX
8
0
10
655.000000
20
460.000000
0
VERTEX
8
0
10
658.000000
20
463.000000
0
VERTEX
8
0
10
658.500000
20
465.000000
0
VERTEX
8
0
10
655.000000
20
472.000000
0
VERTEX
8
0
10
652.000000
20
475.000000
0
VERTEX
8
0
10
637.000000
20
484.000000
0
SEQEND
0
POLYLINE
8
0
6
CONTINUOUS
66
1
62
7
10
0.0
20
0.0
30
0.000000
0
VERTEX
8
0
10
134.000000
20
496.000000
0
VERTEX
8
0
10
113.067568
20
498.405405
0
VERTEX
8
0
10
103.100000
20
501.300000
0
VERTEX
8
0
10
96.100000
20
504.200000
0
VERTEX
8
0
10
95.000000
20
505.000000
0
VERTEX
8
0
10
90.000000
20
505.000000
0
VERTEX
8
0
10
86.000000
20
502.000000
0
VERTEX
8
0
10
79.756098
20
495.195122
0
VERTEX
8
0
10
74.000000
20
488.000000
0
VERTEX
8
0
10
82.900000
20
480.800000
0
VERTEX
8
0
10
90.000000
20
477.000000
0
VERTEX
8
0
10
130.000000
20
485.000000
0
VERTEX
8
0
10
137.000000
20
485.000000
0
VERTEX
8
0
10
138.000000
20
484.000000
0
VERTEX
8
0
10
120.900000
20
473.200000
0
VERTEX
8
0
10
113.000000
20
466.000000
0
VERTEX
8
0
10
112.000000
20
461.000000
0
VERTEX
8
0
10
114.000000
20
458.000000
0
VERTEX
8
0
10
119.846154
20
453.769231
0
VERTEX
8
0
10
122.900000
20
451.800000
0
VERTEX
8
0
10
123.533074
20
451.529183
0
VERTEX
8
0
10
146.204918
20
471.754098
0
VERTEX
8
0
10
150.100000
20
473.800000
0
VERTEX
8
0
10
152.100000
20
474.800000
0
VERTEX
8
0
10
160.911765
20
478.352941
0
VERTEX
8
0
10
171.076923
20
480.615385
0
VERTEX
8
0
10
197.022624
20
483.524887
0
VERTEX
8
0
10
218.000000
20
485.000000
0
VERTEX
8
0
10
233.000000
20
485.000000
0
VERTEX
8
0
10
236.911765
20
483.647059
0
VERTEX
8
0
10
251.900000
20
475.800000
0
VERTEX
8
0
10
253.000000
20
475.000000
0
VERTEX
8
0
10
259.076923
20
475.615385
0
VERTEX
8
0
10
262.923077
20
476.384615
0
VERTEX
8
0
10
270.000000
20
480.000000
0
VERTEX
8
0
10
270.000000
20
481.000000
0
VERTEX
8
0
10
274.000000
20
484.000000
0
VERTEX
8
0
10
282.000000
20
484.000000
0
VERTEX
8
0
10
284.900000
20
482.700000
0
VERTEX
8
0
10
286.100000
20
482.300000
0
VERTEX
8
0
10
301.000000
20
475.000000
0
VERTEX
8
0
10
305.000000
20
475.000000
0
VERTEX
8
0
10
323.900000
20
482.300000
0
VERTEX
8
0
10
327.100000
20
483.700000
0
VERTEX
8
0
10
346.060000
20
488.580000
0
VERTEX
8
0
10
353.000000
20
490.000000
0
SEQEND
0
POLYLINE
8
0
6
CONTINUOUS
66
1
62
7
10
0.0
20
0.0
30
0.000000
0
VERTEX
8
0
10
195.000000
20
518.000000
0
VERTEX
8
0
10
196.000000
20
517.000000
0
VERTEX
8
0
10
202.000000
20
517.000000
0
VERTEX
8
0
10
208.940000
20
518.420000
0
VERTEX
8
0
10
210.100000
20
518.700000
0
VERTEX
8
0
10
223.100000
20
523.800000
0
VERTEX
8
0
10
227.900000
20
526.200000
0
VERTEX
8
0
10
252.000000
20
546.000000
0
VERTEX
8
0
10
255.000000
20
546.000000
0
VERTEX
8
0
10
256.100000
20
545.200000
0
VERTEX
8
0
10
263.000000
20
541.000000
0
VERTEX
8
0
10
266.000000
20
538.000000
0
VERTEX
8
0
10
266.000000
20
537.000000
0
VERTEX
8
0
10
260.000000
20
530.000000
0
VERTEX
8
0
10
246.100000
20
520.800000
0
VERTEX
8
0
10
220.911765
20
509.352941
0
VERTEX
8
0
10
218.088235
20
508.647059
0
VERTEX
8
0
10
196.000000
20
505.000000
0
VERTEX
8
0
10
187.000000
20
505.000000
0
VERTEX
8
0
10
170.100000
20
509.200000
0
VERTEX
8
0
10
168.900000
20
509.700000
0
VERTEX
8
0
10
162.180000
20
513.240000
0
VERTEX
8
0
10
158.000000
20
516.000000
0
VERTEX
8
0
10
155.769231
20
518.846154
0
VERTEX
8
0
10
151.000000
20
528.000000
0
VERTEX
8
0
10
151.000000
20
537.000000
0
VERTEX
8
0
10
155.000000
20
546.000000
0
VERTEX
8
0
10
158.000000
20
549.000000
0
VERTEX
8
0
10
165.000000
20
553.000000
0
VERTEX
8
0
10
172.000000
20
553.000000
0
VERTEX
8
0
10
173.846154
20
551.769231
0
VERTEX
8
0
10
178.000000
20
549.000000
0
VERTEX
8
0
10
180.000000
20
543.000000
0
VERTEX
8
0
10
176.000000
20
538.000000
0
VERTEX
8
0
10
169.000000
20
536.000000
0
VERTEX
8
0
10
166.000000
20
533.000000
0
VERTEX
8
0
10
166.800000
20
529.900000
0
VERTEX
8
0
10
167.000000
20
529.000000
0
VERTEX
8
0
10
172.900000
20
524.800000
0
VERTEX
8
0
10
178.000000
20
523.000000
0
VERTEX
8
0
10
186.100000
20
525.800000
0
VERTEX
8
0
10
187.000000
20
526.000000
0
VERTEX
8
0
10
188.240000
20
527.820000
0
VERTEX
8
0
10
190.760000
20
531.180000
0
VERTEX
8
0
10
193.700000
20
538.100000
0
VERTEX
8
0
10
194.300000
20
539.900000
0
VERTEX
8
0
10
195.000000
20
541.000000
0
VERTEX
8
0
10
195.000000
20
547.000000
0
VERTEX
8
0
10
193.178082
20
552.691781
0
VERTEX
8
0
10
191.240000
20
556.180000
0
VERTEX
8
0
10
187.000000
20
561.000000
0
VERTEX
8
0
10
180.900000
20
563.800000
0
VERTEX
8
0
10
176.088235
20
565.352941
0
VERTEX
8
0
10
168.000000
20
567.000000
0
VERTEX
8
0
10
160.000000
20
567.000000
0
VERTEX
8
0
10
146.100000
20
562.700000
0
VERTEX
8
0
10
144.900000
20
562.200000
0
VERTEX
8
0
10
140.195122
20
559.756098
0
VERTEX
8
0
10
135.804878
20
556.243902
0
VERTEX
8
0
10
129.000000
20
550.000000
0
VERTEX
8
0
10
120.240000
20
537.820000
0
VERTEX
8
0
10
119.000000
20
536.000000
0
VERTEX
8
0
10
106.000000
20
544.000000
0
VERTEX
8
0
10
104.000000
20
544.000000
0
VERTEX
8
0
10
96.100000
20
539.800000
0
VERTEX
8
0
10
94.900000
20
539.200000
0
VERTEX
8
0
10
77.000000
20
524.000000
0
VERTEX
8
0
10
69.000000
20
516.000000
0
VERTEX
8
0
10
52.000000
20
495.000000
0
VERTEX
8
0
10
52.000000
20
487.000000
0
VERTEX
8
0
10
53.200000
20
485.100000
0
VERTEX
8
0
10
54.800000
20
481.900000
0
VERTEX
8
0
10
62.243902
20
471.195122
0
VERTEX
8
0
10
69.756098
20
461.804878
0
VERTEX
8
0
10
73.000000
20
457.000000
0
VERTEX
8
0
10
96.204918
20
436.245902
0
VERTEX
8
0
10
100.100000
20
434.200000
0
VERTEX
8
0
10
104.000000
20
432.000000
0
VERTEX
8
0
10
107.000000
20
432.000000
0
VERTEX
8
0
10
111.195122
20
435.756098
0
VERTEX
8
0
10
116.000000
20
438.000000
0
VERTEX
8
0
10
120.000000
20
438.000000
0
VERTEX
8
0
10
123.200000
20
434.100000
0
VERTEX
8
0
10
127.000000
20
424.000000
0
VERTEX
8
0
10
131.820000
20
419.760000
0
VERTEX
8
0
10
137.100000
20
416.200000
0
VERTEX
8
0
10
146.911765
20
412.647059
0
VERTEX
8
0
10
153.900000
20
410.700000
0
VERTEX
8
0
10
159.000000
20
409.000000
0
VERTEX
8
0
10
172.000000
20
409.000000
0
VERTEX
8
0
10
177.932432
20
410.405405
0
VERTEX
8
0
10
181.900000
20
412.200000
0
VERTEX
8
0
10
185.100000
20
413.800000
0
VERTEX
8
0
10
192.000000
20
418.000000
0
VERTEX
8
0
10
195.200000
20
421.900000
0
VERTEX
8
0
10
198.000000
20
429.000000
0
VERTEX
8
0
10
198.000000
20
434.000000
0
VERTEX
8
0
10
196.615385
20
438.923077
0
VERTEX
8
0
10
192.000000
20
448.000000
0
VERTEX
8
0
10
187.100000
20
451.200000
0
VERTEX
8
0
10
180.000000
20
454.000000
0
VERTEX
8
0
10
176.100000
20
452.800000
0
VERTEX
8
0
10
174.900000
20
452.200000
0
VERTEX
8
0
10
169.000000
20
447.000000
0
VERTEX
8
0
10
176.000000
20
435.000000
0
VERTEX
8
0
10
176.000000
20
430.000000
0
VERTEX
8
0
10
173.000000
20
426.000000
0
VERTEX
8
0
10
167.000000
20
424.000000
0
VERTEX
8
0
10
163.100000
20
425.200000
0
VERTEX
8
0
10
161.900000
20
425.800000
0
VERTEX
8
0
10
159.000000
20
427.000000
0
VERTEX
8
0
10
154.000000
20
432.000000
0
VERTEX
8
0
10
153.000000
20
437.000000
0
VERTEX
8
0
10
153.000000
20
443.000000
0
VERTEX
8
0
10
154.384615
20
447.923077
0
VERTEX
8
0
10
154.700000
20
449.100000
0
VERTEX
8
0
10
157.769231
20
455.153846
0
VERTEX
8
0
10
160.000000
20
459.000000
0
VERTEX
8
0
10
171.100000
20
466.800000
0
VERTEX
8
0
10
173.100000
20
467.700000
0
VERTEX
8
0
10
187.060000
20
471.580000
0
VERTEX
8
0
10
194.000000
20
473.000000
0
VERTEX
8
0
10
205.048780
20
472.439024
0
VERTEX
8
0
10
214.067568
20
471.405405
0
VERTEX
8
0
10
230.900000
20
467.700000
0
VERTEX
8
0
10
233.900000
20
466.700000
0
VERTEX
8
0
10
245.153846
20
461.230769
0
VERTEX
8
0
10
245.820000
20
460.760000
0
VERTEX
8
0
10
262.000000
20
449.000000
0
VERTEX
8
0
10
262.700000
20
446.900000
0
VERTEX
8
0
10
264.000000
20
442.000000
0
VERTEX
8
0
10
262.000000
20
438.000000
0
VERTEX
8
0
10
253.911765
20
434.352941
0
VERTEX
8
0
10
249.000000
20
433.000000
0
VERTEX
8
0
10
238.000000
20
443.000000
0
VERTEX
8
0
10
238.000000
20
444.000000
0
VERTEX
8
0
10
234.000000
20
448.000000
0
VERTEX
8
0
10
227.846154
20
451.769231
0
VERTEX
8
0
10
224.846154
20
453.769231
0
VERTEX
8
0
10
210.900000
20
459.800000
0
VERTEX
8
0
10
210.100000
20
460.200000
0
VERTEX
8
0
10
201.923077
20
462.615385
0
VERTEX
8
0
10
198.000000
20
463.000000
0
SEQEND
0
POLYLINE
8
0
6
CONTINUOUS
66
1
62
7
10
0.0
20
0.0
30
0.000000
0
VERTEX
8
0
10
574.000000
20
463.000000
0
VERTEX
8
0
10
561.000000
20
451.000000
0
VERTEX
8
0
10
558.352941
20
444.911765
0
VERTEX
8
0
10
557.647059
20
442.088235
0
VERTEX
8
0
10
557.000000
20
441.000000
0
VERTEX
8
0
10
557.000000
20
435.000000
0
VERTEX
8
0
10
562.200000
20
421.100000
0
VERTEX
8
0
10
564.200000
20
417.100000
0
VERTEX
8
0
10
567.000000
20
413.000000
0
VERTEX
8
0
10
575.180000
20
407.240000
0
VERTEX
8
0
10
591.000000
20
400.000000
0
VERTEX
8
0
10
611.000000
20
400.000000
0
VERTEX
8
0
10
626.911765
20
404.352941
0
VERTEX
8
0
10
644.900000
20
411.200000
0
VERTEX
8
0
10
654.100000
20
415.800000
0
VERTEX
8
0
10
673.846154
20
427.230769
0
VERTEX
8
0
10
679.153846
20
430.769231
0
VERTEX
8
0
10
694.000000
20
441.000000
0
VERTEX
8
0
10
715.000000
20
462.000000
0
VERTEX
8
0
10
721.752212
20
470.216814
0
VERTEX
8
0
10
726.769231
20
478.153846
0
VERTEX
8
0
10
729.200000
20
481.900000
0
VERTEX
8
0
10
733.000000
20
490.000000
0
VERTEX
8
0
10
733.000000
20
494.000000
0
VERTEX
8
0
10
731.647059
20
497.911765
0
VERTEX
8
0
10
731.200000
20
499.100000
0
VERTEX
8
0
10
727.756098
20
505.804878
0
VERTEX
8
0
10
718.752941
20
516.788235
0
VERTEX
8
0
10
698.000000
20
540.000000
0
VERTEX
8
0
10
683.795082
20
551.754098
0
VERTEX
8
0
10
665.846154
20
564.769231
0
VERTEX
8
0
10
651.100000
20
573.200000
0
VERTEX
8
0
10
634.911765
20
580.647059
0
VERTEX
8
0
10
624.088235
20
583.352941
0
VERTEX
8
0
10
611.000000
20
586.000000
0
VERTEX
8
0
10
595.000000
20
586.000000
0
VERTEX
8
0
10
587.088235
20
583.647059
0
VERTEX
8
0
10
575.100000
20
578.800000
0
VERTEX
8
0
10
573.900000
20
578.200000
0
VERTEX
8
0
10
569.000000
20
575.000000
0
VERTEX
8
0
10
563.000000
20
569.000000
0
VERTEX
8
0
10
559.300000
20
562.900000
0
VERTEX
8
0
10
558.700000
20
561.100000
0
VERTEX
8
0
10
557.000000
20
557.000000
0
VERTEX
8
0
10
557.000000
20
545.000000
0
VERTEX
8
0
10
561.230769
20
534.153846
0
VERTEX
8
0
10
571.000000
20
521.000000
0
VERTEX
8
0
10
570.000000
20
520.000000
0
VERTEX
8
0
10
562.000000
20
520.000000
0
VERTEX
8
0
10
550.100000
20
523.300000
0
VERTEX
8
0
10
548.900000
20
523.800000
0
VERTEX
8
0
10
536.820000
20
531.760000
0
VERTEX
8
0
10
536.180000
20
532.240000
0
VERTEX
8
0
10
520.000000
20
546.000000
0
VERTEX
8
0
10
514.000000
20
546.000000
0
VERTEX
8
0
10
511.100000
20
544.700000
0
VERTEX
8
0
10
509.900000
20
544.200000
0
VERTEX
8
0
10
504.000000
20
540.000000
0
VERTEX
8
0
10
503.800000
20
539.100000
0
VERTEX
8
0
10
504.769231
20
535.846154
0
VERTEX
8
0
10
509.000000
20
530.000000
0
VERTEX
8
0
10
522.900000
20
519.800000
0
VERTEX
8
0
10
526.100000
20
518.200000
0
VERTEX
8
0
10
539.911765
20
512.647059
0
VERTEX
8
0
10
547.911765
20
510.647059
0
VERTEX
8
0
10
562.000000
20
508.000000
0
VERTEX
8
0
10
572.000000
20
508.000000
0
VERTEX
8
0
10
584.923077
20
510.384615
0
VERTEX
8
0
10
596.900000
20
514.200000
0
VERTEX
8
0
10
606.000000
20
520.000000
0
VERTEX
8
0
10
613.200000
20
529.900000
0
VERTEX
8
0
10
616.352941
20
539.911765
0
VERTEX
8
0
10
617.000000
20
545.000000
0
VERTEX
8
0
10
613.240000
20
553.180000
0
VERTEX
8
0
10
611.000000
20
556.000000
0
VERTEX
8
0
10
607.000000
20
557.000000
0
VERTEX
8
0
10
595.000000
20
556.000000
0
VERTEX
8
0
10
592.000000
20
553.000000
0
VERTEX
8
0
10
591.000000
20
550.000000
0
VERTEX
8
0
10
591.800000
20
546.900000
0
VERTEX
8
0
10
594.230769
20
543.153846
0
VERTEX
8
0
10
598.500000
20
535.000000
0
VERTEX
8
0
10
596.000000
20
530.000000
0
VERTEX
8
0
10
595.100000
20
529.800000
0
VERTEX
8
0
10
590.000000
20
527.000000
0
VERTEX
8
0
10
587.000000
20
527.000000
0
VERTEX
8
0
10
577.000000
20
532.000000
0
VERTEX
8
0
10
574.800000
20
535.900000
0
VERTEX
8
0
10
573.800000
20
537.900000
0
VERTEX
8
0
10
572.000000
20
545.000000
0
VERTEX
8
0
10
572.000000
20
554.000000
0
VERTEX
8
0
10
572.647059
20
555.088235
0
VERTEX
8
0
10
575.000000
20
561.000000
0
VERTEX
8
0
10
579.000000
20
565.000000
0
VERTEX
8
0
10
586.100000
20
568.800000
0
VERTEX
8
0
10
586.900000
20
569.200000
0
VERTEX
8
0
10
600.000000
20
573.000000
0
VERTEX
8
0
10
606.000000
20
573.000000
0
VERTEX
8
0
10
617.932432
20
570.594595
0
VERTEX
8
0
10
619.088235
20
570.352941
0
VERTEX
8
0
10
628.900000
20
566.800000
0
VERTEX
8
0
10
635.000000
20
564.000000
0
VERTEX
8
0
10
641.200000
20
556.100000
0
VERTEX
8
0
10
644.800000
20
548.900000
0
VERTEX
8
0
10
646.000000
20
546.000000
0
VERTEX
8
0
10
650.000000
20
542.000000
0
VERTEX
8
0
10
655.820000
20
545.240000
0
VERTEX
8
0
10
659.846154
20
548.230769
0
VERTEX
8
0
10
662.000000
20
550.000000
0
VERTEX
8
0
10
667.000000
20
550.000000
0
VERTEX
8
0
10
673.804878
20
544.756098
0
VERTEX
8
0
10
678.195122
20
541.243902
0
VERTEX
8
0
10
683.000000
20
538.000000
0
VERTEX
8
0
10
701.000000
20
520.000000
0
VERTEX
8
0
10
708.760000
20
508.820000
0
VERTEX
8
0
10
714.800000
20
497.900000
0
VERTEX
8
0
10
715.200000
20
497.100000
0
VERTEX
8
0
10
717.000000
20
488.000000
0
VERTEX
8
0
10
713.800000
20
482.100000
0
VERTEX
8
0
10
704.245902
20
469.795082
0
VERTEX
8
0
10
695.228302
20
460.750943
0
VERTEX
8
0
10
683.771698
20
450.249057
0
VERTEX
8
0
10
673.900000
20
442.200000
0
VERTEX
8
0
10
673.100000
20
441.800000
0
VERTEX
8
0
10
665.000000
20
437.500000
0
VERTEX
8
0
10
663.900000
20
437.800000
0
VERTEX
8
0
10
654.000000
20
447.000000
0
VERTEX
8
0
10
651.000000
20
446.000000
0
VERTEX
8
0
10
648.000000
20
443.000000
0
VERTEX
8
0
10
646.200000
20
438.900000
0
VERTEX
8
0
10
645.769231
20
438.153846
0
VERTEX
8
0
10
637.000000
20
426.000000
0
VERTEX
8
0
10
628.100000
20
420.800000
0
VERTEX
8
0
10
618.923077
20
417.384615
0
VERTEX
8
0
10
608.060000
20
415.580000
0
VERTEX
8
0
10
598.000000
20
415.000000
0
VERTEX
8
0
10
590.053846
20
416.430769
0
VERTEX
8
0
10
586.100000
20
418.200000
0
VERTEX
8
0
10
584.100000
20
419.200000
0
VERTEX
8
0
10
580.000000
20
422.000000
0
VERTEX
8
0
10
577.240000
20
426.180000
0
VERTEX
8
0
10
575.000000
20
433.000000
0
VERTEX
8
0
10
575.000000
20
439.000000
0
VERTEX
8
0
10
578.240000
20
446.820000
0
VERTEX
8
0
10
584.000000
20
454.000000
0
VERTEX
8
0
10
584.900000
20
454.200000
0
VERTEX
8
0
10
590.000000
20
457.000000
0
VERTEX
8
0
10
594.088235
20
456.352941
0
VERTEX
8
0
10
601.000000
20
454.000000
0
VERTEX
8
0
10
603.000000
20
452.000000
0
VERTEX
8
0
10
604.000000
20
449.000000
0
VERTEX
8
0
10
602.000000
20
447.000000
0
VERTEX
8
0
10
600.100000
20
446.700000
0
VERTEX
8
0
10
593.250000
20
444.750000
0
VERTEX
8
0
10
592.000000
20
441.000000
0
VERTEX
8
0
10
592.000000
20
434.000000
0
VERTEX
8
0
10
594.000000
20
432.000000
0
VERTEX
8
0
10
599.000000
20
431.000000
0
VERTEX
8
0
10
612.000000
20
432.000000
0
VERTEX
8
0
10
616.700000
20
440.100000
0
VERTEX
8
0
10
619.000000
20
452.000000
0
VERTEX
8
0
10
618.300000
20
453.100000
0
VERTEX
8
0
10
616.000000
20
460.000000
0
VERTEX
8
0
10
608.000000
20
468.000000
0
VERTEX
8
0
10
599.900000
20
471.800000
0
VERTEX
8
0
10
599.100000
20
472.200000
0
VERTEX
8
0
10
587.060000
20
474.420000
0
VERTEX
8
0
10
586.000000
20
475.000000
0
VERTEX
8
0
10
565.000000
20
475.000000
0
VERTEX
8
0
10
553.067568
20
472.594595
0
VERTEX
8
0
10
551.911765
20
472.352941
0
VERTEX
8
0
10
534.900000
20
466.200000
0
VERTEX
8
0
10
520.846154
20
458.230769
0
VERTEX
8
0
10
506.000000
20
449.000000
0
VERTEX
8
0
10
504.000000
20
447.000000
0
VERTEX
8
0
10
503.000000
20
444.000000
0
VERTEX
8
0
10
511.000000
20
436.000000
0
VERTEX
8
0
10
515.000000
20
434.000000
0
VERTEX
8
0
10
518.000000
20
434.000000
0
VERTEX
8
0
10
522.768493
20
438.249315
0
VERTEX
8
0
10
536.231507
20
450.750685
0
VERTEX
8
0
10
550.100000
20
458.800000
0
VERTEX
8
0
10
553.900000
20
460.300000
0
VERTEX
8
0
10
563.048780
20
462.560976
0
VERTEX
8
0
10
573.000000
20
464.000000
0
VERTEX
8
0
10
574.000000
20
463.000000
0
SEQEND
0
POLYLINE
8
0
6
CONTINUOUS
66
1
62
7
10
0.0
20
0.0
30
0.000000
0
VERTEX
8
0
10
195.000000
20
518.000000
0
VERTEX
8
0
10
208.000000
20
528.000000
0
VERTEX
8
0
10
211.594595
20
536.067568
0
VERTEX
8
0
10
213.000000
20
542.000000
0
VERTEX
8
0
10
213.000000
20
547.000000
0
VERTEX
8
0
10
211.300000
20
551.100000
0
VERTEX
8
0
10
206.000000
20
563.000000
0
VERTEX
8
0
10
196.000000
20
573.000000
0
VERTEX
8
0
10
190.846154
20
575.769231
0
VERTEX
8
0
10
190.100000
20
576.200000
0
VERTEX
8
0
10
177.000000
20
581.000000
0
VERTEX
8
0
10
157.000000
20
581.000000
0
VERTEX
8
0
10
143.076923
20
577.615385
0
VERTEX
8
0
10
130.100000
20
572.700000
0
VERTEX
8
0
10
110.900000
20
563.200000
0
VERTEX
8
0
10
92.180000
20
551.760000
0
VERTEX
8
0
10
78.820000
20
542.240000
0
VERTEX
8
0
10
60.000000
20
526.000000
0
VERTEX
8
0
10
46.769231
20
509.153846
0
VERTEX
8
0
10
39.300000
20
496.900000
0
VERTEX
8
0
10
37.000000
20
491.000000
0
VERTEX
8
0
10
37.647059
20
486.911765
0
VERTEX
8
0
10
39.300000
20
481.100000
0
VERTEX
8
0
10
43.240000
20
475.180000
0
VERTEX
8
0
10
51.752941
20
464.788235
0
VERTEX
8
0
10
60.000000
20
455.000000
0
VERTEX
8
0
10
90.231507
20
426.249315
0
VERTEX
8
0
10
104.153846
20
417.230769
0
VERTEX
8
0
10
110.846154
20
412.769231
0
VERTEX
8
0
10
123.100000
20
406.300000
0
VERTEX
8
0
10
128.900000
20
403.800000
0
VERTEX
8
0
10
143.088235
20
398.352941
0
VERTEX
8
0
10
149.911765
20
396.647059
0
VERTEX
8
0
10
159.000000
20
395.000000
0
VERTEX
8
0
10
167.000000
20
395.000000
0
VERTEX
8
0
10
174.946154
20
396.430769
0
VERTEX
8
0
10
189.900000
20
400.300000
0
VERTEX
8
0
10
202.000000
20
408.000000
0
VERTEX
8
0
10
208.230769
20
415.846154
0
VERTEX
8
0
10
213.000000
20
427.000000
0
VERTEX
8
0
10
213.000000
20
438.000000
0
VERTEX
8
0
10
207.769231
20
447.846154
0
VERTEX
8
0
10
197.000000
20
462.000000
0
SEQEND
0
POLYLINE
8
0
6
CONTINUOUS
66
1
62
7
10
0.0
20
0.0
30
0.000000
0
VERTEX
8
0
10
312.000000
20
239.000000
0
VERTEX
8
0
10
310.000000
20
240.000000
0
SEQEND
0
POLYLINE
8
0
6
CONTINUOUS
66
1
62
7
10
0.0
20
0.0
30
0.000000
0
VERTEX
8
0
10
312.000000
20
239.000000
0
VERTEX
8
0
10
316.048780
20
240.560976
0
VERTEX
8
0
10
331.000000
20
243.000000
0
VERTEX
8
0
10
334.000000
20
246.000000
0
VERTEX
8
0
10
334.700000
20
249.100000
0
VERTEX
8
0
10
341.230769
20
262.846154
0
VERTEX
8
0
10
343.200000
20
265.900000
0
VERTEX
8
0
10
351.012266
20
278.011973
0
VERTEX
8
0
10
351.750000
20
441.750000
0
VERTEX
8
0
10
349.100000
20
441.700000
0
VERTEX
8
0
10
345.100000
20
439.800000
0
VERTEX
8
0
10
339.000000
20
437.000000
0
VERTEX
8
0
10
336.000000
20
437.000000
0
VERTEX
8
0
10
332.000000
20
442.000000
0
VERTEX
8
0
10
332.000000
20
452.000000
0
VERTEX
8
0
10
335.000000
20
458.000000
0
VERTEX
8
0
10
341.000000
20
462.000000
0
VERTEX
8
0
10
349.000000
20
462.000000
0
VERTEX
8
0
10
350.900000
20
460.800000
0
VERTEX
8
0
10
353.000000
20
460.000000
0
VERTEX
8
0
10
359.200000
20
453.100000
0
VERTEX
8
0
10
360.200000
20
451.100000
0
VERTEX
8
0
10
362.000000
20
448.000000
0
VERTEX
8
0
10
362.000000
20
269.000000
0
VERTEX
8
0
10
360.230769
20
266.846154
0
VERTEX
8
0
10
346.800000
20
249.100000
0
VERTEX
8
0
10
345.800000
20
247.100000
0
VERTEX
8
0
10
344.000000
20
243.000000
0
VERTEX
8
0
10
344.000000
20
238.000000
0
VERTEX
8
0
10
345.352941
20
234.088235
0
VERTEX
8
0
10
350.230769
20
225.153846
0
VERTEX
8
0
10
354.760000
20
218.820000
0
VERTEX
8
0
10
360.800000
20
204.900000
0
VERTEX
8
0
10
366.200000
20
191.100000
0
VERTEX
8
0
10
371.000000
20
183.000000
0
VERTEX
8
0
10
372.000000
20
183.000000
0
VERTEX
8
0
10
374.000000
20
185.000000
0
VERTEX
8
0
10
374.000000
20
197.000000
0
VERTEX
8
0
10
370.800000
20
209.900000
0
VERTEX
8
0
10
369.700000
20
212.900000
0
VERTEX
8
0
10
365.000000
20
226.000000
0
VERTEX
8
0
10
365.000000
20
230.000000
0
VERTEX
8
0
10
366.352941
20
233.911765
0
VERTEX
8
0
10
366.800000
20
235.100000
0
VERTEX
8
0
10
377.000000
20
248.000000
0
VERTEX
8
0
10
377.000000
20
483.000000
0
VERTEX
8
0
10
375.760000
20
484.820000
0
VERTEX
8
0
10
373.240000
20
488.180000
0
VERTEX
8
0
10
369.468966
20
498.027586
0
VERTEX
8
0
10
368.000000
20
520.000000
0
VERTEX
8
0
10
364.000000
20
524.000000
0
VERTEX
8
0
10
357.900000
20
526.800000
0
VERTEX
8
0
10
354.000000
20
529.000000
0
VERTEX
8
0
10
350.000000
20
533.000000
0
VERTEX
8
0
10
350.000000
20
538.000000
0
VERTEX
8
0
10
355.000000
20
545.000000
0
VERTEX
8
0
10
358.000000
20
547.000000
0
VERTEX
8
0
10
376.000000
20
532.000000
0
VERTEX
8
0
10
377.000000
20
533.000000
0
VERTEX
8
0
10
373.300000
20
544.100000
0
VERTEX
8
0
10
372.700000
20
545.900000
0
VERTEX
8
0
10
364.800000
20
559.900000
0
VERTEX
8
0
10
364.000000
20
561.000000
0
VERTEX
8
0
10
364.000000
20
566.000000
0
VERTEX
8
0
10
368.200000
20
573.900000
0
VERTEX
8
0
10
374.594595
20
588.067568
0
VERTEX
8
0
10
377.000000
20
600.000000
0
VERTEX
8
0
10
377.000000
20
626.000000
0
VERTEX
8
0
10
374.580000
20
639.940000
0
VERTEX
8
0
10
369.200000
20
660.100000
0
VERTEX
8
0
10
368.800000
20
660.900000
0
VERTEX
8
0
10
359.750520
20
672.766112
0
VERTEX
8
0
10
345.000000
20
688.000000
0
VERTEX
8
0
10
345.000000
20
692.000000
0
VERTEX
8
0
10
350.000000
20
700.000000
0
VERTEX
8
0
10
353.000000
20
703.000000
0
VERTEX
8
0
10
356.000000
20
702.000000
0
VERTEX
8
0
10
362.000000
20
696.000000
0
VERTEX
8
0
10
374.200000
20
680.100000
0
VERTEX
8
0
10
376.000000
20
677.000000
0
VERTEX
8
0
10
377.000000
20
677.000000
0
SEQEND
0
POLYLINE
8
0
6
CONTINUOUS
66
1
62
7
10
0.0
20
0.0
30
0.000000
0
VERTEX
8
0
10
390.000000
20
93.000000
0
VERTEX
8
0
10
390.000000
20
96.000000
0
SEQEND
0
POLYLINE
8
0
6
CONTINUOUS
66
1
62
7
10
0.0
20
0.0
30
0.000000
0
VERTEX
8
0
10
374.000000
20
88.000000
0
VERTEX
8
0
10
374.000000
20
91.000000
0
SEQEND
0
POLYLINE
8
0
6
CONTINUOUS
66
1
62
7
10
0.0
20
0.0
30
0.000000
0
VERTEX
8
0
10
390.000000
20
93.000000
0
VERTEX
8
0
10
391.000000
20
93.000000
0
VERTEX
8
0
10
397.300000
20
76.100000
0
VERTEX
8
0
10
397.800000
20
74.900000
0
VERTEX
8
0
10
402.230769
20
65.153846
0
VERTEX
8
0
10
407.000000
20
58.000000
0
VERTEX
8
0
10
411.000000
20
57.000000
0
VERTEX
8
0
10
421.243902
20
67.804878
0
VERTEX
8
0
10
425.000000
20
72.000000
0
VERTEX
8
0
10
417.245902
20
81.204918
0
VERTEX
8
0
10
404.200000
20
99.100000
0
VERTEX
8
0
10
398.200000
20
111.100000
0
VERTEX
8
0
10
392.352941
20
130.088235
0
VERTEX
8
0
10
390.594595
20
138.932432
0
VERTEX
8
0
10
388.000000
20
155.000000
0
VERTEX
8
0
10
389.000000
20
166.000000
0
VERTEX
8
0
10
392.000000
20
169.000000
0
VERTEX
8
0
10
393.000000
20
169.000000
0
VERTEX
8
0
10
395.000000
20
167.000000
0
VERTEX
8
0
10
401.615385
20
133.923077
0
VERTEX
8
0
10
402.384615
20
130.076923
0
VERTEX
8
0
10
405.200000
20
122.100000
0
VERTEX
8
0
10
406.800000
20
117.900000
0
VERTEX
8
0
10
413.240000
20
107.180000
0
VERTEX
8
0
10
419.000000
20
100.000000
0
VERTEX
8
0
10
433.000000
20
92.000000
0
VERTEX
8
0
10
443.000000
20
92.000000
0
VERTEX
8
0
10
455.000000
20
97.000000
0
VERTEX
8
0
10
463.000000
20
105.000000
0
VERTEX
8
0
10
470.700000
20
121.100000
0
VERTEX
8
0
10
471.300000
20
122.900000
0
VERTEX
8
0
10
476.000000
20
144.000000
0
VERTEX
8
0
10
476.000000
20
162.000000
0
VERTEX
8
0
10
472.647059
20
173.911765
0
VERTEX
8
0
10
472.200000
20
175.100000
0
VERTEX
8
0
10
464.769231
20
189.846154
0
VERTEX
8
0
10
463.000000
20
193.000000
0
VERTEX
8
0
10
454.100000
20
199.200000
0
VERTEX
8
0
10
449.000000
20
201.000000
0
VERTEX
8
0
10
445.000000
20
201.000000
0
VERTEX
8
0
10
435.000000
20
197.000000
0
VERTEX
8
0
10
431.000000
20
193.000000
0
VERTEX
8
0
10
429.230769
20
189.846154
0
VERTEX
8
0
10
426.352941
20
181.911765
0
VERTEX
8
0
10
425.647059
20
179.088235
0
VERTEX
8
0
10
424.000000
20
172.000000
0
VERTEX
8
0
10
424.000000
20
164.000000
0
VERTEX
8
0
10
427.200000
20
152.100000
0
VERTEX
8
0
10
428.000000
20
150.000000
0
VERTEX
8
0
10
432.000000
20
146.000000
0
VERTEX
8
0
10
438.000000
20
146.000000
0
VERTEX
8
0
10
442.000000
20
150.000000
0
VERTEX
8
0
10
444.647059
20
156.088235
0
VERTEX
8
0
10
445.352941
20
158.911765
0
VERTEX
8
0
10
446.000000
20
164.000000
0
VERTEX
8
0
10
445.200000
20
165.100000
0
VERTEX
8
0
10
441.000000
20
176.000000
0
VERTEX
8
0
10
441.000000
20
178.000000
0
VERTEX
8
0
10
445.000000
20
182.000000
0
VERTEX
8
0
10
448.000000
20
182.000000
0
VERTEX
8
0
10
460.000000
20
176.000000
0
VERTEX
8
0
10
462.200000
20
172.100000
0
VERTEX
8
0
10
465.569231
20
160.946154
0
VERTEX
8
0
10
467.000000
20
153.000000
0
VERTEX
8
0
10
466.430769
20
145.946154
0
VERTEX
8
0
10
465.569231
20
139.053846
0
VERTEX
8
0
10
463.200000
20
130.900000
0
VERTEX
8
0
10
460.000000
20
123.000000
0
VERTEX
8
0
10
453.000000
20
116.000000
0
VERTEX
8
0
10
449.846154
20
114.230769
0
VERTEX
8
0
10
449.100000
20
113.800000
0
VERTEX
8
0
10
443.000000
20
111.000000
0
VERTEX
8
0
10
434.000000
20
111.000000
0
VERTEX
8
0
10
428.153846
20
113.230769
0
VERTEX
8
0
10
425.000000
20
115.000000
0
VERTEX
8
0
10
420.760000
20
119.820000
0
VERTEX
8
0
10
418.240000
20
123.180000
0
VERTEX
8
0
10
415.300000
20
129.100000
0
VERTEX
8
0
10
412.700000
20
136.900000
0
VERTEX
8
0
10
410.439024
20
144.048780
0
VERTEX
8
0
10
409.560976
20
151.951220
0
VERTEX
8
0
10
409.000000
20
164.000000
0
VERTEX
8
0
10
410.430769
20
171.946154
0
VERTEX
8
0
10
411.384615
20
176.923077
0
VERTEX
8
0
10
413.200000
20
180.900000
0
VERTEX
8
0
10
416.200000
20
186.900000
0
VERTEX
8
0
10
425.700000
20
205.100000
0
VERTEX
8
0
10
433.000000
20
225.000000
0
VERTEX
8
0
10
440.846154
20
230.230769
0
VERTEX
8
0
10
449.000000
20
235.000000
0
VERTEX
8
0
10
452.000000
20
239.000000
0
VERTEX
8
0
10
451.000000
20
240.000000
0
VERTEX
8
0
10
432.900000
20
241.700000
0
VERTEX
8
0
10
431.000000
20
242.000000
0
VERTEX
8
0
10
423.800000
20
254.900000
0
VERTEX
8
0
10
414.800000
20
270.900000
0
VERTEX
8
0
10
411.405405
20
279.067568
0
VERTEX
8
0
10
410.594595
20
283.932432
0
VERTEX
8
0
10
409.513495
20
321.987197
0
VERTEX
8
0
10
409.000000
20
438.000000
0
VERTEX
8
0
10
411.000000
20
440.000000
0
VERTEX
8
0
10
416.000000
20
440.000000
0
VERTEX
8
0
10
418.900000
20
438.700000
0
VERTEX
8
0
10
420.900000
20
437.800000
0
VERTEX
8
0
10
422.000000
20
437.000000
0
VERTEX
8
0
10
425.000000
20
437.000000
0
VERTEX
8
0
10
430.000000
20
442.000000
0
VERTEX
8
0
10
430.000000
20
451.000000
0
VERTEX
8
0
10
428.800000
20
452.900000
0
VERTEX
8
0
10
426.000000
20
459.000000
0
VERTEX
8
0
10
420.100000
20
462.200000
0
VERTEX
8
0
10
419.000000
20
463.000000
0
VERTEX
8
0
10
416.000000
20
463.000000
0
VERTEX
8
0
10
414.180000
20
461.760000
0
VERTEX
8
0
10
410.000000
20
459.000000
0
VERTEX
8
0
10
399.000000
20
448.000000
0
VERTEX
8
0
10
399.000000
20
269.000000
0
VERTEX
8
0
10
410.240000
20
255.180000
0
VERTEX
8
0
10
412.760000
20
251.820000
0
VERTEX
8
0
10
414.647059
20
247.911765
0
VERTEX
8
0
10
416.300000
20
242.100000
0
VERTEX
8
0
10
417.000000
20
241.000000
0
VERTEX
8
0
10
417.000000
20
236.000000
0
VERTEX
8
0
10
415.594595
20
230.067568
0
VERTEX
8
0
10
411.800000
20
222.100000
0
VERTEX
8
0
10
407.200000
20
211.900000
0
VERTEX
8
0
10
398.000000
20
188.000000
0
VERTEX
8
0
10
394.000000
20
184.000000
0
VERTEX
8
0
10
392.000000
20
184.000000
0
VERTEX
8
0
10
391.000000
20
185.000000
0
VERTEX
8
0
10
391.000000
20
202.000000
0
VERTEX
8
0
10
392.405405
20
207.932432
0
VERTEX
8
0
10
394.384615
20
218.923077
0
VERTEX
8
0
10
396.000000
20
222.000000
0
VERTEX
8
0
10
396.000000
20
230.000000
0
VERTEX
8
0
10
394.647059
20
233.911765
0
VERTEX
8
0
10
394.200000
20
235.100000
0
VERTEX
8
0
10
384.240000
20
249.180000
0
VERTEX
8
0
10
383.800000
20
249.900000
0
VERTEX
8
0
10
383.000000
20
251.000000
0
VERTEX
8
0
10
383.000000
20
280.000000
0
VERTEX
8
0
10
387.800000
20
488.100000
0
VERTEX
8
0
10
391.800000
20
495.100000
0
VERTEX
8
0
10
393.538071
20
504.032995
0
VERTEX
8
0
10
394.461929
20
516.967005
0
VERTEX
8
0
10
396.000000
20
521.000000
0
VERTEX
8
0
10
406.846154
20
529.230769
0
VERTEX
8
0
10
413.000000
20
533.000000
0
VERTEX
8
0
10
409.800000
20
541.900000
0
VERTEX
8
0
10
407.000000
20
547.000000
0
VERTEX
8
0
10
405.000000
20
547.000000
0
VERTEX
8
0
10
397.195122
20
540.756098
0
VERTEX
8
0
10
392.180000
20
536.760000
0
VERTEX
8
0
10
389.000000
20
534.000000
0
VERTEX
8
0
10
387.000000
20
536.000000
0
VERTEX
8
0
10
387.000000
20
543.000000
0
VERTEX
8
0
10
391.754098
20
548.204918
0
VERTEX
8
0
10
394.700000
20
554.100000
0
VERTEX
8
0
10
395.300000
20
555.900000
0
VERTEX
8
0
10
397.000000
20
565.000000
0
VERTEX
8
0
10
395.800000
20
566.900000
0
VERTEX
8
0
10
394.800000
20
568.900000
0
VERTEX
8
0
10
388.352941
20
584.088235
0
VERTEX
8
0
10
387.000000
20
588.000000
0
VERTEX
8
0
10
388.544828
20
624.037931
0
VERTEX
8
0
10
390.420000
20
641.940000
0
VERTEX
8
0
10
395.200000
20
658.900000
0
VERTEX
8
0
10
396.800000
20
662.100000
0
VERTEX
8
0
10
401.245902
20
670.795082
0
VERTEX
8
0
10
418.000000
20
689.000000
0
VERTEX
8
0
10
416.200000
20
695.100000
0
VERTEX
8
0
10
412.000000
20
702.000000
0
VERTEX
8
0
10
407.900000
20
703.200000
0
VERTEX
8
0
10
403.000000
20
701.000000
0
VERTEX
8
0
10
399.000000
20
697.000000
0
VERTEX
8
0
10
393.200000
20
687.900000
0
VERTEX
8
0
10
389.000000
20
681.000000
0
SEQEND
0
POLYLINE
8
0
6
CONTINUOUS
66
1
62
7
10
0.0
20
0.0
30
0.000000
0
VERTEX
8
0
10
312.000000
20
239.000000
0
VERTEX
8
0
10
328.000000
20
228.000000
0
VERTEX
8
0
10
335.800000
20
203.900000
0
VERTEX
8
0
10
341.200000
20
193.100000
0
VERTEX
8
0
10
355.000000
20
173.000000
0
VERTEX
8
0
10
355.000000
20
153.000000
0
VERTEX
8
0
10
353.560976
20
144.048780
0
VERTEX
8
0
10
349.200000
20
130.900000
0
VERTEX
8
0
10
347.200000
20
126.900000
0
VERTEX
8
0
10
345.000000
20
122.000000
0
VERTEX
8
0
10
342.000000
20
119.000000
0
VERTEX
8
0
10
334.900000
20
114.200000
0
VERTEX
8
0
10
334.100000
20
113.800000
0
VERTEX
8
0
10
329.000000
20
111.000000
0
VERTEX
8
0
10
319.000000
20
111.000000
0
VERTEX
8
0
10
314.000000
20
114.000000
0
VERTEX
8
0
10
306.000000
20
122.000000
0
VERTEX
8
0
10
303.300000
20
128.100000
0
VERTEX
8
0
10
302.700000
20
129.900000
0
VERTEX
8
0
10
299.000000
20
144.000000
0
VERTEX
8
0
10
299.000000
20
162.000000
0
VERTEX
8
0
10
300.352941
20
165.911765
0
VERTEX
8
0
10
300.700000
20
167.100000
0
VERTEX
8
0
10
305.000000
20
176.000000
0
VERTEX
8
0
10
310.000000
20
181.000000
0
VERTEX
8
0
10
317.000000
20
185.000000
0
VERTEX
8
0
10
320.000000
20
185.000000
0
VERTEX
8
0
10
323.000000
20
180.000000
0
VERTEX
8
0
10
322.384615
20
175.923077
0
VERTEX
8
0
10
319.000000
20
159.000000
0
VERTEX
8
0
10
319.700000
20
157.900000
0
VERTEX
8
0
10
322.000000
20
152.000000
0
VERTEX
8
0
10
327.000000
20
147.000000
0
VERTEX
8
0
10
332.000000
20
147.000000
0
VERTEX
8
0
10
336.000000
20
151.000000
0
VERTEX
8
0
10
337.800000
20
155.100000
0
VERTEX
8
0
10
338.200000
20
155.900000
0
VERTEX
8
0
10
341.000000
20
167.000000
0
VERTEX
8
0
10
341.000000
20
173.000000
0
VERTEX
8
0
10
338.647059
20
180.911765
0
VERTEX
8
0
10
338.300000
20
182.100000
0
VERTEX
8
0
10
333.769231
20
191.846154
0
VERTEX
8
0
10
329.000000
20
198.000000
0
VERTEX
8
0
10
326.900000
20
198.800000
0
VERTEX
8
0
10
322.088235
20
200.352941
0
VERTEX
8
0
10
317.000000
20
201.000000
0
VERTEX
8
0
10
315.911765
20
200.352941
0
VERTEX
8
0
10
309.180000
20
197.760000
0
VERTEX
8
0
10
305.000000
20
195.000000
0
VERTEX
8
0
10
300.756098
20
190.195122
0
VERTEX
8
0
10
297.243902
20
185.804878
0
VERTEX
8
0
10
295.200000
20
181.900000
0
VERTEX
8
0
10
291.647059
20
172.088235
0
VERTEX
8
0
10
290.615385
20
167.076923
0
VERTEX
8
0
10
290.000000
20
166.000000
0
VERTEX
8
0
10
290.000000
20
143.000000
0
VERTEX
8
0
10
291.439024
20
134.048780
0
VERTEX
8
0
10
294.300000
20
122.100000
0
VERTEX
8
0
10
296.300000
20
116.100000
0
VERTEX
8
0
10
304.000000
20
103.000000
0
VERTEX
8
0
10
309.000000
20
98.000000
0
VERTEX
8
0
10
314.307692
20
94.461538
0
VERTEX
8
0
10
322.000000
20
92.000000
0
VERTEX
8
0
10
334.100000
20
94.700000
0
VERTEX
8
0
10
340.153846
20
97.769231
0
VERTEX
8
0
10
346.000000
20
101.000000
0
VERTEX
8
0
10
355.800000
20
115.100000
0
VERTEX
8
0
10
356.200000
20
115.900000
0
VERTEX
8
0
10
363.352941
20
133.911765
0
VERTEX
8
0
10
363.615385
20
135.076923
0
VERTEX
8
0
10
370.000000
20
167.000000
0
VERTEX
8
0
10
372.000000
20
169.000000
0
VERTEX
8
0
10
373.000000
20
169.000000
0
VERTEX
8
0
10
376.000000
20
166.000000
0
VERTEX
8
0
10
376.000000
20
154.000000
0
VERTEX
8
0
10
371.647059
20
130.088235
0
VERTEX
8
0
10
370.352941
20
123.911765
0
VERTEX
8
0
10
364.800000
20
107.100000
0
VERTEX
8
0
10
364.200000
20
105.900000
0
VERTEX
8
0
10
352.760000
20
88.180000
0
VERTEX
8
0
10
349.750943
20
84.228302
0
VERTEX
8
0
10
339.000000
20
73.000000
0
VERTEX
8
0
10
355.000000
20
54.000000
0
VERTEX
8
0
10
356.000000
20
54.000000
0
VERTEX
8
0
10
369.200000
20
80.900000
0
VERTEX
8
0
10
373.000000
20
88.000000
0
VERTEX
8
0
10
374.000000
20
88.000000
0
SEQEND
0
POLYLINE
8
0
6
CONTINUOUS
66
1
62
7
10
0.0
20
0.0
30
0.000000
0
VERTEX
8
0
10
374.000000
20
88.000000
0
VERTEX
8
0
10
375.000000
20
86.000000
0
VERTEX
8
0
10
372.420000
20
65.940000
0
VERTEX
8
0
10
371.420000
20
58.940000
0
VERTEX
8
0
10
369.000000
20
42.000000
0
VERTEX
8
0
10
376.230769
20
30.153846
0
VERTEX
8
0
10
382.000000
20
22.000000
0
VERTEX
8
0
10
384.000000
20
24.000000
0
VERTEX
8
0
10
393.615385
20
39.076923
0
VERTEX
8
0
10
394.384615
20
42.923077
0
VERTEX
8
0
10
395.000000
20
50.000000
0
VERTEX
8
0
10
393.580000
20
56.940000
0
VERTEX
8
0
10
390.000000
20
92.000000
0
VERTEX
8
0
10
390.000000
20
93.000000
0
SEQEND
0
ENDSEC
0
EOF
