  0
SECTION
  2
HEADER
  9
$ACADVER
  1
AC1009
  9
$DWGCODEPAGE
  3
ansi_1252
  9
$INSBASE
 10
0.0
 20
0.0
 30
0.0
  9
$EXTMIN
 10
-3.556453459941085
 20
0.1606614104786166
 30
0.0
  9
$EXTMAX
 10
260.155573961859
 20
107.870499
 30
0.0
  9
$LIMMIN
 10
0.0
 20
0.0
  9
$LIMMAX
 10
12.0
 20
9.0
  9
$ORTHOMODE
 70
     0
  9
$REGENMODE
 70
     1
  9
$FILLMODE
 70
     1
  9
$QTEXTMODE
 70
     0
  9
$MIRRTEXT
 70
     1
  9
$DRAGMODE
 70
     2
  9
$LTSCALE
 40
1.0
  9
$OSMODE
 70
    37
  9
$ATTMODE
 70
     1
  9
$TEXTSIZE
 40
0.2
  9
$TRACEWID
 40
0.05
  9
$TEXTSTYLE
  7
STANDARD
  9
$CLAYER
  8
0
  9
$CELTYPE
  6
BYBLOCK
  9
$CECOLOR
 62
   256
  9
$DIMSCALE
 40
1.0
  9
$DIMASZ
 40
0.18
  9
$DIMEXO
 40
0.0625
  9
$DIMDLI
 40
0.38
  9
$DIMRND
 40
0.0
  9
$DIMDLE
 40
0.0
  9
$DIMEXE
 40
0.18
  9
$DIMTP
 40
0.0
  9
$DIMTM
 40
0.0
  9
$DIMTXT
 40
0.18
  9
$DIMCEN
 40
0.09
  9
$DIMTSZ
 40
0.0
  9
$DIMTOL
 70
     0
  9
$DIMLIM
 70
     0
  9
$DIMTIH
 70
     1
  9
$DIMTOH
 70
     1
  9
$DIMSE1
 70
     0
  9
$DIMSE2
 70
     0
  9
$DIMTAD
 70
     0
  9
$DIMZIN
 70
     0
  9
$DIMBLK
  1

  9
$DIMASO
 70
     1
  9
$DIMSHO
 70
     1
  9
$DIMPOST
  1

  9
$DIMAPOST
  1

  9
$DIMALT
 70
     0
  9
$DIMALTD
 70
     2
  9
$DIMALTF
 40
25.4
  9
$DIMLFAC
 40
1.0
  9
$DIMTOFL
 70
     0
  9
$DIMTVP
 40
0.0
  9
$DIMTIX
 70
     0
  9
$DIMSOXD
 70
     0
  9
$DIMSAH
 70
     0
  9
$DIMBLK1
  1

  9
$DIMBLK2
  1

  9
$DIMSTYLE
  2
STANDARD
  9
$DIMCLRD
 70
     0
  9
$DIMCLRE
 70
     0
  9
$DIMCLRT
 70
     0
  9
$DIMTFAC
 40
1.0
  9
$DIMGAP
 40
0.09
  9
$LUNITS
 70
     2
  9
$LUPREC
 70
     4
  9
$SKETCHINC
 40
0.1
  9
$FILLETRAD
 40
0.5
  9
$AUNITS
 70
     0
  9
$AUPREC
 70
     0
  9
$MENU
  1
.
  9
$ELEVATION
 40
0.0
  9
$PELEVATION
 40
0.0
  9
$THICKNESS
 40
0.0
  9
$LIMCHECK
 70
     0
  9
$CHAMFERA
 40
0.5
  9
$CHAMFERB
 40
0.5
  9
$SKPOLY
 70
     0
  9
$TDCREATE
 40
2453353.508792488
  9
$TDUPDATE
 40
4910417.857651852
  9
$TDINDWG
 40
4895786.051922963
  9
$TDUSRTIMER
 40
4895786.051922963
  9
$USRTIMER
 70
     1
  9
$ANGBASE
 50
0.0
  9
$ANGDIR
 70
     0
  9
$PDMODE
 70
     0
  9
$PDSIZE
 40
0.0
  9
$PLINEWID
 40
0.0
  9
$COORDS
 70
     1
  9
$SPLFRAME
 70
     0
  9
$SPLINETYPE
 70
     6
  9
$SPLINESEGS
 70
     8
  9
$ATTDIA
 70
     0
  9
$ATTREQ
 70
     1
  9
$HANDLING
 70
     1
  9
$HANDSEED
  5
5B0
  9
$SURFTAB1
 70
     6
  9
$SURFTAB2
 70
     6
  9
$SURFTYPE
 70
     6
  9
$SURFU
 70
     6
  9
$SURFV
 70
     6
  9
$UCSNAME
  2

  9
$UCSORG
 10
0.0
 20
0.0
 30
0.0
  9
$UCSXDIR
 10
1.0
 20
0.0
 30
0.0
  9
$UCSYDIR
 10
0.0
 20
1.0
 30
0.0
  9
$PUCSNAME
  2

  9
$PUCSORG
 10
0.0
 20
0.0
 30
0.0
  9
$PUCSXDIR
 10
1.0
 20
0.0
 30
0.0
  9
$PUCSYDIR
 10
0.0
 20
1.0
 30
0.0
  9
$USERI1
 70
     0
  9
$USERI2
 70
     0
  9
$USERI3
 70
     0
  9
$USERI4
 70
     0
  9
$USERI5
 70
     0
  9
$USERR1
 40
0.0
  9
$USERR2
 40
0.0
  9
$USERR3
 40
0.0
  9
$USERR4
 40
0.0
  9
$USERR5
 40
0.0
  9
$WORLDVIEW
 70
     1
  9
$SHADEDGE
 70
     3
  9
$SHADEDIF
 70
    70
  9
$TILEMODE
 70
     1
  9
$MAXACTVP
 70
    64
  9
$PLIMCHECK
 70
     0
  9
$PEXTMIN
 10
0.0
 20
0.0
 30
0.0
  9
$PEXTMAX
 10
0.0
 20
0.0
 30
0.0
  9
$PLIMMIN
 10
0.0
 20
0.0
  9
$PLIMMAX
 10
0.0
 20
0.0
  9
$UNITMODE
 70
     0
  9
$VISRETAIN
 70
     1
  9
$PLINEGEN
 70
     0
  9
$PSLTSCALE
 70
     1
  0
ENDSEC
  0
SECTION
  2
TABLES
  0
TABLE
  2
VPORT
 70
     1
  0
VPORT
  2
*ACTIVE
 70
     0
 10
0.0
 20
0.0
 11
1.0
 21
1.0
 12
72.73633153502685
 22
41.29544046355019
 13
0.0
 23
0.0
 14
0.5
 24
0.5
 15
0.5
 25
0.5
 16
0.0
 26
0.0
 36
1.0
 17
0.0
 27
0.0
 37
0.0
 40
92.7331363174187
 41
1.972972972850329
 42
50.0
 43
0.0
 44
0.0
 50
0.0
 51
0.0
 71
    16
 72
   100
 73
     1
 74
     3
 75
     0
 76
     0
 77
     0
 78
     0
  0
ENDTAB
  0
TABLE
  2
LTYPE
 70
     1
  0
LTYPE
  2
CONTINUOUS
 70
     0
  3
Solid line
 72
    65
 73
     0
 40
0.0
  0
ENDTAB
  0
TABLE
  2
LAYER
 70
     2
  0
LAYER
  2
0
 70
     0
 62
     7
  6
CONTINUOUS
  0
LAYER
  2
LAYER_1
 70
     0
 62
     7
  6
CONTINUOUS
  0
ENDTAB
  0
TABLE
  2
STYLE
 70
     1
  0
STYLE
  2
STANDARD
 70
     0
 40
0.0
 41
1.0
 50
0.0
 71
     0
 42
0.2
  3
txt
  4

  0
ENDTAB
  0
TABLE
  2
VIEW
 70
     0
  0
ENDTAB
  0
TABLE
  2
UCS
 70
     0
  0
ENDTAB
  0
TABLE
  2
APPID
 70
     1
  0
APPID
  2
ACAD
 70
     0
  0
ENDTAB
  0
TABLE
  2
DIMSTYLE
 70
     1
  0
DIMSTYLE
  2
STANDARD
 70
     0
  3

  4

  5

  6

  7

 40
1.0
 41
0.18
 42
0.0625
 43
0.38
 44
0.18
 45
0.0
 46
0.0
 47
0.0
 48
0.0
140
0.18
141
0.09
142
0.0
143
25.4
144
1.0
145
0.0
146
1.0
147
0.09
 71
     0
 72
     0
 73
     1
 74
     1
 75
     0
 76
     0
 77
     0
 78
     0
170
     0
171
     2
172
     0
173
     0
174
     0
175
     0
176
     0
177
     0
178
     0
  0
ENDTAB
  0
ENDSEC
  0
SECTION
  2
BLOCKS
  0
BLOCK
  8
0
  2
$MODEL_SPACE
 70
     0
 10
0.0
 20
0.0
 30
0.0
  3
$MODEL_SPACE
  1

  0
ENDBLK
  5
21
  8
0
  0
BLOCK
 67
     1
  8
0
  2
$PAPER_SPACE
 70
     0
 10
0.0
 20
0.0
 30
0.0
  3
$PAPER_SPACE
  1

  0
ENDBLK
  5
76
 67
     1
  8
0
  0
ENDSEC
  0
SECTION
  2
ENTITIES
  0
LINE
  5
417
  8
LAYER_1
 10
35.30187759496889
 20
45.86725915711544
 30
0.0
 11
37.36542245796855
 21
46.88483618246958
 31
0.0
  0
LINE
  5
418
  8
LAYER_1
 10
37.36542245796855
 20
46.88483618246958
 30
0.0
 11
35.63530236821771
 21
45.38267675559724
 31
0.0
  0
LINE
  5
419
  8
LAYER_1
 10
35.04265586510979
 20
47.55354388967847
 30
0.0
 11
35.30187759496889
 21
45.86725915711544
 31
0.0
  0
LINE
  5
41A
  8
LAYER_1
 10
35.63530236821771
 20
45.38267675559724
 30
0.0
 11
37.22549875809446
 21
44.95701043425981
 31
0.0
  0
LINE
  5
41B
  8
LAYER_1
 10
35.99267726331138
 20
49.17003579647768
 30
0.0
 11
35.97925356374199
 21
48.89293190177924
 31
0.0
  0
LINE
  5
41C
  8
LAYER_1
 10
35.97925356374199
 20
48.89293190177924
 30
0.0
 11
35.15216641260005
 21
48.78431817510779
 31
0.0
  0
LINE
  5
41D
  8
LAYER_1
 10
35.30662937635
 20
49.34214699275042
 30
0.0
 11
35.99267726331138
 21
49.17003579647768
 31
0.0
  0
LINE
  5
41E
  8
LAYER_1
 10
35.15216641260005
 20
48.78431817510779
 30
0.0
 11
35.04265586510979
 21
47.55354388967847
 31
0.0
  0
LINE
  5
41F
  8
LAYER_1
 10
40.22475855145629
 20
53.82522150225076
 30
0.0
 11
35.30662937635
 21
49.34214699275042
 31
0.0
  0
LINE
  5
420
  8
LAYER_1
 10
79.36782057697207
 20
1.336245592273938
 30
0.0
 11
81.21514165160119
 21
3.188058330921161
 31
0.0
  0
LINE
  5
421
  8
LAYER_1
 10
81.21514165160119
 20
3.188058330921161
 30
0.0
 11
84.23137767131453
 21
5.466986941129859
 31
0.0
  0
LINE
  5
422
  8
LAYER_1
 10
84.23137767131453
 20
5.466986941129859
 30
0.0
 11
89.98563893538292
 21
9.220941824308135
 31
0.0
  0
LINE
  5
423
  8
LAYER_1
 10
89.98563893538292
 20
9.220941824308135
 30
0.0
 11
93.36686233523207
 21
11.34211113494429
 31
0.0
  0
LINE
  5
424
  8
LAYER_1
 10
93.36686233523207
 20
11.34211113494429
 30
0.0
 11
93.50018011380888
 21
12.68635324527871
 31
0.0
  0
LINE
  5
425
  8
LAYER_1
 10
93.50018011380888
 20
12.68635324527871
 30
0.0
 11
94.02019543686646
 21
16.67325646971925
 31
0.0
  0
LINE
  5
426
  8
LAYER_1
 10
94.02019543686646
 20
16.67325646971925
 30
0.0
 11
94.30960789097762
 21
17.85232345488394
 31
0.0
  0
LINE
  5
427
  8
LAYER_1
 10
94.30960789097762
 20
17.85232345488394
 30
0.0
 11
94.6492359870802
 21
18.64728417965135
 31
0.0
  0
LINE
  5
428
  8
LAYER_1
 10
94.6492359870802
 20
18.64728417965135
 30
0.0
 11
95.37095428836258
 21
19.53241543924401
 31
0.0
  0
LINE
  5
429
  8
LAYER_1
 10
95.37095428836258
 20
19.53241543924401
 30
0.0
 11
95.61525082177971
 21
19.58434033333503
 31
0.0
  0
LINE
  5
42A
  8
LAYER_1
 10
95.61525082177971
 20
19.58434033333503
 30
0.0
 11
95.71555037118881
 21
19.33319709999332
 31
0.0
  0
LINE
  5
42B
  8
LAYER_1
 10
95.71555037118881
 20
19.33319709999332
 30
0.0
 11
98.38777709464873
 21
16.26443209607077
 31
0.0
  0
LINE
  5
42C
  8
LAYER_1
 10
98.38777709464873
 20
16.26443209607077
 30
0.0
 11
100.6649355175806
 21
13.68917327937476
 31
0.0
  0
LINE
  5
42D
  8
LAYER_1
 10
100.6649355175806
 20
13.68917327937476
 30
0.0
 11
100.9968265973392
 21
12.97808865639262
 31
0.0
  0
LINE
  5
42E
  8
LAYER_1
 10
100.9968265973392
 20
12.97808865639262
 30
0.0
 11
101.0687925667131
 21
12.23359931553267
 31
0.0
  0
LINE
  5
42F
  8
LAYER_1
 10
101.0687925667131
 20
12.23359931553267
 30
0.0
 11
100.8130168755388
 21
10.75046704331743
 31
0.0
  0
LINE
  5
430
  8
LAYER_1
 10
100.8130168755388
 20
10.75046704331743
 30
0.0
 11
99.92596139879757
 21
8.665630653576422
 31
0.0
  0
LINE
  5
431
  8
LAYER_1
 10
99.92596139879757
 20
8.665630653576422
 30
0.0
 11
99.24970552029618
 21
7.363509087923919
 31
0.0
  0
LINE
  5
432
  8
LAYER_1
 10
99.24970552029618
 20
7.363509087923919
 30
0.0
 11
98.68414297898363
 21
6.531477250458494
 31
0.0
  0
LINE
  5
433
  8
LAYER_1
 10
98.68414297898363
 20
6.531477250458494
 30
0.0
 11
98.02669426623532
 21
5.932501999213837
 31
0.0
  0
LINE
  5
434
  8
LAYER_1
 10
98.02669426623532
 20
5.932501999213837
 30
0.0
 11
97.0747778742313
 21
5.329550135497469
 31
0.0
  0
LINE
  5
435
  8
LAYER_1
 10
97.0747778742313
 20
5.329550135497469
 30
0.0
 11
95.57613857269749
 21
4.24903939363174
 31
0.0
  0
LINE
  5
436
  8
LAYER_1
 10
95.57613857269749
 20
4.24903939363174
 30
0.0
 11
94.65459644073872
 21
2.904523696724525
 31
0.0
  0
LINE
  5
437
  8
LAYER_1
 10
94.65459644073872
 20
2.904523696724525
 30
0.0
 11
94.12011340588833
 21
1.670525653677002
 31
0.0
  0
LINE
  5
438
  8
LAYER_1
 10
94.12011340588833
 20
1.670525653677002
 30
0.0
 11
94.17472432331354
 21
1.431625475200763
 31
0.0
  0
LINE
  5
439
  8
LAYER_1
 10
94.17472432331354
 20
1.431625475200763
 30
0.0
 11
94.42259004496302
 21
1.297119598912104
 31
0.0
  0
LINE
  5
43A
  8
LAYER_1
 10
94.42259004496302
 20
1.297119598912104
 30
0.0
 11
95.47846596369573
 21
1.281778328255829
 31
0.0
  0
LINE
  5
43B
  8
LAYER_1
 10
95.47846596369573
 20
1.281778328255829
 30
0.0
 11
97.32048799055013
 21
1.489761435019721
 31
0.0
  0
LINE
  5
43C
  8
LAYER_1
 10
97.32048799055013
 20
1.489761435019721
 30
0.0
 11
99.36124094036157
 21
1.913518973314918
 31
0.0
  0
LINE
  5
43D
  8
LAYER_1
 10
99.36124094036157
 20
1.913518973314918
 30
0.0
 11
99.83454885617749
 21
2.17316990829103
 31
0.0
  0
LINE
  5
43E
  8
LAYER_1
 10
99.83454885617749
 20
2.17316990829103
 30
0.0
 11
100.1357128630671
 21
2.536252922573153
 31
0.0
  0
LINE
  5
43F
  8
LAYER_1
 10
100.1357128630671
 20
2.536252922573153
 30
0.0
 11
101.2227802728735
 21
3.940681531222888
 31
0.0
  0
LINE
  5
440
  8
LAYER_1
 10
101.2227802728735
 20
3.940681531222888
 30
0.0
 11
101.9142962219809
 21
5.163759119153488
 31
0.0
  0
LINE
  5
441
  8
LAYER_1
 10
101.9142962219809
 20
5.163759119153488
 30
0.0
 11
102.6308285121494
 21
7.086327662276444
 31
0.0
  0
LINE
  5
442
  8
LAYER_1
 10
102.6308285121494
 20
7.086327662276444
 30
0.0
 11
104.5457077066678
 21
12.14805394872352
 31
0.0
  0
LINE
  5
443
  8
LAYER_1
 10
104.5457077066678
 20
12.14805394872352
 30
0.0
 11
105.3745868335977
 21
14.18497400016933
 31
0.0
  0
LINE
  5
444
  8
LAYER_1
 10
105.3745868335977
 20
14.18497400016933
 30
0.0
 11
105.7096557020915
 21
15.37355877135364
 31
0.0
  0
LINE
  5
445
  8
LAYER_1
 10
105.7096557020915
 20
15.37355877135364
 30
0.0
 11
105.1183560810204
 21
16.31776955687036
 31
0.0
  0
LINE
  5
446
  8
LAYER_1
 10
105.1183560810204
 20
16.31776955687036
 30
0.0
 11
103.5327904325919
 21
17.88433927107705
 31
0.0
  0
LINE
  5
447
  8
LAYER_1
 10
103.5327904325919
 20
17.88433927107705
 30
0.0
 11
102.0566791755137
 21
19.32897739509012
 31
0.0
  0
LINE
  5
448
  8
LAYER_1
 10
102.0566791755137
 20
19.32897739509012
 30
0.0
 11
101.0016646215283
 21
20.65760945106196
 31
0.0
  0
LINE
  5
449
  8
LAYER_1
 10
101.0016646215283
 20
20.65760945106196
 30
0.0
 11
100.3611904158959
 21
21.88009744814519
 31
0.0
  0
LINE
  5
44A
  8
LAYER_1
 10
100.3611904158959
 20
21.88009744814519
 30
0.0
 11
100.1287001187875
 21
23.0063063942855
 31
0.0
  0
LINE
  5
44B
  8
LAYER_1
 10
100.1287001187875
 20
23.0063063942855
 30
0.0
 11
100.1911828706608
 21
23.49917888721987
 31
0.0
  0
LINE
  5
44C
  8
LAYER_1
 10
100.1911828706608
 20
23.49917888721987
 30
0.0
 11
100.4557035908016
 21
24.01272311729279
 31
0.0
  0
LINE
  5
44D
  8
LAYER_1
 10
100.4557035908016
 20
24.01272311729279
 30
0.0
 11
101.8773497380483
 21
25.51241173640268
 31
0.0
  0
LINE
  5
44E
  8
LAYER_1
 10
101.8773497380483
 20
25.51241173640268
 30
0.0
 11
103.3399991674171
 21
27.11682146589727
 31
0.0
  0
LINE
  5
44F
  8
LAYER_1
 10
103.3399991674171
 20
27.11682146589727
 30
0.0
 11
104.4212240617093
 21
28.86067591829857
 31
0.0
  0
LINE
  5
450
  8
LAYER_1
 10
104.5233630216542
 20
28.88931193370771
 30
0.0
 11
105.5010546638056
 21
31.43928652794752
 31
0.0
  0
LINE
  5
451
  8
LAYER_1
 10
105.5010546638056
 20
31.43928652794752
 30
0.0
 11
105.9387782771079
 21
34.15418340021923
 31
0.0
  0
LINE
  5
452
  8
LAYER_1
 10
105.9387782771079
 20
34.15418340021923
 30
0.0
 11
105.802697364954
 21
37.13591545895299
 31
0.0
  0
LINE
  5
453
  8
LAYER_1
 10
105.4561463325875
 20
38.46445165009991
 30
0.0
 11
104.6769672712763
 21
39.59761779572576
 31
0.0
  0
LINE
  5
454
  8
LAYER_1
 10
104.6769672712763
 20
39.59761779572576
 30
0.0
 11
104.0419845936681
 21
40.19487541520579
 31
0.0
  0
LINE
  5
455
  8
LAYER_1
 10
104.0419845936681
 20
40.19487541520579
 30
0.0
 11
103.2505346012115
 21
40.7974748833979
 31
0.0
  0
LINE
  5
456
  8
LAYER_1
 10
103.2505346012115
 20
40.7974748833979
 30
0.0
 11
102.2653012520538
 21
41.33778899901268
 31
0.0
  0
LINE
  5
457
  8
LAYER_1
 10
102.2653012520538
 20
41.33778899901268
 30
0.0
 11
99.81310289314004
 21
42.18469280243235
 31
0.0
  0
LINE
  5
458
  8
LAYER_1
 10
99.81310289314004
 20
42.18469280243235
 30
0.0
 11
96.88462462037163
 21
42.64184003260584
 31
0.0
  0
LINE
  5
459
  8
LAYER_1
 10
96.88462462037163
 20
42.64184003260584
 30
0.0
 11
95.12405221448779
 21
42.911243147416
 31
0.0
  0
LINE
  5
45A
  8
LAYER_1
 10
95.12405221448779
 20
42.911243147416
 30
0.0
 11
93.93534052723609
 21
43.50527059866066
 31
0.0
  0
LINE
  5
45B
  8
LAYER_1
 10
93.93534052723609
 20
43.50527059866066
 30
0.0
 11
89.3243293620362
 21
46.80533774525357
 31
0.0
  0
LINE
  5
45C
  8
LAYER_1
 10
89.3243293620362
 20
46.80533774525357
 30
0.0
 11
86.90497447770127
 21
48.59056459086584
 31
0.0
  0
LINE
  5
45D
  8
LAYER_1
 10
86.90497447770127
 20
48.59056459086584
 30
0.0
 11
86.19374256218708
 21
49.24372963461741
 31
0.0
  0
LINE
  5
45E
  8
LAYER_1
 10
86.19374256218708
 20
49.24372963461741
 30
0.0
 11
85.7682614628157
 21
49.82776064030009
 31
0.0
  0
LINE
  5
45F
  8
LAYER_1
 10
85.7682614628157
 20
49.82776064030009
 30
0.0
 11
85.59362201398491
 21
50.41053178286987
 31
0.0
  0
LINE
  5
460
  8
LAYER_1
 10
85.59362201398491
 20
50.41053178286987
 30
0.0
 11
85.63491510681871
 21
51.05991523808736
 31
0.0
  0
LINE
  5
461
  8
LAYER_1
 10
85.63491510681871
 20
51.05991523808736
 30
0.0
 11
86.22565817159116
 21
52.83001867163024
 31
0.0
  0
LINE
  5
462
  8
LAYER_1
 10
86.22565817159116
 20
52.83001867163024
 30
0.0
 11
87.00511927920996
 21
55.07326808450426
 31
0.0
  0
LINE
  5
463
  8
LAYER_1
 10
87.00511927920996
 20
55.07326808450426
 30
0.0
 11
87.40571660146293
 21
56.96011636567097
 31
0.0
  0
LINE
  5
464
  8
LAYER_1
 10
87.40571660146293
 20
56.96011636567097
 30
0.0
 11
87.47134742967515
 21
58.84575647670944
 31
0.0
  0
LINE
  5
465
  8
LAYER_1
 10
87.47134742967515
 20
58.84575647670944
 30
0.0
 11
87.24590799884788
 21
61.08538335003104
 31
0.0
  0
LINE
  5
466
  8
LAYER_1
 10
87.24590799884788
 20
61.08538335003104
 30
0.0
 11
86.85213791994417
 21
63.19716541274163
 31
0.0
  0
LINE
  5
467
  8
LAYER_1
 10
86.85213791994417
 20
63.19716541274163
 30
0.0
 11
86.26317303973298
 21
65.07484996763225
 31
0.0
  0
LINE
  5
468
  8
LAYER_1
 10
86.26317303973298
 20
65.07484996763225
 30
0.0
 11
85.39866930028111
 21
66.92447009898754
 31
0.0
  0
LINE
  5
469
  8
LAYER_1
 10
85.39866930028111
 20
66.92447009898754
 30
0.0
 11
84.17828569917475
 21
68.95205697698604
 31
0.0
  0
LINE
  5
46A
  8
LAYER_1
 10
84.17828569917475
 20
68.95205697698604
 30
0.0
 11
83.50785889434701
 21
70.25978071734309
 31
0.0
  0
LINE
  5
46B
  8
LAYER_1
 10
83.50785889434701
 20
70.25978071734309
 30
0.0
 11
82.91764123671561
 21
71.83133758035541
 31
0.0
  0
LINE
  5
46C
  8
LAYER_1
 10
82.91764123671561
 20
71.83133758035541
 30
0.0
 11
82.57321297325069
 21
73.15399665463251
 31
0.0
  0
LINE
  5
46D
  8
LAYER_1
 10
82.57321297325069
 20
73.15399665463251
 30
0.0
 11
82.5449131310078
 21
73.56176103275671
 31
0.0
  0
LINE
  5
46E
  8
LAYER_1
 10
82.5449131310078
 20
73.56176103275671
 30
0.0
 11
82.64015340805079
 21
73.71502500122541
 31
0.0
  0
LINE
  5
46F
  8
LAYER_1
 10
82.64015340805079
 20
73.71502500122541
 30
0.0
 11
85.41232108287245
 21
73.70554864329176
 31
0.0
  0
LINE
  5
470
  8
LAYER_1
 10
85.41232108287245
 20
73.70554864329176
 30
0.0
 11
87.25505770259797
 21
73.04019909142197
 31
0.0
  0
LINE
  5
471
  8
LAYER_1
 10
87.25505770259797
 20
73.04019909142197
 30
0.0
 11
88.56260978478379
 21
72.41755524276205
 31
0.0
  0
LINE
  5
472
  8
LAYER_1
 10
88.56260978478379
 20
72.41755524276205
 30
0.0
 11
89.62110432750565
 21
71.9505723562671
 31
0.0
  0
LINE
  5
473
  8
LAYER_1
 10
89.62110432750565
 20
71.9505723562671
 30
0.0
 11
89.30934036393221
 21
72.86373071058219
 31
0.0
  0
LINE
  5
474
  8
LAYER_1
 10
89.30934036393221
 20
72.86373071058219
 30
0.0
 11
88.62487416964979
 21
73.41378540061791
 31
0.0
  0
LINE
  5
475
  8
LAYER_1
 10
88.62487416964979
 20
73.41378540061791
 30
0.0
 11
87.91028615834799
 21
73.94451666086764
 31
0.0
  0
LINE
  5
476
  8
LAYER_1
 10
87.91028615834799
 20
73.94451666086764
 30
0.0
 11
87.76932759774152
 21
74.03668762802954
 31
0.0
  0
LINE
  5
477
  8
LAYER_1
 10
87.76932759774152
 20
74.03668762802954
 30
0.0
 11
85.53691135568612
 21
74.72006943620309
 31
0.0
  0
LINE
  5
47E
  8
LAYER_1
 10
85.53691135568612
 20
74.72006943620309
 30
0.0
 11
84.48679334197088
 21
76.69571519081988
 31
0.0
  0
LINE
  5
47F
  8
LAYER_1
 10
84.48679334197088
 20
76.69571519081988
 30
0.0
 11
83.86384197790252
 21
76.80250685323161
 31
0.0
  0
LINE
  5
480
  8
LAYER_1
 10
83.86384197790252
 20
76.80250685323161
 30
0.0
 11
83.64138959985368
 21
77.15345947912333
 31
0.0
  0
LINE
  5
481
  8
LAYER_1
 10
83.64138959985368
 20
77.15345947912333
 30
0.0
 11
83.41300490963491
 21
77.26246763954575
 31
0.0
  0
LINE
  5
482
  8
LAYER_1
 10
83.41300490963491
 20
77.26246763954575
 30
0.0
 11
83.39663688972041
 21
78.0470590435186
 31
0.0
  0
LINE
  5
483
  8
LAYER_1
 10
83.39663688972041
 20
78.0470590435186
 30
0.0
 11
82.64749322251456
 21
78.73739030666022
 31
0.0
  0
LINE
  5
484
  8
LAYER_1
 10
82.64749322251456
 20
78.73739030666022
 30
0.0
 11
80.62746618607443
 21
79.36901065055908
 31
0.0
  0
LINE
  5
485
  8
LAYER_1
 10
80.62746618607443
 20
79.36901065055908
 30
0.0
 11
77.99438575378881
 21
79.62445212669688
 31
0.0
  0
LINE
  5
486
  8
LAYER_1
 10
77.99438575378881
 20
79.62445212669688
 30
0.0
 11
77.19730878255419
 21
79.5437590987361
 31
0.0
  0
LINE
  5
487
  8
LAYER_1
 10
77.19730878255419
 20
79.5437590987361
 30
0.0
 11
76.39560786351976
 21
79.32006639066468
 31
0.0
  0
LINE
  5
488
  8
LAYER_1
 10
76.39560786351976
 20
79.32006639066468
 30
0.0
 11
75.00921702072367
 21
78.73903230778815
 31
0.0
  0
LINE
  5
489
  8
LAYER_1
 10
75.00921702072367
 20
78.73903230778815
 30
0.0
 11
73.57647659422128
 21
77.95981587620655
 31
0.0
  0
LINE
  5
48A
  8
LAYER_1
 10
73.57647659422128
 20
77.95981587620655
 30
0.0
 11
72.41970819019815
 21
77.17686235983743
 31
0.0
  0
LINE
  5
48B
  8
LAYER_1
 10
72.41970819019815
 20
77.17686235983743
 30
0.0
 11
71.86123235851599
 21
76.5846189934306
 31
0.0
  0
LINE
  5
48C
  8
LAYER_1
 10
71.86123235851599
 20
76.5846189934306
 30
0.0
 11
71.83299200141263
 21
76.12641766921637
 31
0.0
  0
LINE
  5
48D
  8
LAYER_1
 10
71.83299200141263
 20
76.12641766921637
 30
0.0
 11
72.03851010581295
 21
75.69270530899509
 31
0.0
  0
LINE
  5
48E
  8
LAYER_1
 10
72.03851010581295
 20
75.69270530899509
 30
0.0
 11
72.43614597893338
 21
75.3379167540039
 31
0.0
  0
LINE
  5
48F
  8
LAYER_1
 10
72.43614597893338
 20
75.3379167540039
 30
0.0
 11
72.98426195514659
 21
75.11648593097145
 31
0.0
  0
LINE
  5
490
  8
LAYER_1
 10
72.98426195514659
 20
75.11648593097145
 30
0.0
 11
73.44780533840032
 21
74.90759141158497
 31
0.0
  0
LINE
  5
491
  8
LAYER_1
 10
73.44780533840032
 20
74.90759141158497
 30
0.0
 11
73.60252314317779
 21
74.62047317477331
 31
0.0
  0
LINE
  5
492
  8
LAYER_1
 10
73.60252314317779
 20
74.62047317477331
 30
0.0
 11
73.98416802364045
 21
72.67994610215575
 31
0.0
  0
LINE
  5
493
  8
LAYER_1
 10
73.98416802364045
 20
72.67994610215575
 30
0.0
 11
74.66880998662762
 21
69.43881371155983
 31
0.0
  0
LINE
  5
494
  8
LAYER_1
 10
74.66880998662762
 20
69.43881371155983
 30
0.0
 11
74.95565502223235
 21
68.11566320142657
 31
0.0
  0
LINE
  5
495
  8
LAYER_1
 10
74.95565502223235
 20
68.11566320142657
 30
0.0
 11
75.14519102746243
 21
67.92627083270642
 31
0.0
  0
LINE
  5
496
  8
LAYER_1
 10
75.14519102746243
 20
67.92627083270642
 30
0.0
 11
75.4190198688504
 21
67.94503901485378
 31
0.0
  0
LINE
  5
497
  8
LAYER_1
 10
75.4190198688504
 20
67.94503901485378
 30
0.0
 11
75.87164498617503
 21
67.90622024346831
 31
0.0
  0
LINE
  5
498
  8
LAYER_1
 10
75.87164498617503
 20
67.90622024346831
 30
0.0
 11
76.08357015756047
 21
67.54099516079293
 31
0.0
  0
LINE
  5
499
  8
LAYER_1
 10
76.08357015756047
 20
67.54099516079293
 30
0.0
 11
76.03354025562436
 21
66.97200824729029
 31
0.0
  0
LINE
  5
49A
  8
LAYER_1
 10
76.03354025562436
 20
66.97200824729029
 30
0.0
 11
75.70030315177723
 21
66.32190406851231
 31
0.0
  0
LINE
  5
49B
  8
LAYER_1
 10
75.70030315177723
 20
66.32190406851231
 30
0.0
 11
75.25854191139504
 21
65.80653401545725
 31
0.0
  0
LINE
  5
49C
  8
LAYER_1
 10
75.25854191139504
 20
65.80653401545725
 30
0.0
 11
74.83603312160372
 21
65.64455619574389
 31
0.0
  0
LINE
  5
49D
  8
LAYER_1
 10
74.83603312160372
 20
65.64455619574389
 30
0.0
 11
74.25186707408048
 21
65.84242004613364
 31
0.0
  0
LINE
  5
49E
  8
LAYER_1
 10
74.25186707408048
 20
65.84242004613364
 30
0.0
 11
73.32513311763088
 21
66.40657297582939
 31
0.0
  0
LINE
  5
49F
  8
LAYER_1
 10
73.32513311763088
 20
66.40657297582939
 30
0.0
 11
71.41810875207898
 21
67.47134224724
 31
0.0
  0
LINE
  5
4A0
  8
LAYER_1
 10
71.41810875207898
 20
67.47134224724
 30
0.0
 11
69.75487349132965
 21
68.08869813006625
 31
0.0
  0
LINE
  5
4A1
  8
LAYER_1
 10
69.75487349132965
 20
68.08869813006625
 30
0.0
 11
68.52126230334878
 21
68.211177382719
 31
0.0
  0
LINE
  5
4A2
  8
LAYER_1
 10
68.52126230334878
 20
68.211177382719
 30
0.0
 11
68.12363961961731
 21
68.07200758578665
 31
0.0
  0
LINE
  5
4A3
  8
LAYER_1
 10
68.12363961961731
 20
68.07200758578665
 30
0.0
 11
67.90311004264976
 21
67.79132076199987
 31
0.0
  0
LINE
  5
4A4
  8
LAYER_1
 10
67.90311004264976
 20
67.79132076199987
 30
0.0
 11
67.37008824792704
 21
67.08853536672315
 31
0.0
  0
LINE
  5
4A5
  8
LAYER_1
 10
67.37008824792704
 20
67.08853536672315
 30
0.0
 11
0.0029809910965831
 21
68.24524124435631
 31
0.0
  0
LINE
  5
4AA
  8
LAYER_1
 10
0.0029809910965831
 20
68.24524124435631
 30
0.0
 11
35.08701807722767
 21
66.50039774507675
 31
0.0
  0
LINE
  5
4AB
  8
LAYER_1
 10
35.08701807722767
 20
66.44473369135959
 30
0.0
 11
67.01115157140723
 21
65.65073044203152
 31
0.0
  0
LINE
  5
4AC
  8
LAYER_1
 10
67.01115157140723
 20
65.65073044203152
 30
0.0
 11
67.09256072673321
 21
65.07441703411453
 31
0.0
  0
LINE
  5
4AD
  8
LAYER_1
 10
67.09256072673321
 20
65.07441703411453
 30
0.0
 11
66.82457205934574
 21
63.86276658493173
 31
0.0
  0
LINE
  5
4AE
  8
LAYER_1
 10
66.82457205934574
 20
63.86276658493173
 30
0.0
 11
66.38844704224744
 21
62.38396279036296
 31
0.0
  0
LINE
  5
4AF
  8
LAYER_1
 10
66.38844704224744
 20
62.38396279036296
 30
0.0
 11
61.80569184264974
 21
59.94471836199986
 31
0.0
  0
LINE
  5
4B0
  8
LAYER_1
 10
61.80569184264974
 20
59.94471836199986
 30
0.0
 11
58.21892517304954
 21
58.14881606881406
 31
0.0
  0
LINE
  5
4B1
  8
LAYER_1
 10
58.21892517304954
 20
58.14881606881406
 30
0.0
 11
57.18728272854364
 21
57.74217490648064
 31
0.0
  0
LINE
  5
4B2
  8
LAYER_1
 10
57.18728272854364
 20
57.74217490648064
 30
0.0
 11
56.65391291355746
 21
57.65883536300565
 31
0.0
  0
LINE
  5
4B3
  8
LAYER_1
 10
56.65391291355746
 20
57.65883536300565
 30
0.0
 11
55.56025564642144
 21
57.76405219609593
 31
0.0
  0
LINE
  5
4B4
  8
LAYER_1
 10
55.56025564642144
 20
57.76405219609593
 30
0.0
 11
55.23926774277547
 21
57.78248340313641
 31
0.0
  0
LINE
  5
4B5
  8
LAYER_1
 10
55.23926774277547
 20
57.78248340313641
 30
0.0
 11
55.2042525458431
 21
57.89439328686787
 31
0.0
  0
LINE
  5
4B6
  8
LAYER_1
 10
55.2042525458431
 20
57.89439328686787
 30
0.0
 11
55.17566483586072
 21
58.16753734062698
 31
0.0
  0
LINE
  5
4B7
  8
LAYER_1
 10
55.17566483586072
 20
58.16753734062698
 30
0.0
 11
54.89363520101034
 21
58.56520809757944
 31
0.0
  0
LINE
  5
4B8
  8
LAYER_1
 10
54.89363520101034
 20
58.56520809757944
 30
0.0
 11
54.50519105129951
 21
58.92197015219348
 31
0.0
  0
LINE
  5
4B9
  8
LAYER_1
 10
54.50519105129951
 20
58.92197015219348
 30
0.0
 11
54.15735788262964
 21
59.07238504341802
 31
0.0
  0
LINE
  5
4BA
  8
LAYER_1
 10
54.15735788262964
 20
59.07238504341802
 30
0.0
 11
53.18086509580539
 21
59.75051751452691
 31
0.0
  0
LINE
  5
4BB
  8
LAYER_1
 10
53.18086509580539
 20
59.75051751452691
 30
0.0
 11
52.55500303158613
 21
60.23125754198479
 31
0.0
  0
LINE
  5
4BC
  8
LAYER_1
 10
52.55500303158613
 20
60.23125754198479
 30
0.0
 11
52.06875192120143
 21
60.424800824107
 31
0.0
  0
LINE
  5
4BD
  8
LAYER_1
 10
52.06875192120143
 20
60.424800824107
 30
0.0
 11
51.61975452658407
 21
60.58770739795022
 31
0.0
  0
LINE
  5
4C3
  8
LAYER_1
 10
49.13479033493815
 20
60.99341583740262
 30
0.0
 11
48.40307552180491
 21
60.73067898156235
 31
0.0
  0
LINE
  5
4C4
  8
LAYER_1
 10
48.40307552180491
 20
60.73067898156235
 30
0.0
 11
47.61744824466132
 21
60.47926802018444
 31
0.0
  0
LINE
  5
4C5
  8
LAYER_1
 10
47.61744824466132
 20
60.47926802018444
 30
0.0
 11
46.85870668257934
 21
59.81158014696341
 31
0.0
  0
LINE
  5
4C6
  8
LAYER_1
 10
46.85870668257934
 20
59.81158014696341
 30
0.0
 11
44.89791637194318
 21
58.02060654681256
 31
0.0
  0
LINE
  5
4C7
  8
LAYER_1
 10
44.89791637194318
 20
58.02060654681256
 30
0.0
 11
42.308872396082
 21
55.75267184502729
 31
0.0
  0
LINE
  5
4C8
  8
LAYER_1
 10
42.308872396082
 20
55.75267184502729
 30
0.0
 11
40.24602781222481
 21
53.82582500695839
 31
0.0
  0
LINE
  5
4C9
  8
LAYER_1
 10
37.24676801886298
 20
44.95761393896744
 30
0.0
 11
38.52008777103799
 21
44.8735794106295
 31
0.0
  0
LINE
  5
4CA
  8
LAYER_1
 10
38.52008777103799
 20
44.8735794106295
 30
0.0
 11
39.42244224018558
 21
45.03729783572379
 31
0.0
  0
LINE
  5
4CB
  8
LAYER_1
 10
39.42244224018558
 20
45.03729783572379
 30
0.0
 11
41.80763984923763
 21
45.73574039755432
 31
0.0
  0
LINE
  5
4CC
  8
LAYER_1
 10
41.80763984923763
 20
45.73574039755432
 30
0.0
 11
43.79829469997252
 21
46.79823935104885
 31
0.0
  0
LINE
  5
4D1
  8
LAYER_1
 10
50.15619493346021
 20
47.94380242415377
 30
0.0
 11
50.45868833025347
 21
46.90433498593752
 31
0.0
  0
LINE
  5
4D2
  8
LAYER_1
 10
50.45868833025347
 20
46.90433498593752
 30
0.0
 11
51.66780305959719
 21
43.0611960672048
 31
0.0
  0
LINE
  5
4D3
  8
LAYER_1
 10
51.66780305959719
 20
43.0611960672048
 30
0.0
 11
53.5578165411662
 21
38.64531211658876
 31
0.0
  0
LINE
  5
4D4
  8
LAYER_1
 10
53.5578165411662
 20
38.64531211658876
 30
0.0
 11
54.63762348006489
 21
36.18491292423271
 31
0.0
  0
LINE
  5
4D5
  8
LAYER_1
 10
54.63762348006489
 20
36.18491292423271
 30
0.0
 11
54.7332537245205
 21
35.51105219011152
 31
0.0
  0
LINE
  5
4D6
  8
LAYER_1
 10
54.7332537245205
 20
35.51105219011152
 30
0.0
 11
54.63023377697209
 21
34.86420799227395
 31
0.0
  0
LINE
  5
4D7
  8
LAYER_1
 10
54.63023377697209
 20
34.86420799227395
 30
0.0
 11
54.39106667775158
 21
32.98510648732047
 31
0.0
  0
LINE
  5
4D8
  8
LAYER_1
 10
54.39106667775158
 20
32.98510648732047
 30
0.0
 11
54.63857023405029
 21
31.84126126826087
 31
0.0
  0
LINE
  5
4D9
  8
LAYER_1
 10
54.63857023405029
 20
31.84126126826087
 30
0.0
 11
55.21467828137239
 21
30.31747543205267
 31
0.0
  0
LINE
  5
4DA
  8
LAYER_1
 10
55.21467828137239
 20
30.31747543205267
 30
0.0
 11
55.934167621478
 21
28.84246395460737
 31
0.0
  0
LINE
  5
4DB
  8
LAYER_1
 10
55.934167621478
 20
28.84246395460737
 30
0.0
 11
56.61181599899874
 21
27.84494383939489
 31
0.0
  0
LINE
  5
4DC
  8
LAYER_1
 10
56.61181599899874
 20
27.84494383939489
 30
0.0
 11
57.23585999980338
 21
27.19900078266871
 31
0.0
  0
LINE
  5
4DD
  8
LAYER_1
 10
57.23585999980338
 20
27.19900078266871
 30
0.0
 11
55.99836050148807
 21
26.03557441389829
 31
0.0
  0
LINE
  5
4DE
  8
LAYER_1
 10
55.99836050148807
 20
26.03557441389829
 30
0.0
 11
52.9219776507463
 21
23.58274489119273
 31
0.0
  0
LINE
  5
4DF
  8
LAYER_1
 10
52.9219776507463
 20
23.58274489119273
 30
0.0
 11
51.47466657571488
 21
22.3933751809086
 31
0.0
  0
LINE
  5
4E0
  8
LAYER_1
 10
51.47466657571488
 20
22.3933751809086
 30
0.0
 11
50.46543503369827
 21
21.15586939307858
 31
0.0
  0
LINE
  5
4E1
  8
LAYER_1
 10
50.46543503369827
 20
21.15586939307858
 30
0.0
 11
49.88381006402264
 21
19.85350675521083
 31
0.0
  0
LINE
  5
4E2
  8
LAYER_1
 10
49.88381006402264
 20
19.85350675521083
 30
0.0
 11
49.71931773477948
 21
18.46956546685278
 31
0.0
  0
LINE
  5
4E3
  8
LAYER_1
 10
49.71931773477948
 20
18.46956546685278
 30
0.0
 11
49.56753981519185
 21
16.73639229778061
 31
0.0
  0
LINE
  5
4E4
  8
LAYER_1
 10
49.56753981519185
 20
16.73639229778061
 30
0.0
 11
49.15195130168922
 21
14.35535099971675
 31
0.0
  0
LINE
  5
4E5
  8
LAYER_1
 10
49.15195130168922
 20
14.35535099971675
 30
0.0
 11
48.70541467780186
 21
11.69608398377508
 31
0.0
  0
LINE
  5
4E6
  8
LAYER_1
 10
48.70541467780186
 20
11.69608398377508
 30
0.0
 11
48.7611238520538
 21
10.8512971990127
 31
0.0
  0
LINE
  5
4E7
  8
LAYER_1
 10
48.7611238520538
 20
10.8512971990127
 30
0.0
 11
48.98637578200101
 21
9.885876637735354
 31
0.0
  0
LINE
  5
4E8
  8
LAYER_1
 10
48.98637578200101
 20
9.885876637735354
 30
0.0
 11
49.46089762027106
 21
7.321948039696629
 31
0.0
  0
LINE
  5
4E9
  8
LAYER_1
 10
49.46089762027106
 20
7.321948039696629
 30
0.0
 11
49.71619035112346
 21
6.293110014602338
 31
0.0
  0
LINE
  5
4EA
  8
LAYER_1
 10
49.71619035112346
 20
6.293110014602338
 30
0.0
 11
50.27852702167914
 21
5.135110740425823
 31
0.0
  0
LINE
  5
4EB
  8
LAYER_1
 10
50.27852702167914
 20
5.135110740425823
 30
0.0
 11
51.05951953266734
 21
3.885130215758988
 31
0.0
  0
LINE
  5
4EC
  8
LAYER_1
 10
51.05951953266734
 20
3.885130215758988
 30
0.0
 11
51.83574528604927
 21
5.270188602331782
 31
0.0
  0
LINE
  5
4ED
  8
LAYER_1
 10
51.83574528604927
 20
5.270188602331782
 30
0.0
 11
52.43204419864671
 21
6.633015764212596
 31
0.0
  0
LINE
  5
4EE
  8
LAYER_1
 10
52.43204419864671
 20
6.633015764212596
 30
0.0
 11
52.41592543736937
 21
7.9201914342654
 31
0.0
  0
LINE
  5
4EF
  8
LAYER_1
 10
52.41592543736937
 20
7.9201914342654
 30
0.0
 11
52.16940319246115
 21
10.42171970029507
 31
0.0
  0
LINE
  5
4F0
  8
LAYER_1
 10
52.16940319246115
 20
10.42171970029507
 30
0.0
 11
52.04618472819161
 21
13.46309843129834
 31
0.0
  0
LINE
  5
4F1
  8
LAYER_1
 10
52.04618472819161
 20
13.46309843129834
 30
0.0
 11
52.06168402791502
 21
16.21533530079796
 31
0.0
  0
LINE
  5
4F2
  8
LAYER_1
 10
52.06168402791502
 20
16.21533530079796
 30
0.0
 11
52.23131413211416
 21
17.84943595475823
 31
0.0
  0
LINE
  5
4F3
  8
LAYER_1
 10
52.23131413211416
 20
17.84943595475823
 30
0.0
 11
52.66793044214685
 21
18.76627359745373
 31
0.0
  0
LINE
  5
4F4
  8
LAYER_1
 10
52.66793044214685
 20
18.76627359745373
 30
0.0
 11
53.34065992426906
 21
19.67806310783844
 31
0.0
  0
LINE
  5
4F5
  8
LAYER_1
 10
53.34065992426906
 20
19.67806310783844
 30
0.0
 11
54.11451362313753
 21
20.42959033760963
 31
0.0
  0
LINE
  5
4F6
  8
LAYER_1
 10
54.11451362313753
 20
20.42959033760963
 30
0.0
 11
54.85450546874981
 21
20.86564522194455
 31
0.0
  0
LINE
  5
4F7
  8
LAYER_1
 10
54.85450546874981
 20
20.86564522194455
 30
0.0
 11
58.60796676711541
 21
22.4109906871696
 31
0.0
  0
LINE
  5
4F8
  8
LAYER_1
 10
58.60796676711541
 20
22.4109906871696
 30
0.0
 11
61.35189104672315
 21
23.48011397482361
 31
0.0
  0
LINE
  5
4F9
  8
LAYER_1
 10
61.35189104672315
 20
23.48011397482361
 30
0.0
 11
61.90319724963993
 21
23.52596916919122
 31
0.0
  0
LINE
  5
4FA
  8
LAYER_1
 10
61.90319724963993
 20
23.52596916919122
 30
0.0
 11
62.2400471454408
 21
23.33020851523095
 31
0.0
  0
LINE
  5
4FB
  8
LAYER_1
 10
62.2400471454408
 20
23.33020851523095
 30
0.0
 11
62.47509111913956
 21
23.02641886946781
 31
0.0
  0
LINE
  5
4FC
  8
LAYER_1
 10
62.47509111913956
 20
23.02641886946781
 30
0.0
 11
62.55539836540558
 21
22.57248600771272
 31
0.0
  0
LINE
  5
4FD
  8
LAYER_1
 10
62.55539836540558
 20
22.57248600771272
 30
0.0
 11
62.25625954232285
 21
20.41254753504488
 31
0.0
  0
LINE
  5
4FE
  8
LAYER_1
 10
62.25625954232285
 20
20.41254753504488
 30
0.0
 11
61.17355028097006
 21
15.72193246041576
 31
0.0
  0
LINE
  5
4FF
  8
LAYER_1
 10
61.17355028097006
 20
15.72193246041576
 30
0.0
 11
60.53247201534271
 21
13.51640218714445
 31
0.0
  0
LINE
  5
500
  8
LAYER_1
 10
60.53247201534271
 20
13.51640218714445
 30
0.0
 11
61.10230896455067
 21
12.47304976798428
 31
0.0
  0
LINE
  5
501
  8
LAYER_1
 10
61.10230896455067
 20
12.47304976798428
 30
0.0
 11
61.47156663560924
 21
11.9247274583539
 31
0.0
  0
LINE
  5
502
  8
LAYER_1
 10
61.47156663560924
 20
11.9247274583539
 30
0.0
 11
61.96957332462108
 21
11.44976738302074
 31
0.0
  0
LINE
  5
503
  8
LAYER_1
 10
61.96957332462108
 20
11.44976738302074
 30
0.0
 11
63.65732120634095
 21
10.48185872176854
 31
0.0
  0
LINE
  5
504
  8
LAYER_1
 10
63.65732120634095
 20
10.48185872176854
 30
0.0
 11
67.1814812023681
 21
8.534920501854028
 31
0.0
  0
LINE
  5
505
  8
LAYER_1
 10
67.1814812023681
 20
8.534920501854028
 30
0.0
 11
68.22318645426654
 21
7.910441243015708
 31
0.0
  0
LINE
  5
506
  8
LAYER_1
 10
68.22318645426654
 20
7.910441243015708
 30
0.0
 11
69.06609415982348
 21
7.626565501250559
 31
0.0
  0
LINE
  5
507
  8
LAYER_1
 10
69.06609415982348
 20
7.626565501250559
 30
0.0
 11
70.03639480523458
 21
7.633465999767029
 31
0.0
  0
LINE
  5
508
  8
LAYER_1
 10
70.03639480523458
 20
7.633465999767029
 30
0.0
 11
71.46027990465626
 21
7.881314490538966
 31
0.0
  0
LINE
  5
509
  8
LAYER_1
 10
71.46027990465626
 20
7.881314490538966
 30
0.0
 11
74.82207395499572
 21
8.572545441607609
 31
0.0
  0
LINE
  5
50A
  8
LAYER_1
 10
74.82207395499572
 20
8.572545441607609
 30
0.0
 11
76.5802489930646
 21
9.041193257750429
 31
0.0
  0
LINE
  5
50B
  8
LAYER_1
 10
76.5802489930646
 20
9.041193257750429
 30
0.0
 11
77.24935569831982
 21
9.479526537257595
 31
0.0
  0
LINE
  5
50C
  8
LAYER_1
 10
77.24935569831982
 20
9.479526537257595
 30
0.0
 11
77.34394677777669
 21
10.07981293554776
 31
0.0
  0
LINE
  5
50D
  8
LAYER_1
 10
77.34394677777669
 20
10.07981293554776
 30
0.0
 11
77.1447910697556
 21
10.52495435103683
 31
0.0
  0
LINE
  5
50E
  8
LAYER_1
 10
77.1447910697556
 20
10.52495435103683
 30
0.0
 11
76.68704301715312
 21
10.84275805951055
 31
0.0
  0
LINE
  5
50F
  8
LAYER_1
 10
76.68704301715312
 20
10.84275805951055
 30
0.0
 11
74.81411795016797
 21
11.54037478196466
 31
0.0
  0
LINE
  5
510
  8
LAYER_1
 10
74.81411795016797
 20
11.54037478196466
 30
0.0
 11
73.58289775811363
 21
12.01076982179368
 31
0.0
  0
LINE
  5
511
  8
LAYER_1
 10
73.58289775811363
 20
12.01076982179368
 30
0.0
 11
72.12933823405027
 21
11.17033726826087
 31
0.0
  0
LINE
  5
512
  8
LAYER_1
 10
72.12933823405027
 20
11.17033726826087
 30
0.0
 11
70.6757777954785
 21
10.32990168757191
 31
0.0
  0
LINE
  5
513
  8
LAYER_1
 10
70.6757777954785
 20
10.32990168757191
 30
0.0
 11
68.69279845270756
 21
11.02483885292267
 31
0.0
  0
LINE
  5
514
  8
LAYER_1
 10
68.69279845270756
 20
11.02483885292267
 30
0.0
 11
65.43723836465125
 21
12.33835356089351
 31
0.0
  0
LINE
  5
515
  8
LAYER_1
 10
65.43723836465125
 20
12.33835356089351
 30
0.0
 11
64.81869442248379
 21
12.84228648369964
 31
0.0
  0
LINE
  5
516
  8
LAYER_1
 10
64.81869442248379
 20
12.84228648369964
 30
0.0
 11
64.59770568242846
 21
13.40427865759957
 31
0.0
  0
LINE
  5
517
  8
LAYER_1
 10
64.59770568242846
 20
13.40427865759957
 30
0.0
 11
64.83763343083177
 21
14.68473789516557
 31
0.0
  0
LINE
  5
518
  8
LAYER_1
 10
64.83763343083177
 20
14.68473789516557
 30
0.0
 11
65.66450119014786
 21
16.84088186338282
 31
0.0
  0
LINE
  5
519
  8
LAYER_1
 10
65.66450119014786
 20
16.84088186338282
 30
0.0
 11
67.02389646678853
 21
20.1575738602146
 31
0.0
  0
LINE
  5
51A
  8
LAYER_1
 10
67.02389646678853
 20
20.1575738602146
 30
0.0
 11
67.33262199628314
 21
20.65162003084573
 31
0.0
  0
LINE
  5
51B
  8
LAYER_1
 10
67.33262199628314
 20
20.65162003084573
 30
0.0
 11
68.105454323565
 21
20.60940295747384
 31
0.0
  0
LINE
  5
51C
  8
LAYER_1
 10
68.105454323565
 20
20.60940295747384
 30
0.0
 11
69.63911799180738
 21
20.42410384638508
 31
0.0
  0
LINE
  5
51D
  8
LAYER_1
 10
69.63911799180738
 20
20.42410384638508
 30
0.0
 11
70.15764289957707
 21
20.31109434862295
 31
0.0
  0
LINE
  5
51E
  8
LAYER_1
 10
70.15764289957707
 20
20.31109434862295
 30
0.0
 11
70.22667283616244
 21
19.98316231935466
 31
0.0
  0
LINE
  5
51F
  8
LAYER_1
 10
70.22667283616244
 20
19.98316231935466
 30
0.0
 11
69.85478513593614
 21
19.46428668530889
 31
0.0
  0
LINE
  5
520
  8
LAYER_1
 10
69.85478513593614
 20
19.46428668530889
 30
0.0
 11
69.05055710490771
 21
18.77844737281204
 31
0.0
  0
LINE
  5
521
  8
LAYER_1
 10
69.05055710490771
 20
18.77844737281204
 30
0.0
 11
68.08730003832486
 21
17.93243706690306
 31
0.0
  0
LINE
  5
522
  8
LAYER_1
 10
68.08730003832486
 20
17.93243706690306
 30
0.0
 11
67.82979852336385
 21
17.33549637165539
 31
0.0
  0
LINE
  5
523
  8
LAYER_1
 10
67.82979852336385
 20
17.33549637165539
 30
0.0
 11
67.96804035580036
 21
17.11886918488144
 31
0.0
  0
LINE
  5
524
  8
LAYER_1
 10
67.96804035580036
 20
17.11886918488144
 30
0.0
 11
68.28552057511138
 21
16.95064022345322
 31
0.0
  0
LINE
  5
525
  8
LAYER_1
 10
68.28552057511138
 20
16.95064022345322
 30
0.0
 11
69.46193209600654
 21
16.74088750034535
 31
0.0
  0
LINE
  5
526
  8
LAYER_1
 10
69.46193209600654
 20
16.74088750034535
 30
0.0
 11
70.73819102766356
 21
16.71770681852489
 31
0.0
  0
LINE
  5
527
  8
LAYER_1
 10
70.73819102766356
 20
16.71770681852489
 30
0.0
 11
71.78892443591099
 21
16.91699103708158
 31
0.0
  0
LINE
  5
528
  8
LAYER_1
 10
71.78892443591099
 20
16.91699103708158
 30
0.0
 11
72.70742781614734
 21
17.36962673041827
 31
0.0
  0
LINE
  5
529
  8
LAYER_1
 10
72.70742781614734
 20
17.36962673041827
 30
0.0
 11
73.58699572089967
 21
18.1064984453793
 31
0.0
  0
LINE
  5
52A
  8
LAYER_1
 10
73.58699572089967
 20
18.1064984453793
 30
0.0
 11
74.34059733221471
 21
18.74389634766746
 31
0.0
  0
LINE
  5
52B
  8
LAYER_1
 10
74.34059733221471
 20
18.74389634766746
 30
0.0
 11
74.99578255539802
 21
19.12218261324452
 31
0.0
  0
LINE
  5
52C
  8
LAYER_1
 10
74.99578255539802
 20
19.12218261324452
 30
0.0
 11
75.58392909429671
 21
19.45614062088847
 31
0.0
  0
LINE
  5
52D
  8
LAYER_1
 10
75.58392909429671
 20
19.45614062088847
 30
0.0
 11
76.1763527819507
 21
19.98695914128073
 31
0.0
  0
LINE
  5
52E
  8
LAYER_1
 10
76.1763527819507
 20
19.98695914128073
 30
0.0
 11
76.49966666065325
 21
20.38558269275169
 31
0.0
  0
LINE
  5
52F
  8
LAYER_1
 10
76.49966666065325
 20
20.38558269275169
 30
0.0
 11
76.62093839351721
 21
20.71167752584196
 31
0.0
  0
LINE
  5
530
  8
LAYER_1
 10
76.62093839351721
 20
20.71167752584196
 30
0.0
 11
76.29674392537541
 21
21.71005402983995
 31
0.0
  0
LINE
  5
531
  8
LAYER_1
 10
76.29674392537541
 20
21.71005402983995
 30
0.0
 11
75.90641477566456
 21
22.84597108445398
 31
0.0
  0
LINE
  5
532
  8
LAYER_1
 10
75.90641477566456
 20
22.84597108445398
 30
0.0
 11
78.26028516228766
 21
22.56189082752664
 31
0.0
  0
LINE
  5
533
  8
LAYER_1
 10
78.26028516228766
 20
22.56189082752664
 30
0.0
 11
80.54264832472165
 21
22.36473537592996
 31
0.0
  0
LINE
  5
534
  8
LAYER_1
 10
80.54264832472165
 20
22.36473537592996
 30
0.0
 11
82.78126147518682
 21
22.51240876813514
 31
0.0
  0
LINE
  5
535
  8
LAYER_1
 10
82.78126147518682
 20
22.51240876813514
 30
0.0
 11
84.93669121287854
 21
22.99921826086836
 31
0.0
  0
LINE
  5
536
  8
LAYER_1
 10
84.93669121287854
 20
22.99921826086836
 30
0.0
 11
86.96950513658987
 21
23.81947113921887
 31
0.0
  0
LINE
  5
537
  8
LAYER_1
 10
86.96950513658987
 20
23.81947113921887
 30
0.0
 11
88.95815082193059
 21
24.76786482269888
 31
0.0
  0
LINE
  5
538
  8
LAYER_1
 10
88.95815082193059
 20
24.76786482269888
 30
0.0
 11
89.12110815499571
 21
23.3809998416076
 31
0.0
  0
LINE
  5
539
  8
LAYER_1
 10
89.12110815499571
 20
23.3809998416076
 30
0.0
 11
89.06219507191801
 21
20.13679669858523
 31
0.0
  0
LINE
  5
53A
  8
LAYER_1
 10
89.06219507191801
 20
20.13679669858523
 30
0.0
 11
88.83837581770629
 21
16.4347741205113
 31
0.0
  0
LINE
  5
53B
  8
LAYER_1
 10
88.83837581770629
 20
16.4347741205113
 30
0.0
 11
88.50661566533015
 21
13.67444986303079
 31
0.0
  0
LINE
  5
53C
  8
LAYER_1
 10
88.50661566533015
 20
13.67444986303079
 30
0.0
 11
88.27844465336131
 21
12.91255170683265
 31
0.0
  0
LINE
  5
53D
  8
LAYER_1
 10
88.27844465336131
 20
12.91255170683265
 30
0.0
 11
87.87193525255668
 21
12.15970196355882
 31
0.0
  0
LINE
  5
53E
  8
LAYER_1
 10
87.87193525255668
 20
12.15970196355882
 30
0.0
 11
87.23204778300678
 21
11.36874556682762
 31
0.0
  0
LINE
  5
53F
  8
LAYER_1
 10
87.23204778300678
 20
11.36874556682762
 30
0.0
 11
86.30373753845058
 21
10.49252830803959
 31
0.0
  0
LINE
  5
540
  8
LAYER_1
 10
86.30373753845058
 20
10.49252830803959
 30
0.0
 11
83.36168029233542
 21
8.295680659158524
 31
0.0
  0
LINE
  5
541
  8
LAYER_1
 10
83.36168029233542
 20
8.295680659158524
 30
0.0
 11
78.60542619643397
 21
5.19191392020957
 31
0.0
  0
LINE
  5
542
  8
LAYER_1
 10
78.60542619643397
 20
5.19191392020957
 30
0.0
 11
76.18472215192807
 21
3.499896557876152
 31
0.0
  0
LINE
  5
543
  8
LAYER_1
 10
76.18472215192807
 20
3.499896557876152
 30
0.0
 11
75.53546071119385
 21
2.853959629638789
 31
0.0
  0
LINE
  5
544
  8
LAYER_1
 10
75.53546071119385
 20
2.853959629638789
 30
0.0
 11
75.10782160669297
 21
2.211506996950833
 31
0.0
  0
LINE
  5
545
  8
LAYER_1
 10
75.10782160669297
 20
2.211506996950833
 30
0.0
 11
74.50342786814633
 21
0.8979540644891788
 31
0.0
  0
LINE
  5
546
  8
LAYER_1
 10
74.50342786814633
 20
0.8979540644891788
 30
0.0
 11
74.84151451401004
 21
0.6762000310971743
 31
0.0
  0
LINE
  5
547
  8
LAYER_1
 10
74.84151451401004
 20
0.6762000310971743
 30
0.0
 11
75.65106663897862
 21
0.4283627208130394
 31
0.0
  0
LINE
  5
548
  8
LAYER_1
 10
75.65106663897862
 20
0.4283627208130394
 30
0.0
 11
77.45758326040181
 21
0.1606614104786166
 31
0.0
  0
LINE
  5
549
  8
LAYER_1
 10
77.45758326040181
 20
0.1606614104786166
 30
0.0
 11
78.31450355841537
 21
0.4715744005213622
 31
0.0
  0
LINE
  5
54A
  8
LAYER_1
 10
78.31450355841537
 20
0.4715744005213622
 30
0.0
 11
79.36782057697207
 21
1.336245592273938
 31
0.0
  0
LINE
  5
54B
  8
LAYER_1
 10
79.36782057697207
 20
1.336245592273938
 30
0.0
 11
79.36782057697207
 21
1.336245592273938
 31
0.0
  0
LINE
  5
54C
  8
LAYER_1
 10
68.80906913814886
 20
44.70227552931191
 30
0.0
 11
68.32664797672064
 21
44.89449991000087
 31
0.0
  0
LINE
  5
54D
  8
LAYER_1
 10
68.32664797672064
 20
44.89449991000087
 30
0.0
 11
68.22658213553382
 21
45.22752371367198
 31
0.0
  0
LINE
  5
54E
  8
LAYER_1
 10
68.22658213553382
 20
45.22752371367198
 30
0.0
 11
68.53353490586321
 21
45.81056040544971
 31
0.0
  0
LINE
  5
54F
  8
LAYER_1
 10
68.53353490586321
 20
45.81056040544971
 30
0.0
 11
69.27217354901131
 21
46.75282456350854
 31
0.0
  0
LINE
  5
550
  8
LAYER_1
 10
69.27217354901131
 20
46.75282456350854
 30
0.0
 11
70.5354417291471
 21
48.612355863936
 31
0.0
  0
LINE
  5
551
  8
LAYER_1
 10
70.5354417291471
 20
48.612355863936
 30
0.0
 11
72.00219825793764
 21
51.19361808420253
 31
0.0
  0
LINE
  5
552
  8
LAYER_1
 10
72.00219825793764
 20
51.19361808420253
 30
0.0
 11
73.70426977727382
 21
54.20341897100163
 31
0.0
  0
LINE
  5
553
  8
LAYER_1
 10
73.70426977727382
 20
54.20341897100163
 30
0.0
 11
73.65241920966005
 21
53.42581348777306
 31
0.0
  0
LINE
  5
554
  8
LAYER_1
 10
73.65241920966005
 20
53.42581348777306
 30
0.0
 11
73.31625174689918
 21
51.82102411241475
 31
0.0
  0
LINE
  5
555
  8
LAYER_1
 10
73.31625174689918
 20
51.82102411241475
 30
0.0
 11
72.4385199384003
 21
48.86234361158498
 31
0.0
  0
LINE
  5
556
  8
LAYER_1
 10
72.4385199384003
 20
48.86234361158498
 30
0.0
 11
70.87726799316519
 21
46.24389925065966
 31
0.0
  0
LINE
  5
557
  8
LAYER_1
 10
70.87726799316519
 20
46.24389925065966
 30
0.0
 11
69.60479486467639
 21
44.55075480912081
 31
0.0
  0
LINE
  5
558
  8
LAYER_1
 10
69.60479486467639
 20
44.55075480912081
 30
0.0
 11
68.80906913814886
 21
44.70227552931191
 31
0.0
  0
LINE
  5
559
  8
LAYER_1
 10
68.80906913814886
 20
44.70227552931191
 30
0.0
 11
68.80906913814886
 21
44.70227552931191
 31
0.0
  0
LINE
  5
55A
  8
LAYER_1
 10
62.16015941569475
 20
47.68388946232675
 30
0.0
 11
62.38415813181243
 21
48.45000497603055
 31
0.0
  0
LINE
  5
55B
  8
LAYER_1
 10
62.38415813181243
 20
48.45000497603055
 30
0.0
 11
62.75826414171939
 21
50.08803177758951
 31
0.0
  0
LINE
  5
55C
  8
LAYER_1
 10
62.75826414171939
 20
50.08803177758951
 30
0.0
 11
62.79004708655219
 21
51.20638116687792
 31
0.0
  0
LINE
  5
55D
  8
LAYER_1
 10
62.79004708655219
 20
51.20638116687792
 30
0.0
 11
62.65029152064824
 21
51.32891156310623
 31
0.0
  0
LINE
  5
55E
  8
LAYER_1
 10
62.65029152064824
 20
51.32891156310623
 30
0.0
 11
62.37129688841287
 21
51.26856513569864
 31
0.0
  0
LINE
  5
55F
  8
LAYER_1
 10
62.37129688841287
 20
51.26856513569864
 30
0.0
 11
61.93939784073876
 21
51.24706849672454
 31
0.0
  0
LINE
  5
560
  8
LAYER_1
 10
61.93939784073876
 20
51.24706849672454
 30
0.0
 11
61.67030540583809
 21
51.5129131572224
 31
0.0
  0
LINE
  5
561
  8
LAYER_1
 10
61.67030540583809
 20
51.5129131572224
 30
0.0
 11
61.3556031333211
 21
51.81029486966897
 31
0.0
  0
LINE
  5
562
  8
LAYER_1
 10
61.3556031333211
 20
51.81029486966897
 30
0.0
 11
60.84872897063568
 21
51.92584083899258
 31
0.0
  0
LINE
  5
563
  8
LAYER_1
 10
60.84872897063568
 20
51.92584083899258
 30
0.0
 11
60.43777520553635
 21
51.97271277849472
 31
0.0
  0
LINE
  5
564
  8
LAYER_1
 10
60.43777520553635
 20
51.97271277849472
 30
0.0
 11
60.57848064270004
 21
52.16370645845449
 31
0.0
  0
LINE
  5
565
  8
LAYER_1
 10
60.57848064270004
 20
52.16370645845449
 30
0.0
 11
60.73713909263717
 21
52.48618123788621
 31
0.0
  0
LINE
  5
566
  8
LAYER_1
 10
60.73713909263717
 20
52.48618123788621
 30
0.0
 11
60.2720224735273
 21
53.01385638513288
 31
0.0
  0
LINE
  5
567
  8
LAYER_1
 10
60.2720224735273
 20
53.01385638513288
 30
0.0
 11
59.58408835625298
 21
53.89427365297296
 31
0.0
  0
LINE
  5
568
  8
LAYER_1
 10
59.58408835625298
 20
53.89427365297296
 30
0.0
 11
59.36900672291125
 21
54.24233530356386
 31
0.0
  0
LINE
  5
569
  8
LAYER_1
 10
59.36900672291125
 20
54.24233530356386
 30
0.0
 11
58.86313507433192
 21
54.68305352840671
 31
0.0
  0
LINE
  5
56A
  8
LAYER_1
 10
58.86313507433192
 20
54.68305352840671
 30
0.0
 11
58.31249430797536
 21
55.20105905654349
 31
0.0
  0
LINE
  5
56B
  8
LAYER_1
 10
58.31249430797536
 20
55.20105905654349
 30
0.0
 11
58.65576956626052
 21
55.78131484744116
 31
0.0
  0
LINE
  5
56C
  8
LAYER_1
 10
58.65576956626052
 20
55.78131484744116
 30
0.0
 11
59.99466477370331
 21
56.85677772272403
 31
0.0
  0
LINE
  5
56D
  8
LAYER_1
 10
59.99466477370331
 20
56.85677772272403
 30
0.0
 11
62.32176139925019
 21
58.46684912166795
 31
0.0
  0
LINE
  5
56E
  8
LAYER_1
 10
62.32176139925019
 20
58.46684912166795
 30
0.0
 11
64.56517237189289
 21
59.89823705035792
 31
0.0
  0
LINE
  5
56F
  8
LAYER_1
 10
64.56517237189289
 20
59.89823705035792
 30
0.0
 11
65.65301453392459
 21
60.43765262712434
 31
0.0
  0
LINE
  5
570
  8
LAYER_1
 10
65.65301453392459
 20
60.43765262712434
 30
0.0
 11
64.78545662152828
 21
56.35984845106198
 31
0.0
  0
LINE
  5
571
  8
LAYER_1
 10
64.78545662152828
 20
56.35984845106198
 30
0.0
 11
63.37073992160373
 21
50.0167287957439
 31
0.0
  0
LINE
  5
572
  8
LAYER_1
 10
63.37073992160373
 20
50.0167287957439
 30
0.0
 11
62.86502018009003
 21
47.23171057246002
 31
0.0
  0
LINE
  5
573
  8
LAYER_1
 10
62.86502018009003
 20
47.23171057246002
 30
0.0
 11
62.69311042685894
 21
47.00301867525106
 31
0.0
  0
LINE
  5
574
  8
LAYER_1
 10
62.69311042685894
 20
47.00301867525106
 30
0.0
 11
62.4620327161725
 21
47.03826677864559
 31
0.0
  0
LINE
  5
575
  8
LAYER_1
 10
62.4620327161725
 20
47.03826677864559
 30
0.0
 11
62.25623355343677
 21
47.28328125151458
 31
0.0
  0
LINE
  5
576
  8
LAYER_1
 10
62.25623355343677
 20
47.28328125151458
 30
0.0
 11
62.16015941569475
 21
47.68388946232675
 31
0.0
  0
LINE
  5
577
  8
LAYER_1
 10
62.16015941569475
 20
47.68388946232675
 30
0.0
 11
62.16015941569475
 21
47.68388946232675
 31
0.0
  0
LINE
  5
578
  8
LAYER_1
 10
57.51637272447022
 20
56.6032086936569
 30
0.0
 11
58.68942065426654
 21
57.46743064301572
 31
0.0
  0
LINE
  5
579
  8
LAYER_1
 10
58.68942065426654
 20
57.46743064301572
 30
0.0
 11
61.01849507453306
 21
58.91189951422516
 31
0.0
  0
LINE
  5
57A
  8
LAYER_1
 10
61.01849507453306
 20
58.91189951422516
 30
0.0
 11
63.30058921604677
 21
60.21880853750905
 31
0.0
  0
LINE
  5
57B
  8
LAYER_1
 10
63.30058921604677
 20
60.21880853750905
 30
0.0
 11
64.33269725245614
 21
60.6703529706496
 31
0.0
  0
LINE
  5
57C
  8
LAYER_1
 10
64.33269725245614
 20
60.6703529706496
 30
0.0
 11
62.74167482439478
 21
59.52817614897498
 31
0.0
  0
LINE
  5
57D
  8
LAYER_1
 10
62.74167482439478
 20
59.52817614897498
 30
0.0
 11
59.50046262826703
 21
57.42686097598026
 31
0.0
  0
LINE
  5
57E
  8
LAYER_1
 10
59.50046262826703
 20
57.42686097598026
 30
0.0
 11
57.78607056666283
 21
56.42588881907807
 31
0.0
  0
LINE
  5
57F
  8
LAYER_1
 10
57.78607056666283
 20
56.42588881907807
 30
0.0
 11
57.47272868836259
 21
56.36813123924402
 31
0.0
  0
LINE
  5
580
  8
LAYER_1
 10
57.47272868836259
 20
56.36813123924402
 30
0.0
 11
57.51637272447022
 21
56.6032086936569
 31
0.0
  0
LINE
  5
581
  8
LAYER_1
 10
57.51637272447022
 20
56.6032086936569
 30
0.0
 11
57.51637272447022
 21
56.6032086936569
 31
0.0
  0
ARC
  5
582
  8
0
  6
BYBLOCK
 10
114.648166654951
 20
25.21001952453786
 30
0.0
 40
16.12988557237387
 50
9.213115045083564
 51
124.7415172863121
  0
ARC
  5
583
  8
0
  6
BYBLOCK
 10
110.3410417496198
 20
11.66806765905591
 30
0.0
 40
25.86905180544026
 50
38.55831839237251
 51
100.1039897867884
  0
ARC
  5
589
  8
0
  6
BYBLOCK
 10
46.17150013897029
 20
51.84292155814966
 30
0.0
 40
5.575026692880321
 50
244.805968331943
 51
315.6218984450318
  0
ARC
  5
58D
  8
0
  6
BYBLOCK
 10
51.91851890040677
 20
60.54481660337491
 30
0.0
 40
2.819642885007999
 50
86.7946899326366
 51
170.8454615689973
  0
ARC
  5
58E
  8
0
  6
BYBLOCK
 10
48.94515617619077
 20
62.4517794383443
 30
0.0
 40
3.260098297245881
 50
325.12527667095
 51
16.17676815047535
  0
ENDSEC
  0
EOF
