999
\"DXF R12 Output\" (www.mydxf.blogspot.com)
 0 
SECTION
 2 
HEADER
 9 
$ACADVER
 1 
AC1009
 9 
$EXTMIN
 10 
 0 
 20 
 0 
 9 
$EXTMAX
 10 
 8.5 
 20 
 11 
 0 
ENDSEC
 0 
SECTION
 2 
ENTITIES
0
LINE
8
Layer 1
10
93.312931
20
9.399499
11
89.511786
21
12.956182
0
LINE
8
Layer 1
10
89.511786
20
12.956182
11
80.277123
21
22.007309
0
LINE
8
Layer 1
10
80.277123
20
22.007309
11
52.764548
21
49.345521
0
LINE
8
Layer 1
10
52.764548
20
49.345521
11
25.289818
21
76.919381
0
LINE
8
Layer 1
10
25.289818
20
76.919381
11
16.102459
21
86.265070
0
LINE
8
Layer 1
10
16.102459
20
86.265070
11
12.367539
21
90.234141
0
LINE
8
Layer 1
10
12.367539
20
90.234141
11
11.758351
21
91.613547
0
LINE
8
Layer 1
10
11.758351
20
91.613547
11
11.619106
21
93.338585
0
LINE
8
Layer 1
10
11.619106
20
93.338585
11
11.748677
21
94.913212
0
LINE
8
Layer 1
10
11.748677
20
94.913212
11
12.094574
21
96.019696
0
LINE
8
Layer 1
10
12.094574
20
96.019696
11
24.221987
21
108.404622
0
LINE
8
Layer 1
10
24.221987
20
108.404622
11
52.725063
21
136.992210
0
LINE
8
Layer 1
10
52.725063
20
136.992210
11
86.900566
21
170.990945
0
LINE
8
Layer 1
10
86.900566
20
170.990945
11
92.401538
21
176.205870
0
LINE
8
Layer 1
10
92.401538
20
176.205870
11
93.560835
21
177.142032
0
LINE
8
Layer 1
10
93.560835
20
177.142032
11
94.156677
21
177.449635
0
LINE
8
Layer 1
10
94.156677
20
177.449635
11
95.410080
21
177.642491
0
LINE
8
Layer 1
10
95.410080
20
177.642491
11
96.684407
21
177.585348
0
LINE
8
Layer 1
10
96.684407
20
177.585348
11
97.924608
21
177.286011
0
LINE
8
Layer 1
10
97.924608
20
177.286011
11
99.075635
21
176.752284
0
LINE
8
Layer 1
10
99.075635
20
176.752284
11
103.046131
21
173.014788
0
LINE
8
Layer 1
10
103.046131
20
173.014788
11
112.384563
21
163.826098
0
LINE
8
Layer 1
10
112.384563
20
163.826098
11
139.926795
21
136.352152
0
LINE
8
Layer 1
10
139.926795
20
136.352152
11
167.225454
21
108.844474
0
LINE
8
Layer 1
10
167.225454
20
108.844474
11
176.259420
21
99.613620
0
LINE
8
Layer 1
10
176.259420
20
99.613620
11
179.803662
21
95.817095
0
LINE
8
Layer 1
10
179.803662
20
95.817095
11
180.115935
21
94.665079
0
LINE
8
Layer 1
10
180.115935
20
94.665079
11
180.220166
21
93.339080
0
LINE
8
Layer 1
10
180.220166
20
93.339080
11
180.116331
21
92.012834
0
LINE
8
Layer 1
10
180.116331
20
92.012834
11
179.804401
21
90.860076
0
LINE
8
Layer 1
10
179.804401
20
90.860076
11
176.205304
21
86.975382
0
LINE
8
Layer 1
10
176.205304
20
86.975382
11
167.078258
21
77.636801
0
LINE
8
Layer 1
10
167.078258
20
77.636801
11
139.547819
21
49.913878
0
LINE
8
Layer 1
10
139.547819
20
49.913878
11
111.828082
21
22.323104
0
LINE
8
Layer 1
10
111.828082
20
22.323104
11
102.464412
21
13.149712
0
LINE
8
Layer 1
10
102.464412
20
13.149712
11
98.534042
21
9.496281
0
LINE
8
Layer 1
10
98.534042
20
9.496281
11
97.334118
21
9.126335
0
LINE
8
Layer 1
10
97.334118
20
9.126335
11
95.927727
21
8.984364
0
LINE
8
Layer 1
10
95.927727
20
8.984364
11
94.519216
21
9.074156
0
LINE
8
Layer 1
10
94.519216
20
9.074156
11
93.312931
21
9.399499
0
LINE
8
Layer 1
10
93.312931
20
9.399499
11
93.312931
21
9.399499
0
LINE
8
Layer 1
10
97.061441
20
12.454134
11
100.823254
21
15.993731
0
LINE
8
Layer 1
10
100.823254
20
15.993731
11
109.985460
21
25.004270
0
LINE
8
Layer 1
10
109.985460
20
25.004270
11
137.259812
21
52.179030
0
LINE
8
Layer 1
10
137.259812
20
52.179030
11
164.382019
21
79.460129
0
LINE
8
Layer 1
10
164.382019
20
79.460129
11
173.354045
21
88.603591
0
LINE
8
Layer 1
10
173.354045
20
88.603591
11
176.849605
21
92.329279
0
LINE
8
Layer 1
10
176.849605
20
92.329279
11
177.018570
21
93.128736
0
LINE
8
Layer 1
10
177.018570
20
93.128736
11
176.994213
21
93.892124
0
LINE
8
Layer 1
10
176.994213
20
93.892124
11
174.463706
21
96.675640
0
LINE
8
Layer 1
10
174.463706
20
96.675640
11
166.992983
21
104.325418
0
LINE
8
Layer 1
10
166.992983
20
104.325418
11
136.975207
21
134.483097
0
LINE
8
Layer 1
10
136.975207
20
134.483097
11
97.118224
21
174.336363
0
LINE
8
Layer 1
10
97.118224
20
174.336363
11
95.851698
21
174.336363
0
LINE
8
Layer 1
10
95.851698
20
174.336363
11
94.585172
21
174.336363
0
LINE
8
Layer 1
10
94.585172
20
174.336363
11
54.720163
21
134.471354
0
LINE
8
Layer 1
10
54.720163
20
134.471354
11
14.855153
21
94.606344
0
LINE
8
Layer 1
10
14.855153
20
94.606344
11
14.855153
21
93.339827
0
LINE
8
Layer 1
10
14.855153
20
93.339827
11
14.855153
21
92.073309
0
LINE
8
Layer 1
10
14.855153
20
92.073309
11
54.577931
21
52.325233
0
LINE
8
Layer 1
10
54.577931
20
52.325233
11
82.797948
21
24.182245
0
LINE
8
Layer 1
10
82.797948
20
24.182245
11
94.865153
21
12.335761
0
LINE
8
Layer 1
10
94.865153
20
12.335761
11
95.883756
21
12.098032
0
LINE
8
Layer 1
10
95.883756
20
12.098032
11
97.061441
21
12.454134
0
LINE
8
Layer 1
10
97.061441
20
12.454134
11
97.061441
21
12.454134
0
LINE
8
Layer 1
10
67.227001
20
52.134141
11
65.630826
21
54.109696
0
LINE
8
Layer 1
10
65.630826
20
54.109696
11
97.122931
21
54.109696
0
LINE
8
Layer 1
10
97.122931
20
54.109696
11
128.615036
21
54.109696
0
LINE
8
Layer 1
10
128.615036
20
54.109696
11
127.018861
21
52.134141
0
LINE
8
Layer 1
10
127.018861
20
52.134141
11
125.422685
21
50.158585
0
LINE
8
Layer 1
10
125.422685
20
50.158585
11
97.122931
21
50.158585
0
LINE
8
Layer 1
10
97.122931
20
50.158585
11
68.823177
21
50.158585
0
LINE
8
Layer 1
10
68.823177
20
50.158585
11
67.227001
21
52.134141
0
LINE
8
Layer 1
10
67.227001
20
52.134141
11
67.227001
21
52.134141
0
LINE
8
Layer 1
10
118.135727
20
61.086992
11
117.720872
21
61.664238
0
LINE
8
Layer 1
10
117.720872
20
61.664238
11
116.915269
21
63.229658
0
LINE
8
Layer 1
10
116.915269
20
63.229658
11
114.355225
21
68.865369
0
LINE
8
Layer 1
10
114.355225
20
68.865369
11
104.459868
21
91.192934
0
LINE
8
Layer 1
10
104.459868
20
91.192934
11
103.147546
21
93.986172
0
LINE
8
Layer 1
10
103.147546
20
93.986172
11
101.182133
21
92.039601
0
LINE
8
Layer 1
10
101.182133
20
92.039601
11
99.054979
21
89.798560
0
LINE
8
Layer 1
10
99.054979
20
89.798560
11
98.288981
21
88.692788
0
LINE
8
Layer 1
10
98.288981
20
88.692788
11
97.602338
21
87.319605
0
LINE
8
Layer 1
10
97.602338
20
87.319605
11
96.110028
21
82.939283
0
LINE
8
Layer 1
10
96.110028
20
82.939283
11
93.863863
21
74.994141
0
LINE
8
Layer 1
10
93.863863
20
74.994141
11
91.260637
21
65.983398
0
LINE
8
Layer 1
10
91.260637
20
65.983398
11
89.963509
21
62.219634
0
LINE
8
Layer 1
10
89.963509
20
62.219634
11
89.615367
21
61.964339
0
LINE
8
Layer 1
10
89.615367
20
61.964339
11
89.048261
21
61.940065
0
LINE
8
Layer 1
10
89.048261
20
61.940065
11
85.963362
21
62.759045
0
LINE
8
Layer 1
10
85.963362
20
62.759045
11
83.361743
21
63.599646
0
LINE
8
Layer 1
10
83.361743
20
63.599646
11
82.044128
21
64.164100
0
LINE
8
Layer 1
10
82.044128
20
64.164100
11
81.897282
21
64.365008
0
LINE
8
Layer 1
10
81.897282
20
64.365008
11
81.841273
21
64.762218
0
LINE
8
Layer 1
10
81.841273
20
64.762218
11
82.144543
21
66.886628
0
LINE
8
Layer 1
10
82.144543
20
66.886628
11
85.411716
21
81.642991
0
LINE
8
Layer 1
10
85.411716
20
81.642991
11
87.456705
21
90.183256
0
LINE
8
Layer 1
10
87.456705
20
90.183256
11
88.799351
21
94.907436
0
LINE
8
Layer 1
10
88.799351
20
94.907436
11
92.768965
21
103.117563
0
LINE
8
Layer 1
10
92.768965
20
103.117563
11
94.945970
21
107.486530
0
LINE
8
Layer 1
10
94.945970
20
107.486530
11
95.849372
21
109.608674
0
LINE
8
Layer 1
10
95.849372
20
109.608674
11
95.471378
21
110.640653
0
LINE
8
Layer 1
10
95.471378
20
110.640653
11
94.567584
21
112.388585
0
LINE
8
Layer 1
10
94.567584
20
112.388585
11
92.383920
21
116.549884
0
LINE
8
Layer 1
10
92.383920
20
116.549884
11
91.660674
21
117.894681
0
LINE
8
Layer 1
10
91.660674
20
117.894681
11
91.193267
21
118.454884
0
LINE
8
Layer 1
10
91.193267
20
118.454884
11
90.592554
21
117.789668
0
LINE
8
Layer 1
10
90.592554
20
117.789668
11
89.548815
21
116.188244
0
LINE
8
Layer 1
10
89.548815
20
116.188244
11
88.273000
21
114.335737
0
LINE
8
Layer 1
10
88.273000
20
114.335737
11
87.152923
21
113.259153
0
LINE
8
Layer 1
10
87.152923
20
113.259153
11
84.407540
21
112.023674
0
LINE
8
Layer 1
10
84.407540
20
112.023674
11
79.262673
21
109.981441
0
LINE
8
Layer 1
10
79.262673
20
109.981441
11
74.823499
21
108.323459
0
LINE
8
Layer 1
10
74.823499
20
108.323459
11
72.440412
21
107.684092
0
LINE
8
Layer 1
10
72.440412
20
107.684092
11
71.757903
21
107.721243
0
LINE
8
Layer 1
10
71.757903
20
107.721243
11
71.275018
21
107.982872
0
LINE
8
Layer 1
10
71.275018
20
107.982872
11
70.488923
21
109.139327
0
LINE
8
Layer 1
10
70.488923
20
109.139327
11
69.895146
21
110.445177
0
LINE
8
Layer 1
10
69.895146
20
110.445177
11
69.937921
21
111.010060
0
LINE
8
Layer 1
10
69.937921
20
111.010060
11
70.303862
21
111.636849
0
LINE
8
Layer 1
10
70.303862
20
111.636849
11
72.295416
21
113.437945
0
LINE
8
Layer 1
10
72.295416
20
113.437945
11
76.450153
21
116.572067
0
LINE
8
Layer 1
10
76.450153
20
116.572067
11
83.375734
21
121.903747
0
LINE
8
Layer 1
10
83.375734
20
121.903747
11
83.713226
21
122.719353
0
LINE
8
Layer 1
10
83.713226
20
122.719353
11
84.013610
21
124.052166
0
LINE
8
Layer 1
10
84.013610
20
124.052166
11
84.780502
21
127.396124
0
LINE
8
Layer 1
10
84.780502
20
127.396124
11
85.933038
21
130.502058
0
LINE
8
Layer 1
10
85.933038
20
130.502058
11
87.410496
21
133.297935
0
LINE
8
Layer 1
10
87.410496
20
133.297935
11
89.152151
21
135.711722
0
LINE
8
Layer 1
10
89.152151
20
135.711722
11
91.097279
21
137.671384
0
LINE
8
Layer 1
10
91.097279
20
137.671384
11
93.185156
21
139.104889
0
LINE
8
Layer 1
10
93.185156
20
139.104889
11
94.263650
21
139.601821
0
LINE
8
Layer 1
10
94.263650
20
139.601821
11
95.355060
21
139.940201
0
LINE
8
Layer 1
10
95.355060
20
139.940201
11
96.451795
21
140.111025
0
LINE
8
Layer 1
10
96.451795
20
140.111025
11
97.546264
21
140.105288
0
LINE
8
Layer 1
10
97.546264
20
140.105288
11
99.145896
21
139.767623
0
LINE
8
Layer 1
10
99.145896
20
139.767623
11
101.697149
21
138.794175
0
LINE
8
Layer 1
10
101.697149
20
138.794175
11
112.504042
21
133.724328
0
LINE
8
Layer 1
10
112.504042
20
133.724328
11
118.407586
21
130.753339
0
LINE
8
Layer 1
10
118.407586
20
130.753339
11
119.769249
21
129.934339
0
LINE
8
Layer 1
10
119.769249
20
129.934339
11
120.304131
21
129.431271
0
LINE
8
Layer 1
10
120.304131
20
129.431271
11
120.580554
21
127.919117
0
LINE
8
Layer 1
10
120.580554
20
127.919117
11
120.794097
21
125.229696
0
LINE
8
Layer 1
10
120.794097
20
125.229696
11
121.412850
21
111.157759
0
LINE
8
Layer 1
10
121.412850
20
111.157759
11
121.436162
21
108.689851
0
LINE
8
Layer 1
10
121.436162
20
108.689851
11
121.307756
21
107.956076
0
LINE
8
Layer 1
10
121.307756
20
107.956076
11
120.468743
21
107.806561
0
LINE
8
Layer 1
10
120.468743
20
107.806561
11
118.939059
21
107.877720
0
LINE
8
Layer 1
10
118.939059
20
107.877720
11
117.358269
21
108.107645
0
LINE
8
Layer 1
10
117.358269
20
108.107645
11
116.365937
21
108.434429
0
LINE
8
Layer 1
10
116.365937
20
108.434429
11
115.852406
21
109.676213
0
LINE
8
Layer 1
10
115.852406
20
109.676213
11
115.234823
21
112.518316
0
LINE
8
Layer 1
10
115.234823
20
112.518316
11
114.579560
21
116.599713
0
LINE
8
Layer 1
10
114.579560
20
116.599713
11
113.952991
21
121.559379
0
LINE
8
Layer 1
10
113.952991
20
121.559379
11
113.434508
21
125.345189
0
LINE
8
Layer 1
10
113.434508
20
125.345189
11
113.167470
21
125.985620
0
LINE
8
Layer 1
10
113.167470
20
125.985620
11
112.772410
21
126.282442
0
LINE
8
Layer 1
10
112.772410
20
126.282442
11
112.047540
21
126.515948
0
LINE
8
Layer 1
10
112.047540
20
126.515948
11
111.171357
21
126.620388
0
LINE
8
Layer 1
10
111.171357
20
126.620388
11
110.341032
21
126.587496
0
LINE
8
Layer 1
10
110.341032
20
126.587496
11
109.753739
21
126.409004
0
LINE
8
Layer 1
10
109.753739
20
126.409004
11
109.649920
21
126.114587
0
LINE
8
Layer 1
10
109.649920
20
126.114587
11
109.754297
21
125.416061
0
LINE
8
Layer 1
10
109.754297
20
125.416061
11
110.683712
21
122.391661
0
LINE
8
Layer 1
10
110.683712
20
122.391661
11
111.844581
21
118.775822
0
LINE
8
Layer 1
10
111.844581
20
118.775822
11
112.573942
21
115.997131
0
LINE
8
Layer 1
10
112.573942
20
115.997131
11
112.948464
21
113.703269
0
LINE
8
Layer 1
10
112.948464
20
113.703269
11
113.044819
21
111.541918
0
LINE
8
Layer 1
10
113.044819
20
111.541918
11
112.928695
21
109.416432
0
LINE
8
Layer 1
10
112.928695
20
109.416432
11
112.677183
21
107.873030
0
LINE
8
Layer 1
10
112.677183
20
107.873030
11
112.499788
21
107.108072
0
LINE
8
Layer 1
10
112.499788
20
107.108072
11
112.485177
21
106.149836
0
LINE
8
Layer 1
10
112.485177
20
106.149836
11
112.707648
21
104.725361
0
LINE
8
Layer 1
10
112.707648
20
104.725361
11
113.241497
21
102.561685
0
LINE
8
Layer 1
10
113.241497
20
102.561685
11
115.540529
21
94.924878
0
LINE
8
Layer 1
10
115.540529
20
94.924878
11
119.976657
21
81.055721
0
LINE
8
Layer 1
10
119.976657
20
81.055721
11
123.952085
21
68.303857
0
LINE
8
Layer 1
10
123.952085
20
68.303857
11
124.255051
21
66.834980
0
LINE
8
Layer 1
10
124.255051
20
66.834980
11
124.184878
21
65.822616
0
LINE
8
Layer 1
10
124.184878
20
65.822616
11
123.653677
21
64.998343
0
LINE
8
Layer 1
10
123.653677
20
64.998343
11
122.573556
21
64.093742
0
LINE
8
Layer 1
10
122.573556
20
64.093742
11
119.982931
21
62.100917
0
LINE
8
Layer 1
10
119.982931
20
62.100917
11
118.858232
21
61.344660
0
LINE
8
Layer 1
10
118.858232
20
61.344660
11
118.135727
21
61.086992
0
LINE
8
Layer 1
10
118.135727
20
61.086992
11
118.135727
21
61.086992
0
LINE
8
Layer 1
10
40.713217
20
75.770252
11
39.166176
21
77.675252
0
LINE
8
Layer 1
10
39.166176
20
77.675252
11
60.640372
21
77.747582
0
LINE
8
Layer 1
10
60.640372
20
77.747582
11
82.224428
21
77.710050
0
LINE
8
Layer 1
10
82.224428
20
77.710050
11
82.009082
21
75.732722
0
LINE
8
Layer 1
10
82.009082
20
75.732722
11
81.683877
21
73.865252
0
LINE
8
Layer 1
10
81.683877
20
73.865252
11
61.972066
21
73.865252
0
LINE
8
Layer 1
10
61.972066
20
73.865252
11
42.260255
21
73.865252
0
LINE
8
Layer 1
10
42.260255
20
73.865252
11
40.713217
21
75.770252
0
LINE
8
Layer 1
10
40.713217
20
75.770252
11
40.713217
21
75.770252
0
LINE
8
Layer 1
10
95.288487
20
74.092675
11
95.878839
21
76.068230
0
LINE
8
Layer 1
10
95.878839
20
76.068230
11
96.469194
21
77.816363
0
LINE
8
Layer 1
10
96.469194
20
77.816363
11
102.366403
21
77.816363
0
LINE
8
Layer 1
10
102.366403
20
77.816363
11
108.263614
21
77.816363
0
LINE
8
Layer 1
10
108.263614
20
77.816363
11
109.258487
21
75.840807
0
LINE
8
Layer 1
10
109.258487
20
75.840807
11
110.253359
21
73.865252
0
LINE
8
Layer 1
10
110.253359
20
73.865252
11
102.770923
21
73.865252
0
LINE
8
Layer 1
10
102.770923
20
73.865252
11
97.486453
21
73.932057
0
LINE
8
Layer 1
10
97.486453
20
73.932057
11
95.288487
21
74.092675
0
LINE
8
Layer 1
10
95.288487
20
74.092675
11
95.288487
21
74.092675
0
LINE
8
Layer 1
10
123.645408
20
74.218030
11
122.667096
21
77.604696
0
LINE
8
Layer 1
10
122.667096
20
77.604696
11
127.020909
21
77.754186
0
LINE
8
Layer 1
10
127.020909
20
77.754186
11
137.492873
21
77.816363
0
LINE
8
Layer 1
10
137.492873
20
77.816363
11
152.321700
21
77.816363
0
LINE
8
Layer 1
10
152.321700
20
77.816363
11
150.725525
21
75.840807
0
LINE
8
Layer 1
10
150.725525
20
75.840807
11
149.129349
21
73.865252
0
LINE
8
Layer 1
10
149.129349
20
73.865252
11
136.452285
21
73.865252
0
LINE
8
Layer 1
10
136.452285
20
73.865252
11
126.380197
21
73.938493
0
LINE
8
Layer 1
10
126.380197
20
73.938493
11
124.299204
21
74.046867
0
LINE
8
Layer 1
10
124.299204
20
74.046867
11
123.645408
21
74.218030
0
LINE
8
Layer 1
10
123.645408
20
74.218030
11
123.645408
21
74.218030
0
LINE
8
Layer 1
10
88.435426
20
140.492474
11
87.322335
21
140.830682
0
LINE
8
Layer 1
10
87.322335
20
140.830682
11
86.380906
21
141.297145
0
LINE
8
Layer 1
10
86.380906
20
141.297145
11
85.519389
21
141.948759
0
LINE
8
Layer 1
10
85.519389
20
141.948759
11
84.646033
21
142.842420
0
LINE
8
Layer 1
10
84.646033
20
142.842420
11
83.810150
21
144.010652
0
LINE
8
Layer 1
10
83.810150
20
144.010652
11
83.240679
21
145.284307
0
LINE
8
Layer 1
10
83.240679
20
145.284307
11
82.935055
21
146.622568
0
LINE
8
Layer 1
10
82.935055
20
146.622568
11
82.890714
21
147.984614
0
LINE
8
Layer 1
10
82.890714
20
147.984614
11
83.105093
21
149.329627
0
LINE
8
Layer 1
10
83.105093
20
149.329627
11
83.575627
21
150.616788
0
LINE
8
Layer 1
10
83.575627
20
150.616788
11
84.299753
21
151.805277
0
LINE
8
Layer 1
10
84.299753
20
151.805277
11
85.274906
21
152.854276
0
LINE
8
Layer 1
10
85.274906
20
152.854276
11
86.347444
21
153.675605
0
LINE
8
Layer 1
10
86.347444
20
153.675605
11
87.411009
21
154.207628
0
LINE
8
Layer 1
10
87.411009
20
154.207628
11
88.584735
21
154.493918
0
LINE
8
Layer 1
10
88.584735
20
154.493918
11
89.987755
21
154.578050
0
LINE
8
Layer 1
10
89.987755
20
154.578050
11
91.213349
21
154.487972
0
LINE
8
Layer 1
10
91.213349
20
154.487972
11
92.357048
21
154.227033
0
LINE
8
Layer 1
10
92.357048
20
154.227033
11
93.407864
21
153.803284
0
LINE
8
Layer 1
10
93.407864
20
153.803284
11
94.354811
21
153.224778
0
LINE
8
Layer 1
10
94.354811
20
153.224778
11
95.186898
21
152.499568
0
LINE
8
Layer 1
10
95.186898
20
152.499568
11
95.893140
21
151.635704
0
LINE
8
Layer 1
10
95.893140
20
151.635704
11
96.462547
21
150.641241
0
LINE
8
Layer 1
10
96.462547
20
150.641241
11
96.884132
21
149.524229
0
LINE
8
Layer 1
10
96.884132
20
149.524229
11
97.179100
21
147.575660
0
LINE
8
Layer 1
10
97.179100
20
147.575660
11
96.954955
21
145.718980
0
LINE
8
Layer 1
10
96.954955
20
145.718980
11
96.278247
21
144.025332
0
LINE
8
Layer 1
10
96.278247
20
144.025332
11
95.215522
21
142.565855
0
LINE
8
Layer 1
10
95.215522
20
142.565855
11
93.833330
21
141.411690
0
LINE
8
Layer 1
10
93.833330
20
141.411690
11
92.198217
21
140.633978
0
LINE
8
Layer 1
10
92.198217
20
140.633978
11
90.376733
21
140.303859
0
LINE
8
Layer 1
10
90.376733
20
140.303859
11
88.435426
21
140.492474
0
LINE
8
Layer 1
10
88.435426
20
140.492474
11
88.435426
21
140.492474
 0 
ENDSEC
 0 
EOF
