0
SECTION
2
HEADER
9
$ACADVER
1
AC1003
9
$INSBASE
10
0.0
20
0.0
30
0.0
9
$EXTMIN
10
0.000
20
0.000
30
0.0
9
$EXTMAX
10
800.000
20
591.000
30
0.0
9
$LIMMIN
10
0.000
20
0.000
9
$LIMMAX
10
800.000
20
591.000
9
$LTSCALE
40
1.0
9
$LUNITS
70
2
9
$LUPREC
70
3
9
$LIMCHECK
70
0
9
$UCSNAME
2

9
$UCSORG
10
0.0
20
0.0
30
0.0
9
$UCSXDIR
10
1.0
20
0.0
30
0.0
9
$UCSYDIR
10
0.0
20
1.0
30
0.0
9
$WORLDVIEW
70
1
9
$UNITMODE
70
0
0
ENDSEC
0
SECTION
2
TABLES
0
TABLE
2
VPORT
70
1
0
VPORT
2
*ACTIVE
70
0
10
0.0
20
0.0
11
1.0
21
1.0
12
400.000
22
295.500
13
0.0
23
0.0
14
1.0
24
1.0
15
0.0
25
0.0
16
0.0
26
0.0
36
1.0
17
0.0
27
0.0
37
0.0
40
500.0
41
0.739
42
50.0
43
0.0
44
0.0
50
0.0
51
0.0
71
0
72
100
73
1
74
1
75
0
76
0
77
0
78
0
0
ENDTAB
0
TABLE
2
LTYPE
70
1
0
LTYPE
2
CONTINUOUS
70
64
3
Solid line
72
65
73
0
40
0.000
0
ENDTAB
0
TABLE
2
LAYER
70
1
0
LAYER
2
0
70
64
62
7
6
CONTINUOUS
0
ENDTAB
0
ENDSEC
0
SECTION
2
BLOCKS
0
ENDSEC
0
SECTION
2
ENTITIES
0
POLYLINE
8
0
6
CONTINUOUS
66
1
62
7
10
0.0
20
0.0
30
0.000000
0
VERTEX
8
0
10
412.000000
20
508.000000
0
VERTEX
8
0
10
412.000000
20
509.000000
0
VERTEX
8
0
10
413.000000
20
509.000000
0
SEQEND
0
POLYLINE
8
0
6
CONTINUOUS
66
1
62
7
10
0.0
20
0.0
30
0.000000
0
VERTEX
8
0
10
755.000000
20
284.000000
0
VERTEX
8
0
10
754.000000
20
284.000000
0
VERTEX
8
0
10
754.000000
20
285.000000
0
SEQEND
0
POLYLINE
8
0
6
CONTINUOUS
66
1
62
7
10
0.0
20
0.0
30
0.000000
0
VERTEX
8
0
10
755.000000
20
284.000000
0
VERTEX
8
0
10
757.000000
20
284.000000
0
VERTEX
8
0
10
760.000000
20
287.000000
0
VERTEX
8
0
10
760.800000
20
289.100000
0
VERTEX
8
0
10
761.200000
20
289.900000
0
VERTEX
8
0
10
764.000000
20
297.000000
0
VERTEX
8
0
10
764.000000
20
310.000000
0
VERTEX
8
0
10
761.615385
20
319.923077
0
VERTEX
8
0
10
761.300000
20
321.100000
0
VERTEX
8
0
10
757.230769
20
331.153846
0
VERTEX
8
0
10
756.200000
20
333.100000
0
VERTEX
8
0
10
742.000000
20
353.000000
0
VERTEX
8
0
10
731.153846
20
363.230769
0
VERTEX
8
0
10
719.900000
20
369.700000
0
VERTEX
8
0
10
714.000000
20
372.000000
0
VERTEX
8
0
10
705.000000
20
372.000000
0
VERTEX
8
0
10
700.100000
20
369.700000
0
VERTEX
8
0
10
666.900000
20
360.200000
0
VERTEX
8
0
10
654.900000
20
355.200000
0
VERTEX
8
0
10
639.195122
20
346.756098
0
VERTEX
8
0
10
632.900000
20
342.200000
0
VERTEX
8
0
10
625.211765
20
336.752941
0
VERTEX
8
0
10
609.180000
20
322.760000
0
VERTEX
8
0
10
595.223757
20
314.751381
0
VERTEX
8
0
10
585.100000
20
305.800000
0
VERTEX
8
0
10
582.000000
20
305.000000
0
VERTEX
8
0
10
581.000000
20
306.000000
0
VERTEX
8
0
10
581.800000
20
309.100000
0
VERTEX
8
0
10
586.756098
20
316.195122
0
VERTEX
8
0
10
594.700000
20
330.100000
0
VERTEX
8
0
10
595.800000
20
333.100000
0
VERTEX
8
0
10
599.200000
20
345.900000
0
VERTEX
8
0
10
600.200000
20
347.900000
0
VERTEX
8
0
10
606.647059
20
362.088235
0
VERTEX
8
0
10
608.300000
20
367.900000
0
VERTEX
8
0
10
611.000000
20
383.000000
0
VERTEX
8
0
10
609.554455
20
399.955446
0
VERTEX
8
0
10
605.700000
20
410.900000
0
VERTEX
8
0
10
601.200000
20
419.100000
0
VERTEX
8
0
10
598.000000
20
425.000000
0
VERTEX
8
0
10
591.000000
20
432.000000
0
VERTEX
8
0
10
583.000000
20
437.000000
0
VERTEX
8
0
10
581.200000
20
442.100000
0
VERTEX
8
0
10
579.300000
20
447.100000
0
VERTEX
8
0
10
574.760000
20
456.820000
0
VERTEX
8
0
10
565.247059
20
469.211765
0
VERTEX
8
0
10
539.000000
20
497.000000
0
VERTEX
8
0
10
535.900000
20
497.800000
0
VERTEX
8
0
10
509.100000
20
519.200000
0
VERTEX
8
0
10
503.820000
20
522.760000
0
VERTEX
8
0
10
492.900000
20
527.800000
0
VERTEX
8
0
10
488.100000
20
530.300000
0
VERTEX
8
0
10
467.000000
20
535.000000
0
VERTEX
8
0
10
452.000000
20
535.000000
0
VERTEX
8
0
10
447.076923
20
533.615385
0
VERTEX
8
0
10
436.900000
20
530.200000
0
VERTEX
8
0
10
436.153846
20
529.769231
0
VERTEX
8
0
10
430.000000
20
525.000000
0
VERTEX
8
0
10
430.000000
20
521.000000
0
VERTEX
8
0
10
432.000000
20
519.000000
0
VERTEX
8
0
10
434.100000
20
518.300000
0
VERTEX
8
0
10
443.923077
20
515.615385
0
VERTEX
8
0
10
466.795082
20
505.754098
0
VERTEX
8
0
10
476.180000
20
498.240000
0
VERTEX
8
0
10
498.900000
20
478.800000
0
VERTEX
8
0
10
500.100000
20
478.300000
0
VERTEX
8
0
10
502.000000
20
478.000000
0
VERTEX
8
0
10
504.000000
20
476.000000
0
VERTEX
8
0
10
504.000000
20
474.000000
0
VERTEX
8
0
10
501.000000
20
471.000000
0
VERTEX
8
0
10
498.000000
20
473.000000
0
VERTEX
8
0
10
490.000000
20
473.000000
0
VERTEX
8
0
10
489.000000
20
472.000000
0
VERTEX
8
0
10
470.900000
20
475.800000
0
VERTEX
8
0
10
460.088235
20
478.352941
0
VERTEX
8
0
10
452.153846
20
483.230769
0
VERTEX
8
0
10
446.900000
20
485.800000
0
VERTEX
8
0
10
420.820000
20
505.760000
0
VERTEX
8
0
10
420.180000
20
506.240000
0
VERTEX
8
0
10
416.689655
20
508.275862
0
VERTEX
8
0
10
413.000000
20
509.000000
0
SEQEND
0
POLYLINE
8
0
6
CONTINUOUS
66
1
62
7
10
0.0
20
0.0
30
0.000000
0
VERTEX
8
0
10
563.000000
20
185.000000
0
VERTEX
8
0
10
563.000000
20
186.000000
0
VERTEX
8
0
10
564.000000
20
186.000000
0
SEQEND
0
POLYLINE
8
0
6
CONTINUOUS
66
1
62
7
10
0.0
20
0.0
30
0.000000
0
VERTEX
8
0
10
456.000000
20
154.000000
0
VERTEX
8
0
10
456.000000
20
155.000000
0
VERTEX
8
0
10
455.000000
20
155.000000
0
SEQEND
0
POLYLINE
8
0
6
CONTINUOUS
66
1
62
7
10
0.0
20
0.0
30
0.000000
0
VERTEX
8
0
10
673.000000
20
92.000000
0
VERTEX
8
0
10
673.430769
20
98.946154
0
VERTEX
8
0
10
674.000000
20
100.000000
0
VERTEX
8
0
10
674.000000
20
119.000000
0
VERTEX
8
0
10
669.800000
20
133.900000
0
VERTEX
8
0
10
668.700000
20
136.900000
0
VERTEX
8
0
10
665.384615
20
145.076923
0
VERTEX
8
0
10
665.000000
20
149.000000
0
VERTEX
8
0
10
660.000000
20
154.000000
0
VERTEX
8
0
10
642.911765
20
158.647059
0
VERTEX
8
0
10
638.900000
20
159.700000
0
VERTEX
8
0
10
621.180000
20
167.240000
0
VERTEX
8
0
10
615.900000
20
170.800000
0
VERTEX
8
0
10
608.000000
20
177.000000
0
VERTEX
8
0
10
597.769231
20
188.846154
0
VERTEX
8
0
10
594.384615
20
195.076923
0
VERTEX
8
0
10
593.300000
20
200.100000
0
VERTEX
8
0
10
593.000000
20
202.000000
0
VERTEX
8
0
10
591.000000
20
204.000000
0
VERTEX
8
0
10
589.000000
20
204.000000
0
VERTEX
8
0
10
578.773756
20
194.248869
0
VERTEX
8
0
10
570.804878
20
188.243902
0
VERTEX
8
0
10
564.000000
20
186.000000
0
SEQEND
0
POLYLINE
8
0
6
CONTINUOUS
66
1
62
7
10
0.0
20
0.0
30
0.000000
0
VERTEX
8
0
10
674.000000
20
91.000000
0
VERTEX
8
0
10
673.000000
20
91.000000
0
VERTEX
8
0
10
673.000000
20
92.000000
0
SEQEND
0
POLYLINE
8
0
6
CONTINUOUS
66
1
62
7
10
0.0
20
0.0
30
0.000000
0
VERTEX
8
0
10
674.000000
20
91.000000
0
VERTEX
8
0
10
680.000000
20
93.000000
0
VERTEX
8
0
10
682.000000
20
95.000000
0
VERTEX
8
0
10
692.647059
20
119.088235
0
VERTEX
8
0
10
695.580000
20
132.060000
0
VERTEX
8
0
10
697.000000
20
140.000000
0
VERTEX
8
0
10
695.352941
20
145.088235
0
VERTEX
8
0
10
690.600000
20
156.800000
0
VERTEX
8
0
10
689.230769
20
159.153846
0
VERTEX
8
0
10
685.000000
20
164.000000
0
VERTEX
8
0
10
684.153846
20
164.230769
0
VERTEX
8
0
10
680.000000
20
167.000000
0
VERTEX
8
0
10
678.200000
20
172.100000
0
VERTEX
8
0
10
673.754098
20
179.795082
0
VERTEX
8
0
10
669.000000
20
186.000000
0
VERTEX
8
0
10
663.153846
20
191.230769
0
VERTEX
8
0
10
660.846154
20
192.769231
0
VERTEX
8
0
10
616.000000
20
226.000000
0
VERTEX
8
0
10
611.000000
20
231.000000
0
VERTEX
8
0
10
611.000000
20
234.000000
0
VERTEX
8
0
10
615.000000
20
238.000000
0
VERTEX
8
0
10
644.067568
20
233.405405
0
VERTEX
8
0
10
653.923077
20
231.615385
0
VERTEX
8
0
10
662.000000
20
231.000000
0
VERTEX
8
0
10
669.946154
20
232.430769
0
VERTEX
8
0
10
696.923077
20
238.384615
0
VERTEX
8
0
10
699.900000
20
239.300000
0
VERTEX
8
0
10
705.000000
20
241.000000
0
VERTEX
8
0
10
710.000000
20
241.000000
0
VERTEX
8
0
10
713.000000
20
238.000000
0
VERTEX
8
0
10
734.200000
20
215.100000
0
VERTEX
8
0
10
736.769231
20
210.846154
0
VERTEX
8
0
10
742.615385
20
197.923077
0
VERTEX
8
0
10
745.000000
20
185.000000
0
VERTEX
8
0
10
746.000000
20
184.000000
0
VERTEX
8
0
10
748.000000
20
184.000000
0
VERTEX
8
0
10
751.200000
20
188.900000
0
VERTEX
8
0
10
755.000000
20
201.000000
0
VERTEX
8
0
10
755.000000
20
220.000000
0
VERTEX
8
0
10
747.600000
20
244.800000
0
VERTEX
8
0
10
746.400000
20
247.200000
0
VERTEX
8
0
10
741.769231
20
255.846154
0
VERTEX
8
0
10
740.230769
20
258.153846
0
VERTEX
8
0
10
728.000000
20
273.000000
0
VERTEX
8
0
10
717.846154
20
280.769231
0
VERTEX
8
0
10
717.100000
20
281.200000
0
VERTEX
8
0
10
710.076923
20
283.384615
0
VERTEX
8
0
10
708.969027
20
283.535398
0
VERTEX
8
0
10
690.000000
20
285.000000
0
VERTEX
8
0
10
648.923077
20
278.384615
0
VERTEX
8
0
10
623.100000
20
271.700000
0
VERTEX
8
0
10
617.100000
20
268.800000
0
VERTEX
8
0
10
616.000000
20
268.000000
0
VERTEX
8
0
10
608.000000
20
268.000000
0
VERTEX
8
0
10
606.000000
20
270.000000
0
VERTEX
8
0
10
606.000000
20
273.000000
0
VERTEX
8
0
10
607.779310
20
274.248276
0
VERTEX
8
0
10
617.000000
20
282.000000
0
VERTEX
8
0
10
625.200000
20
290.900000
0
VERTEX
8
0
10
630.000000
20
298.000000
0
VERTEX
8
0
10
660.846154
20
312.230769
0
VERTEX
8
0
10
670.153846
20
318.769231
0
VERTEX
8
0
10
692.788235
20
336.247059
0
VERTEX
8
0
10
699.000000
20
342.000000
0
VERTEX
8
0
10
701.000000
20
342.000000
0
VERTEX
8
0
10
723.180000
20
326.240000
0
VERTEX
8
0
10
735.000000
20
315.000000
0
VERTEX
8
0
10
742.769231
20
303.846154
0
VERTEX
8
0
10
754.000000
20
285.000000
0
SEQEND
0
POLYLINE
8
0
6
CONTINUOUS
66
1
62
7
10
0.0
20
0.0
30
0.000000
0
VERTEX
8
0
10
456.000000
20
154.000000
0
VERTEX
8
0
10
456.000000
20
152.000000
0
VERTEX
8
0
10
458.000000
20
150.000000
0
VERTEX
8
0
10
461.088235
20
149.352941
0
VERTEX
8
0
10
463.911765
20
148.647059
0
VERTEX
8
0
10
483.000000
20
145.000000
0
VERTEX
8
0
10
498.000000
20
145.000000
0
VERTEX
8
0
10
509.932432
20
147.405405
0
VERTEX
8
0
10
521.900000
20
151.200000
0
VERTEX
8
0
10
526.100000
20
152.700000
0
VERTEX
8
0
10
539.000000
20
159.000000
0
VERTEX
8
0
10
543.000000
20
159.000000
0
VERTEX
8
0
10
545.900000
20
156.800000
0
VERTEX
8
0
10
553.911765
20
153.647059
0
VERTEX
8
0
10
561.076923
20
151.384615
0
VERTEX
8
0
10
572.000000
20
149.000000
0
VERTEX
8
0
10
576.000000
20
145.000000
0
VERTEX
8
0
10
577.647059
20
139.911765
0
VERTEX
8
0
10
578.352941
20
137.088235
0
VERTEX
8
0
10
582.200000
20
128.100000
0
VERTEX
8
0
10
586.000000
20
121.000000
0
VERTEX
8
0
10
585.420000
20
118.940000
0
VERTEX
8
0
10
584.580000
20
113.060000
0
VERTEX
8
0
10
581.700000
20
105.100000
0
VERTEX
8
0
10
572.769231
20
90.153846
0
VERTEX
8
0
10
570.800000
20
87.100000
0
VERTEX
8
0
10
570.000000
20
86.000000
0
VERTEX
8
0
10
570.000000
20
83.000000
0
VERTEX
8
0
10
572.000000
20
81.000000
0
VERTEX
8
0
10
580.000000
20
81.000000
0
VERTEX
8
0
10
586.900000
20
84.200000
0
VERTEX
8
0
10
595.000000
20
89.000000
0
VERTEX
8
0
10
604.230769
20
100.846154
0
VERTEX
8
0
10
605.769231
20
103.153846
0
VERTEX
8
0
10
608.700000
20
110.100000
0
VERTEX
8
0
10
609.300000
20
111.900000
0
VERTEX
8
0
10
610.000000
20
113.000000
0
VERTEX
8
0
10
610.000000
20
120.000000
0
VERTEX
8
0
10
609.000000
20
121.000000
0
VERTEX
8
0
10
610.800000
20
127.100000
0
VERTEX
8
0
10
611.594595
20
129.067568
0
VERTEX
8
0
10
613.000000
20
137.000000
0
VERTEX
8
0
10
610.647059
20
145.911765
0
VERTEX
8
0
10
606.538462
20
155.692308
0
VERTEX
8
0
10
603.243902
20
160.195122
0
VERTEX
8
0
10
597.000000
20
167.000000
0
VERTEX
8
0
10
582.900000
20
173.700000
0
VERTEX
8
0
10
579.100000
20
175.200000
0
VERTEX
8
0
10
567.911765
20
179.647059
0
VERTEX
8
0
10
565.000000
20
180.000000
0
VERTEX
8
0
10
563.000000
20
182.000000
0
VERTEX
8
0
10
563.000000
20
185.000000
0
SEQEND
0
POLYLINE
8
0
6
CONTINUOUS
66
1
62
7
10
0.0
20
0.0
30
0.000000
0
VERTEX
8
0
10
412.000000
20
508.000000
0
VERTEX
8
0
10
410.800000
20
505.100000
0
VERTEX
8
0
10
410.000000
20
504.000000
0
VERTEX
8
0
10
410.000000
20
490.000000
0
VERTEX
8
0
10
411.352941
20
486.088235
0
VERTEX
8
0
10
411.700000
20
484.900000
0
VERTEX
8
0
10
418.230769
20
468.153846
0
VERTEX
8
0
10
419.769231
20
465.846154
0
VERTEX
8
0
10
427.000000
20
455.000000
0
VERTEX
8
0
10
442.000000
20
440.000000
0
VERTEX
8
0
10
464.100000
20
426.300000
0
VERTEX
8
0
10
476.088235
20
421.352941
0
VERTEX
8
0
10
497.067568
20
416.405405
0
VERTEX
8
0
10
506.923077
20
414.615385
0
VERTEX
8
0
10
510.900000
20
412.800000
0
VERTEX
8
0
10
514.100000
20
411.200000
0
VERTEX
8
0
10
531.100000
20
404.300000
0
VERTEX
8
0
10
534.088235
20
403.352941
0
VERTEX
8
0
10
537.000000
20
403.000000
0
VERTEX
8
0
10
540.000000
20
400.000000
0
VERTEX
8
0
10
540.615385
20
365.923077
0
VERTEX
8
0
10
543.000000
20
354.000000
0
VERTEX
8
0
10
541.000000
20
352.000000
0
VERTEX
8
0
10
532.000000
20
351.000000
0
VERTEX
8
0
10
531.000000
20
350.000000
0
VERTEX
8
0
10
531.000000
20
345.000000
0
VERTEX
8
0
10
529.000000
20
343.000000
0
VERTEX
8
0
10
517.100000
20
349.200000
0
VERTEX
8
0
10
514.000000
20
351.000000
0
VERTEX
8
0
10
514.000000
20
352.000000
0
VERTEX
8
0
10
511.000000
20
355.000000
0
VERTEX
8
0
10
505.900000
20
356.700000
0
VERTEX
8
0
10
504.100000
20
357.300000
0
VERTEX
8
0
10
494.691781
20
363.178082
0
VERTEX
8
0
10
484.100000
20
366.300000
0
VERTEX
8
0
10
475.911765
20
370.647059
0
VERTEX
8
0
10
473.000000
20
371.000000
0
VERTEX
8
0
10
471.000000
20
373.000000
0
VERTEX
8
0
10
470.200000
20
378.100000
0
VERTEX
8
0
10
470.000000
20
379.000000
0
VERTEX
8
0
10
466.000000
20
383.000000
0
VERTEX
8
0
10
460.000000
20
383.000000
0
VERTEX
8
0
10
452.100000
20
375.800000
0
VERTEX
8
0
10
450.000000
20
376.000000
0
VERTEX
8
0
10
439.000000
20
375.000000
0
VERTEX
8
0
10
437.100000
20
376.200000
0
VERTEX
8
0
10
435.100000
20
377.200000
0
VERTEX
8
0
10
432.000000
20
379.000000
0
VERTEX
8
0
10
426.000000
20
379.000000
0
VERTEX
8
0
10
423.846154
20
377.230769
0
VERTEX
8
0
10
421.000000
20
376.000000
0
VERTEX
8
0
10
412.000000
20
384.000000
0
VERTEX
8
0
10
408.000000
20
384.000000
0
VERTEX
8
0
10
407.000000
20
383.000000
0
VERTEX
8
0
10
402.000000
20
383.000000
0
VERTEX
8
0
10
401.000000
20
384.000000
0
VERTEX
8
0
10
400.000000
20
384.000000
0
VERTEX
8
0
10
394.195122
20
378.756098
0
VERTEX
8
0
10
388.000000
20
374.000000
0
VERTEX
8
0
10
382.000000
20
381.000000
0
VERTEX
8
0
10
358.846154
20
376.230769
0
VERTEX
8
0
10
357.000000
20
375.000000
0
VERTEX
8
0
10
354.900000
20
375.800000
0
VERTEX
8
0
10
353.000000
20
377.000000
0
VERTEX
8
0
10
352.000000
20
381.000000
0
VERTEX
8
0
10
349.000000
20
384.000000
0
VERTEX
8
0
10
343.000000
20
384.000000
0
VERTEX
8
0
10
337.000000
20
377.000000
0
VERTEX
8
0
10
333.000000
20
377.000000
0
VERTEX
8
0
10
332.000000
20
378.000000
0
VERTEX
8
0
10
328.000000
20
378.000000
0
VERTEX
8
0
10
318.923077
20
374.384615
0
VERTEX
8
0
10
315.076923
20
373.615385
0
VERTEX
8
0
10
311.153846
20
371.769231
0
VERTEX
8
0
10
308.846154
20
370.230769
0
VERTEX
8
0
10
301.932432
20
367.405405
0
VERTEX
8
0
10
297.686695
20
365.884120
0
VERTEX
8
0
10
288.779310
20
359.248276
0
VERTEX
8
0
10
279.000000
20
354.000000
0
VERTEX
8
0
10
274.000000
20
354.000000
0
VERTEX
8
0
10
272.900000
20
354.800000
0
VERTEX
8
0
10
262.900000
20
360.700000
0
VERTEX
8
0
10
261.100000
20
361.300000
0
VERTEX
8
0
10
258.000000
20
363.000000
0
VERTEX
8
0
10
258.000000
20
369.000000
0
VERTEX
8
0
10
260.200000
20
372.900000
0
VERTEX
8
0
10
262.594595
20
382.067568
0
VERTEX
8
0
10
263.524887
20
388.022624
0
VERTEX
8
0
10
264.000000
20
408.000000
0
VERTEX
8
0
10
266.000000
20
410.000000
0
VERTEX
8
0
10
267.900000
20
410.300000
0
VERTEX
8
0
10
283.900000
20
415.300000
0
VERTEX
8
0
10
285.900000
20
416.200000
0
VERTEX
8
0
10
301.000000
20
422.000000
0
VERTEX
8
0
10
304.000000
20
422.000000
0
VERTEX
8
0
10
305.000000
20
421.000000
0
VERTEX
8
0
10
308.044554
20
421.554455
0
VERTEX
8
0
10
321.923077
20
423.384615
0
VERTEX
8
0
10
336.900000
20
427.300000
0
VERTEX
8
0
10
339.900000
20
428.300000
0
VERTEX
8
0
10
355.153846
20
435.769231
0
VERTEX
8
0
10
374.000000
20
448.000000
0
VERTEX
8
0
10
382.000000
20
456.000000
0
VERTEX
8
0
10
392.800000
20
472.100000
0
VERTEX
8
0
10
393.200000
20
472.900000
0
VERTEX
8
0
10
399.569231
20
487.053846
0
VERTEX
8
0
10
401.000000
20
495.000000
0
VERTEX
8
0
10
401.000000
20
503.000000
0
VERTEX
8
0
10
400.000000
20
506.000000
0
VERTEX
8
0
10
398.000000
20
508.000000
0
VERTEX
8
0
10
392.088235
20
506.647059
0
VERTEX
8
0
10
387.180000
20
503.760000
0
VERTEX
8
0
10
376.100000
20
495.800000
0
VERTEX
8
0
10
361.911765
20
486.352941
0
VERTEX
8
0
10
347.088235
20
479.647059
0
VERTEX
8
0
10
310.900000
20
474.800000
0
VERTEX
8
0
10
310.000000
20
475.000000
0
VERTEX
8
0
10
309.000000
20
476.000000
0
VERTEX
8
0
10
309.000000
20
478.000000
0
VERTEX
8
0
10
313.100000
20
480.800000
0
VERTEX
8
0
10
314.000000
20
481.000000
0
VERTEX
8
0
10
320.000000
20
487.000000
0
VERTEX
8
0
10
320.000000
20
488.000000
0
VERTEX
8
0
10
323.000000
20
491.000000
0
VERTEX
8
0
10
342.153846
20
503.769231
0
VERTEX
8
0
10
348.153846
20
507.769231
0
VERTEX
8
0
10
356.100000
20
510.800000
0
VERTEX
8
0
10
358.900000
20
512.200000
0
VERTEX
8
0
10
366.060000
20
515.580000
0
VERTEX
8
0
10
371.940000
20
516.420000
0
VERTEX
8
0
10
377.900000
20
518.200000
0
VERTEX
8
0
10
382.000000
20
521.000000
0
VERTEX
8
0
10
383.000000
20
523.000000
0
VERTEX
8
0
10
375.100000
20
530.200000
0
VERTEX
8
0
10
372.100000
20
531.300000
0
VERTEX
8
0
10
358.000000
20
535.000000
0
VERTEX
8
0
10
340.000000
20
535.000000
0
VERTEX
8
0
10
322.100000
20
530.700000
0
VERTEX
8
0
10
303.153846
20
521.769231
0
VERTEX
8
0
10
289.195122
20
511.756098
0
VERTEX
8
0
10
275.000000
20
500.500000
0
VERTEX
8
0
10
270.000000
20
501.000000
0
VERTEX
8
0
10
254.000000
20
486.000000
0
VERTEX
8
0
10
237.000000
20
469.000000
0
VERTEX
8
0
10
236.200000
20
466.900000
0
VERTEX
8
0
10
231.240000
20
459.820000
0
VERTEX
8
0
10
225.200000
20
448.900000
0
VERTEX
8
0
10
224.000000
20
446.000000
0
VERTEX
8
0
10
219.000000
20
441.000000
0
VERTEX
8
0
10
214.846154
20
439.230769
0
VERTEX
8
0
10
214.000000
20
439.000000
0
VERTEX
8
0
10
207.769231
20
432.153846
0
VERTEX
8
0
10
206.230769
20
429.846154
0
VERTEX
8
0
10
197.405405
20
413.932432
0
VERTEX
8
0
10
194.580000
20
400.060000
0
VERTEX
8
0
10
194.000000
20
399.000000
0
VERTEX
8
0
10
194.000000
20
380.000000
0
VERTEX
8
0
10
196.384615
20
367.076923
0
VERTEX
8
0
10
199.800000
20
355.900000
0
VERTEX
8
0
10
200.800000
20
353.900000
0
VERTEX
8
0
10
204.647059
20
335.911765
0
VERTEX
8
0
10
205.800000
20
331.900000
0
VERTEX
8
0
10
214.000000
20
316.000000
0
VERTEX
8
0
10
218.000000
20
312.000000
0
VERTEX
8
0
10
222.100000
20
310.200000
0
VERTEX
8
0
10
231.000000
20
304.000000
0
VERTEX
8
0
10
230.000000
20
297.000000
0
VERTEX
8
0
10
228.000000
20
295.000000
0
VERTEX
8
0
10
226.100000
20
296.200000
0
VERTEX
8
0
10
224.900000
20
296.800000
0
VERTEX
8
0
10
216.000000
20
304.000000
0
VERTEX
8
0
10
216.000000
20
305.000000
0
VERTEX
8
0
10
210.153846
20
309.230769
0
VERTEX
8
0
10
203.900000
20
312.800000
0
VERTEX
8
0
10
191.230032
20
320.249201
0
VERTEX
8
0
10
178.769968
20
331.750799
0
VERTEX
8
0
10
164.846154
20
341.769231
0
VERTEX
8
0
10
164.153846
20
342.230769
0
VERTEX
8
0
10
149.900000
20
350.700000
0
VERTEX
8
0
10
137.100000
20
356.200000
0
VERTEX
8
0
10
108.100000
20
364.300000
0
VERTEX
8
0
10
97.000000
20
368.000000
0
VERTEX
8
0
10
90.923077
20
367.384615
0
VERTEX
8
0
10
85.911765
20
366.352941
0
VERTEX
8
0
10
81.153846
20
364.769231
0
VERTEX
8
0
10
78.220690
20
362.751724
0
VERTEX
8
0
10
63.000000
20
349.000000
0
VERTEX
8
0
10
60.240000
20
344.820000
0
VERTEX
8
0
10
50.200000
20
328.900000
0
VERTEX
8
0
10
49.200000
20
326.900000
0
VERTEX
8
0
10
44.000000
20
309.000000
0
VERTEX
8
0
10
44.000000
20
291.000000
0
VERTEX
8
0
10
44.594595
20
289.932432
0
VERTEX
8
0
10
47.000000
20
279.000000
0
VERTEX
8
0
10
49.000000
20
277.000000
0
VERTEX
8
0
10
51.000000
20
278.000000
0
VERTEX
8
0
10
62.200000
20
295.900000
0
VERTEX
8
0
10
71.245902
20
309.795082
0
VERTEX
8
0
10
79.000000
20
319.000000
0
VERTEX
8
0
10
79.795082
20
319.245902
0
VERTEX
8
0
10
100.000000
20
334.000000
0
VERTEX
8
0
10
100.000000
20
335.000000
0
VERTEX
8
0
10
102.000000
20
337.000000
0
VERTEX
8
0
10
105.000000
20
337.000000
0
VERTEX
8
0
10
120.233888
20
322.249480
0
VERTEX
8
0
10
140.153846
20
309.230769
0
VERTEX
8
0
10
161.900000
20
298.700000
0
VERTEX
8
0
10
171.000000
20
296.000000
0
VERTEX
8
0
10
173.200000
20
293.100000
0
VERTEX
8
0
10
176.000000
20
287.000000
0
VERTEX
8
0
10
192.000000
20
271.000000
0
VERTEX
8
0
10
193.000000
20
271.000000
0
VERTEX
8
0
10
195.000000
20
269.000000
0
VERTEX
8
0
10
195.000000
20
267.000000
0
VERTEX
8
0
10
193.000000
20
265.000000
0
VERTEX
8
0
10
184.000000
20
265.000000
0
VERTEX
8
0
10
177.100000
20
268.300000
0
VERTEX
8
0
10
172.100000
20
270.200000
0
VERTEX
8
0
10
145.940000
20
276.580000
0
VERTEX
8
0
10
112.000000
20
280.000000
0
VERTEX
8
0
10
98.000000
20
280.000000
0
VERTEX
8
0
10
92.067568
20
278.594595
0
VERTEX
8
0
10
82.000000
20
272.000000
0
VERTEX
8
0
10
70.000000
20
260.000000
0
VERTEX
8
0
10
62.300000
20
246.900000
0
VERTEX
8
0
10
55.800000
20
225.100000
0
VERTEX
8
0
10
53.000000
20
211.000000
0
VERTEX
8
0
10
54.615385
20
193.923077
0
VERTEX
8
0
10
57.000000
20
184.000000
0
VERTEX
8
0
10
60.900000
20
180.800000
0
VERTEX
8
0
10
62.000000
20
180.000000
0
VERTEX
8
0
10
64.000000
20
182.000000
0
VERTEX
8
0
10
64.384615
20
185.923077
0
VERTEX
8
0
10
69.300000
20
202.900000
0
VERTEX
8
0
10
70.800000
20
206.100000
0
VERTEX
8
0
10
78.249480
20
216.766112
0
VERTEX
8
0
10
96.000000
20
236.000000
0
VERTEX
8
0
10
103.088235
20
234.352941
0
VERTEX
8
0
10
108.900000
20
232.700000
0
VERTEX
8
0
10
129.040984
20
228.450820
0
VERTEX
8
0
10
148.000000
20
227.000000
0
VERTEX
8
0
10
155.946154
20
228.430769
0
VERTEX
8
0
10
160.923077
20
229.384615
0
VERTEX
8
0
10
181.000000
20
234.000000
0
VERTEX
8
0
10
186.000000
20
234.000000
0
VERTEX
8
0
10
191.000000
20
229.000000
0
VERTEX
8
0
10
190.200000
20
227.900000
0
VERTEX
8
0
10
145.846154
20
191.230769
0
VERTEX
8
0
10
145.000000
20
191.000000
0
VERTEX
8
0
10
131.760000
20
177.180000
0
VERTEX
8
0
10
129.240000
20
173.820000
0
VERTEX
8
0
10
127.300000
20
168.900000
0
VERTEX
8
0
10
125.800000
20
165.100000
0
VERTEX
8
0
10
117.200000
20
154.900000
0
VERTEX
8
0
10
111.000000
20
140.000000
0
VERTEX
8
0
10
111.615385
20
127.923077
0
VERTEX
8
0
10
116.800000
20
110.900000
0
VERTEX
8
0
10
124.245902
20
95.204918
0
VERTEX
8
0
10
129.000000
20
89.000000
0
VERTEX
8
0
10
130.900000
20
87.800000
0
VERTEX
8
0
10
132.000000
20
87.000000
0
VERTEX
8
0
10
135.000000
20
87.000000
0
VERTEX
8
0
10
137.000000
20
89.000000
0
VERTEX
8
0
10
137.000000
20
98.000000
0
VERTEX
8
0
10
135.569231
20
105.946154
0
VERTEX
8
0
10
135.000000
20
107.000000
0
VERTEX
8
0
10
136.647059
20
125.088235
0
VERTEX
8
0
10
143.000000
20
147.000000
0
VERTEX
8
0
10
145.000000
20
149.000000
0
VERTEX
8
0
10
156.100000
20
152.700000
0
VERTEX
8
0
10
176.100000
20
159.800000
0
VERTEX
8
0
10
189.795082
20
168.245902
0
VERTEX
8
0
10
199.000000
20
176.000000
0
VERTEX
8
0
10
207.800000
20
191.100000
0
VERTEX
8
0
10
209.000000
20
197.000000
0
VERTEX
8
0
10
211.000000
20
199.000000
0
VERTEX
8
0
10
214.000000
20
199.000000
0
VERTEX
8
0
10
216.795082
20
195.754098
0
VERTEX
8
0
10
222.204918
20
191.245902
0
VERTEX
8
0
10
233.100000
20
184.200000
0
VERTEX
8
0
10
235.100000
20
183.300000
0
VERTEX
8
0
10
237.000000
20
183.000000
0
VERTEX
8
0
10
239.000000
20
181.000000
0
VERTEX
8
0
10
239.000000
20
180.000000
0
VERTEX
8
0
10
236.100000
20
177.800000
0
VERTEX
8
0
10
223.900000
20
172.200000
0
VERTEX
8
0
10
208.000000
20
165.000000
0
VERTEX
8
0
10
198.000000
20
155.000000
0
VERTEX
8
0
10
196.400000
20
151.800000
0
VERTEX
8
0
10
195.700000
20
150.100000
0
VERTEX
8
0
10
194.445545
20
145.955446
0
VERTEX
8
0
10
193.000000
20
130.000000
0
VERTEX
8
0
10
193.615385
20
128.923077
0
VERTEX
8
0
10
197.000000
20
116.000000
0
VERTEX
8
0
10
196.000000
20
115.000000
0
VERTEX
8
0
10
196.000000
20
109.000000
0
VERTEX
8
0
10
204.247059
20
96.211765
0
VERTEX
8
0
10
210.000000
20
89.000000
0
VERTEX
8
0
10
220.900000
20
81.800000
0
VERTEX
8
0
10
225.900000
20
79.700000
0
VERTEX
8
0
10
232.000000
20
77.000000
0
VERTEX
8
0
10
239.000000
20
77.000000
0
VERTEX
8
0
10
242.000000
20
80.000000
0
VERTEX
8
0
10
239.754098
20
82.795082
0
VERTEX
8
0
10
235.245902
20
88.204918
0
VERTEX
8
0
10
227.200000
20
100.100000
0
VERTEX
8
0
10
225.800000
20
102.900000
0
VERTEX
8
0
10
222.420000
20
111.060000
0
VERTEX
8
0
10
221.000000
20
121.000000
0
VERTEX
8
0
10
226.200000
20
131.900000
0
VERTEX
8
0
10
228.700000
20
140.100000
0
VERTEX
8
0
10
229.000000
20
142.000000
0
VERTEX
8
0
10
232.000000
20
145.000000
0
VERTEX
8
0
10
238.088235
20
146.647059
0
VERTEX
8
0
10
240.911765
20
147.352941
0
VERTEX
8
0
10
249.900000
20
151.200000
0
VERTEX
8
0
10
253.900000
20
153.200000
0
VERTEX
8
0
10
259.000000
20
156.000000
0
VERTEX
8
0
10
265.000000
20
156.000000
0
VERTEX
8
0
10
268.846154
20
153.769231
0
VERTEX
8
0
10
275.100000
20
150.300000
0
VERTEX
8
0
10
280.911765
20
148.647059
0
VERTEX
8
0
10
297.000000
20
144.000000
0
VERTEX
8
0
10
324.000000
20
144.000000
0
VERTEX
8
0
10
330.940000
20
145.420000
0
VERTEX
8
0
10
350.000000
20
150.000000
0
VERTEX
8
0
10
352.000000
20
152.000000
0
VERTEX
8
0
10
352.000000
20
153.000000
0
VERTEX
8
0
10
355.900000
20
156.200000
0
VERTEX
8
0
10
357.000000
20
157.000000
0
VERTEX
8
0
10
360.900000
20
155.800000
0
VERTEX
8
0
10
362.000000
20
155.000000
0
VERTEX
8
0
10
382.000000
20
155.000000
0
VERTEX
8
0
10
385.911765
20
156.352941
0
VERTEX
8
0
10
389.911765
20
157.352941
0
VERTEX
8
0
10
397.000000
20
160.000000
0
VERTEX
8
0
10
401.000000
20
160.000000
0
VERTEX
8
0
10
403.900000
20
158.700000
0
VERTEX
8
0
10
420.000000
20
154.000000
0
VERTEX
8
0
10
444.000000
20
154.000000
0
VERTEX
8
0
10
455.000000
20
155.000000
0
SEQEND
0
ENDSEC
0
EOF
