  0
SECTION
  2
HEADER
  9
$ACADVER
  1
AC1006
  9
$DWGCODEPAGE
  3
ansi_1252
  9
$INSBASE
 10
0.0
 20
0.0
 30
0.0
  9
$EXTMIN
 10
0.0232630603398249
 20
0.437357833048899
  9
$EXTMAX
 10
6.900308741152624
 20
13.14075267387769
  9
$LIMMIN
 10
0.0
 20
0.0
  9
$LIMMAX
 10
12.0
 20
9.0
  9
$ORTHOMODE
 70
     0
  9
$REGENMODE
 70
     1
  9
$FILLMODE
 70
     1
  9
$QTEXTMODE
 70
     0
  9
$MIRRTEXT
 70
     0
  9
$DRAGMODE
 70
     2
  9
$LTSCALE
 40
1.0
  9
$OSMODE
 70
    37
  9
$ATTMODE
 70
     1
  9
$TEXTSIZE
 40
0.2
  9
$TRACEWID
 40
0.05
  9
$TEXTSTYLE
  7
STANDARD
  9
$CLAYER
  8
3
  9
$CELTYPE
  6
BYLAYER
  9
$CECOLOR
 62
   256
  9
$DIMSCALE
 40
1.0
  9
$DIMASZ
 40
0.18
  9
$DIMEXO
 40
0.0625
  9
$DIMDLI
 40
0.38
  9
$DIMRND
 40
0.0
  9
$DIMDLE
 40
0.0
  9
$DIMEXE
 40
0.18
  9
$DIMTP
 40
0.0
  9
$DIMTM
 40
0.0
  9
$DIMTXT
 40
0.18
  9
$DIMCEN
 40
0.09
  9
$DIMTSZ
 40
0.0
  9
$DIMTOL
 70
     0
  9
$DIMLIM
 70
     0
  9
$DIMTIH
 70
     1
  9
$DIMTOH
 70
     1
  9
$DIMSE1
 70
     0
  9
$DIMSE2
 70
     0
  9
$DIMTAD
 70
     0
  9
$DIMZIN
 70
     0
  9
$DIMBLK
  1

  9
$DIMASO
 70
     1
  9
$DIMSHO
 70
     1
  9
$DIMPOST
  1

  9
$DIMAPOST
  1

  9
$DIMALT
 70
     0
  9
$DIMALTD
 70
     2
  9
$DIMALTF
 40
25.4
  9
$DIMLFAC
 40
1.0
  9
$DIMTOFL
 70
     0
  9
$DIMTVP
 40
0.0
  9
$DIMTIX
 70
     0
  9
$DIMSOXD
 70
     0
  9
$DIMSAH
 70
     0
  9
$DIMBLK1
  1

  9
$DIMBLK2
  1

  9
$LUNITS
 70
     2
  9
$LUPREC
 70
     4
  9
$SKETCHINC
 40
0.1
  9
$FILLETRAD
 40
0.0
  9
$AUNITS
 70
     0
  9
$AUPREC
 70
     0
  9
$MENU
  1
.
  9
$ELEVATION
 40
0.0
  9
$THICKNESS
 40
0.0
  9
$LIMCHECK
 70
     0
  9
$CHAMFERA
 40
0.0
  9
$CHAMFERB
 40
0.0
  9
$SKPOLY
 70
     0
  9
$TDCREATE
 40
2453353.508792488
  9
$TDUPDATE
 40
4881703.849894815
  9
$TDINDWG
 40
9763088.046677036
  9
$TDUSRTIMER
 40
9763088.046677036
  9
$USRTIMER
 70
     1
  9
$ANGBASE
 50
0.0
  9
$ANGDIR
 70
     0
  9
$PDMODE
 70
     0
  9
$PDSIZE
 40
0.0
  9
$PLINEWID
 40
0.0
  9
$COORDS
 70
     1
  9
$SPLFRAME
 70
     0
  9
$SPLINETYPE
 70
     6
  9
$SPLINESEGS
 70
     8
  9
$ATTDIA
 70
     0
  9
$ATTREQ
 70
     1
  9
$HANDLING
 70
     1
  9
$HANDSEED
  5
48A
  9
$SURFTAB1
 70
     6
  9
$SURFTAB2
 70
     6
  9
$SURFTYPE
 70
     6
  9
$SURFU
 70
     6
  9
$SURFV
 70
     6
  9
$UCSNAME
  2

  9
$UCSORG
 10
0.0
 20
0.0
 30
0.0
  9
$UCSXDIR
 10
1.0
 20
0.0
 30
0.0
  9
$UCSYDIR
 10
0.0
 20
1.0
 30
0.0
  9
$USERI1
 70
     0
  9
$USERI2
 70
     0
  9
$USERI3
 70
     0
  9
$USERI4
 70
     0
  9
$USERI5
 70
     0
  9
$USERR1
 40
0.0
  9
$USERR2
 40
0.0
  9
$USERR3
 40
0.0
  9
$USERR4
 40
0.0
  9
$USERR5
 40
0.0
  9
$WORLDVIEW
 70
     1
  0
ENDSEC
  0
SECTION
  2
TABLES
  0
TABLE
  2
VPORT
 70
     1
  0
VPORT
  2
*ACTIVE
 70
     0
 10
0.0
 20
0.0
 11
1.0
 21
1.0
 12
3.479633817724401
 22
6.839045650583363
 13
0.0
 23
0.0
 14
0.5
 24
0.5
 15
0.5
 25
0.5
 16
0.0
 26
0.0
 36
1.0
 17
0.0
 27
0.0
 37
0.0
 40
13.02003091325963
 41
1.664827586206897
 42
50.0
 43
0.0
 44
0.0
 50
0.0
 51
0.0
 71
    16
 72
  1000
 73
     1
 74
     1
 75
     0
 76
     0
 77
     0
 78
     0
  0
ENDTAB
  0
TABLE
  2
LTYPE
 70
     1
  0
LTYPE
  2
CONTINUOUS
 70
     0
  3
Solid line
 72
    65
 73
     0
 40
0.0
  0
ENDTAB
  0
TABLE
  2
LAYER
 70
     5
  0
LAYER
  2
0
 70
     0
 62
     7
  6
CONTINUOUS
  0
LAYER
  2
1
 70
     0
 62
     7
  6
CONTINUOUS
  0
LAYER
  2
2
 70
     0
 62
     7
  6
CONTINUOUS
  0
LAYER
  2
5
 70
     0
 62
     7
  6
CONTINUOUS
  0
LAYER
  2
3
 70
     0
 62
     7
  6
CONTINUOUS
  0
ENDTAB
  0
TABLE
  2
STYLE
 70
     1
  0
STYLE
  2
STANDARD
 70
     0
 40
0.0
 41
1.0
 50
0.0
 71
     0
 42
0.2
  3
txt
  4

  0
ENDTAB
  0
TABLE
  2
VIEW
 70
     0
  0
ENDTAB
  0
TABLE
  2
UCS
 70
     0
  0
ENDTAB
  0
ENDSEC
  0
SECTION
  2
BLOCKS
  0
ENDSEC
  0
SECTION
  2
ENTITIES
  0
CIRCLE
  5
349
  8
1
 62
     2
 10
3.725961657183022
 20
9.055610057301196
 30
0.0
 40
0.1126582116288959
  0
CIRCLE
  5
34A
  8
1
 62
     2
 10
3.448927136807742
 20
10.85993572637772
 30
0.0
 40
0.1126582116288963
  0
CIRCLE
  5
34B
  8
1
 62
     2
 10
3.46731491050386
 20
5.126487663266053
 30
0.0
 40
0.1126582116288954
  0
CIRCLE
  5
34C
  8
1
 62
     2
 10
3.099479430140192
 20
8.620924726720894
 30
0.0
 40
0.1126582116288954
  0
CIRCLE
  5
34D
  8
1
 62
     2
 10
4.202985871231195
 20
6.361363918772651
 30
0.0
 40
0.1126582116288954
  0
CIRCLE
  5
34E
  8
1
 62
     2
 10
2.679096024010287
 20
6.361363918772651
 30
0.0
 40
0.1126582116288954
  0
CIRCLE
  5
34F
  8
1
 62
     2
 10
1.812055248867357
 20
7.780157914461083
 30
0.0
 40
0.1126582116288954
  0
CIRCLE
  5
350
  8
1
 62
     2
 10
5.122574572140364
 20
7.806431877344202
 30
0.0
 40
0.1126582116288954
  0
CIRCLE
  5
351
  8
1
 62
     2
 10
5.83197156998458
 20
5.441775217863482
 30
0.0
 40
0.1126582116288954
  0
CIRCLE
  5
352
  8
1
 62
     2
 10
2.258712617880382
 20
3.681419704694502
 30
0.0
 40
0.1126582116288954
  0
CIRCLE
  5
353
  8
1
 62
     2
 10
4.728465128893578
 20
3.602597816045145
 30
0.0
 40
0.1126582116288954
  0
CIRCLE
  5
354
  8
1
 62
     2
 10
5.858245532867699
 20
2.998296669733406
 30
0.0
 40
0.1126582116288954
  0
CIRCLE
  5
355
  8
1
 62
     2
 10
1.102658251023141
 20
3.050844595499644
 30
0.0
 40
0.1126582116288954
  0
CIRCLE
  5
356
  8
1
 62
     2
 10
1.102658251023141
 20
5.441775217863482
 30
0.0
 40
0.1126582116288954
  0
LINE
  5
358
  8
3
 62
     1
 10
3.760767580909517
 20
3.0908384620201
 30
0.0
 11
3.76850934969039
 21
1.716438875420514
 31
0.0
  0
POLYLINE
  5
359
  8
3
 62
     1
 66
     1
 10
0.0
 20
0.0
 30
0.0
  0
VERTEX
  5
45C
  8
3
 62
     1
 10
3.146968590714583
 20
2.76405561725421
 30
0.0
  0
VERTEX
  5
45D
  8
3
 62
     1
 10
2.66667544767271
 20
2.711800970375574
 30
0.0
  0
VERTEX
  5
45E
  8
3
 62
     1
 10
2.216283704542885
 20
2.617831475476853
 30
0.0
  0
VERTEX
  5
45F
  8
3
 62
     1
 10
1.812746271385498
 20
2.485684178740038
 30
0.0
  0
VERTEX
  5
460
  8
3
 62
     1
 10
1.471252444884314
 20
2.320333152781859
 30
0.0
  0
VERTEX
  5
461
  8
3
 62
     1
 10
1.204656177659828
 20
2.128002270739914
 30
0.0
  0
VERTEX
  5
462
  8
3
 62
     1
 10
1.02299225078792
 20
1.915930937409758
 30
0.0
  0
VERTEX
  5
463
  8
3
 62
     1
 10
0.9330985609673062
 20
1.692101595398684
 30
0.0
  0
VERTEX
  5
464
  8
3
 62
     1
 10
0.9383587395850442
 20
1.464939263064315
 30
0.0
  0
VERTEX
  5
465
  8
3
 62
     1
 10
1.038574791592672
 20
1.242994413739955
 30
0.0
  0
VERTEX
  5
466
  8
3
 62
     1
 10
1.229974548112299
 20
1.03462113278875
 30
0.0
  0
VERTEX
  5
467
  8
3
 62
     1
 10
1.505353652253834
 20
0.8476626667729181
 30
0.0
  0
VERTEX
  5
468
  8
3
 62
     1
 10
1.854346733745213
 20
0.6891562007824186
 30
0.0
  0
VERTEX
  5
469
  8
3
 62
     1
 10
2.263817565263289
 20
0.5650679762124733
 30
0.0
  0
VERTEX
  5
46A
  8
3
 62
     1
 10
2.718353514838301
 20
0.4800687192537292
 30
0.0
  0
VERTEX
  5
46B
  8
3
 62
     1
 10
3.200845682962433
 20
0.437357833048899
 30
0.0
  0
VERTEX
  5
46C
  8
3
 62
     1
 10
3.693132887829357
 20
0.4385429709874484
 30
0.0
  0
VERTEX
  5
46D
  8
3
 62
     1
 10
4.176685258864636
 20
0.483579524043595
 30
0.0
  0
VERTEX
  5
46E
  8
3
 62
     1
 10
4.63330170783632
 20
0.5707722998763662
 30
0.0
  0
VERTEX
  5
46F
  8
3
 62
     1
 10
5.045795024477812
 20
0.696839330489776
 30
0.0
  0
VERTEX
  5
470
  8
3
 62
     1
 10
5.398638809373041
 20
0.8570354067094337
 30
0.0
  0
VERTEX
  5
471
  8
3
 62
     1
 10
5.678551893313336
 20
1.045330689592674
 30
0.0
  0
VERTEX
  5
472
  8
3
 62
     1
 10
5.87499824536751
 20
1.254637675773356
 30
0.0
  0
VERTEX
  5
473
  8
3
 62
     1
 10
5.980583552942438
 20
1.477077973682676
 30
0.0
  0
VERTEX
  5
474
  8
3
 62
     1
 10
5.99133354641546
 20
1.704278849091413
 30
0.0
  0
VERTEX
  5
475
  8
3
 62
     1
 10
5.906843592097623
 20
1.927688377890832
 30
0.0
  0
VERTEX
  5
476
  8
3
 62
     1
 10
5.730293922793823
 20
2.138897343646257
 30
0.0
  0
VERTEX
  5
477
  8
3
 62
     1
 10
5.468329932676032
 20
2.329955763581545
 30
0.0
  0
VERTEX
  5
478
  8
3
 62
     1
 10
5.130812042214362
 20
2.493672128840571
 30
0.0
  0
VERTEX
  5
479
  8
3
 62
     1
 10
4.730444548341539
 20
2.623884095512759
 30
0.0
  0
VERTEX
  5
47A
  8
3
 62
     1
 10
4.282297430066421
 20
2.715690437513369
 30
0.0
  0
VERTEX
  5
47B
  8
3
 62
     1
 10
3.803239108948304
 20
2.765635530527235
 30
0.0
  0
SEQEND
  5
45B
  8
3
 62
     1
  0
LINE
  5
35A
  8
3
 62
     1
 10
3.166153025483771
 20
3.078613589068445
 30
0.0
 11
3.158387335876635
 21
1.69795032954737
 31
0.0
  0
ARC
  5
35B
  8
3
 62
     1
 10
6.738356103155293
 20
12.67995771594569
 30
0.0
 40
3.160316704179867
 50
193.042529088966
 51
241.1729289829595
  0
ARC
  5
35C
  8
3
 62
     1
 10
4.541518637280642
 20
10.88625411888531
 30
0.0
 40
1.184723036338695
 50
251.0254067752669
 51
304.6174752420602
  0
ARC
  5
35D
  8
3
 62
     1
 10
9.254067520523533
 20
11.77999323677908
 30
0.0
 40
5.481214135498266
 50
201.5586126222038
 51
230.4604462279027
  0
ARC
  5
35E
  8
3
 62
     1
 10
5.341110554255994
 20
10.031348199883
 30
0.0
 40
2.514319202149212
 50
249.2404367381577
 51
279.6981740351394
  0
ARC
  5
35F
  8
3
 62
     1
 10
9.832431653047799
 20
10.11589093831273
 30
0.0
 40
5.907936758500479
 50
204.3470586228502
 51
234.7517268030658
  0
ARC
  5
360
  8
3
 62
     1
 10
5.575475968810945
 20
7.914844006537095
 30
0.0
 40
2.757162516734749
 50
256.1860754956721
 51
287.8985077095555
  0
ARC
  5
361
  8
3
 62
     1
 10
8.715264821306079
 20
6.252920665412749
 30
0.0
 40
3.9315266282931
 50
194.9688889978276
 51
242.506914897681
  0
ARC
  5
362
  8
3
 62
     1
 10
6.027386294348361
 20
9.650582760582472
 30
0.0
 40
6.940302994439987
 50
250.9381971149778
 51
277.2255618234528
  0
ARC
  5
364
  8
3
 62
     1
 10
0.2039106663129595
 20
12.64955160891235
 30
0.0
 40
3.121148198725589
 50
298.6779084368056
 51
347.1644710374411
  0
ARC
  5
365
  8
3
 62
     1
 10
2.374738648874065
 20
10.88625411888531
 30
0.0
 40
1.184723036338695
 50
235.3825247579399
 51
288.974593224733
  0
ARC
  5
366
  8
3
 62
     1
 10
-2.337810234368826
 20
11.77999323677908
 30
0.0
 40
5.481214135498265
 50
309.5395537720974
 51
338.4413873777961
  0
ARC
  5
367
  8
3
 62
     1
 10
1.575146731898713
 20
10.031348199883
 30
0.0
 40
2.514319202149213
 50
260.3018259648606
 51
290.7595632618422
  0
ARC
  5
368
  8
3
 62
     1
 10
-2.916174366893092
 20
10.11589093831273
 30
0.0
 40
5.907936758500479
 50
305.2482731969342
 51
335.6529413771498
  0
ARC
  5
369
  8
3
 62
     1
 10
1.340781317343762
 20
7.914844006537095
 30
0.0
 40
2.757162516734749
 50
252.1014922904445
 51
283.8139245043279
  0
ARC
  5
36B
  8
3
 62
     1
 10
0.9024723178316271
 20
9.894993473416987
 30
0.0
 40
7.182428911861778
 50
262.9687235977231
 51
288.3710313452688
  0
ARC
  5
36C
  8
3
 62
     1
 10
-1.811647229328087
 20
6.259317177901067
 30
0.0
 40
3.945390670612901
 50
297.7152027266253
 51
344.9887832540078
  0
LINE
  5
36D
  8
2
 62
     3
 10
3.336394475093646
 20
3.701663822849053
 30
0.0
 11
3.339043703361561
 21
2.071337465780452
 31
0.0
  0
LINE
  5
36E
  8
2
 62
     3
 10
3.611501065785376
 20
3.701663822849053
 30
0.0
 11
3.611796659995912
 21
2.06158482661701
 31
0.0
  0
ARC
  5
36F
  8
2
 62
     3
 10
6.183774578765844
 20
9.597774036119262
 30
0.0
 40
6.432783742098764
 50
246.4299843654551
 51
262.8375890517567
  0
ARC
  5
370
  8
2
 62
     3
 10
10.88851459862707
 20
7.475118393045252
 30
0.0
 40
6.962169164674593
 50
192.9261102917286
 51
217.7247227178104
  0
ARC
  5
371
  8
2
 62
     3
 10
5.817839909754204
 20
9.310541534104019
 30
0.0
 40
3.801669732902156
 50
243.1834326402964
 51
265.3149842414501
  0
ARC
  5
372
  8
2
 62
     3
 10
9.289780783145641
 20
9.522480764188277
 30
0.0
 40
5.505833860493051
 50
193.3264704797591
 51
226.6076843601756
  0
ARC
  5
373
  8
2
 62
     3
 10
4.82231409530228
 20
9.556662878445799
 30
0.0
 40
1.578231378963554
 50
235.667725746501
 51
269.4197497723785
  0
ARC
  5
374
  8
2
 62
     3
 10
9.767221549070847
 20
11.77769400235889
 30
0.0
 40
6.248536935742469
 50
194.4837771164385
 51
217.44585133437
  0
ARC
  5
375
  8
2
 62
     3
 10
4.361740587378121
 20
11.1205722463673
 30
0.0
 40
1.111568486910445
 50
234.5647468038796
 51
277.0120741479679
  0
ARC
  5
376
  8
2
 62
     3
 10
7.530418512053188
 20
12.79645530833418
 30
0.0
 40
4.113704996778092
 50
192.7734733299164
 51
222.499219825065
  0
ARC
  5
377
  8
2
 62
     3
 10
-0.4750521071893922
 20
12.70316403514866
 30
0.0
 40
3.948196385439309
 50
317.1351222266056
 51
348.0201092567448
  0
ARC
  5
378
  8
2
 62
     3
 10
2.554516698776586
 20
11.1205722463673
 30
0.0
 40
1.111568486910445
 50
262.9879258520321
 51
305.4352531961204
  0
ARC
  5
379
  8
2
 62
     3
 10
-2.85096426291614
 20
11.77769400235889
 30
0.0
 40
6.248536935742468
 50
322.5541486656301
 51
345.5162228835616
  0
ARC
  5
37A
  8
2
 62
     3
 10
2.093943190852427
 20
9.556662878445799
 30
0.0
 40
1.578231378963553
 50
270.5802502276215
 51
304.332274253499
  0
ARC
  5
37B
  8
2
 62
     3
 10
-2.373523496990934
 20
9.522480764188277
 30
0.0
 40
5.505833860493051
 50
313.3923156398244
 51
346.6735295202409
  0
ARC
  5
37C
  8
2
 62
     3
 10
1.098417376400503
 20
9.310541534104019
 30
0.0
 40
3.801669732902156
 50
274.6850157585499
 51
296.8165673597036
  0
ARC
  5
37D
  8
2
 62
     3
 10
-3.972257312472358
 20
7.475118393045252
 30
0.0
 40
6.962169164674593
 50
322.2752772821896
 51
347.0738897082715
  0
ARC
  5
37E
  8
2
 62
     3
 10
0.73233223646131
 20
9.766649269443649
 30
0.0
 40
6.600393064816301
 50
276.9809287346697
 51
293.236751152347
  0
POLYLINE
  5
3E3
  8
3
 62
     1
 66
     1
 10
0.0
 20
0.0
 30
0.0
  0
VERTEX
  5
47D
  8
3
 62
     1
 10
3.44547022688639
 20
13.14075267387769
 30
0.0
  0
VERTEX
  5
47E
  8
3
 62
     1
 10
3.230080705430046
 20
12.68322183132949
 30
0.0
  0
VERTEX
  5
47F
  8
3
 62
     1
 10
2.758193356072678
 20
12.62690489413275
 30
0.0
  0
VERTEX
  5
480
  8
3
 62
     1
 10
3.108942820463121
 20
12.28346681093863
 30
0.0
  0
VERTEX
  5
481
  8
3
 62
     1
 10
2.790313661261058
 20
11.85501352508064
 30
0.0
  0
VERTEX
  5
482
  8
3
 62
     1
 10
3.247066943393873
 20
11.95617872822618
 30
0.0
  0
SEQEND
  5
47C
  8
3
 62
     1
  0
POLYLINE
  5
3E4
  8
3
 62
     1
 66
     1
 10
0.0
 20
0.0
 30
0.0
  0
VERTEX
  5
484
  8
3
 62
     1
 10
3.44547022688639
 20
13.14075267387769
 30
0.0
  0
VERTEX
  5
485
  8
3
 62
     1
 10
3.641949514317589
 20
12.71148733782177
 30
0.0
  0
VERTEX
  5
486
  8
3
 62
     1
 10
4.136788307788748
 20
12.62690489413275
 30
0.0
  0
VERTEX
  5
487
  8
3
 62
     1
 10
3.807504623772387
 20
12.32788403542651
 30
0.0
  0
VERTEX
  5
488
  8
3
 62
     1
 10
4.050912532382689
 20
11.87156340306946
 30
0.0
  0
VERTEX
  5
489
  8
3
 62
     1
 10
3.659566653532871
 20
11.96675564387077
 30
0.0
  0
SEQEND
  5
483
  8
3
 62
     1
  0
ENDSEC
  0
EOF
