  0
SECTION
  2
HEADER
  9
$ACADVER
  1
AC1009
  9
$EXTMIN
 10
1.71784736
 20
0.00498630
 30
0.0
  9
$EXTMAX
 10
10.28215264
 20
11.99501370
 30
0.0
  0
ENDSEC
  0
SECTION
  2
TABLES
  0
TABLE
  2
LAYER
 70
1
 0
LAYER
 2
Default_Layer
 70
0
 62
1
 6
CONTINUOUS
 0
ENDTAB
 0
ENDSEC
  0
SECTION
  2
ENTITIES
  0
POLYLINE
  8
Default_Layer
 66
   1
 39
0.000000
 70
    1
  0
VERTEX
  8
0
 10
7.17253904
 20
11.99501370
  0
VERTEX
  8
0
 10
7.17322418
 20
11.99501370
  0
VERTEX
  8
0
 10
7.21169040
 20
11.96916462
  0
VERTEX
  8
0
 10
7.24936437
 20
11.94208947
  0
VERTEX
  8
0
 10
7.28619253
 20
11.91381474
  0
VERTEX
  8
0
 10
7.32212132
 20
11.88436689
  0
VERTEX
  8
0
 10
7.35709716
 20
11.85377240
  0
VERTEX
  8
0
 10
7.39106649
 20
11.82205772
  0
VERTEX
  8
0
 10
7.42397573
 20
11.78924935
  0
VERTEX
  8
0
 10
7.45577132
 20
11.75537374
  0
VERTEX
  8
0
 10
7.48639969
 20
11.72045736
  0
VERTEX
  8
0
 10
7.51580727
 20
11.68452669
  0
VERTEX
  8
0
 10
7.54394049
 20
11.64760820
  0
VERTEX
  8
0
 10
7.57074578
 20
11.60972836
  0
VERTEX
  8
0
 10
7.59616958
 20
11.57091363
  0
VERTEX
  8
0
 10
7.62015831
 20
11.53119050
  0
VERTEX
  8
0
 10
7.64265841
 20
11.49058543
  0
VERTEX
  8
0
 10
7.66361630
 20
11.44912488
  0
VERTEX
  8
0
 10
7.67636079
 20
11.42140892
  0
VERTEX
  8
0
 10
7.68828468
 20
11.39332526
  0
VERTEX
  8
0
 10
7.69937832
 20
11.36489960
  0
VERTEX
  8
0
 10
7.70963205
 20
11.33615768
  0
VERTEX
  8
0
 10
7.71903620
 20
11.30712521
  0
VERTEX
  8
0
 10
7.72758112
 20
11.27782791
  0
VERTEX
  8
0
 10
7.73525716
 20
11.24829149
  0
VERTEX
  8
0
 10
7.74205463
 20
11.21854167
  0
VERTEX
  8
0
 10
7.74796390
 20
11.18860417
  0
VERTEX
  8
0
 10
7.75297529
 20
11.15850472
  0
VERTEX
  8
0
 10
7.75707916
 20
11.12826902
  0
VERTEX
  8
0
 10
7.76026583
 20
11.09792280
  0
VERTEX
  8
0
 10
7.76252564
 20
11.06749177
  0
VERTEX
  8
0
 10
7.76384895
 20
11.03700165
  0
VERTEX
  8
0
 10
7.76422609
 20
11.00647816
  0
VERTEX
  8
0
 10
7.76364739
 20
10.97594702
  0
VERTEX
  8
0
 10
7.76070508
 20
10.92275398
  0
VERTEX
  8
0
 10
7.75505900
 20
10.86984598
  0
VERTEX
  8
0
 10
7.74685566
 20
10.81729125
  0
VERTEX
  8
0
 10
7.73624161
 20
10.76515805
  0
VERTEX
  8
0
 10
7.72336337
 20
10.71351462
  0
VERTEX
  8
0
 10
7.70836747
 20
10.66242921
  0
VERTEX
  8
0
 10
7.69140045
 20
10.61197006
  0
VERTEX
  8
0
 10
7.67260882
 20
10.56220543
  0
VERTEX
  8
0
 10
7.72490411
 20
10.56457199
  0
VERTEX
  8
0
 10
7.77791900
 20
10.56589878
  0
VERTEX
  8
0
 10
7.83116071
 20
10.56523438
  0
VERTEX
  8
0
 10
7.85771263
 20
10.56385815
  0
VERTEX
  8
0
 10
7.88413646
 20
10.56162734
  0
VERTEX
  8
0
 10
7.91037060
 20
10.55842300
  0
VERTEX
  8
0
 10
7.93635346
 20
10.55412621
  0
VERTEX
  8
0
 10
7.96202344
 20
10.54861804
  0
VERTEX
  8
0
 10
7.98731894
 20
10.54177956
  0
VERTEX
  8
0
 10
8.01217836
 20
10.53349184
  0
VERTEX
  8
0
 10
8.03654011
 20
10.52363595
  0
VERTEX
  8
0
 10
8.06034259
 20
10.51209295
  0
VERTEX
  8
0
 10
8.08352419
 20
10.49874393
  0
VERTEX
  8
0
 10
8.10150415
 20
10.48982549
  0
VERTEX
  8
0
 10
8.11997551
 20
10.48205005
  0
VERTEX
  8
0
 10
8.13887166
 20
10.47541650
  0
VERTEX
  8
0
 10
8.15812598
 20
10.46992370
  0
VERTEX
  8
0
 10
8.17767185
 20
10.46557052
  0
VERTEX
  8
0
 10
8.19744267
 20
10.46235583
  0
VERTEX
  8
0
 10
8.21737180
 20
10.46027851
  0
VERTEX
  8
0
 10
8.23739264
 20
10.45933742
  0
VERTEX
  8
0
 10
8.25743857
 20
10.45953143
  0
VERTEX
  8
0
 10
8.27744298
 20
10.46085942
  0
VERTEX
  8
0
 10
8.29733924
 20
10.46332026
  0
VERTEX
  8
0
 10
8.31706075
 20
10.46691281
  0
VERTEX
  8
0
 10
8.33654089
 20
10.47163595
  0
VERTEX
  8
0
 10
8.35571303
 20
10.47748856
  0
VERTEX
  8
0
 10
8.37451058
 20
10.48446949
  0
VERTEX
  8
0
 10
8.39286690
 20
10.49257763
  0
VERTEX
  8
0
 10
8.41149215
 20
10.50184326
  0
VERTEX
  8
0
 10
8.42951460
 20
10.51200488
  0
VERTEX
  8
0
 10
8.44695168
 20
10.52300905
  0
VERTEX
  8
0
 10
8.46382083
 20
10.53480233
  0
VERTEX
  8
0
 10
8.48013949
 20
10.54733126
  0
VERTEX
  8
0
 10
8.49592510
 20
10.56054241
  0
VERTEX
  8
0
 10
8.51119509
 20
10.57438234
  0
VERTEX
  8
0
 10
8.52596691
 20
10.58879760
  0
VERTEX
  8
0
 10
8.55408576
 20
10.61914033
  0
VERTEX
  8
0
 10
8.58042117
 20
10.65114306
  0
VERTEX
  8
0
 10
8.60511263
 20
10.68437825
  0
VERTEX
  8
0
 10
8.62829965
 20
10.71841836
  0
VERTEX
  8
0
 10
8.63409795
 20
10.67208546
  0
VERTEX
  8
0
 10
8.63871599
 20
10.62555988
  0
VERTEX
  8
0
 10
8.64196908
 20
10.57890582
  0
VERTEX
  8
0
 10
8.64367258
 20
10.53218754
  0
VERTEX
  8
0
 10
8.64364180
 20
10.48546925
  0
VERTEX
  8
0
 10
8.64169208
 20
10.43881520
  0
VERTEX
  8
0
 10
8.63763876
 20
10.39228961
  0
VERTEX
  8
0
 10
8.63129716
 20
10.34595672
  0
VERTEX
  8
0
 10
8.62604951
 20
10.31812390
  0
VERTEX
  8
0
 10
8.61936066
 20
10.29055503
  0
VERTEX
  8
0
 10
8.61113023
 20
10.26341773
  0
VERTEX
  8
0
 10
8.60125786
 20
10.23687959
  0
VERTEX
  8
0
 10
8.58964319
 20
10.21110822
  0
VERTEX
  8
0
 10
8.57618585
 20
10.18627123
  0
VERTEX
  8
0
 10
8.56078549
 20
10.16253623
  0
VERTEX
  8
0
 10
8.54334174
 20
10.14007082
  0
VERTEX
  8
0
 10
9.71493871
 20
9.31267329
  0
VERTEX
  8
0
 10
9.72642558
 20
9.30299562
  0
VERTEX
  8
0
 10
9.73084824
 20
9.29711301
  0
VERTEX
  8
0
 10
9.73213573
 20
9.29364380
  0
VERTEX
  8
0
 10
9.73258117
 20
9.28972095
  0
VERTEX
  8
0
 10
9.73918238
 20
9.24861964
  0
VERTEX
  8
0
 10
9.74828062
 20
9.20810847
  0
VERTEX
  8
0
 10
9.75961895
 20
9.16818342
  0
VERTEX
  8
0
 10
9.77294046
 20
9.12884047
  0
VERTEX
  8
0
 10
9.78798822
 20
9.09007562
  0
VERTEX
  8
0
 10
9.80450528
 20
9.05188484
  0
VERTEX
  8
0
 10
9.82223473
 20
9.01426412
  0
VERTEX
  8
0
 10
9.84091964
 20
8.97720945
  0
VERTEX
  8
0
 10
9.86836071
 20
8.92697478
  0
VERTEX
  8
0
 10
9.89729819
 20
8.87760925
  0
VERTEX
  8
0
 10
9.92762269
 20
8.82908276
  0
VERTEX
  8
0
 10
9.95922481
 20
8.78136520
  0
VERTEX
  8
0
 10
9.99199515
 20
8.73442645
  0
VERTEX
  8
0
 10
10.02582433
 20
8.68823641
  0
VERTEX
  8
0
 10
10.06060293
 20
8.64276496
  0
VERTEX
  8
0
 10
10.09622158
 20
8.59798201
  0
VERTEX
  8
0
 10
10.10224068
 20
8.58987134
  0
VERTEX
  8
0
 10
10.10705542
 20
8.58107821
  0
VERTEX
  8
0
 10
10.11007166
 20
8.57159458
  0
VERTEX
  8
0
 10
10.11069525
 20
8.56141243
  0
VERTEX
  8
0
 10
10.11224787
 20
8.51010170
  0
VERTEX
  8
0
 10
10.11442875
 20
8.45843870
  0
VERTEX
  8
0
 10
10.11795451
 20
8.40672953
  0
VERTEX
  8
0
 10
10.12354171
 20
8.35528030
  0
VERTEX
  8
0
 10
10.12733229
 20
8.32974883
  0
VERTEX
  8
0
 10
10.13190696
 20
8.30439712
  0
VERTEX
  8
0
 10
10.13735529
 20
8.27926346
  0
VERTEX
  8
0
 10
10.14376685
 20
8.25438610
  0
VERTEX
  8
0
 10
10.15123122
 20
8.22980330
  0
VERTEX
  8
0
 10
10.15983797
 20
8.20555333
  0
VERTEX
  8
0
 10
10.16967668
 20
8.18167445
  0
VERTEX
  8
0
 10
10.18083691
 20
8.15820493
  0
VERTEX
  8
0
 10
10.01837204
 20
8.15135349
  0
VERTEX
  8
0
 10
10.14990907
 20
7.82048226
  0
VERTEX
  8
0
 10
10.28215264
 20
7.48993219
  0
VERTEX
  8
0
 10
10.28215264
 20
7.48051146
  0
VERTEX
  8
0
 10
10.27086633
 20
7.45561141
  0
VERTEX
  8
0
 10
10.26052644
 20
7.43029786
  0
VERTEX
  8
0
 10
10.24197535
 20
7.37876751
  0
VERTEX
  8
0
 10
10.20841398
 20
7.27445427
  0
VERTEX
  8
0
 10
10.19242934
 20
7.21884031
  0
VERTEX
  8
0
 10
10.17720645
 20
7.16281186
  0
VERTEX
  8
0
 10
10.16328226
 20
7.10638798
  0
VERTEX
  8
0
 10
10.15119371
 20
7.04958773
  0
VERTEX
  8
0
 10
10.14147774
 20
6.99243019
  0
VERTEX
  8
0
 10
10.13767727
 20
6.96372340
  0
VERTEX
  8
0
 10
10.13467129
 20
6.93493443
  0
VERTEX
  8
0
 10
10.13252693
 20
6.90606568
  0
VERTEX
  8
0
 10
10.13131131
 20
6.87711952
  0
VERTEX
  8
0
 10
10.13109153
 20
6.84809833
  0
VERTEX
  8
0
 10
10.13193473
 20
6.81900451
  0
VERTEX
  8
0
 10
10.09658874
 20
6.78032748
  0
VERTEX
  8
0
 10
10.06326907
 20
6.74000549
  0
VERTEX
  8
0
 10
10.03169773
 20
6.69829649
  0
VERTEX
  8
0
 10
10.00159671
 20
6.65545840
  0
VERTEX
  8
0
 10
9.97268800
 20
6.61174916
  0
VERTEX
  8
0
 10
9.94469359
 20
6.56742671
  0
VERTEX
  8
0
 10
9.89033568
 20
6.47797388
  0
VERTEX
  8
0
 10
9.84947859
 20
6.40708552
  0
VERTEX
  8
0
 10
9.81000249
 20
6.33544243
  0
VERTEX
  8
0
 10
9.73275246
 20
6.19124094
  0
VERTEX
  8
0
 10
9.25572066
 20
7.06676987
  0
VERTEX
  8
0
 10
9.25509498
 20
7.01313195
  0
VERTEX
  8
0
 10
9.25364983
 20
6.95952252
  0
VERTEX
  8
0
 10
9.25140681
 20
6.90594796
  0
VERTEX
  8
0
 10
9.24838747
 20
6.85241467
  0
VERTEX
  8
0
 10
9.24010619
 20
6.74549752
  0
VERTEX
  8
0
 10
9.22897861
 20
6.63882224
  0
VERTEX
  8
0
 10
9.21517737
 20
6.53244002
  0
VERTEX
  8
0
 10
9.19887508
 20
6.42640204
  0
VERTEX
  8
0
 10
9.18024437
 20
6.32075949
  0
VERTEX
  8
0
 10
9.15945786
 20
6.21556356
  0
VERTEX
  8
0
 10
9.13805944
 20
6.11883381
  0
VERTEX
  8
0
 10
9.11467959
 20
6.02253399
  0
VERTEX
  8
0
 10
9.08931206
 20
5.92671867
  0
VERTEX
  8
0
 10
9.06195057
 20
5.83144243
  0
VERTEX
  8
0
 10
9.03258885
 20
5.73675983
  0
VERTEX
  8
0
 10
9.00122062
 20
5.64272545
  0
VERTEX
  8
0
 10
8.96783960
 20
5.54939387
  0
VERTEX
  8
0
 10
8.93243954
 20
5.45681964
  0
VERTEX
  8
0
 10
8.89501416
 20
5.36505736
  0
VERTEX
  8
0
 10
8.85555717
 20
5.27416158
  0
VERTEX
  8
0
 10
8.81406232
 20
5.18418688
  0
VERTEX
  8
0
 10
8.77052332
 20
5.09518784
  0
VERTEX
  8
0
 10
8.72493391
 20
5.00721902
  0
VERTEX
  8
0
 10
8.67728781
 20
4.92033500
  0
VERTEX
  8
0
 10
8.62757875
 20
4.83459035
  0
VERTEX
  8
0
 10
8.57580046
 20
4.75003964
  0
VERTEX
  8
0
 10
8.61968636
 20
4.72759838
  0
VERTEX
  8
0
 10
8.66318598
 20
4.70429739
  0
VERTEX
  8
0
 10
8.70625229
 20
4.68012399
  0
VERTEX
  8
0
 10
8.74883823
 20
4.65506551
  0
VERTEX
  8
0
 10
8.79089677
 20
4.62910929
  0
VERTEX
  8
0
 10
8.83238086
 20
4.60224265
  0
VERTEX
  8
0
 10
8.87324344
 20
4.57445292
  0
VERTEX
  8
0
 10
8.91343749
 20
4.54572743
  0
VERTEX
  8
0
 10
8.95291595
 20
4.51605352
  0
VERTEX
  8
0
 10
8.99163177
 20
4.48541850
  0
VERTEX
  8
0
 10
9.02953792
 20
4.45380971
  0
VERTEX
  8
0
 10
9.06658734
 20
4.42121448
  0
VERTEX
  8
0
 10
9.10273300
 20
4.38762013
  0
VERTEX
  8
0
 10
9.13792784
 20
4.35301401
  0
VERTEX
  8
0
 10
9.17212482
 20
4.31738342
  0
VERTEX
  8
0
 10
9.20527690
 20
4.28071571
  0
VERTEX
  8
0
 10
9.22583769
 20
4.25639771
  0
VERTEX
  8
0
 10
9.24583106
 20
4.23152934
  0
VERTEX
  8
0
 10
9.26520544
 20
4.20612227
  0
VERTEX
  8
0
 10
9.28390926
 20
4.18018817
  0
VERTEX
  8
0
 10
9.30189098
 20
4.15373870
  0
VERTEX
  8
0
 10
9.31909902
 20
4.12678554
  0
VERTEX
  8
0
 10
9.33548183
 20
4.09934035
  0
VERTEX
  8
0
 10
9.35098785
 20
4.07141480
  0
VERTEX
  8
0
 10
9.36556550
 20
4.04302055
  0
VERTEX
  8
0
 10
9.37916324
 20
4.01416927
  0
VERTEX
  8
0
 10
9.39172950
 20
3.98487264
  0
VERTEX
  8
0
 10
9.40321271
 20
3.95514231
  0
VERTEX
  8
0
 10
9.41356133
 20
3.92498995
  0
VERTEX
  8
0
 10
9.42272377
 20
3.89442724
  0
VERTEX
  8
0
 10
9.43064849
 20
3.86346583
  0
VERTEX
  8
0
 10
9.43728393
 20
3.83211740
  0
VERTEX
  8
0
 10
9.44229074
 20
3.80347078
  0
VERTEX
  8
0
 10
9.44608542
 20
3.77468955
  0
VERTEX
  8
0
 10
9.44869030
 20
3.74580972
  0
VERTEX
  8
0
 10
9.45012771
 20
3.71686728
  0
VERTEX
  8
0
 10
9.45041997
 20
3.68789824
  0
VERTEX
  8
0
 10
9.44958943
 20
3.65893862
  0
VERTEX
  8
0
 10
9.44765840
 20
3.63002441
  0
VERTEX
  8
0
 10
9.44464923
 20
3.60119162
  0
VERTEX
  8
0
 10
9.44058424
 20
3.57247625
  0
VERTEX
  8
0
 10
9.43548576
 20
3.54391431
  0
VERTEX
  8
0
 10
9.42937612
 20
3.51554181
  0
VERTEX
  8
0
 10
9.42227766
 20
3.48739475
  0
VERTEX
  8
0
 10
9.41421270
 20
3.45950913
  0
VERTEX
  8
0
 10
9.40520358
 20
3.43192096
  0
VERTEX
  8
0
 10
9.39527262
 20
3.40466626
  0
VERTEX
  8
0
 10
9.38444216
 20
3.37778101
  0
VERTEX
  8
0
 10
9.36956014
 20
3.34408555
  0
VERTEX
  8
0
 10
9.35356483
 20
3.31098260
  0
VERTEX
  8
0
 10
9.33650919
 20
3.27846252
  0
VERTEX
  8
0
 10
9.31844616
 20
3.24651563
  0
VERTEX
  8
0
 10
9.29942868
 20
3.21513228
  0
VERTEX
  8
0
 10
9.27950969
 20
3.18430281
  0
VERTEX
  8
0
 10
9.25874212
 20
3.15401756
  0
VERTEX
  8
0
 10
9.23717893
 20
3.12426686
  0
VERTEX
  8
0
 10
9.21487306
 20
3.09504107
  0
VERTEX
  8
0
 10
9.19187744
 20
3.06633051
  0
VERTEX
  8
0
 10
9.16824502
 20
3.03812553
  0
VERTEX
  8
0
 10
9.14402873
 20
3.01041647
  0
VERTEX
  8
0
 10
9.09405635
 20
2.95644746
  0
VERTEX
  8
0
 10
9.04238381
 20
2.90434621
  0
VERTEX
  8
0
 10
9.04154781
 20
2.87015061
  0
VERTEX
  8
0
 10
9.03970228
 20
2.83593932
  0
VERTEX
  8
0
 10
9.03682929
 20
2.80176091
  0
VERTEX
  8
0
 10
9.03291089
 20
2.76766391
  0
VERTEX
  8
0
 10
9.02792914
 20
2.73369689
  0
VERTEX
  8
0
 10
9.02186611
 20
2.69990838
  0
VERTEX
  8
0
 10
9.01470386
 20
2.66634695
  0
VERTEX
  8
0
 10
9.00642443
 20
2.63306113
  0
VERTEX
  8
0
 10
8.99700991
 20
2.60009949
  0
VERTEX
  8
0
 10
8.98644234
 20
2.56751058
  0
VERTEX
  8
0
 10
8.97470378
 20
2.53534293
  0
VERTEX
  8
0
 10
8.96177630
 20
2.50364511
  0
VERTEX
  8
0
 10
8.94764196
 20
2.47246567
  0
VERTEX
  8
0
 10
8.93228281
 20
2.44185315
  0
VERTEX
  8
0
 10
8.91568092
 20
2.41185611
  0
VERTEX
  8
0
 10
8.89781834
 20
2.38252309
  0
VERTEX
  8
0
 10
8.88315680
 20
2.36037165
  0
VERTEX
  8
0
 10
8.86767717
 20
2.33879830
  0
VERTEX
  8
0
 10
8.85140643
 20
2.31782511
  0
VERTEX
  8
0
 10
8.83437156
 20
2.29747418
  0
VERTEX
  8
0
 10
8.81659951
 20
2.27776758
  0
VERTEX
  8
0
 10
8.79811728
 20
2.25872739
  0
VERTEX
  8
0
 10
8.77895182
 20
2.24037569
  0
VERTEX
  8
0
 10
8.75913012
 20
2.22273456
  0
VERTEX
  8
0
 10
8.73867914
 20
2.20582608
  0
VERTEX
  8
0
 10
8.71762586
 20
2.18967233
  0
VERTEX
  8
0
 10
8.69599724
 20
2.17429539
  0
VERTEX
  8
0
 10
8.67382027
 20
2.15971733
  0
VERTEX
  8
0
 10
8.65112191
 20
2.14596025
  0
VERTEX
  8
0
 10
8.62792914
 20
2.13304621
  0
VERTEX
  8
0
 10
8.60426893
 20
2.12099731
  0
VERTEX
  8
0
 10
8.58016825
 20
2.10983561
  0
VERTEX
  8
0
 10
8.53902110
 20
2.09287665
  0
VERTEX
  8
0
 10
8.49726160
 20
2.07809984
  0
VERTEX
  8
0
 10
8.45495387
 20
2.06541108
  0
VERTEX
  8
0
 10
8.41216201
 20
2.05471627
  0
VERTEX
  8
0
 10
8.36895013
 20
2.04592134
  0
VERTEX
  8
0
 10
8.32538235
 20
2.03893219
  0
VERTEX
  8
0
 10
8.28152275
 20
2.03365473
  0
VERTEX
  8
0
 10
8.23743546
 20
2.02999487
  0
VERTEX
  8
0
 10
8.19318458
 20
2.02785852
  0
VERTEX
  8
0
 10
8.14883421
 20
2.02715159
  0
VERTEX
  8
0
 10
8.10444847
 20
2.02777999
  0
VERTEX
  8
0
 10
8.06009145
 20
2.02964962
  0
VERTEX
  8
0
 10
8.01582727
 20
2.03266641
  0
VERTEX
  8
0
 10
7.97172003
 20
2.03673625
  0
VERTEX
  8
0
 10
7.92783384
 20
2.04176506
  0
VERTEX
  8
0
 10
7.88423281
 20
2.04765875
  0
VERTEX
  8
0
 10
7.83005421
 20
2.05626320
  0
VERTEX
  8
0
 10
7.77607634
 20
2.06620047
  0
VERTEX
  8
0
 10
7.74928562
 20
2.07205531
  0
VERTEX
  8
0
 10
7.72269261
 20
2.07870703
  0
VERTEX
  8
0
 10
7.69634650
 20
2.08631020
  0
VERTEX
  8
0
 10
7.67029646
 20
2.09501936
  0
VERTEX
  8
0
 10
7.60456609
 20
2.11350287
  0
VERTEX
  8
0
 10
7.53805288
 20
2.12942110
  0
VERTEX
  8
0
 10
7.50454663
 20
2.13634422
  0
VERTEX
  8
0
 10
7.47089735
 20
2.14253720
  0
VERTEX
  8
0
 10
7.43712263
 20
2.14797044
  0
VERTEX
  8
0
 10
7.40324001
 20
2.15261431
  0
VERTEX
  8
0
 10
7.36926707
 20
2.15643923
  0
VERTEX
  8
0
 10
7.33522136
 20
2.15941558
  0
VERTEX
  8
0
 10
7.30112046
 20
2.16151375
  0
VERTEX
  8
0
 10
7.26698191
 20
2.16270414
  0
VERTEX
  8
0
 10
7.23282330
 20
2.16295713
  0
VERTEX
  8
0
 10
7.19866218
 20
2.16224313
  0
VERTEX
  8
0
 10
7.16451611
 20
2.16053253
  0
VERTEX
  8
0
 10
7.13040266
 20
2.15779572
  0
VERTEX
  8
0
 10
7.10315133
 20
2.15464317
  0
VERTEX
  8
0
 10
7.07593953
 20
2.15056841
  0
VERTEX
  8
0
 10
7.04882884
 20
2.14555250
  0
VERTEX
  8
0
 10
7.02188086
 20
2.13957650
  0
VERTEX
  8
0
 10
6.99515720
 20
2.13262145
  0
VERTEX
  8
0
 10
6.96871944
 20
2.12466842
  0
VERTEX
  8
0
 10
6.94262920
 20
2.11569846
  0
VERTEX
  8
0
 10
6.91694805
 20
2.10569263
  0
VERTEX
  8
0
 10
6.89173761
 20
2.09463198
  0
VERTEX
  8
0
 10
6.86705947
 20
2.08249758
  0
VERTEX
  8
0
 10
6.84297522
 20
2.06927047
  0
VERTEX
  8
0
 10
6.81954647
 20
2.05493172
  0
VERTEX
  8
0
 10
6.79683482
 20
2.03946238
  0
VERTEX
  8
0
 10
6.77490186
 20
2.02284351
  0
VERTEX
  8
0
 10
6.75380918
 20
2.00505616
  0
VERTEX
  8
0
 10
6.73361839
 20
1.98608140
  0
VERTEX
  8
0
 10
6.71717867
 20
1.96941983
  0
VERTEX
  8
0
 10
6.70156832
 20
1.95209198
  0
VERTEX
  8
0
 10
6.68676765
 20
1.93413811
  0
VERTEX
  8
0
 10
6.67275696
 20
1.91559850
  0
VERTEX
  8
0
 10
6.65951656
 20
1.89651342
  0
VERTEX
  8
0
 10
6.64702674
 20
1.87692314
  0
VERTEX
  8
0
 10
6.63526782
 20
1.85686792
  0
VERTEX
  8
0
 10
6.62422010
 20
1.83638805
  0
VERTEX
  8
0
 10
6.61386387
 20
1.81552378
  0
VERTEX
  8
0
 10
6.60417945
 20
1.79431539
  0
VERTEX
  8
0
 10
6.58674725
 20
1.75102735
  0
VERTEX
  8
0
 10
6.57176590
 20
1.70684607
  0
VERTEX
  8
0
 10
6.55907785
 20
1.66209373
  0
VERTEX
  8
0
 10
6.55111091
 20
1.69381202
  0
VERTEX
  8
0
 10
6.54405050
 20
1.72577268
  0
VERTEX
  8
0
 10
6.53791394
 20
1.75794311
  0
VERTEX
  8
0
 10
6.53271852
 20
1.79029067
  0
VERTEX
  8
0
 10
6.52848158
 20
1.82278276
  0
VERTEX
  8
0
 10
6.52522041
 20
1.85538675
  0
VERTEX
  8
0
 10
6.52295233
 20
1.88807003
  0
VERTEX
  8
0
 10
6.52169466
 20
1.92079998
  0
VERTEX
  8
0
 10
6.52146470
 20
1.95354398
  0
VERTEX
  8
0
 10
6.52227977
 20
1.98626941
  0
VERTEX
  8
0
 10
6.52415719
 20
2.01894366
  0
VERTEX
  8
0
 10
6.52711426
 20
2.05153410
  0
VERTEX
  8
0
 10
6.53116829
 20
2.08400812
  0
VERTEX
  8
0
 10
6.53633661
 20
2.11633311
  0
VERTEX
  8
0
 10
6.54263652
 20
2.14847643
  0
VERTEX
  8
0
 10
6.55008533
 20
2.18040548
  0
VERTEX
  8
0
 10
6.55659422
 20
2.20455078
  0
VERTEX
  8
0
 10
6.56387804
 20
2.22847516
  0
VERTEX
  8
0
 10
6.57192688
 20
2.25215439
  0
VERTEX
  8
0
 10
6.58073082
 20
2.27556428
  0
VERTEX
  8
0
 10
6.59027996
 20
2.29868061
  0
VERTEX
  8
0
 10
6.60056438
 20
2.32147916
  0
VERTEX
  8
0
 10
6.61157418
 20
2.34393573
  0
VERTEX
  8
0
 10
6.62329943
 20
2.36602610
  0
VERTEX
  8
0
 10
6.63573024
 20
2.38772605
  0
VERTEX
  8
0
 10
6.64885669
 20
2.40901138
  0
VERTEX
  8
0
 10
6.66266887
 20
2.42985787
  0
VERTEX
  8
0
 10
6.67715687
 20
2.45024132
  0
VERTEX
  8
0
 10
6.69231078
 20
2.47013750
  0
VERTEX
  8
0
 10
6.70812068
 20
2.48952221
  0
VERTEX
  8
0
 10
6.72457667
 20
2.50837123
  0
VERTEX
  8
0
 10
6.74166884
 20
2.52666035
  0
VERTEX
  8
0
 10
6.76332160
 20
2.54829603
  0
VERTEX
  8
0
 10
6.78573185
 20
2.56908126
  0
VERTEX
  8
0
 10
6.80886020
 20
2.58902469
  0
VERTEX
  8
0
 10
6.83266726
 20
2.60813499
  0
VERTEX
  8
0
 10
6.85711362
 20
2.62642081
  0
VERTEX
  8
0
 10
6.88215991
 20
2.64389080
  0
VERTEX
  8
0
 10
6.90776672
 20
2.66055362
  0
VERTEX
  8
0
 10
6.93389467
 20
2.67641793
  0
VERTEX
  8
0
 10
6.96050436
 20
2.69149238
  0
VERTEX
  8
0
 10
6.98755640
 20
2.70578564
  0
VERTEX
  8
0
 10
7.01501140
 20
2.71930634
  0
VERTEX
  8
0
 10
7.04282996
 20
2.73206317
  0
VERTEX
  8
0
 10
7.07097269
 20
2.74406476
  0
VERTEX
  8
0
 10
7.09940020
 20
2.75531977
  0
VERTEX
  8
0
 10
7.12807311
 20
2.76583687
  0
VERTEX
  8
0
 10
7.15695200
 20
2.77562470
  0
VERTEX
  8
0
 10
7.18860125
 20
2.78317647
  0
VERTEX
  8
0
 10
7.22042789
 20
2.78987992
  0
VERTEX
  8
0
 10
7.25241260
 20
2.79574986
  0
VERTEX
  8
0
 10
7.28453606
 20
2.80080108
  0
VERTEX
  8
0
 10
7.31677896
 20
2.80504840
  0
VERTEX
  8
0
 10
7.34912197
 20
2.80850662
  0
VERTEX
  8
0
 10
7.38154576
 20
2.81119053
  0
VERTEX
  8
0
 10
7.41403104
 20
2.81311495
  0
VERTEX
  8
0
 10
7.47910872
 20
2.81474451
  0
VERTEX
  8
0
 10
7.54420045
 20
2.81351372
  0
VERTEX
  8
0
 10
7.60915167
 20
2.80954102
  0
VERTEX
  8
0
 10
7.67380783
 20
2.80294484
  0
VERTEX
  8
0
 10
7.69580705
 20
2.80010256
  0
VERTEX
  8
0
 10
7.71770792
 20
2.79632891
  0
VERTEX
  8
0
 10
7.76139926
 20
2.78791448
  0
VERTEX
  8
0
 10
7.78328206
 20
2.78423718
  0
VERTEX
  8
0
 10
7.80525118
 20
2.78155548
  0
VERTEX
  8
0
 10
7.82735277
 20
2.78035113
  0
VERTEX
  8
0
 10
7.84963301
 20
2.78110586
  0
VERTEX
  8
0
 10
7.88177559
 20
2.78408379
  0
VERTEX
  8
0
 10
7.91386798
 20
2.78952965
  0
VERTEX
  8
0
 10
7.94546659
 20
2.79760703
  0
VERTEX
  8
0
 10
7.96094209
 20
2.80268366
  0
VERTEX
  8
0
 10
7.97612780
 20
2.80847952
  0
VERTEX
  8
0
 10
7.99096826
 20
2.81501505
  0
VERTEX
  8
0
 10
8.00540802
 20
2.82231070
  0
VERTEX
  8
0
 10
8.01939164
 20
2.83038693
  0
VERTEX
  8
0
 10
8.03286365
 20
2.83926418
  0
VERTEX
  8
0
 10
8.04576861
 20
2.84896290
  0
VERTEX
  8
0
 10
8.05805107
 20
2.85950354
  0
VERTEX
  8
0
 10
8.06965558
 20
2.87090655
  0
VERTEX
  8
0
 10
8.08052668
 20
2.88319238
  0
VERTEX
  8
0
 10
8.09396378
 20
2.90063445
  0
VERTEX
  8
0
 10
8.10548494
 20
2.91918655
  0
VERTEX
  8
0
 10
8.11526180
 20
2.93867402
  0
VERTEX
  8
0
 10
8.12346597
 20
2.95892225
  0
VERTEX
  8
0
 10
8.13026907
 20
2.97975659
  0
VERTEX
  8
0
 10
8.13584273
 20
3.00100242
  0
VERTEX
  8
0
 10
8.14035856
 20
3.02248511
  0
VERTEX
  8
0
 10
8.14398819
 20
3.04403003
  0
VERTEX
  8
0
 10
8.11730354
 20
3.02395447
  0
VERTEX
  8
0
 10
8.08959431
 20
3.00583222
  0
VERTEX
  8
0
 10
8.06094995
 20
2.98956719
  0
VERTEX
  8
0
 10
8.03145991
 20
2.97506328
  0
VERTEX
  8
0
 10
8.00121363
 20
2.96222440
  0
VERTEX
  8
0
 10
7.97030056
 20
2.95095443
  0
VERTEX
  8
0
 10
7.93881016
 20
2.94115729
  0
VERTEX
  8
0
 10
7.90683187
 20
2.93273688
  0
VERTEX
  8
0
 10
7.87445513
 20
2.92559710
  0
VERTEX
  8
0
 10
7.84176941
 20
2.91964186
  0
VERTEX
  8
0
 10
7.80886414
 20
2.91477505
  0
VERTEX
  8
0
 10
7.77582877
 20
2.91090058
  0
VERTEX
  8
0
 10
7.74275276
 20
2.90792235
  0
VERTEX
  8
0
 10
7.70972555
 20
2.90574427
  0
VERTEX
  8
0
 10
7.64417533
 20
2.90340414
  0
VERTEX
  8
0
 10
7.58004012
 20
2.90463220
  0
VERTEX
  8
0
 10
7.51610601
 20
2.90795760
  0
VERTEX
  8
0
 10
7.45238342
 20
2.91327571
  0
VERTEX
  8
0
 10
7.38888276
 20
2.92048190
  0
VERTEX
  8
0
 10
7.32561443
 20
2.92947153
  0
VERTEX
  8
0
 10
7.26258886
 20
2.94013999
  0
VERTEX
  8
0
 10
7.19981645
 20
2.95238264
  0
VERTEX
  8
0
 10
7.13730763
 20
2.96609485
  0
VERTEX
  8
0
 10
7.07507279
 20
2.98117200
  0
VERTEX
  8
0
 10
7.01312236
 20
2.99750946
  0
VERTEX
  8
0
 10
6.95146674
 20
3.01500260
  0
VERTEX
  8
0
 10
6.89011635
 20
3.03354678
  0
VERTEX
  8
0
 10
6.82908160
 20
3.05303740
  0
VERTEX
  8
0
 10
6.76837291
 20
3.07336980
  0
VERTEX
  8
0
 10
6.64797534
 20
3.11614148
  0
VERTEX
  8
0
 10
6.72846944
 20
3.11121316
  0
VERTEX
  8
0
 10
6.80907795
 20
3.10783544
  0
VERTEX
  8
0
 10
6.88974668
 20
3.10616189
  0
VERTEX
  8
0
 10
6.97042143
 20
3.10634606
  0
VERTEX
  8
0
 10
7.05104801
 20
3.10854150
  0
VERTEX
  8
0
 10
7.13157222
 20
3.11290176
  0
VERTEX
  8
0
 10
7.21193986
 20
3.11958042
  0
VERTEX
  8
0
 10
7.29209674
 20
3.12873101
  0
VERTEX
  8
0
 10
7.34409579
 20
3.13646180
  0
VERTEX
  8
0
 10
7.39603261
 20
3.14547021
  0
VERTEX
  8
0
 10
7.44770849
 20
3.15606235
  0
VERTEX
  8
0
 10
7.49892471
 20
3.16854432
  0
VERTEX
  8
0
 10
7.54948255
 20
3.18322224
  0
VERTEX
  8
0
 10
7.59918329
 20
3.20040220
  0
VERTEX
  8
0
 10
7.62365014
 20
3.21002611
  0
VERTEX
  8
0
 10
7.64782821
 20
3.22039032
  0
VERTEX
  8
0
 10
7.67169263
 20
3.23153309
  0
VERTEX
  8
0
 10
7.69521859
 20
3.24349270
  0
VERTEX
  8
0
 10
7.72592413
 20
3.26113718
  0
VERTEX
  8
0
 10
7.75555278
 20
3.28099365
  0
VERTEX
  8
0
 10
7.78363785
 20
3.30306614
  0
VERTEX
  8
0
 10
7.79695570
 20
3.31493465
  0
VERTEX
  8
0
 10
7.80971265
 20
3.32735866
  0
VERTEX
  8
0
 10
7.82185035
 20
3.34033868
  0
VERTEX
  8
0
 10
7.83331048
 20
3.35387522
  0
VERTEX
  8
0
 10
7.84403471
 20
3.36796877
  0
VERTEX
  8
0
 10
7.85396468
 20
3.38261984
  0
VERTEX
  8
0
 10
7.86304207
 20
3.39782892
  0
VERTEX
  8
0
 10
7.87120854
 20
3.41359653
  0
VERTEX
  8
0
 10
7.87840575
 20
3.42992316
  0
VERTEX
  8
0
 10
7.88457538
 20
3.44680931
  0
VERTEX
  8
0
 10
7.88980209
 20
3.46385246
  0
VERTEX
  8
0
 10
7.89392369
 20
3.48104930
  0
VERTEX
  8
0
 10
7.89699322
 20
3.49837284
  0
VERTEX
  8
0
 10
7.89906377
 20
3.51579612
  0
VERTEX
  8
0
 10
7.90018840
 20
3.53329217
  0
VERTEX
  8
0
 10
7.90042018
 20
3.55083400
  0
VERTEX
  8
0
 10
7.89981217
 20
3.56839465
  0
VERTEX
  8
0
 10
7.89841744
 20
3.58594715
  0
VERTEX
  8
0
 10
7.89348008
 20
3.62091979
  0
VERTEX
  8
0
 10
7.88603265
 20
3.65553615
  0
VERTEX
  8
0
 10
7.87649967
 20
3.68958043
  0
VERTEX
  8
0
 10
7.86530569
 20
3.72283687
  0
VERTEX
  8
0
 10
7.84358663
 20
3.69053520
  0
VERTEX
  8
0
 10
7.82097320
 20
3.65861378
  0
VERTEX
  8
0
 10
7.79745024
 20
3.62718790
  0
VERTEX
  8
0
 10
7.77300255
 20
3.59637286
  0
VERTEX
  8
0
 10
7.74761497
 20
3.56628394
  0
VERTEX
  8
0
 10
7.72127231
 20
3.53703644
  0
VERTEX
  8
0
 10
7.69395939
 20
3.50874565
  0
VERTEX
  8
0
 10
7.66566103
 20
3.48152686
  0
VERTEX
  8
0
 10
7.63636205
 20
3.45549537
  0
VERTEX
  8
0
 10
7.60604728
 20
3.43076646
  0
VERTEX
  8
0
 10
7.57470152
 20
3.40745543
  0
VERTEX
  8
0
 10
7.54230961
 20
3.38567756
  0
VERTEX
  8
0
 10
7.50885636
 20
3.36554816
  0
VERTEX
  8
0
 10
7.47432659
 20
3.34718252
  0
VERTEX
  8
0
 10
7.43870512
 20
3.33069592
  0
VERTEX
  8
0
 10
7.40197678
 20
3.31620365
  0
VERTEX
  8
0
 10
7.42617780
 20
3.36540977
  0
VERTEX
  8
0
 10
7.44838059
 20
3.41582927
  0
VERTEX
  8
0
 10
7.45856235
 20
3.44145672
  0
VERTEX
  8
0
 10
7.46804019
 20
3.46734273
  0
VERTEX
  8
0
 10
7.47674598
 20
3.49347237
  0
VERTEX
  8
0
 10
7.48461162
 20
3.51983071
  0
VERTEX
  8
0
 10
7.49156896
 20
3.54640283
  0
VERTEX
  8
0
 10
7.49754991
 20
3.57317379
  0
VERTEX
  8
0
 10
7.50248632
 20
3.60012867
  0
VERTEX
  8
0
 10
7.50631009
 20
3.62725253
  0
VERTEX
  8
0
 10
7.50895308
 20
3.65453045
  0
VERTEX
  8
0
 10
7.51034719
 20
3.68194749
  0
VERTEX
  8
0
 10
7.51042428
 20
3.70948874
  0
VERTEX
  8
0
 10
7.50911624
 20
3.73713926
  0
VERTEX
  8
0
 10
7.46493935
 20
3.70896232
  0
VERTEX
  8
0
 10
7.42011337
 20
3.68194733
  0
VERTEX
  8
0
 10
7.37467968
 20
3.65603984
  0
VERTEX
  8
0
 10
7.32867970
 20
3.63118542
  0
VERTEX
  8
0
 10
7.28215483
 20
3.60732960
  0
VERTEX
  8
0
 10
7.23514645
 20
3.58441795
  0
VERTEX
  8
0
 10
7.18769598
 20
3.56239602
  0
VERTEX
  8
0
 10
7.13984480
 20
3.54120936
  0
VERTEX
  8
0
 10
7.09163433
 20
3.52080352
  0
VERTEX
  8
0
 10
7.04310596
 20
3.50112406
  0
VERTEX
  8
0
 10
6.94526111
 20
3.46372649
  0
VERTEX
  8
0
 10
6.84664146
 20
3.42858105
  0
VERTEX
  8
0
 10
6.74757821
 20
3.39525219
  0
VERTEX
  8
0
 10
6.64642908
 20
3.36396069
  0
VERTEX
  8
0
 10
6.54470587
 20
3.33464635
  0
VERTEX
  8
0
 10
6.44246078
 20
3.30722284
  0
VERTEX
  8
0
 10
6.33974599
 20
3.28160386
  0
VERTEX
  8
0
 10
6.23661369
 20
3.25770309
  0
VERTEX
  8
0
 10
6.13311607
 20
3.23543422
  0
VERTEX
  8
0
 10
6.02930531
 20
3.21471095
  0
VERTEX
  8
0
 10
5.92523361
 20
3.19544695
  0
VERTEX
  8
0
 10
5.89114902
 20
3.10496239
  0
VERTEX
  8
0
 10
5.85591627
 20
3.01491139
  0
VERTEX
  8
0
 10
5.81870838
 20
2.92569542
  0
VERTEX
  8
0
 10
5.79910532
 20
2.88152602
  0
VERTEX
  8
0
 10
5.77869835
 20
2.83771591
  0
VERTEX
  8
0
 10
5.76590007
 20
2.81334913
  0
VERTEX
  8
0
 10
5.75229888
 20
2.78923124
  0
VERTEX
  8
0
 10
5.74616068
 20
2.77692189
  0
VERTEX
  8
0
 10
5.74097794
 20
2.76426228
  0
VERTEX
  8
0
 10
5.73713605
 20
2.75111490
  0
VERTEX
  8
0
 10
5.73502039
 20
2.73734226
  0
VERTEX
  8
0
 10
5.73171653
 20
2.70336381
  0
VERTEX
  8
0
 10
5.72940475
 20
2.66922743
  0
VERTEX
  8
0
 10
5.72811567
 20
2.63498390
  0
VERTEX
  8
0
 10
5.72787990
 20
2.60068405
  0
VERTEX
  8
0
 10
5.72872806
 20
2.56637867
  0
VERTEX
  8
0
 10
5.73069074
 20
2.53211859
  0
VERTEX
  8
0
 10
5.73379856
 20
2.49795460
  0
VERTEX
  8
0
 10
5.73808213
 20
2.46393752
  0
VERTEX
  8
0
 10
5.74357207
 20
2.43011815
  0
VERTEX
  8
0
 10
5.75029898
 20
2.39654731
  0
VERTEX
  8
0
 10
5.75829348
 20
2.36327580
  0
VERTEX
  8
0
 10
5.76758617
 20
2.33035443
  0
VERTEX
  8
0
 10
5.77820766
 20
2.29783401
  0
VERTEX
  8
0
 10
5.79018857
 20
2.26576535
  0
VERTEX
  8
0
 10
5.80355951
 20
2.23419925
  0
VERTEX
  8
0
 10
5.81835108
 20
2.20318654
  0
VERTEX
  8
0
 10
5.80243386
 20
2.17605124
  0
VERTEX
  8
0
 10
5.78447123
 20
2.14917387
  0
VERTEX
  8
0
 10
5.77468588
 20
2.13616092
  0
VERTEX
  8
0
 10
5.76434478
 20
2.12360725
  0
VERTEX
  8
0
 10
5.75343311
 20
2.11164446
  0
VERTEX
  8
0
 10
5.74193607
 20
2.10040417
  0
VERTEX
  8
0
 10
5.72983886
 20
2.09001796
  0
VERTEX
  8
0
 10
5.71712668
 20
2.08061744
  0
VERTEX
  8
0
 10
5.70378473
 20
2.07233422
  0
VERTEX
  8
0
 10
5.68979819
 20
2.06529988
  0
VERTEX
  8
0
 10
5.67515226
 20
2.05964604
  0
VERTEX
  8
0
 10
5.65983215
 20
2.05550429
  0
VERTEX
  8
0
 10
5.64382305
 20
2.05300624
  0
VERTEX
  8
0
 10
5.62711015
 20
2.05228348
  0
VERTEX
  8
0
 10
5.55903730
 20
2.11425693
  0
VERTEX
  8
0
 10
5.52465262
 20
2.14499476
  0
VERTEX
  8
0
 10
5.48976010
 20
2.17513844
  0
VERTEX
  8
0
 10
5.45415300
 20
2.20436680
  0
VERTEX
  8
0
 10
5.41762456
 20
2.23235870
  0
VERTEX
  8
0
 10
5.37996805
 20
2.25879296
  0
VERTEX
  8
0
 10
5.34097671
 20
2.28334843
  0
VERTEX
  8
0
 10
5.28454730
 20
2.21778868
  0
VERTEX
  8
0
 10
5.22733908
 20
2.15287124
  0
VERTEX
  8
0
 10
5.16886227
 20
2.08910999
  0
VERTEX
  8
0
 10
5.10862711
 20
2.02701878
  0
VERTEX
  8
0
 10
5.09529255
 20
2.01450151
  0
VERTEX
  8
0
 10
5.08124542
 20
2.00251416
  0
VERTEX
  8
0
 10
5.05298053
 20
1.97858763
  0
VERTEX
  8
0
 10
5.03974634
 20
1.96587767
  0
VERTEX
  8
0
 10
5.02776668
 20
1.95215604
  0
VERTEX
  8
0
 10
5.01753334
 20
1.93703737
  0
VERTEX
  8
0
 10
5.01322522
 20
1.92883370
  0
VERTEX
  8
0
 10
5.00953809
 20
1.92013625
  0
VERTEX
  8
0
 10
5.00407695
 20
1.90696403
  0
VERTEX
  8
0
 10
4.99976759
 20
1.89358355
  0
VERTEX
  8
0
 10
4.99655947
 20
1.88003347
  0
VERTEX
  8
0
 10
4.99440202
 20
1.86635241
  0
VERTEX
  8
0
 10
4.99324469
 20
1.85257902
  0
VERTEX
  8
0
 10
4.99303692
 20
1.83875193
  0
VERTEX
  8
0
 10
4.99372815
 20
1.82490979
  0
VERTEX
  8
0
 10
4.99526782
 20
1.81109123
  0
VERTEX
  8
0
 10
4.99760538
 20
1.79733490
  0
VERTEX
  8
0
 10
5.00069026
 20
1.78367943
  0
VERTEX
  8
0
 10
5.00889978
 20
1.75682565
  0
VERTEX
  8
0
 10
5.01949192
 20
1.73083900
  0
VERTEX
  8
0
 10
5.03206222
 20
1.70602861
  0
VERTEX
  8
0
 10
5.00289798
 20
1.70599104
  0
VERTEX
  8
0
 10
4.97389770
 20
1.70454374
  0
VERTEX
  8
0
 10
4.94507482
 20
1.70175635
  0
VERTEX
  8
0
 10
4.91644276
 20
1.69769849
  0
VERTEX
  8
0
 10
4.88801493
 20
1.69243978
  0
VERTEX
  8
0
 10
4.85980476
 20
1.68604986
  0
VERTEX
  8
0
 10
4.83182568
 20
1.67859835
  0
VERTEX
  8
0
 10
4.80409111
 20
1.67015488
  0
VERTEX
  8
0
 10
4.77661448
 20
1.66078907
  0
VERTEX
  8
0
 10
4.74940920
 20
1.65057056
  0
VERTEX
  8
0
 10
4.72248870
 20
1.63956896
  0
VERTEX
  8
0
 10
4.69586640
 20
1.62785390
  0
VERTEX
  8
0
 10
4.64357011
 20
1.60256194
  0
VERTEX
  8
0
 10
4.59262771
 20
1.57525167
  0
VERTEX
  8
0
 10
4.55035454
 20
1.55004671
  0
VERTEX
  8
0
 10
4.50895077
 20
1.52357830
  0
VERTEX
  8
0
 10
4.46839657
 20
1.49590780
  0
VERTEX
  8
0
 10
4.42867212
 20
1.46709654
  0
VERTEX
  8
0
 10
4.38975759
 20
1.43720588
  0
VERTEX
  8
0
 10
4.35163318
 20
1.40629716
  0
VERTEX
  8
0
 10
4.31427905
 20
1.37443174
  0
VERTEX
  8
0
 10
4.27767538
 20
1.34167095
  0
VERTEX
  8
0
 10
4.24180236
 20
1.30807615
  0
VERTEX
  8
0
 10
4.20664016
 20
1.27370867
  0
VERTEX
  8
0
 10
4.17216896
 20
1.23862988
  0
VERTEX
  8
0
 10
4.13836893
 20
1.20290110
  0
VERTEX
  8
0
 10
4.10522026
 20
1.16658370
  0
VERTEX
  8
0
 10
4.07270312
 20
1.12973902
  0
VERTEX
  8
0
 10
4.00948416
 20
1.05471320
  0
VERTEX
  8
0
 10
3.95304405
 20
0.98363214
  0
VERTEX
  8
0
 10
3.89852288
 20
0.91108980
  0
VERTEX
  8
0
 10
3.84565570
 20
0.83732704
  0
VERTEX
  8
0
 10
3.79417753
 20
0.76258474
  0
VERTEX
  8
0
 10
3.78325202
 20
0.74512309
  0
VERTEX
  8
0
 10
3.77376772
 20
0.72689969
  0
VERTEX
  8
0
 10
3.75705127
 20
0.68926358
  0
VERTEX
  8
0
 10
3.74878337
 20
0.67039886
  0
VERTEX
  8
0
 10
3.73988519
 20
0.65186835
  0
VERTEX
  8
0
 10
3.72983886
 20
0.63394603
  0
VERTEX
  8
0
 10
3.71812650
 20
0.61690591
  0
VERTEX
  8
0
 10
3.70377934
 20
0.59696070
  0
VERTEX
  8
0
 10
3.68830850
 20
0.57806879
  0
VERTEX
  8
0
 10
3.67178460
 20
0.56022367
  0
VERTEX
  8
0
 10
3.65427826
 20
0.54341882
  0
VERTEX
  8
0
 10
3.63586014
 20
0.52764770
  0
VERTEX
  8
0
 10
3.61660084
 20
0.51290380
  0
VERTEX
  8
0
 10
3.59657101
 20
0.49918058
  0
VERTEX
  8
0
 10
3.57584127
 20
0.48647154
  0
VERTEX
  8
0
 10
3.55448226
 20
0.47477014
  0
VERTEX
  8
0
 10
3.53256460
 20
0.46406986
  0
VERTEX
  8
0
 10
3.51015893
 20
0.45436418
  0
VERTEX
  8
0
 10
3.48733587
 20
0.44564657
  0
VERTEX
  8
0
 10
3.46416606
 20
0.43791051
  0
VERTEX
  8
0
 10
3.44072012
 20
0.43114947
  0
VERTEX
  8
0
 10
3.41706869
 20
0.42535694
  0
VERTEX
  8
0
 10
3.39328240
 20
0.42052639
  0
VERTEX
  8
0
 10
3.35955564
 20
0.38160329
  0
VERTEX
  8
0
 10
3.32419823
 20
0.34410736
  0
VERTEX
  8
0
 10
3.28728369
 20
0.30810282
  0
VERTEX
  8
0
 10
3.24888554
 20
0.27365391
  0
VERTEX
  8
0
 10
3.20907728
 20
0.24082485
  0
VERTEX
  8
0
 10
3.16793244
 20
0.20967988
  0
VERTEX
  8
0
 10
3.12552454
 20
0.18028324
  0
VERTEX
  8
0
 10
3.08192708
 20
0.15269915
  0
VERTEX
  8
0
 10
3.03721359
 20
0.12699185
  0
VERTEX
  8
0
 10
2.99145757
 20
0.10322557
  0
VERTEX
  8
0
 10
2.94473255
 20
0.08146454
  0
VERTEX
  8
0
 10
2.89711205
 20
0.06177299
  0
VERTEX
  8
0
 10
2.84866957
 20
0.04421516
  0
VERTEX
  8
0
 10
2.79947863
 20
0.02885528
  0
VERTEX
  8
0
 10
2.74961276
 20
0.01575758
  0
VERTEX
  8
0
 10
2.69914546
 20
0.00498630
  0
VERTEX
  8
0
 10
2.34012978
 20
0.00498630
  0
VERTEX
  8
0
 10
2.29596525
 20
0.01341731
  0
VERTEX
  8
0
 10
2.25188013
 20
0.02332478
  0
VERTEX
  8
0
 10
2.20800803
 20
0.03475401
  0
VERTEX
  8
0
 10
2.16448257
 20
0.04775028
  0
VERTEX
  8
0
 10
2.12143734
 20
0.06235888
  0
VERTEX
  8
0
 10
2.07900595
 20
0.07862510
  0
VERTEX
  8
0
 10
2.03732202
 20
0.09659423
  0
VERTEX
  8
0
 10
1.99651914
 20
0.11631156
  0
VERTEX
  8
0
 10
1.95673094
 20
0.13782237
  0
VERTEX
  8
0
 10
1.91809102
 20
0.16117196
  0
VERTEX
  8
0
 10
1.88073298
 20
0.18640561
  0
VERTEX
  8
0
 10
1.84479043
 20
0.21356861
  0
VERTEX
  8
0
 10
1.81039699
 20
0.24270626
  0
VERTEX
  8
0
 10
1.77768626
 20
0.27386383
  0
VERTEX
  8
0
 10
1.74679184
 20
0.30708663
  0
VERTEX
  8
0
 10
1.71784736
 20
0.34241993
  0
VERTEX
  8
0
 10
1.71784736
 20
0.34353329
  0
VERTEX
  8
0
 10
1.73549651
 20
0.41073632
  0
VERTEX
  8
0
 10
1.75164424
 20
0.47829263
  0
VERTEX
  8
0
 10
1.76562414
 20
0.54629857
  0
VERTEX
  8
0
 10
1.77159289
 20
0.58050025
  0
VERTEX
  8
0
 10
1.77676978
 20
0.61485048
  0
VERTEX
  8
0
 10
1.77869407
 20
0.63085402
  0
VERTEX
  8
0
 10
1.77981546
 20
0.64701212
  0
VERTEX
  8
0
 10
1.78141591
 20
0.67944675
  0
VERTEX
  8
0
 10
1.78277817
 20
0.69555065
  0
VERTEX
  8
0
 10
1.78510392
 20
0.71146387
  0
VERTEX
  8
0
 10
1.78883474
 20
0.72710008
  0
VERTEX
  8
0
 10
1.79441224
 20
0.74237298
  0
VERTEX
  8
0
 10
1.80526470
 20
0.76766972
  0
VERTEX
  8
0
 10
1.81683500
 20
0.79262070
  0
VERTEX
  8
0
 10
1.82910032
 20
0.81722141
  0
VERTEX
  8
0
 10
1.84203781
 20
0.84146735
  0
VERTEX
  8
0
 10
1.86983801
 20
0.88887680
  0
VERTEX
  8
0
 10
1.90005295
 20
0.93481292
  0
VERTEX
  8
0
 10
1.93249996
 20
0.97923959
  0
VERTEX
  8
0
 10
1.96699638
 20
1.02212066
  0
VERTEX
  8
0
 10
2.00335955
 20
1.06342002
  0
VERTEX
  8
0
 10
2.04140681
 20
1.10310152
  0
VERTEX
  8
0
 10
2.07623986
 20
1.13660299
  0
VERTEX
  8
0
 10
2.11222759
 20
1.16874140
  0
VERTEX
  8
0
 10
2.14931028
 20
1.19953069
  0
VERTEX
  8
0
 10
2.18742821
 20
1.22898477
  0
VERTEX
  8
0
 10
2.22652168
 20
1.25711757
  0
VERTEX
  8
0
 10
2.26653095
 20
1.28394302
  0
VERTEX
  8
0
 10
2.30739632
 20
1.30947504
  0
VERTEX
  8
0
 10
2.34905807
 20
1.33372756
  0
VERTEX
  8
0
 10
2.39145648
 20
1.35671450
  0
VERTEX
  8
0
 10
2.43453184
 20
1.37844979
  0
VERTEX
  8
0
 10
2.47822443
 20
1.39894736
  0
VERTEX
  8
0
 10
2.52247454
 20
1.41822112
  0
VERTEX
  8
0
 10
2.56722245
 20
1.43628501
  0
VERTEX
  8
0
 10
2.61240845
 20
1.45315295
  0
VERTEX
  8
0
 10
2.65797281
 20
1.46883886
  0
VERTEX
  8
0
 10
2.70385582
 20
1.48335668
  0
VERTEX
  8
0
 10
2.71627841
 20
1.48693043
  0
VERTEX
  8
0
 10
2.72867893
 20
1.48802021
  0
VERTEX
  8
0
 10
2.74104331
 20
1.48711276
  0
VERTEX
  8
0
 10
2.75335751
 20
1.48469485
  0
VERTEX
  8
0
 10
2.77777916
 20
1.47727468
  0
VERTEX
  8
0
 10
2.80183148
 20
1.46965379
  0
VERTEX
  8
0
 10
2.87240135
 20
1.57593682
  0
VERTEX
  8
0
 10
2.92072714
 20
1.58355821
  0
VERTEX
  8
0
 10
2.96891856
 20
1.59213807
  0
VERTEX
  8
0
 10
3.01694564
 20
1.60168744
  0
VERTEX
  8
0
 10
3.06477840
 20
1.61221735
  0
VERTEX
  8
0
 10
3.11238684
 20
1.62373885
  0
VERTEX
  8
0
 10
3.15974099
 20
1.63626298
  0
VERTEX
  8
0
 10
3.20681086
 20
1.64980077
  0
VERTEX
  8
0
 10
3.25356646
 20
1.66436327
  0
VERTEX
  8
0
 10
3.29997783
 20
1.67996151
  0
VERTEX
  8
0
 10
3.34601496
 20
1.69660654
  0
VERTEX
  8
0
 10
3.39164788
 20
1.71430939
  0
VERTEX
  8
0
 10
3.43684661
 20
1.73308111
  0
VERTEX
  8
0
 10
3.48158116
 20
1.75293274
  0
VERTEX
  8
0
 10
3.52582155
 20
1.77387531
  0
VERTEX
  8
0
 10
3.56953779
 20
1.79591986
  0
VERTEX
  8
0
 10
3.61269990
 20
1.81907744
  0
VERTEX
  8
0
 10
3.65362572
 20
1.84251704
  0
VERTEX
  8
0
 10
3.69389604
 20
1.86729047
  0
VERTEX
  8
0
 10
3.73341339
 20
1.89339069
  0
VERTEX
  8
0
 10
3.77208028
 20
1.92081069
  0
VERTEX
  8
0
 10
3.80979925
 20
1.94954343
  0
VERTEX
  8
0
 10
3.84647282
 20
1.97958189
  0
VERTEX
  8
0
 10
3.88200350
 20
2.01091905
  0
VERTEX
  8
0
 10
3.91629382
 20
2.04354789
  0
VERTEX
  8
0
 10
3.94924630
 20
2.07746136
  0
VERTEX
  8
0
 10
3.98076347
 20
2.11265246
  0
VERTEX
  8
0
 10
4.01074784
 20
2.14911416
  0
VERTEX
  8
0
 10
4.03910194
 20
2.18683942
  0
VERTEX
  8
0
 10
4.06572829
 20
2.22582123
  0
VERTEX
  8
0
 10
4.09052942
 20
2.26605255
  0
VERTEX
  8
0
 10
4.11340785
 20
2.30752637
  0
VERTEX
  8
0
 10
4.13426609
 20
2.35023566
  0
VERTEX
  8
0
 10
4.13854105
 20
2.36388184
  0
VERTEX
  8
0
 10
4.14097435
 20
2.37779800
  0
VERTEX
  8
0
 10
4.14197246
 20
2.39191689
  0
VERTEX
  8
0
 10
4.14194185
 20
2.40617128
  0
VERTEX
  8
0
 10
4.14042035
 20
2.43481754
  0
VERTEX
  8
0
 10
4.13966160
 20
2.46319884
  0
VERTEX
  8
0
 10
4.13818025
 20
2.56446105
  0
VERTEX
  8
0
 10
4.13763829
 20
2.66578749
  0
VERTEX
  8
0
 10
4.13846478
 20
2.71641457
  0
VERTEX
  8
0
 10
4.14042035
 20
2.76698546
  0
VERTEX
  8
0
 10
4.14380308
 20
2.81747605
  0
VERTEX
  8
0
 10
4.14891105
 20
2.86786227
  0
VERTEX
  8
0
 10
4.10256026
 20
2.88841995
  0
VERTEX
  8
0
 10
4.05529918
 20
2.90681380
  0
VERTEX
  8
0
 10
4.00722918
 20
2.92296755
  0
VERTEX
  8
0
 10
3.95845161
 20
2.93680493
  0
VERTEX
  8
0
 10
3.90906785
 20
2.94824965
  0
VERTEX
  8
0
 10
3.85917927
 20
2.95722544
  0
VERTEX
  8
0
 10
3.80888723
 20
2.96365603
  0
VERTEX
  8
0
 10
3.75829309
 20
2.96746514
  0
VERTEX
  8
0
 10
3.76967500
 20
2.94435026
  0
VERTEX
  8
0
 10
3.77981693
 20
2.92076994
  0
VERTEX
  8
0
 10
3.78874748
 20
2.89677061
  0
VERTEX
  8
0
 10
3.79649524
 20
2.87239867
  0
VERTEX
  8
0
 10
3.80308884
 20
2.84770056
  0
VERTEX
  8
0
 10
3.80855686
 20
2.82272269
  0
VERTEX
  8
0
 10
3.81292792
 20
2.79751148
  0
VERTEX
  8
0
 10
3.81623062
 20
2.77211334
  0
VERTEX
  8
0
 10
3.81849355
 20
2.74657469
  0
VERTEX
  8
0
 10
3.81974533
 20
2.72094195
  0
VERTEX
  8
0
 10
3.82001455
 20
2.69526153
  0
VERTEX
  8
0
 10
3.81932982
 20
2.66957987
  0
VERTEX
  8
0
 10
3.81771975
 20
2.64394336
  0
VERTEX
  8
0
 10
3.81521294
 20
2.61839844
  0
VERTEX
  8
0
 10
3.81183798
 20
2.59299152
  0
VERTEX
  8
0
 10
3.80762349
 20
2.56776901
  0
VERTEX
  8
0
 10
3.74870107
 20
2.53997784
  0
VERTEX
  8
0
 10
3.71888658
 20
2.52686910
  0
VERTEX
  8
0
 10
3.68875093
 20
2.51449903
  0
VERTEX
  8
0
 10
3.65535014
 20
2.58575405
  0
VERTEX
  8
0
 10
3.64694642
 20
2.54587651
  0
VERTEX
  8
0
 10
3.63745074
 20
2.50619166
  0
VERTEX
  8
0
 10
3.55291369
 20
2.47459673
  0
VERTEX
  8
0
 10
3.46780256
 20
2.44457148
  0
VERTEX
  8
0
 10
3.38214546
 20
2.41613598
  0
VERTEX
  8
0
 10
3.29597048
 20
2.38931030
  0
VERTEX
  8
0
 10
3.20930573
 20
2.36411452
  0
VERTEX
  8
0
 10
3.12217931
 20
2.34056870
  0
VERTEX
  8
0
 10
3.03461933
 20
2.31869292
  0
VERTEX
  8
0
 10
2.94665388
 20
2.29850725
  0
VERTEX
  8
0
 10
2.85822241
 20
2.28050097
  0
VERTEX
  8
0
 10
2.76929514
 20
2.26448689
  0
VERTEX
  8
0
 10
2.67994636
 20
2.25081929
  0
VERTEX
  8
0
 10
2.59025031
 20
2.23985247
  0
VERTEX
  8
0
 10
2.54529528
 20
2.23549255
  0
VERTEX
  8
0
 10
2.50028128
 20
2.23194069
  0
VERTEX
  8
0
 10
2.45521761
 20
2.22924116
  0
VERTEX
  8
0
 10
2.41011353
 20
2.22743824
  0
VERTEX
  8
0
 10
2.36497835
 20
2.22657623
  0
VERTEX
  8
0
 10
2.31982133
 20
2.22669940
  0
VERTEX
  8
0
 10
2.27465177
 20
2.22785205
  0
VERTEX
  8
0
 10
2.22947895
 20
2.23007845
  0
VERTEX
  8
0
 10
2.24661325
 20
2.27275044
  0
VERTEX
  8
0
 10
2.26159777
 20
2.31622734
  0
VERTEX
  8
0
 10
2.27433818
 20
2.36039874
  0
VERTEX
  8
0
 10
2.28474013
 20
2.40515427
  0
VERTEX
  8
0
 10
2.29270929
 20
2.45038350
  0
VERTEX
  8
0
 10
2.29815130
 20
2.49597605
  0
VERTEX
  8
0
 10
2.30097183
 20
2.54182151
  0
VERTEX
  8
0
 10
2.30107655
 20
2.58780949
  0
VERTEX
  8
0
 10
2.33036647
 20
2.62064607
  0
VERTEX
  8
0
 10
2.35875714
 20
2.65425645
  0
VERTEX
  8
0
 10
2.38624856
 20
2.68860350
  0
VERTEX
  8
0
 10
2.41284073
 20
2.72365007
  0
VERTEX
  8
0
 10
2.43853365
 20
2.75935904
  0
VERTEX
  8
0
 10
2.46332731
 20
2.79569328
  0
VERTEX
  8
0
 10
2.48722172
 20
2.83261564
  0
VERTEX
  8
0
 10
2.51021688
 20
2.87008899
  0
VERTEX
  8
0
 10
2.53633400
 20
2.91621965
  0
VERTEX
  8
0
 10
2.56070881
 20
2.96343323
  0
VERTEX
  8
0
 10
2.58302017
 20
3.01168054
  0
VERTEX
  8
0
 10
2.60294690
 20
3.06091242
  0
VERTEX
  8
0
 10
2.61191566
 20
3.08588220
  0
VERTEX
  8
0
 10
2.62016784
 20
3.11107967
  0
VERTEX
  8
0
 10
2.62766328
 20
3.13649870
  0
VERTEX
  8
0
 10
2.63436184
 20
3.16213314
  0
VERTEX
  8
0
 10
2.64022337
 20
3.18797683
  0
VERTEX
  8
0
 10
2.64520773
 20
3.21402363
  0
VERTEX
  8
0
 10
2.64927477
 20
3.24026739
  0
VERTEX
  8
0
 10
2.65238435
 20
3.26670197
  0
VERTEX
  8
0
 10
2.73074941
 20
3.31240006
  0
VERTEX
  8
0
 10
2.80867489
 20
3.35886594
  0
VERTEX
  8
0
 10
2.88607447
 20
3.40620095
  0
VERTEX
  8
0
 10
2.96286183
 20
3.45450648
  0
VERTEX
  8
0
 10
3.03895066
 20
3.50388388
  0
VERTEX
  8
0
 10
3.11425466
 20
3.55443452
  0
VERTEX
  8
0
 10
3.18868750
 20
3.60625978
  0
VERTEX
  8
0
 10
3.26216288
 20
3.65946101
  0
VERTEX
  8
0
 10
3.28336356
 20
3.67573319
  0
VERTEX
  8
0
 10
3.30465254
 20
3.69245499
  0
VERTEX
  8
0
 10
3.31578932
 20
3.69985040
  0
VERTEX
  8
0
 10
3.32749917
 20
3.70599730
  0
VERTEX
  8
0
 10
3.33996575
 20
3.71044204
  0
VERTEX
  8
0
 10
3.35337274
 20
3.71273099
  0
VERTEX
  8
0
 10
3.48855862
 20
3.72811930
  0
VERTEX
  8
0
 10
3.55634464
 20
3.73478951
  0
VERTEX
  8
0
 10
3.62423227
 20
3.74067738
  0
VERTEX
  8
0
 10
3.69220120
 20
3.74570816
  0
VERTEX
  8
0
 10
3.76023110
 20
3.74980707
  0
VERTEX
  8
0
 10
3.82830164
 20
3.75289933
  0
VERTEX
  8
0
 10
3.89639251
 20
3.75491019
  0
VERTEX
  8
0
 10
3.96448338
 20
3.75576486
  0
VERTEX
  8
0
 10
4.03255393
 20
3.75538859
  0
VERTEX
  8
0
 10
4.10058383
 20
3.75370659
  0
VERTEX
  8
0
 10
4.16855275
 20
3.75064410
  0
VERTEX
  8
0
 10
4.23644039
 20
3.74612634
  0
VERTEX
  8
0
 10
4.30422640
 20
3.74007855
  0
VERTEX
  8
0
 10
4.37189048
 20
3.73242596
  0
VERTEX
  8
0
 10
4.43941229
 20
3.72309380
  0
VERTEX
  8
0
 10
4.47258425
 20
3.79848912
  0
VERTEX
  8
0
 10
4.50663138
 20
3.87361146
  0
VERTEX
  8
0
 10
4.52466811
 20
3.91065375
  0
VERTEX
  8
0
 10
4.54374560
 20
3.94712799
  0
VERTEX
  8
0
 10
4.56413785
 20
3.98286757
  0
VERTEX
  8
0
 10
4.58611884
 20
4.01770590
  0
VERTEX
  8
0
 10
4.54755120
 20
4.12221016
  0
VERTEX
  8
0
 10
4.51003435
 20
4.22712190
  0
VERTEX
  8
0
 10
4.47378409
 20
4.33247924
  0
VERTEX
  8
0
 10
4.43901619
 20
4.43832034
  0
VERTEX
  8
0
 10
4.40594643
 20
4.54468333
  0
VERTEX
  8
0
 10
4.37479059
 20
4.65160634
  0
VERTEX
  8
0
 10
4.34576446
 20
4.75912751
  0
VERTEX
  8
0
 10
4.31908380
 20
4.86728498
  0
VERTEX
  8
0
 10
4.29690894
 20
4.97163569
  0
VERTEX
  8
0
 10
4.28702235
 20
5.02411615
  0
VERTEX
  8
0
 10
4.27837123
 20
5.07678930
  0
VERTEX
  8
0
 10
4.27128176
 20
5.12964712
  0
VERTEX
  8
0
 10
4.26608012
 20
5.18268158
  0
VERTEX
  8
0
 10
4.26309248
 20
5.23588465
  0
VERTEX
  8
0
 10
4.26264503
 20
5.28924830
  0
VERTEX
  8
0
 10
4.26208735
 20
5.30789072
  0
VERTEX
  8
0
 10
4.25986966
 20
5.32628625
  0
VERTEX
  8
0
 10
4.25642754
 20
5.34450112
  0
VERTEX
  8
0
 10
4.25219658
 20
5.36260158
  0
VERTEX
  8
0
 10
4.24311038
 20
5.39872421
  0
VERTEX
  8
0
 10
4.23912631
 20
5.41687887
  0
VERTEX
  8
0
 10
4.23609568
 20
5.43518407
  0
VERTEX
  8
0
 10
4.23161032
 20
5.46442038
  0
VERTEX
  8
0
 10
4.22804942
 20
5.49392115
  0
VERTEX
  8
0
 10
4.22546630
 20
5.52361763
  0
VERTEX
  8
0
 10
4.22391430
 20
5.55344106
  0
VERTEX
  8
0
 10
4.22344671
 20
5.58332271
  0
VERTEX
  8
0
 10
4.22411686
 20
5.61319382
  0
VERTEX
  8
0
 10
4.22597807
 20
5.64298564
  0
VERTEX
  8
0
 10
4.22908366
 20
5.67262943
  0
VERTEX
  8
0
 10
4.23348694
 20
5.70205643
  0
VERTEX
  8
0
 10
4.23924122
 20
5.73119790
  0
VERTEX
  8
0
 10
4.24639984
 20
5.75998509
  0
VERTEX
  8
0
 10
4.25501611
 20
5.78834925
  0
VERTEX
  8
0
 10
4.26514333
 20
5.81622163
  0
VERTEX
  8
0
 10
4.27683484
 20
5.84353349
  0
VERTEX
  8
0
 10
4.29014396
 20
5.87021607
  0
VERTEX
  8
0
 10
4.30512398
 20
5.89620062
  0
VERTEX
  8
0
 10
4.31932193
 20
5.91756001
  0
VERTEX
  8
0
 10
4.33451511
 20
5.93809730
  0
VERTEX
  8
0
 10
4.35064692
 20
5.95782542
  0
VERTEX
  8
0
 10
4.36766081
 20
5.97675728
  0
VERTEX
  8
0
 10
4.38550018
 20
5.99490581
  0
VERTEX
  8
0
 10
4.40410845
 20
6.01228392
  0
VERTEX
  8
0
 10
4.42342905
 20
6.02890455
  0
VERTEX
  8
0
 10
4.44340540
 20
6.04478061
  0
VERTEX
  8
0
 10
4.46398091
 20
6.05992503
  0
VERTEX
  8
0
 10
4.48509901
 20
6.07435072
  0
VERTEX
  8
0
 10
4.50670312
 20
6.08807060
  0
VERTEX
  8
0
 10
4.52873666
 20
6.10109761
  0
VERTEX
  8
0
 10
4.55114304
 20
6.11344466
  0
VERTEX
  8
0
 10
4.57386569
 20
6.12512467
  0
VERTEX
  8
0
 10
4.62003349
 20
6.14653526
  0
VERTEX
  8
0
 10
4.67927021
 20
6.17088934
  0
VERTEX
  8
0
 10
4.73947745
 20
6.19255770
  0
VERTEX
  8
0
 10
4.80052572
 20
6.21172100
  0
VERTEX
  8
0
 10
4.86228557
 20
6.22855990
  0
VERTEX
  8
0
 10
4.92462752
 20
6.24325504
  0
VERTEX
  8
0
 10
4.98742211
 20
6.25598709
  0
VERTEX
  8
0
 10
5.05053987
 20
6.26693668
  0
VERTEX
  8
0
 10
5.11385133
 20
6.27628449
  0
VERTEX
  8
0
 10
5.20041070
 20
6.28635993
  0
VERTEX
  8
0
 10
5.28720090
 20
6.29382793
  0
VERTEX
  8
0
 10
5.37416373
 20
6.29885110
  0
VERTEX
  8
0
 10
5.46124096
 20
6.30159201
  0
VERTEX
  8
0
 10
5.54837441
 20
6.30221326
  0
VERTEX
  8
0
 10
5.63550584
 20
6.30087743
  0
VERTEX
  8
0
 10
5.72257706
 20
6.29774711
  0
VERTEX
  8
0
 10
5.80952985
 20
6.29298488
  0
VERTEX
  8
0
 10
5.87678373
 20
6.28796540
  0
VERTEX
  8
0
 10
5.94411791
 20
6.28282548
  0
VERTEX
  8
0
 10
5.97779001
 20
6.28130682
  0
VERTEX
  8
0
 10
6.01145208
 20
6.28107381
  0
VERTEX
  8
0
 10
6.04509408
 20
6.28256503
  0
VERTEX
  8
0
 10
6.07870597
 20
6.28621908
  0
VERTEX
  8
0
 10
6.10893194
 20
6.29089566
  0
VERTEX
  8
0
 10
6.13918602
 20
6.29739282
  0
VERTEX
  8
0
 10
6.16901456
 20
6.30597352
  0
VERTEX
  8
0
 10
6.19796392
 20
6.31690071
  0
VERTEX
  8
0
 10
6.21196714
 20
6.32332640
  0
VERTEX
  8
0
 10
6.22558046
 20
6.33043733
  0
VERTEX
  8
0
 10
6.23874716
 20
6.33826635
  0
VERTEX
  8
0
 10
6.25141053
 20
6.34684634
  0
VERTEX
  8
0
 10
6.26351389
 20
6.35621016
  0
VERTEX
  8
0
 10
6.27500051
 20
6.36639068
  0
VERTEX
  8
0
 10
6.28581370
 20
6.37742078
  0
VERTEX
  8
0
 10
6.29589675
 20
6.38933332
  0
VERTEX
  8
0
 10
6.30351164
 20
6.39966347
  0
VERTEX
  8
0
 10
6.31023544
 20
6.41039582
  0
VERTEX
  8
0
 10
6.31611844
 20
6.42149300
  0
VERTEX
  8
0
 10
6.32121096
 20
6.43291760
  0
VERTEX
  8
0
 10
6.32556330
 20
6.44463226
  0
VERTEX
  8
0
 10
6.32922578
 20
6.45659958
  0
VERTEX
  8
0
 10
6.33468235
 20
6.48114267
  0
VERTEX
  8
0
 10
6.33798312
 20
6.50624779
  0
VERTEX
  8
0
 10
6.33953055
 20
6.53161587
  0
VERTEX
  8
0
 10
6.33972709
 20
6.55694781
  0
VERTEX
  8
0
 10
6.33897520
 20
6.58194454
  0
VERTEX
  8
0
 10
6.33625292
 20
6.61303074
  0
VERTEX
  8
0
 10
6.33191417
 20
6.64383052
  0
VERTEX
  8
0
 10
6.32601653
 20
6.67430637
  0
VERTEX
  8
0
 10
6.31861758
 20
6.70442080
  0
VERTEX
  8
0
 10
6.30977492
 20
6.73413628
  0
VERTEX
  8
0
 10
6.29954611
 20
6.76341532
  0
VERTEX
  8
0
 10
6.28798875
 20
6.79222038
  0
VERTEX
  8
0
 10
6.27516042
 20
6.82051397
  0
VERTEX
  8
0
 10
6.26111871
 20
6.84825858
  0
VERTEX
  8
0
 10
6.24592118
 20
6.87541669
  0
VERTEX
  8
0
 10
6.22962544
 20
6.90195079
  0
VERTEX
  8
0
 10
6.21228906
 20
6.92782338
  0
VERTEX
  8
0
 10
6.19396962
 20
6.95299694
  0
VERTEX
  8
0
 10
6.17472471
 20
6.97743396
  0
VERTEX
  8
0
 10
6.15461191
 20
7.00109693
  0
VERTEX
  8
0
 10
6.13368881
 20
7.02394834
  0
VERTEX
  8
0
 10
6.09462621
 20
7.06255328
  0
VERTEX
  8
0
 10
6.07457754
 20
7.08146685
  0
VERTEX
  8
0
 10
6.05403006
 20
7.09981738
  0
VERTEX
  8
0
 10
6.03286837
 20
7.11737705
  0
VERTEX
  8
0
 10
6.01097703
 20
7.13391803
  0
VERTEX
  8
0
 10
5.98824064
 20
7.14921251
  0
VERTEX
  8
0
 10
5.96454378
 20
7.16303266
  0
VERTEX
  8
0
 10
5.92641459
 20
7.17754451
  0
VERTEX
  8
0
 10
5.88869514
 20
7.19323287
  0
VERTEX
  8
0
 10
5.85144389
 20
7.21009398
  0
VERTEX
  8
0
 10
5.81471928
 20
7.22812405
  0
VERTEX
  8
0
 10
5.77857980
 20
7.24731935
  0
VERTEX
  8
0
 10
5.74308389
 20
7.26767609
  0
VERTEX
  8
0
 10
5.70829002
 20
7.28919052
  0
VERTEX
  8
0
 10
5.67425665
 20
7.31185887
  0
VERTEX
  8
0
 10
5.64104224
 20
7.33567739
  0
VERTEX
  8
0
 10
5.60870525
 20
7.36064229
  0
VERTEX
  8
0
 10
5.57730415
 20
7.38674983
  0
VERTEX
  8
0
 10
5.54689740
 20
7.41399624
  0
VERTEX
  8
0
 10
5.51754345
 20
7.44237776
  0
VERTEX
  8
0
 10
5.48930077
 20
7.47189061
  0
VERTEX
  8
0
 10
5.46222783
 20
7.50253105
  0
VERTEX
  8
0
 10
5.43638307
 20
7.53429529
  0
VERTEX
  8
0
 10
5.41616644
 20
7.56112181
  0
VERTEX
  8
0
 10
5.39702055
 20
7.58870807
  0
VERTEX
  8
0
 10
5.37896034
 20
7.61700892
  0
VERTEX
  8
0
 10
5.36200074
 20
7.64597919
  0
VERTEX
  8
0
 10
5.34615667
 20
7.67557371
  0
VERTEX
  8
0
 10
5.33144306
 20
7.70574733
  0
VERTEX
  8
0
 10
5.31787485
 20
7.73645488
  0
VERTEX
  8
0
 10
5.30546696
 20
7.76765120
  0
VERTEX
  8
0
 10
5.29423431
 20
7.79929112
  0
VERTEX
  8
0
 10
5.28419185
 20
7.83132949
  0
VERTEX
  8
0
 10
5.27535450
 20
7.86372113
  0
VERTEX
  8
0
 10
5.26773718
 20
7.89642088
  0
VERTEX
  8
0
 10
5.26135483
 20
7.92938359
  0
VERTEX
  8
0
 10
5.25622237
 20
7.96256408
  0
VERTEX
  8
0
 10
5.25235474
 20
7.99591720
  0
VERTEX
  8
0
 10
5.24976686
 20
8.02939778
  0
VERTEX
  8
0
 10
5.24779707
 20
8.05125549
  0
VERTEX
  8
0
 10
5.24499226
 20
8.07348254
  0
VERTEX
  8
0
 10
5.24238349
 20
8.08416752
  0
VERTEX
  8
0
 10
5.23849409
 20
8.09426437
  0
VERTEX
  8
0
 10
5.23296677
 20
8.10354627
  0
VERTEX
  8
0
 10
5.22544423
 20
8.11178640
  0
VERTEX
  8
0
 10
5.21812208
 20
8.11650028
  0
VERTEX
  8
0
 10
5.21033626
 20
8.11892287
  0
VERTEX
  8
0
 10
5.20225738
 20
8.11939642
  0
VERTEX
  8
0
 10
5.19405605
 20
8.11826315
  0
VERTEX
  8
0
 10
5.18590290
 20
8.11586532
  0
VERTEX
  8
0
 10
5.17796854
 20
8.11254514
  0
VERTEX
  8
0
 10
5.16343866
 20
8.10450674
  0
VERTEX
  8
0
 10
5.15129976
 20
8.09583019
  0
VERTEX
  8
0
 10
5.14085298
 20
8.08562914
  0
VERTEX
  8
0
 10
5.13174304
 20
8.07423376
  0
VERTEX
  8
0
 10
5.12361464
 20
8.06197426
  0
VERTEX
  8
0
 10
5.10888136
 20
8.03618366
  0
VERTEX
  8
0
 10
5.10156590
 20
8.02331294
  0
VERTEX
  8
0
 10
5.09381086
 20
8.01089888
  0
VERTEX
  8
0
 10
5.07721329
 20
7.98570678
  0
VERTEX
  8
0
 10
5.05989587
 20
7.96096229
  0
VERTEX
  8
0
 10
5.04186738
 20
7.93670155
  0
VERTEX
  8
0
 10
5.02313660
 20
7.91296070
  0
VERTEX
  8
0
 10
5.00371232
 20
7.88977585
  0
VERTEX
  8
0
 10
4.98360330
 20
7.86718315
  0
VERTEX
  8
0
 10
4.96281834
 20
7.84521872
  0
VERTEX
  8
0
 10
4.94136622
 20
7.82391869
  0
VERTEX
  8
0
 10
4.91925572
 20
7.80331919
  0
VERTEX
  8
0
 10
4.89649562
 20
7.78345636
  0
VERTEX
  8
0
 10
4.87309470
 20
7.76436632
  0
VERTEX
  8
0
 10
4.84906175
 20
7.74608521
  0
VERTEX
  8
0
 10
4.82440554
 20
7.72864915
  0
VERTEX
  8
0
 10
4.79913486
 20
7.71209429
  0
VERTEX
  8
0
 10
4.77325849
 20
7.69645673
  0
VERTEX
  8
0
 10
4.74678521
 20
7.68177263
  0
VERTEX
  8
0
 10
4.72379291
 20
7.66995150
  0
VERTEX
  8
0
 10
4.70040832
 20
7.65899124
  0
VERTEX
  8
0
 10
4.67666067
 20
7.64888959
  0
VERTEX
  8
0
 10
4.65257919
 20
7.63964428
  0
VERTEX
  8
0
 10
4.62819310
 20
7.63125306
  0
VERTEX
  8
0
 10
4.60353164
 20
7.62371367
  0
VERTEX
  8
0
 10
4.57862405
 20
7.61702385
  0
VERTEX
  8
0
 10
4.55349954
 20
7.61118134
  0
VERTEX
  8
0
 10
4.52818736
 20
7.60618390
  0
VERTEX
  8
0
 10
4.50271672
 20
7.60202925
  0
VERTEX
  8
0
 10
4.47711687
 20
7.59871514
  0
VERTEX
  8
0
 10
4.45141704
 20
7.59623931
  0
VERTEX
  8
0
 10
4.42564644
 20
7.59459950
  0
VERTEX
  8
0
 10
4.39983433
 20
7.59379346
  0
VERTEX
  8
0
 10
4.37400991
 20
7.59381893
  0
VERTEX
  8
0
 10
4.34820244
 20
7.59467364
  0
VERTEX
  8
0
 10
4.30975808
 20
7.55723157
  0
VERTEX
  8
0
 10
4.27278303
 20
7.51834427
  0
VERTEX
  8
0
 10
4.23746196
 20
7.47794752
  0
VERTEX
  8
0
 10
4.20397954
 20
7.43597707
  0
VERTEX
  8
0
 10
4.18094306
 20
7.40391545
  0
VERTEX
  8
0
 10
4.15884699
 20
7.37068762
  0
VERTEX
  8
0
 10
4.13835873
 20
7.33630762
  0
VERTEX
  8
0
 10
4.12014569
 20
7.30078951
  0
VERTEX
  8
0
 10
4.11210096
 20
7.28260805
  0
VERTEX
  8
0
 10
4.10487530
 20
7.26414733
  0
VERTEX
  8
0
 10
4.09855217
 20
7.24540911
  0
VERTEX
  8
0
 10
4.09321497
 20
7.22639514
  0
VERTEX
  8
0
 10
4.08894714
 20
7.20710717
  0
VERTEX
  8
0
 10
4.08583210
 20
7.18754698
  0
VERTEX
  8
0
 10
4.08395329
 20
7.16771630
  0
VERTEX
  8
0
 10
4.08339412
 20
7.14761691
  0
VERTEX
  8
0
 10
4.08463444
 20
7.12577592
  0
VERTEX
  8
0
 10
4.08862771
 20
7.10456522
  0
VERTEX
  8
0
 10
4.09510798
 20
7.08406909
  0
VERTEX
  8
0
 10
4.10380928
 20
7.06437186
  0
VERTEX
  8
0
 10
4.11446565
 20
7.04555782
  0
VERTEX
  8
0
 10
4.12681113
 20
7.02771128
  0
VERTEX
  8
0
 10
4.14057976
 20
7.01091655
  0
VERTEX
  8
0
 10
4.15550557
 20
6.99525792
  0
VERTEX
  8
0
 10
4.00853139
 20
6.92500920
  0
VERTEX
  8
0
 10
3.86174990
 20
6.85437510
  0
VERTEX
  8
0
 10
3.82338181
 20
6.83536234
  0
VERTEX
  8
0
 10
3.80382040
 20
6.82672310
  0
VERTEX
  8
0
 10
3.79376972
 20
6.82312609
  0
VERTEX
  8
0
 10
3.78347215
 20
6.82020352
  0
VERTEX
  8
0
 10
3.70360197
 20
6.84144969
  0
VERTEX
  8
0
 10
3.62413325
 20
6.86434181
  0
VERTEX
  8
0
 10
3.54479299
 20
6.88773173
  0
VERTEX
  8
0
 10
3.46530821
 20
6.91047130
  0
VERTEX
  8
0
 10
3.53276014
 20
6.95223031
  0
VERTEX
  8
0
 10
3.56599533
 20
6.97394986
  0
VERTEX
  8
0
 10
3.59871867
 20
6.99641410
  0
VERTEX
  8
0
 10
3.63079166
 20
7.01976153
  0
VERTEX
  8
0
 10
3.66207580
 20
7.04413066
  0
VERTEX
  8
0
 10
3.69243258
 20
7.06965999
  0
VERTEX
  8
0
 10
3.72172351
 20
7.09648801
  0
VERTEX
  8
0
 10
3.74338049
 20
7.11919546
  0
VERTEX
  8
0
 10
3.75375334
 20
7.13111774
  0
VERTEX
  8
0
 10
3.76349591
 20
7.14351675
  0
VERTEX
  8
0
 10
3.77236331
 20
7.15646574
  0
VERTEX
  8
0
 10
3.78011066
 20
7.17003799
  0
VERTEX
  8
0
 10
3.78649307
 20
7.18430676
  0
VERTEX
  8
0
 10
3.79126567
 20
7.19934531
  0
VERTEX
  8
0
 10
3.79271135
 20
7.20586562
  0
VERTEX
  8
0
 10
3.79332076
 20
7.21238631
  0
VERTEX
  8
0
 10
3.79313881
 20
7.21885756
  0
VERTEX
  8
0
 10
3.79221042
 20
7.22522959
  0
VERTEX
  8
0
 10
3.78829392
 20
7.23747671
  0
VERTEX
  8
0
 10
3.78193057
 20
7.24872924
  0
VERTEX
  8
0
 10
3.77347968
 20
7.25858873
  0
VERTEX
  8
0
 10
3.76330053
 20
7.26665674
  0
VERTEX
  8
0
 10
3.75175244
 20
7.27253483
  0
VERTEX
  8
0
 10
3.73919469
 20
7.27582456
  0
VERTEX
  8
0
 10
3.72696178
 20
7.27681966
  0
VERTEX
  8
0
 10
3.71489347
 20
7.27609353
  0
VERTEX
  8
0
 10
3.70303392
 20
7.27385995
  0
VERTEX
  8
0
 10
3.69142728
 20
7.27033270
  0
VERTEX
  8
0
 10
3.68011771
 20
7.26572554
  0
VERTEX
  8
0
 10
3.66914938
 20
7.26025224
  0
VERTEX
  8
0
 10
3.64841305
 20
7.24756235
  0
VERTEX
  8
0
 10
3.63193446
 20
7.23518726
  0
VERTEX
  8
0
 10
3.61617647
 20
7.22196311
  0
VERTEX
  8
0
 10
3.60107285
 20
7.20799626
  0
VERTEX
  8
0
 10
3.58655736
 20
7.19339312
  0
VERTEX
  8
0
 10
3.55902579
 20
7.16270347
  0
VERTEX
  8
0
 10
3.53305186
 20
7.13074523
  0
VERTEX
  8
0
 10
3.51478999
 20
7.10615716
  0
VERTEX
  8
0
 10
3.49734406
 20
7.08103629
  0
VERTEX
  8
0
 10
3.48069703
 20
7.05541185
  0
VERTEX
  8
0
 10
3.46483182
 20
7.02931307
  0
VERTEX
  8
0
 10
3.44973137
 20
7.00276919
  0
VERTEX
  8
0
 10
3.43537864
 20
6.97580942
  0
VERTEX
  8
0
 10
3.42175654
 20
6.94846300
  0
VERTEX
  8
0
 10
3.40884802
 20
6.92075917
  0
VERTEX
  8
0
 10
3.39663603
 20
6.89272715
  0
VERTEX
  8
0
 10
3.38510349
 20
6.86439617
  0
VERTEX
  8
0
 10
3.36400853
 20
6.80695427
  0
VERTEX
  8
0
 10
3.34542667
 20
6.74866731
  0
VERTEX
  8
0
 10
3.32922140
 20
6.68976915
  0
VERTEX
  8
0
 10
3.02493163
 20
6.97958524
  0
VERTEX
  8
0
 10
3.03500757
 20
6.99198174
  0
VERTEX
  8
0
 10
3.04402066
 20
7.00521125
  0
VERTEX
  8
0
 10
3.05175112
 20
7.01917541
  0
VERTEX
  8
0
 10
3.05797914
 20
7.03377588
  0
VERTEX
  8
0
 10
3.06248494
 20
7.04891429
  0
VERTEX
  8
0
 10
3.06504871
 20
7.06449230
  0
VERTEX
  8
0
 10
3.06545066
 20
7.08041153
  0
VERTEX
  8
0
 10
3.06347100
 20
7.09657365
  0
VERTEX
  8
0
 10
3.05974204
 20
7.11467367
  0
VERTEX
  8
0
 10
3.05481185
 20
7.13227928
  0
VERTEX
  8
0
 10
3.04876789
 20
7.14941192
  0
VERTEX
  8
0
 10
3.04169759
 20
7.16609306
  0
VERTEX
  8
0
 10
3.03368840
 20
7.18234414
  0
VERTEX
  8
0
 10
3.02482775
 20
7.19818662
  0
VERTEX
  8
0
 10
3.01520309
 20
7.21364195
  0
VERTEX
  8
0
 10
3.00490186
 20
7.22873159
  0
VERTEX
  8
0
 10
2.98261944
 20
7.25789957
  0
VERTEX
  8
0
 10
2.95868004
 20
7.28586219
  0
VERTEX
  8
0
 10
2.93378317
 20
7.31279108
  0
VERTEX
  8
0
 10
2.90862836
 20
7.33885785
  0
VERTEX
  8
0
 10
2.94987620
 20
7.39007239
  0
VERTEX
  8
0
 10
2.97141141
 20
7.41487676
  0
VERTEX
  8
0
 10
2.99401449
 20
7.43871765
  0
VERTEX
  8
0
 10
3.02213752
 20
7.46701197
  0
VERTEX
  8
0
 10
3.03523957
 20
7.48199014
  0
VERTEX
  8
0
 10
3.04659932
 20
7.49832521
  0
VERTEX
  8
0
 10
3.10748501
 20
7.60602168
  0
VERTEX
  8
0
 10
3.16942350
 20
7.71314207
  0
VERTEX
  8
0
 10
3.23256836
 20
7.81955992
  0
VERTEX
  8
0
 10
3.29707313
 20
7.92514878
  0
VERTEX
  8
0
 10
3.36309138
 20
8.02978217
  0
VERTEX
  8
0
 10
3.43077666
 20
8.13333366
  0
VERTEX
  8
0
 10
3.50028252
 20
8.23567677
  0
VERTEX
  8
0
 10
3.57176252
 20
8.33668506
  0
VERTEX
  8
0
 10
3.50770152
 20
8.36537548
  0
VERTEX
  8
0
 10
3.73081238
 20
8.62971276
  0
VERTEX
  8
0
 10
3.95424440
 20
8.89379311
  0
VERTEX
  8
0
 10
3.96200446
 20
8.90446287
  0
VERTEX
  8
0
 10
3.96824703
 20
8.91586627
  0
VERTEX
  8
0
 10
3.97333343
 20
8.92782970
  0
VERTEX
  8
0
 10
3.97762495
 20
8.94017953
  0
VERTEX
  8
0
 10
3.98526859
 20
8.96534387
  0
VERTEX
  8
0
 10
3.98934333
 20
8.97781112
  0
VERTEX
  8
0
 10
3.99406842
 20
8.98997026
  0
VERTEX
  8
0
 10
4.01102791
 20
9.02741936
  0
VERTEX
  8
0
 10
4.03034494
 20
9.06360991
  0
VERTEX
  8
0
 10
4.05179167
 20
9.09857602
  0
VERTEX
  8
0
 10
4.07514027
 20
9.13235184
  0
VERTEX
  8
0
 10
4.10016293
 20
9.16497147
  0
VERTEX
  8
0
 10
4.12663182
 20
9.19646905
  0
VERTEX
  8
0
 10
4.15431911
 20
9.22687869
  0
VERTEX
  8
0
 10
4.18299699
 20
9.25623451
  0
VERTEX
  8
0
 10
4.22573020
 20
9.29635695
  0
VERTEX
  8
0
 10
4.27018162
 20
9.33446409
  0
VERTEX
  8
0
 10
4.31617461
 20
9.37068441
  0
VERTEX
  8
0
 10
4.36353255
 20
9.40514637
  0
VERTEX
  8
0
 10
4.41207877
 20
9.43797844
  0
VERTEX
  8
0
 10
4.46163666
 20
9.46930908
  0
VERTEX
  8
0
 10
4.51202957
 20
9.49926675
  0
VERTEX
  8
0
 10
4.56308086
 20
9.52797992
  0
VERTEX
  8
0
 10
4.57178701
 20
9.57445466
  0
VERTEX
  8
0
 10
4.58144059
 20
9.62073670
  0
VERTEX
  8
0
 10
4.59200948
 20
9.66681802
  0
VERTEX
  8
0
 10
4.60346156
 20
9.71269058
  0
VERTEX
  8
0
 10
4.61576472
 20
9.75834635
  0
VERTEX
  8
0
 10
4.62888684
 20
9.80377731
  0
VERTEX
  8
0
 10
4.64279581
 20
9.84897544
  0
VERTEX
  8
0
 10
4.65745950
 20
9.89393269
  0
VERTEX
  8
0
 10
4.67336306
 20
9.93971019
  0
VERTEX
  8
0
 10
4.69006575
 20
9.98525862
  0
VERTEX
  8
0
 10
4.70759193
 20
10.03053557
  0
VERTEX
  8
0
 10
4.72596592
 20
10.07549863
  0
VERTEX
  8
0
 10
4.74521206
 20
10.12010541
  0
VERTEX
  8
0
 10
4.76535469
 20
10.16431349
  0
VERTEX
  8
0
 10
4.78641816
 20
10.20808048
  0
VERTEX
  8
0
 10
4.80842679
 20
10.25136397
  0
VERTEX
  8
0
 10
4.83140493
 20
10.29412155
  0
VERTEX
  8
0
 10
4.85537692
 20
10.33631084
  0
VERTEX
  8
0
 10
4.88036708
 20
10.37788941
  0
VERTEX
  8
0
 10
4.90639977
 20
10.41881487
  0
VERTEX
  8
0
 10
4.93349931
 20
10.45904482
  0
VERTEX
  8
0
 10
4.96169006
 20
10.49853684
  0
VERTEX
  8
0
 10
4.99099633
 20
10.53724855
  0
VERTEX
  8
0
 10
5.02144248
 20
10.57513753
  0
VERTEX
  8
0
 10
5.04947329
 20
10.60793846
  0
VERTEX
  8
0
 10
5.07853645
 20
10.63994239
  0
VERTEX
  8
0
 10
5.10861052
 20
10.67107893
  0
VERTEX
  8
0
 10
5.13967405
 20
10.70127770
  0
VERTEX
  8
0
 10
5.17170558
 20
10.73046833
  0
VERTEX
  8
0
 10
5.20468365
 20
10.75858043
  0
VERTEX
  8
0
 10
5.23858682
 20
10.78554363
  0
VERTEX
  8
0
 10
5.27339363
 20
10.81128754
  0
VERTEX
  8
0
 10
5.30908264
 20
10.83574179
  0
VERTEX
  8
0
 10
5.34563238
 20
10.85883600
  0
VERTEX
  8
0
 10
5.38302140
 20
10.88049978
  0
VERTEX
  8
0
 10
5.42122826
 20
10.90066276
  0
VERTEX
  8
0
 10
5.46023150
 20
10.91925456
  0
VERTEX
  8
0
 10
5.50000967
 20
10.93620479
  0
VERTEX
  8
0
 10
5.54054131
 20
10.95144309
  0
VERTEX
  8
0
 10
5.58180497
 20
10.96489906
  0
VERTEX
  8
0
 10
5.62252797
 20
10.97572087
  0
VERTEX
  8
0
 10
5.66349021
 20
10.98455950
  0
VERTEX
  8
0
 10
5.70466597
 20
10.99157554
  0
VERTEX
  8
0
 10
5.74602954
 20
10.99692956
  0
VERTEX
  8
0
 10
5.78755519
 20
11.00078216
  0
VERTEX
  8
0
 10
5.82921721
 20
11.00329391
  0
VERTEX
  8
0
 10
5.87098989
 20
11.00462540
  0
VERTEX
  8
0
 10
5.91284749
 20
11.00493719
  0
VERTEX
  8
0
 10
5.95476431
 20
11.00438988
  0
VERTEX
  8
0
 10
5.99671462
 20
11.00314404
  0
VERTEX
  8
0
 10
6.08061286
 20
10.99919911
  0
VERTEX
  8
0
 10
6.16433647
 20
10.99438704
  0
VERTEX
  8
0
 10
6.24767971
 20
10.98999248
  0
VERTEX
  8
0
 10
6.31128306
 20
10.98774970
  0
VERTEX
  8
0
 10
6.34323628
 20
10.98680696
  0
VERTEX
  8
0
 10
6.37515939
 20
10.98669522
  0
VERTEX
  8
0
 10
6.40695404
 20
10.98794842
  0
VERTEX
  8
0
 10
6.43852187
 20
10.99110048
  0
VERTEX
  8
0
 10
6.46976452
 20
10.99668535
  0
VERTEX
  8
0
 10
6.48523317
 20
11.00055693
  0
VERTEX
  8
0
 10
6.50058364
 20
11.00523694
  0
VERTEX
  8
0
 10
6.52085433
 20
11.01236390
  0
VERTEX
  8
0
 10
6.54071578
 20
11.02038924
  0
VERTEX
  8
0
 10
6.56016424
 20
11.02927192
  0
VERTEX
  8
0
 10
6.57919594
 20
11.03897094
  0
VERTEX
  8
0
 10
6.59780712
 20
11.04944525
  0
VERTEX
  8
0
 10
6.61599401
 20
11.06065385
  0
VERTEX
  8
0
 10
6.63375286
 20
11.07255570
  0
VERTEX
  8
0
 10
6.65107990
 20
11.08510979
  0
VERTEX
  8
0
 10
6.68442348
 20
11.11201058
  0
VERTEX
  8
0
 10
6.71599466
 20
11.14102802
  0
VERTEX
  8
0
 10
6.74576331
 20
11.17183392
  0
VERTEX
  8
0
 10
6.77369934
 20
11.20410011
  0
VERTEX
  8
0
 10
6.79336295
 20
11.22930877
  0
VERTEX
  8
0
 10
6.81168070
 20
11.25541769
  0
VERTEX
  8
0
 10
6.82892054
 20
11.28224321
  0
VERTEX
  8
0
 10
6.84535046
 20
11.30960165
  0
VERTEX
  8
0
 10
6.87685238
 20
11.36518265
  0
VERTEX
  8
0
 10
6.90833022
 20
11.42069139
  0
VERTEX
  8
0
 10
6.93041007
 20
11.45990654
  0
VERTEX
  8
0
 10
6.95149432
 20
11.49970781
  0
VERTEX
  8
0
 10
6.96115124
 20
11.52001140
  0
VERTEX
  8
0
 10
6.96994504
 20
11.54068132
  0
VERTEX
  8
0
 10
6.97767098
 20
11.56179083
  0
VERTEX
  8
0
 10
6.98412432
 20
11.58341319
  0
VERTEX
  8
0
 10
6.99887765
 20
11.54565449
  0
VERTEX
  8
0
 10
7.01254293
 20
11.50734493
  0
VERTEX
  8
0
 10
7.02504173
 20
11.46854384
  0
VERTEX
  8
0
 10
7.03629566
 20
11.42931056
  0
VERTEX
  8
0
 10
7.04622630
 20
11.38970443
  0
VERTEX
  8
0
 10
7.05475525
 20
11.34978480
  0
VERTEX
  8
0
 10
7.06180410
 20
11.30961099
  0
VERTEX
  8
0
 10
7.06729443
 20
11.26924236
  0
VERTEX
  8
0
 10
7.07114785
 20
11.22873823
  0
VERTEX
  8
0
 10
7.07328593
 20
11.18815796
  0
VERTEX
  8
0
 10
7.07363028
 20
11.14756087
  0
VERTEX
  8
0
 10
7.07210249
 20
11.10700631
  0
VERTEX
  8
0
 10
7.06862414
 20
11.06655362
  0
VERTEX
  8
0
 10
7.06311682
 20
11.02626214
  0
VERTEX
  8
0
 10
7.05550214
 20
10.98619121
  0
VERTEX
  8
0
 10
7.04570168
 20
10.94640016
  0
VERTEX
  8
0
 10
7.07034354
 20
10.97185070
  0
VERTEX
  8
0
 10
7.09331988
 20
10.99858488
  0
VERTEX
  8
0
 10
7.11465930
 20
11.02650937
  0
VERTEX
  8
0
 10
7.13439041
 20
11.05553082
  0
VERTEX
  8
0
 10
7.15254180
 20
11.08555591
  0
VERTEX
  8
0
 10
7.16914209
 20
11.11649128
  0
VERTEX
  8
0
 10
7.18421986
 20
11.14824361
  0
VERTEX
  8
0
 10
7.19780374
 20
11.18071956
  0
VERTEX
  8
0
 10
7.20992231
 20
11.21382578
  0
VERTEX
  8
0
 10
7.22060419
 20
11.24746895
  0
VERTEX
  8
0
 10
7.22987798
 20
11.28155572
  0
VERTEX
  8
0
 10
7.23777228
 20
11.31599276
  0
VERTEX
  8
0
 10
7.24431569
 20
11.35068673
  0
VERTEX
  8
0
 10
7.24953683
 20
11.38554428
  0
VERTEX
  8
0
 10
7.25346428
 20
11.42047210
  0
VERTEX
  8
0
 10
7.25612666
 20
11.45537683
  0
VERTEX
  8
0
 10
7.25755994
 20
11.48974144
  0
VERTEX
  8
0
 10
7.25796213
 20
11.52409601
  0
VERTEX
  8
0
 10
7.25736394
 20
11.55842449
  0
VERTEX
  8
0
 10
7.25579613
 20
11.59271081
  0
VERTEX
  8
0
 10
7.25328942
 20
11.62693893
  0
VERTEX
  8
0
 10
7.24987455
 20
11.66109278
  0
VERTEX
  8
0
 10
7.24558225
 20
11.69515630
  0
VERTEX
  8
0
 10
7.24044327
 20
11.72911343
  0
VERTEX
  8
0
 10
7.23448834
 20
11.76294813
  0
VERTEX
  8
0
 10
7.22774820
 20
11.79664432
  0
VERTEX
  8
0
 10
7.22025357
 20
11.83018595
  0
VERTEX
  8
0
 10
7.21203520
 20
11.86355697
  0
VERTEX
  8
0
 10
7.19355019
 20
11.92972292
  0
VERTEX
  8
0
 10
7.17253904
 20
11.99501370
  0
SEQEND
  0
POLYLINE
  8
Default_Layer
 66
   1
 39
0.000000
 70
    1
  0
VERTEX
  8
0
 10
9.16279794
 20
8.02203248
  0
VERTEX
  8
0
 10
9.17579428
 20
7.96225497
  0
VERTEX
  8
0
 10
9.18808405
 20
7.90229279
  0
VERTEX
  8
0
 10
9.19854321
 20
7.84199339
  0
VERTEX
  8
0
 10
9.20273504
 20
7.81166956
  0
VERTEX
  8
0
 10
9.20604769
 20
7.78120421
  0
VERTEX
  8
0
 10
9.23004129
 20
7.79456286
  0
VERTEX
  8
0
 10
9.25454975
 20
7.80712462
  0
VERTEX
  8
0
 10
9.27956606
 20
7.81866268
  0
VERTEX
  8
0
 10
9.30508317
 20
7.82895022
  0
VERTEX
  8
0
 10
9.33109407
 20
7.83776041
  0
VERTEX
  8
0
 10
9.35759173
 20
7.84486644
  0
VERTEX
  8
0
 10
9.38456912
 20
7.85004149
  0
VERTEX
  8
0
 10
9.41201923
 20
7.85305874
  0
VERTEX
  8
0
 10
9.39571225
 20
7.89565010
  0
VERTEX
  8
0
 10
9.38693551
 20
7.91672699
  0
VERTEX
  8
0
 10
9.37752649
 20
7.93750279
  0
VERTEX
  8
0
 10
9.36732259
 20
7.95786108
  0
VERTEX
  8
0
 10
9.35616122
 20
7.97768544
  0
VERTEX
  8
0
 10
9.34387981
 20
7.99685944
  0
VERTEX
  8
0
 10
9.33031576
 20
8.01526668
  0
VERTEX
  8
0
 10
9.28832791
 20
8.01439687
  0
VERTEX
  8
0
 10
9.24633204
 20
8.01460294
  0
VERTEX
  8
0
 10
9.20444857
 20
8.01683234
  0
VERTEX
  8
0
 10
9.18358662
 20
8.01900185
  0
VERTEX
  8
0
 10
9.16279794
 20
8.02203248
  0
SEQEND
  0
POLYLINE
  8
Default_Layer
 66
   1
 39
0.000000
 70
    1
  0
VERTEX
  8
0
 10
7.36729134
 20
11.67162554
  0
VERTEX
  8
0
 10
7.40397701
 20
11.62233645
  0
VERTEX
  8
0
 10
7.43896655
 20
11.57172158
  0
VERTEX
  8
0
 10
7.47200101
 20
11.51978793
  0
VERTEX
  8
0
 10
7.50282147
 20
11.46654254
  0
VERTEX
  8
0
 10
7.53116899
 20
11.41199243
  0
VERTEX
  8
0
 10
7.54433447
 20
11.38423030
  0
VERTEX
  8
0
 10
7.55678462
 20
11.35614463
  0
VERTEX
  8
0
 10
7.56848707
 20
11.32773629
  0
VERTEX
  8
0
 10
7.57940944
 20
11.29900616
  0
VERTEX
  8
0
 10
7.58951938
 20
11.26995512
  0
VERTEX
  8
0
 10
7.59878451
 20
11.24058405
  0
VERTEX
  8
0
 10
7.60739793
 20
11.21029959
  0
VERTEX
  8
0
 10
7.61488892
 20
11.17969636
  0
VERTEX
  8
0
 10
7.62124104
 20
11.14882289
  0
VERTEX
  8
0
 10
7.62643785
 20
11.11772775
  0
VERTEX
  8
0
 10
7.63046293
 20
11.08645949
  0
VERTEX
  8
0
 10
7.63329983
 20
11.05506664
  0
VERTEX
  8
0
 10
7.63493213
 20
11.02359778
  0
VERTEX
  8
0
 10
7.63534339
 20
10.99210144
  0
VERTEX
  8
0
 10
7.63451717
 20
10.96062617
  0
VERTEX
  8
0
 10
7.63243705
 20
10.92922053
  0
VERTEX
  8
0
 10
7.62908658
 20
10.89793307
  0
VERTEX
  8
0
 10
7.62444933
 20
10.86681234
  0
VERTEX
  8
0
 10
7.61850886
 20
10.83590689
  0
VERTEX
  8
0
 10
7.61124875
 20
10.80526526
  0
VERTEX
  8
0
 10
7.60265256
 20
10.77493602
  0
VERTEX
  8
0
 10
7.59270385
 20
10.74496770
  0
VERTEX
  8
0
 10
7.57858797
 20
10.70797678
  0
VERTEX
  8
0
 10
7.56278097
 20
10.67175778
  0
VERTEX
  8
0
 10
7.54535010
 20
10.63633992
  0
VERTEX
  8
0
 10
7.52636260
 20
10.60175245
  0
VERTEX
  8
0
 10
7.50588572
 20
10.56802458
  0
VERTEX
  8
0
 10
7.48398669
 20
10.53518555
  0
VERTEX
  8
0
 10
7.46073276
 20
10.50326459
  0
VERTEX
  8
0
 10
7.43619118
 20
10.47229093
  0
VERTEX
  8
0
 10
7.41042918
 20
10.44229380
  0
VERTEX
  8
0
 10
7.38351401
 20
10.41330244
  0
VERTEX
  8
0
 10
7.35551291
 20
10.38534606
  0
VERTEX
  8
0
 10
7.32649313
 20
10.35845391
  0
VERTEX
  8
0
 10
7.29652191
 20
10.33265522
  0
VERTEX
  8
0
 10
7.26566649
 20
10.30797921
  0
VERTEX
  8
0
 10
7.23399412
 20
10.28445512
  0
VERTEX
  8
0
 10
7.20157203
 20
10.26211217
  0
VERTEX
  8
0
 10
7.14041265
 20
10.28047548
  0
VERTEX
  8
0
 10
7.07872611
 20
10.29666831
  0
VERTEX
  8
0
 10
7.01657137
 20
10.31073219
  0
VERTEX
  8
0
 10
6.95400741
 20
10.32270864
  0
VERTEX
  8
0
 10
6.89109317
 20
10.33263920
  0
VERTEX
  8
0
 10
6.82788764
 20
10.34056539
  0
VERTEX
  8
0
 10
6.76444976
 20
10.34652873
  0
VERTEX
  8
0
 10
6.70083851
 20
10.35057074
  0
VERTEX
  8
0
 10
6.63711285
 20
10.35273295
  0
VERTEX
  8
0
 10
6.57333173
 20
10.35305690
  0
VERTEX
  8
0
 10
6.50955413
 20
10.35158409
  0
VERTEX
  8
0
 10
6.44583900
 20
10.34835606
  0
VERTEX
  8
0
 10
6.38224531
 20
10.34341434
  0
VERTEX
  8
0
 10
6.31883202
 20
10.33680044
  0
VERTEX
  8
0
 10
6.25565810
 20
10.32855590
  0
VERTEX
  8
0
 10
6.19278251
 20
10.31872223
  0
VERTEX
  8
0
 10
6.12564589
 20
10.30640468
  0
VERTEX
  8
0
 10
6.05884347
 20
10.29236290
  0
VERTEX
  8
0
 10
5.99243648
 20
10.27656678
  0
VERTEX
  8
0
 10
5.92648614
 20
10.25898620
  0
VERTEX
  8
0
 10
5.86105368
 20
10.23959106
  0
VERTEX
  8
0
 10
5.79620031
 20
10.21835125
  0
VERTEX
  8
0
 10
5.73198726
 20
10.19523666
  0
VERTEX
  8
0
 10
5.66847574
 20
10.17021717
  0
VERTEX
  8
0
 10
5.68447680
 20
10.19391651
  0
VERTEX
  8
0
 10
5.70184191
 20
10.21632492
  0
VERTEX
  8
0
 10
5.72047586
 20
10.23748833
  0
VERTEX
  8
0
 10
5.74028343
 20
10.25745265
  0
VERTEX
  8
0
 10
5.76116940
 20
10.27626381
  0
VERTEX
  8
0
 10
5.78303855
 20
10.29396771
  0
VERTEX
  8
0
 10
5.80579566
 20
10.31061027
  0
VERTEX
  8
0
 10
5.82934551
 20
10.32623741
  0
VERTEX
  8
0
 10
5.85359289
 20
10.34089504
  0
VERTEX
  8
0
 10
5.87844257
 20
10.35462908
  0
VERTEX
  8
0
 10
5.90379933
 20
10.36748545
  0
VERTEX
  8
0
 10
5.92956796
 20
10.37951006
  0
VERTEX
  8
0
 10
5.95565323
 20
10.39074883
  0
VERTEX
  8
0
 10
5.98195993
 20
10.40124767
  0
VERTEX
  8
0
 10
6.03485672
 20
10.42020925
  0
VERTEX
  8
0
 10
6.08431425
 20
10.43533562
  0
VERTEX
  8
0
 10
6.13424549
 20
10.44878994
  0
VERTEX
  8
0
 10
6.18459423
 20
10.46057021
  0
VERTEX
  8
0
 10
6.23530429
 20
10.47067442
  0
VERTEX
  8
0
 10
6.28631945
 20
10.47910055
  0
VERTEX
  8
0
 10
6.33758350
 20
10.48584662
  0
VERTEX
  8
0
 10
6.38904026
 20
10.49091060
  0
VERTEX
  8
0
 10
6.44063351
 20
10.49429049
  0
VERTEX
  8
0
 10
6.49247883
 20
10.50255889
  0
VERTEX
  8
0
 10
6.54393375
 20
10.51295398
  0
VERTEX
  8
0
 10
6.59496112
 20
10.52534630
  0
VERTEX
  8
0
 10
6.64552381
 20
10.53960637
  0
VERTEX
  8
0
 10
6.69558468
 20
10.55560472
  0
VERTEX
  8
0
 10
6.74510660
 20
10.57321190
  0
VERTEX
  8
0
 10
6.79405244
 20
10.59229842
  0
VERTEX
  8
0
 10
6.84238507
 20
10.61273483
  0
VERTEX
  8
0
 10
6.87091786
 20
10.62617121
  0
VERTEX
  8
0
 10
6.89909499
 20
10.64043333
  0
VERTEX
  8
0
 10
6.92687192
 20
10.65551993
  0
VERTEX
  8
0
 10
6.95420412
 20
10.67142976
  0
VERTEX
  8
0
 10
6.98104705
 20
10.68816156
  0
VERTEX
  8
0
 10
7.00735617
 20
10.70571408
  0
VERTEX
  8
0
 10
7.03308695
 20
10.72408606
  0
VERTEX
  8
0
 10
7.05819486
 20
10.74327625
  0
VERTEX
  8
0
 10
7.08263535
 20
10.76328340
  0
VERTEX
  8
0
 10
7.10636389
 20
10.78410624
  0
VERTEX
  8
0
 10
7.12933594
 20
10.80574353
  0
VERTEX
  8
0
 10
7.15150698
 20
10.82819402
  0
VERTEX
  8
0
 10
7.17283245
 20
10.85145643
  0
VERTEX
  8
0
 10
7.19326783
 20
10.87552953
  0
VERTEX
  8
0
 10
7.21276859
 20
10.90041206
  0
VERTEX
  8
0
 10
7.23129017
 20
10.92610276
  0
VERTEX
  8
0
 10
7.24501446
 20
10.94638365
  0
VERTEX
  8
0
 10
7.25807324
 20
10.96702209
  0
VERTEX
  8
0
 10
7.28221601
 20
11.00930649
  0
VERTEX
  8
0
 10
7.30376188
 20
11.05282560
  0
VERTEX
  8
0
 10
7.32275428
 20
11.09744908
  0
VERTEX
  8
0
 10
7.33923659
 20
11.14304659
  0
VERTEX
  8
0
 10
7.35325224
 20
11.18948777
  0
VERTEX
  8
0
 10
7.36484462
 20
11.23664227
  0
VERTEX
  8
0
 10
7.37405714
 20
11.28437977
  0
VERTEX
  8
0
 10
7.38093322
 20
11.33256990
  0
VERTEX
  8
0
 10
7.38551625
 20
11.38108231
  0
VERTEX
  8
0
 10
7.38784964
 20
11.42978668
  0
VERTEX
  8
0
 10
7.38797681
 20
11.47855264
  0
VERTEX
  8
0
 10
7.38594116
 20
11.52724985
  0
VERTEX
  8
0
 10
7.38178609
 20
11.57574797
  0
VERTEX
  8
0
 10
7.37555502
 20
11.62391665
  0
VERTEX
  8
0
 10
7.36729134
 20
11.67162554
  0
SEQEND
  0
POLYLINE
  8
Default_Layer
 66
   1
 39
0.000000
 70
    1
  0
VERTEX
  8
0
 10
6.93179642
 20
11.21112284
  0
VERTEX
  8
0
 10
6.93375249
 20
11.15797229
  0
VERTEX
  8
0
 10
6.93362139
 20
11.13124058
  0
VERTEX
  8
0
 10
6.93268764
 20
11.10447850
  0
VERTEX
  8
0
 10
6.93090381
 20
11.07774152
  0
VERTEX
  8
0
 10
6.92822249
 20
11.05108508
  0
VERTEX
  8
0
 10
6.92459625
 20
11.02456463
  0
VERTEX
  8
0
 10
6.91997767
 20
10.99823562
  0
VERTEX
  8
0
 10
6.91431934
 20
10.97215351
  0
VERTEX
  8
0
 10
6.90757382
 20
10.94637373
  0
VERTEX
  8
0
 10
6.89969369
 20
10.92095176
  0
VERTEX
  8
0
 10
6.89063155
 20
10.89594302
  0
VERTEX
  8
0
 10
6.88033995
 20
10.87140299
  0
VERTEX
  8
0
 10
6.86877149
 20
10.84738709
  0
VERTEX
  8
0
 10
6.85587874
 20
10.82395080
  0
VERTEX
  8
0
 10
6.84161428
 20
10.80114955
  0
VERTEX
  8
0
 10
6.82779666
 20
10.78113602
  0
VERTEX
  8
0
 10
6.81297354
 20
10.76197872
  0
VERTEX
  8
0
 10
6.79720123
 20
10.74367676
  0
VERTEX
  8
0
 10
6.78053606
 20
10.72622927
  0
VERTEX
  8
0
 10
6.76303438
 20
10.70963536
  0
VERTEX
  8
0
 10
6.74475249
 20
10.69389417
  0
VERTEX
  8
0
 10
6.72574674
 20
10.67900480
  0
VERTEX
  8
0
 10
6.70607344
 20
10.66496639
  0
VERTEX
  8
0
 10
6.68578894
 20
10.65177805
  0
VERTEX
  8
0
 10
6.66494956
 20
10.63943890
  0
VERTEX
  8
0
 10
6.64361162
 20
10.62794808
  0
VERTEX
  8
0
 10
6.62183146
 20
10.61730469
  0
VERTEX
  8
0
 10
6.59966540
 20
10.60750786
  0
VERTEX
  8
0
 10
6.57716978
 20
10.59855672
  0
VERTEX
  8
0
 10
6.55440091
 20
10.59045039
  0
VERTEX
  8
0
 10
6.53141514
 20
10.58318798
  0
VERTEX
  8
0
 10
6.49369573
 20
10.57266459
  0
VERTEX
  8
0
 10
6.45554878
 20
10.56408422
  0
VERTEX
  8
0
 10
6.41705256
 20
10.55734251
  0
VERTEX
  8
0
 10
6.37828536
 20
10.55233507
  0
VERTEX
  8
0
 10
6.33932547
 20
10.54895752
  0
VERTEX
  8
0
 10
6.30025116
 20
10.54710549
  0
VERTEX
  8
0
 10
6.26114072
 20
10.54667460
  0
VERTEX
  8
0
 10
6.22207244
 20
10.54756047
  0
VERTEX
  8
0
 10
6.15187875
 20
10.54619971
  0
VERTEX
  8
0
 10
6.11660157
 20
10.54454111
  0
VERTEX
  8
0
 10
6.08129265
 20
10.54211812
  0
VERTEX
  8
0
 10
6.04601836
 20
10.53884656
  0
VERTEX
  8
0
 10
6.01084505
 20
10.53464225
  0
VERTEX
  8
0
 10
5.97583910
 20
10.52942101
  0
VERTEX
  8
0
 10
5.94106687
 20
10.52309867
  0
VERTEX
  8
0
 10
5.90659473
 20
10.51559104
  0
VERTEX
  8
0
 10
5.87248904
 20
10.50681394
  0
VERTEX
  8
0
 10
5.83881616
 20
10.49668320
  0
VERTEX
  8
0
 10
5.80564246
 20
10.48511464
  0
VERTEX
  8
0
 10
5.77303431
 20
10.47202407
  0
VERTEX
  8
0
 10
5.74105806
 20
10.45732731
  0
VERTEX
  8
0
 10
5.70978009
 20
10.44094020
  0
VERTEX
  8
0
 10
5.67926677
 20
10.42277854
  0
VERTEX
  8
0
 10
5.65713956
 20
10.40803961
  0
VERTEX
  8
0
 10
5.63592854
 20
10.39197414
  0
VERTEX
  8
0
 10
5.61570484
 20
10.37465663
  0
VERTEX
  8
0
 10
5.59653959
 20
10.35616162
  0
VERTEX
  8
0
 10
5.57850393
 20
10.33656363
  0
VERTEX
  8
0
 10
5.56166899
 20
10.31593716
  0
VERTEX
  8
0
 10
5.54610589
 20
10.29435674
  0
VERTEX
  8
0
 10
5.53188578
 20
10.27189689
  0
VERTEX
  8
0
 10
5.51907978
 20
10.24863213
  0
VERTEX
  8
0
 10
5.50775903
 20
10.22463698
  0
VERTEX
  8
0
 10
5.49799465
 20
10.19998596
  0
VERTEX
  8
0
 10
5.48985779
 20
10.17475358
  0
VERTEX
  8
0
 10
5.48341957
 20
10.14901437
  0
VERTEX
  8
0
 10
5.47875112
 20
10.12284285
  0
VERTEX
  8
0
 10
5.47592358
 20
10.09631353
  0
VERTEX
  8
0
 10
5.47500809
 20
10.06950094
  0
VERTEX
  8
0
 10
5.43659764
 20
10.05290752
  0
VERTEX
  8
0
 10
5.39862753
 20
10.03543441
  0
VERTEX
  8
0
 10
5.36108246
 20
10.01712729
  0
VERTEX
  8
0
 10
5.32394712
 20
9.99803182
  0
VERTEX
  8
0
 10
5.28720621
 20
9.97819366
  0
VERTEX
  8
0
 10
5.25084442
 20
9.95765848
  0
VERTEX
  8
0
 10
5.17919698
 20
9.91467972
  0
VERTEX
  8
0
 10
5.10888236
 20
9.86946085
  0
VERTEX
  8
0
 10
5.03977812
 20
9.82236721
  0
VERTEX
  8
0
 10
4.97176181
 20
9.77376411
  0
VERTEX
  8
0
 10
4.90471100
 20
9.72401687
  0
VERTEX
  8
0
 10
4.85217300
 20
9.68341269
  0
VERTEX
  8
0
 10
4.80030141
 20
9.64191730
  0
VERTEX
  8
0
 10
4.74912032
 20
9.59957082
  0
VERTEX
  8
0
 10
4.69865381
 20
9.55641341
  0
VERTEX
  8
0
 10
4.70991811
 20
9.61060600
  0
VERTEX
  8
0
 10
4.72216333
 20
9.66468580
  0
VERTEX
  8
0
 10
4.73544104
 20
9.71859022
  0
VERTEX
  8
0
 10
4.74980279
 20
9.77225666
  0
VERTEX
  8
0
 10
4.76530014
 20
9.82562250
  0
VERTEX
  8
0
 10
4.78198467
 20
9.87862516
  0
VERTEX
  8
0
 10
4.79990792
 20
9.93120203
  0
VERTEX
  8
0
 10
4.81912147
 20
9.98329051
  0
VERTEX
  8
0
 10
4.83967687
 20
10.03482799
  0
VERTEX
  8
0
 10
4.86162568
 20
10.08575188
  0
VERTEX
  8
0
 10
4.88501947
 20
10.13599958
  0
VERTEX
  8
0
 10
4.90990980
 20
10.18550847
  0
VERTEX
  8
0
 10
4.93634822
 20
10.23421597
  0
VERTEX
  8
0
 10
4.96438631
 20
10.28205947
  0
VERTEX
  8
0
 10
4.99407561
 20
10.32897637
  0
VERTEX
  8
0
 10
5.02546770
 20
10.37490407
  0
VERTEX
  8
0
 10
5.05162948
 20
10.41070479
  0
VERTEX
  8
0
 10
5.07899862
 20
10.44564590
  0
VERTEX
  8
0
 10
5.10754603
 20
10.47966869
  0
VERTEX
  8
0
 10
5.13724259
 20
10.51271445
  0
VERTEX
  8
0
 10
5.16805920
 20
10.54472446
  0
VERTEX
  8
0
 10
5.19996676
 20
10.57564001
  0
VERTEX
  8
0
 10
5.23293616
 20
10.60540240
  0
VERTEX
  8
0
 10
5.26693829
 20
10.63395290
  0
VERTEX
  8
0
 10
5.30194405
 20
10.66123280
  0
VERTEX
  8
0
 10
5.33792434
 20
10.68718340
  0
VERTEX
  8
0
 10
5.37485004
 20
10.71174598
  0
VERTEX
  8
0
 10
5.41269206
 20
10.73486182
  0
VERTEX
  8
0
 10
5.45142129
 20
10.75647222
  0
VERTEX
  8
0
 10
5.49100862
 20
10.77651847
  0
VERTEX
  8
0
 10
5.53142495
 20
10.79494185
  0
VERTEX
  8
0
 10
5.57264117
 20
10.81168364
  0
VERTEX
  8
0
 10
5.61989907
 20
10.82849644
  0
VERTEX
  8
0
 10
5.66788962
 20
10.84341439
  0
VERTEX
  8
0
 10
5.71651045
 20
10.85624479
  0
VERTEX
  8
0
 10
5.76565920
 20
10.86679495
  0
VERTEX
  8
0
 10
5.81523348
 20
10.87487216
  0
VERTEX
  8
0
 10
5.86513093
 20
10.88028373
  0
VERTEX
  8
0
 10
5.91524917
 20
10.88283696
  0
VERTEX
  8
0
 10
5.94035911
 20
10.88298148
  0
VERTEX
  8
0
 10
5.96548585
 20
10.88233916
  0
VERTEX
  8
0
 10
6.02519210
 20
10.87698045
  0
VERTEX
  8
0
 10
6.08496058
 20
10.87105569
  0
VERTEX
  8
0
 10
6.14478125
 20
10.86524333
  0
VERTEX
  8
0
 10
6.20464407
 20
10.86022184
  0
VERTEX
  8
0
 10
6.26453901
 20
10.85666966
  0
VERTEX
  8
0
 10
6.32445603
 20
10.85526525
  0
VERTEX
  8
0
 10
6.35441968
 20
10.85558047
  0
VERTEX
  8
0
 10
6.38438509
 20
10.85668706
  0
VERTEX
  8
0
 10
6.41435100
 20
10.85866981
  0
VERTEX
  8
0
 10
6.44431616
 20
10.86161354
  0
VERTEX
  8
0
 10
6.47886861
 20
10.86650557
  0
VERTEX
  8
0
 10
6.51321733
 20
10.87316197
  0
VERTEX
  8
0
 10
6.54716661
 20
10.88169316
  0
VERTEX
  8
0
 10
6.58052073
 20
10.89220952
  0
VERTEX
  8
0
 10
6.61308399
 20
10.90482146
  0
VERTEX
  8
0
 10
6.64466068
 20
10.91963939
  0
VERTEX
  8
0
 10
6.67505510
 20
10.93677368
  0
VERTEX
  8
0
 10
6.70407154
 20
10.95633476
  0
VERTEX
  8
0
 10
6.73524962
 20
10.98066809
  0
VERTEX
  8
0
 10
6.76542408
 20
11.00622184
  0
VERTEX
  8
0
 10
6.79474746
 20
11.03273907
  0
VERTEX
  8
0
 10
6.82337231
 20
11.05996285
  0
VERTEX
  8
0
 10
6.85594611
 20
11.09371023
  0
VERTEX
  8
0
 10
6.87157363
 20
11.11130603
  0
VERTEX
  8
0
 10
6.88638419
 20
11.12953713
  0
VERTEX
  8
0
 10
6.90009477
 20
11.14851894
  0
VERTEX
  8
0
 10
6.91242235
 20
11.16836688
  0
VERTEX
  8
0
 10
6.92308391
 20
11.18919638
  0
VERTEX
  8
0
 10
6.93179642
 20
11.21112284
  0
SEQEND
  0
POLYLINE
  8
Default_Layer
 66
   1
 39
0.000000
 70
    1
  0
VERTEX
  8
0
 10
7.73752626
 20
10.43485421
  0
VERTEX
  8
0
 10
7.76632624
 20
10.44001654
  0
VERTEX
  8
0
 10
7.79535004
 20
10.44270393
  0
VERTEX
  8
0
 10
7.82447620
 20
10.44308297
  0
VERTEX
  8
0
 10
7.85358330
 20
10.44132026
  0
VERTEX
  8
0
 10
7.88254989
 20
10.43758241
  0
VERTEX
  8
0
 10
7.91125453
 20
10.43203602
  0
VERTEX
  8
0
 10
7.93957578
 20
10.42484769
  0
VERTEX
  8
0
 10
7.96739221
 20
10.41618402
  0
VERTEX
  8
0
 10
7.99068378
 20
10.40776073
  0
VERTEX
  8
0
 10
8.01342535
 20
10.39799959
  0
VERTEX
  8
0
 10
8.05810961
 20
10.37656341
  0
VERTEX
  8
0
 10
8.08047784
 20
10.36593815
  0
VERTEX
  8
0
 10
8.10314716
 20
10.35607464
  0
VERTEX
  8
0
 10
8.12633033
 20
10.34749779
  0
VERTEX
  8
0
 10
8.15024013
 20
10.34073249
  0
VERTEX
  8
0
 10
8.17214420
 20
10.33510142
  0
VERTEX
  8
0
 10
8.19429428
 20
10.33081898
  0
VERTEX
  8
0
 10
8.21662326
 20
10.32786885
  0
VERTEX
  8
0
 10
8.23906402
 20
10.32623473
  0
VERTEX
  8
0
 10
8.26154944
 20
10.32590031
  0
VERTEX
  8
0
 10
8.28401240
 20
10.32684929
  0
VERTEX
  8
0
 10
8.30638579
 20
10.32906534
  0
VERTEX
  8
0
 10
8.32860249
 20
10.33253217
  0
VERTEX
  8
0
 10
8.35059538
 20
10.33723346
  0
VERTEX
  8
0
 10
8.37229734
 20
10.34315291
  0
VERTEX
  8
0
 10
8.39364126
 20
10.35027421
  0
VERTEX
  8
0
 10
8.41456002
 20
10.35858104
  0
VERTEX
  8
0
 10
8.43498649
 20
10.36805710
  0
VERTEX
  8
0
 10
8.45485357
 20
10.37868608
  0
VERTEX
  8
0
 10
8.47409413
 20
10.39045167
  0
VERTEX
  8
0
 10
8.49264105
 20
10.40333756
  0
VERTEX
  8
0
 10
8.48452320
 20
10.37002342
  0
VERTEX
  8
0
 10
8.47495710
 20
10.33697223
  0
VERTEX
  8
0
 10
8.46377115
 20
10.30441482
  0
VERTEX
  8
0
 10
8.45079372
 20
10.27258203
  0
VERTEX
  8
0
 10
8.43585319
 20
10.24170470
  0
VERTEX
  8
0
 10
8.41877794
 20
10.21201366
  0
VERTEX
  8
0
 10
8.39939634
 20
10.18373974
  0
VERTEX
  8
0
 10
8.38878704
 20
10.17020634
  0
VERTEX
  8
0
 10
8.37753679
 20
10.15711379
  0
VERTEX
  8
0
 10
8.36362417
 20
10.14211831
  0
VERTEX
  8
0
 10
8.34893084
 20
10.12802258
  0
VERTEX
  8
0
 10
8.33350913
 20
10.11481908
  0
VERTEX
  8
0
 10
8.31741135
 20
10.10250028
  0
VERTEX
  8
0
 10
8.30068982
 20
10.09105866
  0
VERTEX
  8
0
 10
8.28339684
 20
10.08048667
  0
VERTEX
  8
0
 10
8.26558474
 20
10.07077681
  0
VERTEX
  8
0
 10
8.24730582
 20
10.06192153
  0
VERTEX
  8
0
 10
8.22861241
 20
10.05391332
  0
VERTEX
  8
0
 10
8.20955681
 20
10.04674465
  0
VERTEX
  8
0
 10
8.19019134
 20
10.04040798
  0
VERTEX
  8
0
 10
8.17056831
 20
10.03489580
  0
VERTEX
  8
0
 10
8.15074004
 20
10.03020057
  0
VERTEX
  8
0
 10
8.13075884
 20
10.02631477
  0
VERTEX
  8
0
 10
8.11067703
 20
10.02323086
  0
VERTEX
  8
0
 10
8.09054692
 20
10.02094133
  0
VERTEX
  8
0
 10
8.06175680
 20
10.01871257
  0
VERTEX
  8
0
 10
8.03297873
 20
10.01757951
  0
VERTEX
  8
0
 10
8.00422475
 20
10.01748973
  0
VERTEX
  8
0
 10
7.97550689
 20
10.01839078
  0
VERTEX
  8
0
 10
7.94683721
 20
10.02023022
  0
VERTEX
  8
0
 10
7.91822775
 20
10.02295562
  0
VERTEX
  8
0
 10
7.88969054
 20
10.02651453
  0
VERTEX
  8
0
 10
7.86123765
 20
10.03085452
  0
VERTEX
  8
0
 10
7.80463294
 20
10.04166796
  0
VERTEX
  8
0
 10
7.74850998
 20
10.05497642
  0
VERTEX
  8
0
 10
7.69296511
 20
10.07036039
  0
VERTEX
  8
0
 10
7.63809467
 20
10.08740034
  0
VERTEX
  8
0
 10
7.56670048
 20
10.11268244
  0
VERTEX
  8
0
 10
7.49633401
 20
10.14070244
  0
VERTEX
  8
0
 10
7.42709160
 20
10.17140413
  0
VERTEX
  8
0
 10
7.35906961
 20
10.20473133
  0
VERTEX
  8
0
 10
7.38911125
 20
10.21821057
  0
VERTEX
  8
0
 10
7.41860491
 20
10.23290120
  0
VERTEX
  8
0
 10
7.44746026
 20
10.24881826
  0
VERTEX
  8
0
 10
7.47558698
 20
10.26597681
  0
VERTEX
  8
0
 10
7.50289474
 20
10.28439191
  0
VERTEX
  8
0
 10
7.52929320
 20
10.30407860
  0
VERTEX
  8
0
 10
7.55469206
 20
10.32505195
  0
VERTEX
  8
0
 10
7.57900097
 20
10.34732701
  0
VERTEX
  8
0
 10
7.59584137
 20
10.36288360
  0
VERTEX
  8
0
 10
7.61368239
 20
10.37731011
  0
VERTEX
  8
0
 10
7.63244875
 20
10.39051218
  0
VERTEX
  8
0
 10
7.65206520
 20
10.40239549
  0
VERTEX
  8
0
 10
7.67245644
 20
10.41286569
  0
VERTEX
  8
0
 10
7.69354721
 20
10.42182844
  0
VERTEX
  8
0
 10
7.71526224
 20
10.42918939
  0
VERTEX
  8
0
 10
7.73752626
 20
10.43485421
  0
SEQEND
  0
POLYLINE
  8
Default_Layer
 66
   1
 39
0.000000
 70
    1
  0
VERTEX
  8
0
 10
3.93565985
 20
8.44699331
  0
VERTEX
  8
0
 10
3.96152405
 20
8.47816738
  0
VERTEX
  8
0
 10
3.97614225
 20
8.46247329
  0
VERTEX
  8
0
 10
3.98995755
 20
8.44581572
  0
VERTEX
  8
0
 10
3.99579131
 20
8.43687471
  0
VERTEX
  8
0
 10
4.00049700
 20
8.42739175
  0
VERTEX
  8
0
 10
4.00376548
 20
8.41726647
  0
VERTEX
  8
0
 10
4.00528765
 20
8.40639850
  0
VERTEX
  8
0
 10
4.00618808
 20
8.39685097
  0
VERTEX
  8
0
 10
4.00515250
 20
8.38750618
  0
VERTEX
  8
0
 10
4.00235655
 20
8.37859897
  0
VERTEX
  8
0
 10
3.99797588
 20
8.37036419
  0
VERTEX
  8
0
 10
3.99218611
 20
8.36303669
  0
VERTEX
  8
0
 10
3.98516288
 20
8.35685132
  0
VERTEX
  8
0
 10
3.97708182
 20
8.35204293
  0
VERTEX
  8
0
 10
3.96811857
 20
8.34884637
  0
VERTEX
  8
0
 10
3.95651343
 20
8.34692091
  0
VERTEX
  8
0
 10
3.94501769
 20
8.34683510
  0
VERTEX
  8
0
 10
3.93363637
 20
8.34826075
  0
VERTEX
  8
0
 10
3.92237447
 20
8.35086969
  0
VERTEX
  8
0
 10
3.90022905
 20
8.35832465
  0
VERTEX
  8
0
 10
3.87862158
 20
8.36657448
  0
VERTEX
  8
0
 10
3.89352347
 20
8.39166790
  0
VERTEX
  8
0
 10
3.89951848
 20
8.40151685
  0
VERTEX
  8
0
 10
3.97111608
 20
8.38695753
  0
VERTEX
  8
0
 10
3.93565985
 20
8.44699331
  0
SEQEND
  0
POLYLINE
  8
Default_Layer
 66
   1
 39
0.000000
 70
    1
  0
VERTEX
  8
0
 10
8.25720830
 20
4.32199566
  0
VERTEX
  8
0
 10
8.32699936
 20
4.39592168
  0
VERTEX
  8
0
 10
8.36127967
 20
4.43354909
  0
VERTEX
  8
0
 10
8.39475105
 20
4.47187101
  0
VERTEX
  8
0
 10
8.42711442
 20
4.51107612
  0
VERTEX
  8
0
 10
8.45807070
 20
4.55135311
  0
VERTEX
  8
0
 10
8.48732081
 20
4.59289066
  0
VERTEX
  8
0
 10
8.51456568
 20
4.63587745
  0
VERTEX
  8
0
 10
8.56744842
 20
4.60918091
  0
VERTEX
  8
0
 10
8.61962963
 20
4.58111943
  0
VERTEX
  8
0
 10
8.67105812
 20
4.55169301
  0
VERTEX
  8
0
 10
8.72168269
 20
4.52090165
  0
VERTEX
  8
0
 10
8.77145218
 20
4.48874536
  0
VERTEX
  8
0
 10
8.82031539
 20
4.45522414
  0
VERTEX
  8
0
 10
8.86822114
 20
4.42033798
  0
VERTEX
  8
0
 10
8.91511823
 20
4.38408688
  0
VERTEX
  8
0
 10
8.95621118
 20
4.35026289
  0
VERTEX
  8
0
 10
8.99631053
 20
4.31516831
  0
VERTEX
  8
0
 10
9.03522559
 20
4.27874492
  0
VERTEX
  8
0
 10
9.07276568
 20
4.24093451
  0
VERTEX
  8
0
 10
9.10874012
 20
4.20167888
  0
VERTEX
  8
0
 10
9.14295820
 20
4.16091982
  0
VERTEX
  8
0
 10
9.17522923
 20
4.11859910
  0
VERTEX
  8
0
 10
9.20536254
 20
4.07465853
  0
VERTEX
  8
0
 10
9.21903689
 20
4.05297323
  0
VERTEX
  8
0
 10
9.23206226
 20
4.03084107
  0
VERTEX
  8
0
 10
9.24440191
 20
4.00828688
  0
VERTEX
  8
0
 10
9.25601907
 20
3.98533550
  0
VERTEX
  8
0
 10
9.26687698
 20
3.96201178
  0
VERTEX
  8
0
 10
9.27693889
 20
3.93834055
  0
VERTEX
  8
0
 10
9.28616804
 20
3.91434665
  0
VERTEX
  8
0
 10
9.29452766
 20
3.89005493
  0
VERTEX
  8
0
 10
9.30198101
 20
3.86549022
  0
VERTEX
  8
0
 10
9.30849133
 20
3.84067736
  0
VERTEX
  8
0
 10
9.31402185
 20
3.81564119
  0
VERTEX
  8
0
 10
9.31853582
 20
3.79040656
  0
VERTEX
  8
0
 10
9.32199648
 20
3.76499830
  0
VERTEX
  8
0
 10
9.32436708
 20
3.73944125
  0
VERTEX
  8
0
 10
9.32561084
 20
3.71376025
  0
VERTEX
  8
0
 10
9.32569103
 20
3.68798014
  0
VERTEX
  8
0
 10
9.32484806
 20
3.66279230
  0
VERTEX
  8
0
 10
9.32292168
 20
3.63772841
  0
VERTEX
  8
0
 10
9.31994851
 20
3.61280804
  0
VERTEX
  8
0
 10
9.31596519
 20
3.58805076
  0
VERTEX
  8
0
 10
9.31100835
 20
3.56347614
  0
VERTEX
  8
0
 10
9.30511462
 20
3.53910375
  0
VERTEX
  8
0
 10
9.29832063
 20
3.51495316
  0
VERTEX
  8
0
 10
9.29066302
 20
3.49104394
  0
VERTEX
  8
0
 10
9.28217842
 20
3.46739567
  0
VERTEX
  8
0
 10
9.27290346
 20
3.44402792
  0
VERTEX
  8
0
 10
9.26287478
 20
3.42096024
  0
VERTEX
  8
0
 10
9.25212900
 20
3.39821223
  0
VERTEX
  8
0
 10
9.22863270
 20
3.35375345
  0
VERTEX
  8
0
 10
9.20270761
 20
3.31080814
  0
VERTEX
  8
0
 10
9.18199353
 20
3.27977591
  0
VERTEX
  8
0
 10
9.16033704
 20
3.24938601
  0
VERTEX
  8
0
 10
9.13776726
 20
3.21966252
  0
VERTEX
  8
0
 10
9.11431327
 20
3.19062953
  0
VERTEX
  8
0
 10
9.09000419
 20
3.16231111
  0
VERTEX
  8
0
 10
9.06486913
 20
3.13473137
  0
VERTEX
  8
0
 10
9.03893718
 20
3.10791439
  0
VERTEX
  8
0
 10
9.01223746
 20
3.08188426
  0
VERTEX
  8
0
 10
9.02502146
 20
3.10620975
  0
VERTEX
  8
0
 10
9.03670812
 20
3.13107432
  0
VERTEX
  8
0
 10
9.04728401
 20
3.15642690
  0
VERTEX
  8
0
 10
9.05673571
 20
3.18221643
  0
VERTEX
  8
0
 10
9.06504980
 20
3.20839186
  0
VERTEX
  8
0
 10
9.07221285
 20
3.23490213
  0
VERTEX
  8
0
 10
9.07821144
 20
3.26169618
  0
VERTEX
  8
0
 10
9.08303215
 20
3.28872294
  0
VERTEX
  8
0
 10
9.08666154
 20
3.31593135
  0
VERTEX
  8
0
 10
9.08908621
 20
3.34327037
  0
VERTEX
  8
0
 10
9.09029271
 20
3.37068892
  0
VERTEX
  8
0
 10
9.09026764
 20
3.39813595
  0
VERTEX
  8
0
 10
9.08899757
 20
3.42556040
  0
VERTEX
  8
0
 10
9.08646907
 20
3.45291121
  0
VERTEX
  8
0
 10
9.08266873
 20
3.48013731
  0
VERTEX
  8
0
 10
9.07758311
 20
3.50718766
  0
VERTEX
  8
0
 10
9.07057625
 20
3.53768633
  0
VERTEX
  8
0
 10
9.06215515
 20
3.56770552
  0
VERTEX
  8
0
 10
9.05238291
 20
3.59723543
  0
VERTEX
  8
0
 10
9.04132264
 20
3.62626630
  0
VERTEX
  8
0
 10
9.02903744
 20
3.65478832
  0
VERTEX
  8
0
 10
9.01559042
 20
3.68279171
  0
VERTEX
  8
0
 10
9.00104467
 20
3.71026670
  0
VERTEX
  8
0
 10
8.98546330
 20
3.73720349
  0
VERTEX
  8
0
 10
8.96890941
 20
3.76359230
  0
VERTEX
  8
0
 10
8.95144611
 20
3.78942334
  0
VERTEX
  8
0
 10
8.93313650
 20
3.81468682
  0
VERTEX
  8
0
 10
8.91404368
 20
3.83937297
  0
VERTEX
  8
0
 10
8.89423076
 20
3.86347200
  0
VERTEX
  8
0
 10
8.87376084
 20
3.88697412
  0
VERTEX
  8
0
 10
8.85269702
 20
3.90986954
  0
VERTEX
  8
0
 10
8.83110240
 20
3.93214849
  0
VERTEX
  8
0
 10
8.79980994
 20
3.96256331
  0
VERTEX
  8
0
 10
8.76769074
 20
3.99200763
  0
VERTEX
  8
0
 10
8.73479122
 20
4.02051656
  0
VERTEX
  8
0
 10
8.70115780
 20
4.04812524
  0
VERTEX
  8
0
 10
8.66683689
 20
4.07486879
  0
VERTEX
  8
0
 10
8.63187491
 20
4.10078234
  0
VERTEX
  8
0
 10
8.59631828
 20
4.12590101
  0
VERTEX
  8
0
 10
8.56021342
 20
4.15025993
  0
VERTEX
  8
0
 10
8.52360675
 20
4.17389424
  0
VERTEX
  8
0
 10
8.48654467
 20
4.19683905
  0
VERTEX
  8
0
 10
8.41124001
 20
4.24080070
  0
VERTEX
  8
0
 10
8.33467077
 20
4.28242590
  0
VERTEX
  8
0
 10
8.25720830
 20
4.32199566
  0
SEQEND
  0
POLYLINE
  8
Default_Layer
 66
   1
 39
0.000000
 70
    1
  0
VERTEX
  8
0
 10
7.99325641
 20
4.05735863
  0
VERTEX
  8
0
 10
8.03225077
 20
4.09350401
  0
VERTEX
  8
0
 10
8.07089184
 20
4.13005888
  0
VERTEX
  8
0
 10
8.10824827
 20
4.16788233
  0
VERTEX
  8
0
 10
8.12615369
 20
4.18753825
  0
VERTEX
  8
0
 10
8.14338868
 20
4.20783348
  0
VERTEX
  8
0
 10
8.18267631
 20
4.17685727
  0
VERTEX
  8
0
 10
8.22132286
 20
4.14505294
  0
VERTEX
  8
0
 10
8.25930150
 20
4.11243140
  0
VERTEX
  8
0
 10
8.29658537
 20
4.07900357
  0
VERTEX
  8
0
 10
8.33314764
 20
4.04478037
  0
VERTEX
  8
0
 10
8.36896145
 20
4.00977271
  0
VERTEX
  8
0
 10
8.40399995
 20
3.97399150
  0
VERTEX
  8
0
 10
8.43823631
 20
3.93744765
  0
VERTEX
  8
0
 10
8.47164366
 20
3.90015209
  0
VERTEX
  8
0
 10
8.50419517
 20
3.86211572
  0
VERTEX
  8
0
 10
8.53586399
 20
3.82334946
  0
VERTEX
  8
0
 10
8.56662327
 20
3.78386423
  0
VERTEX
  8
0
 10
8.59644616
 20
3.74367094
  0
VERTEX
  8
0
 10
8.62530582
 20
3.70278050
  0
VERTEX
  8
0
 10
8.65317540
 20
3.66120383
  0
VERTEX
  8
0
 10
8.68002805
 20
3.61895184
  0
VERTEX
  8
0
 10
8.70402233
 20
3.57871939
  0
VERTEX
  8
0
 10
8.72688551
 20
3.53773045
  0
VERTEX
  8
0
 10
8.74854835
 20
3.49602742
  0
VERTEX
  8
0
 10
8.76894160
 20
3.45365272
  0
VERTEX
  8
0
 10
8.78799601
 20
3.41064874
  0
VERTEX
  8
0
 10
8.80564233
 20
3.36705789
  0
VERTEX
  8
0
 10
8.82181130
 20
3.32292257
  0
VERTEX
  8
0
 10
8.83643368
 20
3.27828519
  0
VERTEX
  8
0
 10
8.84944022
 20
3.23318814
  0
VERTEX
  8
0
 10
8.86076166
 20
3.18767384
  0
VERTEX
  8
0
 10
8.87032876
 20
3.14178467
  0
VERTEX
  8
0
 10
8.87807226
 20
3.09556306
  0
VERTEX
  8
0
 10
8.88392292
 20
3.04905140
  0
VERTEX
  8
0
 10
8.88781148
 20
3.00229209
  0
VERTEX
  8
0
 10
8.88966870
 20
2.95532754
  0
VERTEX
  8
0
 10
8.88942532
 20
2.90820015
  0
VERTEX
  8
0
 10
8.88836933
 20
2.87573240
  0
VERTEX
  8
0
 10
8.88598755
 20
2.84338709
  0
VERTEX
  8
0
 10
8.88249576
 20
2.81115018
  0
VERTEX
  8
0
 10
8.87810973
 20
2.77900760
  0
VERTEX
  8
0
 10
8.86751809
 20
2.71494927
  0
VERTEX
  8
0
 10
8.85593889
 20
2.65109970
  0
VERTEX
  8
0
 10
8.84963473
 20
2.62437786
  0
VERTEX
  8
0
 10
8.84201771
 20
2.59801004
  0
VERTEX
  8
0
 10
8.83312181
 20
2.57204920
  0
VERTEX
  8
0
 10
8.82298103
 20
2.54654827
  0
VERTEX
  8
0
 10
8.81162937
 20
2.52156019
  0
VERTEX
  8
0
 10
8.79910084
 20
2.49713792
  0
VERTEX
  8
0
 10
8.78542942
 20
2.47333437
  0
VERTEX
  8
0
 10
8.77064911
 20
2.45020251
  0
VERTEX
  8
0
 10
8.75479392
 20
2.42779527
  0
VERTEX
  8
0
 10
8.73789783
 20
2.40616559
  0
VERTEX
  8
0
 10
8.71999486
 20
2.38536641
  0
VERTEX
  8
0
 10
8.70111899
 20
2.36545068
  0
VERTEX
  8
0
 10
8.68130423
 20
2.34647134
  0
VERTEX
  8
0
 10
8.66058457
 20
2.32848132
  0
VERTEX
  8
0
 10
8.63899401
 20
2.31153357
  0
VERTEX
  8
0
 10
8.61656655
 20
2.29568103
  0
VERTEX
  8
0
 10
8.59336862
 20
2.28069078
  0
VERTEX
  8
0
 10
8.56960037
 20
2.26678821
  0
VERTEX
  8
0
 10
8.54530371
 20
2.25394297
  0
VERTEX
  8
0
 10
8.52052054
 20
2.24212469
  0
VERTEX
  8
0
 10
8.49529277
 20
2.23130301
  0
VERTEX
  8
0
 10
8.46966229
 20
2.22144758
  0
VERTEX
  8
0
 10
8.44367100
 20
2.21252803
  0
VERTEX
  8
0
 10
8.41736081
 20
2.20451400
  0
VERTEX
  8
0
 10
8.39077362
 20
2.19737514
  0
VERTEX
  8
0
 10
8.36395133
 20
2.19108109
  0
VERTEX
  8
0
 10
8.33693584
 20
2.18560148
  0
VERTEX
  8
0
 10
8.30976905
 20
2.18090596
  0
VERTEX
  8
0
 10
8.25514919
 20
2.17374573
  0
VERTEX
  8
0
 10
8.20042696
 20
2.16935753
  0
VERTEX
  8
0
 10
8.16418734
 20
2.16789495
  0
VERTEX
  8
0
 10
8.12796039
 20
2.16736800
  0
VERTEX
  8
0
 10
8.09175477
 20
2.16773880
  0
VERTEX
  8
0
 10
8.05557913
 20
2.16896946
  0
VERTEX
  8
0
 10
8.01944213
 20
2.17102209
  0
VERTEX
  8
0
 10
7.98335243
 20
2.17385881
  0
VERTEX
  8
0
 10
7.91134954
 20
2.18173295
  0
VERTEX
  8
0
 10
7.83963971
 20
2.19228879
  0
VERTEX
  8
0
 10
7.76829219
 20
2.20522323
  0
VERTEX
  8
0
 10
7.69737623
 20
2.22023318
  0
VERTEX
  8
0
 10
7.62696108
 20
2.23701554
  0
VERTEX
  8
0
 10
7.55497140
 20
2.25646956
  0
VERTEX
  8
0
 10
7.48220291
 20
2.27362527
  0
VERTEX
  8
0
 10
7.44556926
 20
2.28120514
  0
VERTEX
  8
0
 10
7.40879209
 20
2.28804709
  0
VERTEX
  8
0
 10
7.37188846
 20
2.29409668
  0
VERTEX
  8
0
 10
7.33487544
 20
2.29929945
  0
VERTEX
  8
0
 10
7.29777009
 20
2.30360097
  0
VERTEX
  8
0
 10
7.26058946
 20
2.30694677
  0
VERTEX
  8
0
 10
7.22335063
 20
2.30928243
  0
VERTEX
  8
0
 10
7.18607064
 20
2.31055348
  0
VERTEX
  8
0
 10
7.14876657
 20
2.31070549
  0
VERTEX
  8
0
 10
7.11145547
 20
2.30968401
  0
VERTEX
  8
0
 10
7.07415441
 20
2.30743458
  0
VERTEX
  8
0
 10
7.03688044
 20
2.30390277
  0
VERTEX
  8
0
 10
6.99182233
 20
2.29717460
  0
VERTEX
  8
0
 10
6.96932645
 20
2.29271336
  0
VERTEX
  8
0
 10
6.94694587
 20
2.28747670
  0
VERTEX
  8
0
 10
6.92475046
 20
2.28143161
  0
VERTEX
  8
0
 10
6.90281009
 20
2.27454510
  0
VERTEX
  8
0
 10
6.88119465
 20
2.26678418
  0
VERTEX
  8
0
 10
6.85997401
 20
2.25811585
  0
VERTEX
  8
0
 10
6.83921805
 20
2.24850712
  0
VERTEX
  8
0
 10
6.81899665
 20
2.23792500
  0
VERTEX
  8
0
 10
6.79937969
 20
2.22633648
  0
VERTEX
  8
0
 10
6.78043704
 20
2.21370859
  0
VERTEX
  8
0
 10
6.76223858
 20
2.20000831
  0
VERTEX
  8
0
 10
6.74485419
 20
2.18520267
  0
VERTEX
  8
0
 10
6.72835375
 20
2.16925865
  0
VERTEX
  8
0
 10
6.71280713
 20
2.15214328
  0
VERTEX
  8
0
 10
6.69563168
 20
2.13053313
  0
VERTEX
  8
0
 10
6.68042335
 20
2.10753395
  0
VERTEX
  8
0
 10
6.66654784
 20
2.08365158
  0
VERTEX
  8
0
 10
6.65337085
 20
2.05939185
  0
VERTEX
  8
0
 10
6.66094119
 20
2.08889822
  0
VERTEX
  8
0
 10
6.66960523
 20
2.11810552
  0
VERTEX
  8
0
 10
6.67934466
 20
2.14697559
  0
VERTEX
  8
0
 10
6.69014116
 20
2.17547030
  0
VERTEX
  8
0
 10
6.70197642
 20
2.20355152
  0
VERTEX
  8
0
 10
6.71483212
 20
2.23118111
  0
VERTEX
  8
0
 10
6.72868994
 20
2.25832092
  0
VERTEX
  8
0
 10
6.74353157
 20
2.28493283
  0
VERTEX
  8
0
 10
6.75933870
 20
2.31097869
  0
VERTEX
  8
0
 10
6.77609300
 20
2.33642036
  0
VERTEX
  8
0
 10
6.79377615
 20
2.36121971
  0
VERTEX
  8
0
 10
6.81236985
 20
2.38533860
  0
VERTEX
  8
0
 10
6.83185578
 20
2.40873890
  0
VERTEX
  8
0
 10
6.85221562
 20
2.43138245
  0
VERTEX
  8
0
 10
6.87343105
 20
2.45323113
  0
VERTEX
  8
0
 10
6.89548376
 20
2.47424680
  0
VERTEX
  8
0
 10
6.91319209
 20
2.48989376
  0
VERTEX
  8
0
 10
6.93139195
 20
2.50494080
  0
VERTEX
  8
0
 10
6.95006101
 20
2.51938416
  0
VERTEX
  8
0
 10
6.96917693
 20
2.53322007
  0
VERTEX
  8
0
 10
7.00866005
 20
2.55905450
  0
VERTEX
  8
0
 10
7.04966267
 20
2.58241397
  0
VERTEX
  8
0
 10
7.09200613
 20
2.60326839
  0
VERTEX
  8
0
 10
7.13551180
 20
2.62158764
  0
VERTEX
  8
0
 10
7.18000102
 20
2.63734161
  0
VERTEX
  8
0
 10
7.22529516
 20
2.65050020
  0
VERTEX
  8
0
 10
7.27344445
 20
2.66178702
  0
VERTEX
  8
0
 10
7.32205441
 20
2.67055673
  0
VERTEX
  8
0
 10
7.37102367
 20
2.67694182
  0
VERTEX
  8
0
 10
7.42025086
 20
2.68107477
  0
VERTEX
  8
0
 10
7.46963462
 20
2.68308805
  0
VERTEX
  8
0
 10
7.51907358
 20
2.68311415
  0
VERTEX
  8
0
 10
7.56846637
 20
2.68128553
  0
VERTEX
  8
0
 10
7.61771163
 20
2.67773469
  0
VERTEX
  8
0
 10
7.64784309
 20
2.67496250
  0
VERTEX
  8
0
 10
7.67788524
 20
2.67119772
  0
VERTEX
  8
0
 10
7.73785812
 20
2.66256517
  0
VERTEX
  8
0
 10
7.76786715
 20
2.65863479
  0
VERTEX
  8
0
 10
7.79794342
 20
2.65558660
  0
VERTEX
  8
0
 10
7.82812607
 20
2.65388929
  0
VERTEX
  8
0
 10
7.85845425
 20
2.65401157
  0
VERTEX
  8
0
 10
7.88172129
 20
2.65469675
  0
VERTEX
  8
0
 10
7.90509810
 20
2.65613692
  0
VERTEX
  8
0
 10
7.92851179
 20
2.65837246
  0
VERTEX
  8
0
 10
7.95188948
 20
2.66144378
  0
VERTEX
  8
0
 10
7.97515828
 20
2.66539126
  0
VERTEX
  8
0
 10
7.99824529
 20
2.67025531
  0
VERTEX
  8
0
 10
8.02107763
 20
2.67607632
  0
VERTEX
  8
0
 10
8.04358241
 20
2.68289469
  0
VERTEX
  8
0
 10
8.06568675
 20
2.69075081
  0
VERTEX
  8
0
 10
8.08731774
 20
2.69968507
  0
VERTEX
  8
0
 10
8.10840252
 20
2.70973789
  0
VERTEX
  8
0
 10
8.12886817
 20
2.72094964
  0
VERTEX
  8
0
 10
8.14864183
 20
2.73336073
  0
VERTEX
  8
0
 10
8.16765059
 20
2.74701156
  0
VERTEX
  8
0
 10
8.18582158
 20
2.76194251
  0
VERTEX
  8
0
 10
8.20308189
 20
2.77819399
  0
VERTEX
  8
0
 10
8.21733492
 20
2.79335691
  0
VERTEX
  8
0
 10
8.23050088
 20
2.80929112
  0
VERTEX
  8
0
 10
8.24260677
 20
2.82593690
  0
VERTEX
  8
0
 10
8.25367954
 20
2.84323454
  0
VERTEX
  8
0
 10
8.26374617
 20
2.86112432
  0
VERTEX
  8
0
 10
8.27283364
 20
2.87954652
  0
VERTEX
  8
0
 10
8.28096892
 20
2.89844144
  0
VERTEX
  8
0
 10
8.28817897
 20
2.91774935
  0
VERTEX
  8
0
 10
8.29449078
 20
2.93741053
  0
VERTEX
  8
0
 10
8.29993131
 20
2.95736528
  0
VERTEX
  8
0
 10
8.30452753
 20
2.97755387
  0
VERTEX
  8
0
 10
8.30830643
 20
2.99791660
  0
VERTEX
  8
0
 10
8.31129496
 20
3.01839373
  0
VERTEX
  8
0
 10
8.31352011
 20
3.03892557
  0
VERTEX
  8
0
 10
8.31578815
 20
3.07991447
  0
VERTEX
  8
0
 10
8.31591279
 20
3.10915235
  0
VERTEX
  8
0
 10
8.31506704
 20
3.13831483
  0
VERTEX
  8
0
 10
8.31330022
 20
3.16739678
  0
VERTEX
  8
0
 10
8.31066161
 20
3.19639303
  0
VERTEX
  8
0
 10
8.30720053
 20
3.22529846
  0
VERTEX
  8
0
 10
8.30296628
 20
3.25410792
  0
VERTEX
  8
0
 10
8.29237548
 20
3.31141835
  0
VERTEX
  8
0
 10
8.27928364
 20
3.36828316
  0
VERTEX
  8
0
 10
8.26408517
 20
3.42466121
  0
VERTEX
  8
0
 10
8.24717452
 20
3.48051135
  0
VERTEX
  8
0
 10
8.22894609
 20
3.53579244
  0
VERTEX
  8
0
 10
8.20439916
 20
3.60308881
  0
VERTEX
  8
0
 10
8.17818519
 20
3.66972479
  0
VERTEX
  8
0
 10
8.15043567
 20
3.73573050
  0
VERTEX
  8
0
 10
8.12128207
 20
3.80113603
  0
VERTEX
  8
0
 10
8.09085587
 20
3.86597150
  0
VERTEX
  8
0
 10
8.05928855
 20
3.93026702
  0
VERTEX
  8
0
 10
8.02671157
 20
3.99405269
  0
VERTEX
  8
0
 10
7.99325641
 20
4.05735863
  0
SEQEND
  0
POLYLINE
  8
Default_Layer
 66
   1
 39
0.000000
 70
    1
  0
VERTEX
  8
0
 10
7.93536171
 20
3.90517093
  0
VERTEX
  8
0
 10
7.96524478
 20
3.86591212
  0
VERTEX
  8
0
 10
7.99364448
 20
3.82551620
  0
VERTEX
  8
0
 10
8.02050663
 20
3.78405041
  0
VERTEX
  8
0
 10
8.04577702
 20
3.74158199
  0
VERTEX
  8
0
 10
8.06940145
 20
3.69817819
  0
VERTEX
  8
0
 10
8.09132574
 20
3.65390625
  0
VERTEX
  8
0
 10
8.11149568
 20
3.60883342
  0
VERTEX
  8
0
 10
8.12985708
 20
3.56302693
  0
VERTEX
  8
0
 10
8.14239409
 20
3.52503035
  0
VERTEX
  8
0
 10
8.15301015
 20
3.48597093
  0
VERTEX
  8
0
 10
8.16110107
 20
3.44619090
  0
VERTEX
  8
0
 10
8.16401080
 20
3.42613761
  0
VERTEX
  8
0
 10
8.16606268
 20
3.40603251
  0
VERTEX
  8
0
 10
8.16718119
 20
3.38591837
  0
VERTEX
  8
0
 10
8.16729079
 20
3.36583798
  0
VERTEX
  8
0
 10
8.16631597
 20
3.34583412
  0
VERTEX
  8
0
 10
8.16418121
 20
3.32594956
  0
VERTEX
  8
0
 10
8.16081098
 20
3.30622709
  0
VERTEX
  8
0
 10
8.15612976
 20
3.28670949
  0
VERTEX
  8
0
 10
8.15006203
 20
3.26743953
  0
VERTEX
  8
0
 10
8.14253225
 20
3.24846000
  0
VERTEX
  8
0
 10
8.13492002
 20
3.23273258
  0
VERTEX
  8
0
 10
8.12625974
 20
3.21775663
  0
VERTEX
  8
0
 10
8.11661942
 20
3.20352286
  0
VERTEX
  8
0
 10
8.10606705
 20
3.19002199
  0
VERTEX
  8
0
 10
8.09467063
 20
3.17724475
  0
VERTEX
  8
0
 10
8.08249815
 20
3.16518183
  0
VERTEX
  8
0
 10
8.06961761
 20
3.15382396
  0
VERTEX
  8
0
 10
8.05609700
 20
3.14316186
  0
VERTEX
  8
0
 10
8.04200433
 20
3.13318625
  0
VERTEX
  8
0
 10
8.02740758
 20
3.12388783
  0
VERTEX
  8
0
 10
8.01237476
 20
3.11525732
  0
VERTEX
  8
0
 10
7.99697386
 20
3.10728545
  0
VERTEX
  8
0
 10
7.96533979
 20
3.09328047
  0
VERTEX
  8
0
 10
7.93304935
 20
3.08179862
  0
VERTEX
  8
0
 10
7.90725515
 20
3.07419903
  0
VERTEX
  8
0
 10
7.88127076
 20
3.06752215
  0
VERTEX
  8
0
 10
7.85511475
 20
3.06171919
  0
VERTEX
  8
0
 10
7.82880569
 20
3.05674133
  0
VERTEX
  8
0
 10
7.80236215
 20
3.05253978
  0
VERTEX
  8
0
 10
7.77580268
 20
3.04906574
  0
VERTEX
  8
0
 10
7.72241026
 20
3.04410497
  0
VERTEX
  8
0
 10
7.66877697
 20
3.04146860
  0
VERTEX
  8
0
 10
7.61505134
 20
3.04076623
  0
VERTEX
  8
0
 10
7.56138192
 20
3.04160743
  0
VERTEX
  8
0
 10
7.50791723
 20
3.04360181
  0
VERTEX
  8
0
 10
7.43669031
 20
3.04853833
  0
VERTEX
  8
0
 10
7.36556777
 20
3.05496022
  0
VERTEX
  8
0
 10
7.29468610
 20
3.06338937
  0
VERTEX
  8
0
 10
7.22418180
 20
3.07434767
  0
VERTEX
  8
0
 10
7.28624357
 20
3.07305132
  0
VERTEX
  8
0
 10
7.34841775
 20
3.07402918
  0
VERTEX
  8
0
 10
7.41054376
 20
3.07745190
  0
VERTEX
  8
0
 10
7.47246101
 20
3.08349007
  0
VERTEX
  8
0
 10
7.53400892
 20
3.09231431
  0
VERTEX
  8
0
 10
7.56459420
 20
3.09782453
  0
VERTEX
  8
0
 10
7.59502692
 20
3.10409525
  0
VERTEX
  8
0
 10
7.62528702
 20
3.11114780
  0
VERTEX
  8
0
 10
7.65535442
 20
3.11900350
  0
VERTEX
  8
0
 10
7.68520906
 20
3.12768368
  0
VERTEX
  8
0
 10
7.71483085
 20
3.13720967
  0
VERTEX
  8
0
 10
7.75204426
 20
3.15123958
  0
VERTEX
  8
0
 10
7.78865650
 20
3.16734398
  0
VERTEX
  8
0
 10
7.82427514
 20
3.18566240
  0
VERTEX
  8
0
 10
7.85850777
 20
3.20633432
  0
VERTEX
  8
0
 10
7.87498171
 20
3.21759644
  0
VERTEX
  8
0
 10
7.89096198
 20
3.22949926
  0
VERTEX
  8
0
 10
7.90639953
 20
3.24206021
  0
VERTEX
  8
0
 10
7.92124533
 20
3.25529672
  0
VERTEX
  8
0
 10
7.93545030
 20
3.26922624
  0
VERTEX
  8
0
 10
7.94896541
 20
3.28386621
  0
VERTEX
  8
0
 10
7.96174159
 20
3.29923405
  0
VERTEX
  8
0
 10
7.97372980
 20
3.31534722
  0
VERTEX
  8
0
 10
7.98337273
 20
3.32964587
  0
VERTEX
  8
0
 10
7.99220511
 20
3.34438373
  0
VERTEX
  8
0
 10
8.00023935
 20
3.35952430
  0
VERTEX
  8
0
 10
8.00748788
 20
3.37503106
  0
VERTEX
  8
0
 10
8.01396311
 20
3.39086752
  0
VERTEX
  8
0
 10
8.01967746
 20
3.40699716
  0
VERTEX
  8
0
 10
8.02464336
 20
3.42338349
  0
VERTEX
  8
0
 10
8.02887322
 20
3.43998998
  0
VERTEX
  8
0
 10
8.03517451
 20
3.47371745
  0
VERTEX
  8
0
 10
8.03868069
 20
3.50788752
  0
VERTEX
  8
0
 10
8.03949112
 20
3.54220814
  0
VERTEX
  8
0
 10
8.03770516
 20
3.57638725
  0
VERTEX
  8
0
 10
8.03559513
 20
3.59803112
  0
VERTEX
  8
0
 10
8.03269989
 20
3.61951204
  0
VERTEX
  8
0
 10
8.02473693
 20
3.66199952
  0
VERTEX
  8
0
 10
8.01418259
 20
3.70387881
  0
VERTEX
  8
0
 10
8.00140321
 20
3.74517900
  0
VERTEX
  8
0
 10
7.98676510
 20
3.78592920
  0
VERTEX
  8
0
 10
7.97063460
 20
3.82615852
  0
VERTEX
  8
0
 10
7.95337803
 20
3.86589606
  0
VERTEX
  8
0
 10
7.93536171
 20
3.90517093
  0
SEQEND
  0
POLYLINE
  8
Default_Layer
 66
   1
 39
0.000000
 70
    1
  0
VERTEX
  8
0
 10
7.64451790
 20
3.81481751
  0
VERTEX
  8
0
 10
7.66146368
 20
3.82137305
  0
VERTEX
  8
0
 10
7.67806723
 20
3.82873852
  0
VERTEX
  8
0
 10
7.69423520
 20
3.83696109
  0
VERTEX
  8
0
 10
7.70987426
 20
3.84608792
  0
VERTEX
  8
0
 10
7.72489106
 20
3.85616621
  0
VERTEX
  8
0
 10
7.73919228
 20
3.86724310
  0
VERTEX
  8
0
 10
7.75268458
 20
3.87936577
  0
VERTEX
  8
0
 10
7.76527461
 20
3.89258140
  0
VERTEX
  8
0
 10
7.75275918
 20
3.85237633
  0
VERTEX
  8
0
 10
7.73834388
 20
3.81264699
  0
VERTEX
  8
0
 10
7.72184705
 20
3.77370851
  0
VERTEX
  8
0
 10
7.70308704
 20
3.73587602
  0
VERTEX
  8
0
 10
7.69280158
 20
3.71747301
  0
VERTEX
  8
0
 10
7.68188219
 20
3.69946468
  0
VERTEX
  8
0
 10
7.67030618
 20
3.68189041
  0
VERTEX
  8
0
 10
7.65805084
 20
3.66478961
  0
VERTEX
  8
0
 10
7.64509346
 20
3.64820166
  0
VERTEX
  8
0
 10
7.63141134
 20
3.63216596
  0
VERTEX
  8
0
 10
7.61698176
 20
3.61672190
  0
VERTEX
  8
0
 10
7.60178202
 20
3.60190888
  0
VERTEX
  8
0
 10
7.61751625
 20
3.65406014
  0
VERTEX
  8
0
 10
7.62442691
 20
3.68041478
  0
VERTEX
  8
0
 10
7.63053667
 20
3.70695008
  0
VERTEX
  8
0
 10
7.63572310
 20
3.73366201
  0
VERTEX
  8
0
 10
7.63986374
 20
3.76054657
  0
VERTEX
  8
0
 10
7.64283615
 20
3.78759974
  0
VERTEX
  8
0
 10
7.64451790
 20
3.81481751
  0
SEQEND
  0
POLYLINE
  8
Default_Layer
 66
   1
 39
0.000000
 70
    1
  0
VERTEX
  8
0
 10
6.41108665
 20
10.22168865
  0
VERTEX
  8
0
 10
6.47496378
 20
10.22637989
  0
VERTEX
  8
0
 10
6.53892999
 20
10.22906549
  0
VERTEX
  8
0
 10
6.60293182
 20
10.22976517
  0
VERTEX
  8
0
 10
6.66691583
 20
10.22849861
  0
VERTEX
  8
0
 10
6.73082859
 20
10.22528551
  0
VERTEX
  8
0
 10
6.79461665
 20
10.22014557
  0
VERTEX
  8
0
 10
6.85822657
 20
10.21309848
  0
VERTEX
  8
0
 10
6.92160489
 20
10.20416394
  0
VERTEX
  8
0
 10
6.98469819
 20
10.19336165
  0
VERTEX
  8
0
 10
7.04745301
 20
10.18071129
  0
VERTEX
  8
0
 10
7.10981591
 20
10.16623258
  0
VERTEX
  8
0
 10
7.17173346
 20
10.14994520
  0
VERTEX
  8
0
 10
7.23315220
 20
10.13186885
  0
VERTEX
  8
0
 10
7.29401869
 20
10.11202322
  0
VERTEX
  8
0
 10
7.35427949
 20
10.09042802
  0
VERTEX
  8
0
 10
7.41388116
 20
10.06710294
  0
VERTEX
  8
0
 10
7.47467067
 20
10.04153280
  0
VERTEX
  8
0
 10
7.53473154
 20
10.01432273
  0
VERTEX
  8
0
 10
7.59404972
 20
9.98553496
  0
VERTEX
  8
0
 10
7.65261117
 20
9.95523170
  0
VERTEX
  8
0
 10
7.71040183
 20
9.92347519
  0
VERTEX
  8
0
 10
7.76740765
 20
9.89032765
  0
VERTEX
  8
0
 10
7.82361459
 20
9.85585130
  0
VERTEX
  8
0
 10
7.87900858
 20
9.82010837
  0
VERTEX
  8
0
 10
7.48205303
 20
9.55324462
  0
VERTEX
  8
0
 10
7.46040675
 20
9.53907739
  0
VERTEX
  8
0
 10
7.43882470
 20
9.52456490
  0
VERTEX
  8
0
 10
7.42881048
 20
9.51650927
  0
VERTEX
  8
0
 10
7.41971559
 20
9.50756342
  0
VERTEX
  8
0
 10
7.41184112
 20
9.49745938
  0
VERTEX
  8
0
 10
7.40548814
 20
9.48592918
  0
VERTEX
  8
0
 10
7.36640856
 20
9.41525976
  0
VERTEX
  8
0
 10
7.32971210
 20
9.34318613
  0
VERTEX
  8
0
 10
7.29548759
 20
9.26981155
  0
VERTEX
  8
0
 10
7.26382383
 20
9.19523926
  0
VERTEX
  8
0
 10
7.23480965
 20
9.11957252
  0
VERTEX
  8
0
 10
7.20853388
 20
9.04291456
  0
VERTEX
  8
0
 10
7.18508533
 20
8.96536865
  0
VERTEX
  8
0
 10
7.17444902
 20
8.92629497
  0
VERTEX
  8
0
 10
7.16455282
 20
8.88703802
  0
VERTEX
  8
0
 10
7.15540784
 20
8.84761070
  0
VERTEX
  8
0
 10
7.14702519
 20
8.80802593
  0
VERTEX
  8
0
 10
7.13941595
 20
8.76829659
  0
VERTEX
  8
0
 10
7.13259124
 20
8.72843562
  0
VERTEX
  8
0
 10
7.12656215
 20
8.68845589
  0
VERTEX
  8
0
 10
7.12133980
 20
8.64837034
  0
VERTEX
  8
0
 10
7.11693527
 20
8.60819185
  0
VERTEX
  8
0
 10
7.11335969
 20
8.56793334
  0
VERTEX
  8
0
 10
7.11062414
 20
8.52760771
  0
VERTEX
  8
0
 10
7.10873973
 20
8.48722787
  0
VERTEX
  8
0
 10
7.10771756
 20
8.44680673
  0
VERTEX
  8
0
 10
7.10756875
 20
8.40635718
  0
VERTEX
  8
0
 10
7.10830437
 20
8.36589215
  0
VERTEX
  8
0
 10
7.10993555
 20
8.32542452
  0
VERTEX
  8
0
 10
7.11247339
 20
8.28496721
  0
VERTEX
  8
0
 10
7.11592898
 20
8.24453313
  0
VERTEX
  8
0
 10
7.18841378
 20
8.18452545
  0
VERTEX
  8
0
 10
7.22436463
 20
8.15400023
  0
VERTEX
  8
0
 10
7.25967014
 20
8.12275941
  0
VERTEX
  8
0
 10
7.29399209
 20
8.09052702
  0
VERTEX
  8
0
 10
7.32699227
 20
8.05702703
  0
VERTEX
  8
0
 10
7.35833244
 20
8.02198347
  0
VERTEX
  8
0
 10
7.38767439
 20
7.98512032
  0
VERTEX
  8
0
 10
7.37415706
 20
8.01655893
  0
VERTEX
  8
0
 10
7.36172103
 20
8.04838846
  0
VERTEX
  8
0
 10
7.35033956
 20
8.08057829
  0
VERTEX
  8
0
 10
7.33998593
 20
8.11309781
  0
VERTEX
  8
0
 10
7.33063342
 20
8.14591641
  0
VERTEX
  8
0
 10
7.32225530
 20
8.17900348
  0
VERTEX
  8
0
 10
7.31482487
 20
8.21232842
  0
VERTEX
  8
0
 10
7.30831539
 20
8.24586060
  0
VERTEX
  8
0
 10
7.30270015
 20
8.27956942
  0
VERTEX
  8
0
 10
7.29795242
 20
8.31342427
  0
VERTEX
  8
0
 10
7.29404547
 20
8.34739454
  0
VERTEX
  8
0
 10
7.29095260
 20
8.38144961
  0
VERTEX
  8
0
 10
7.28864708
 20
8.41555888
  0
VERTEX
  8
0
 10
7.28710218
 20
8.44969173
  0
VERTEX
  8
0
 10
7.28618737
 20
8.51790576
  0
VERTEX
  8
0
 10
7.28806010
 20
8.57707448
  0
VERTEX
  8
0
 10
7.29203619
 20
8.63607510
  0
VERTEX
  8
0
 10
7.29806118
 20
8.69486396
  0
VERTEX
  8
0
 10
7.30608064
 20
8.75339739
  0
VERTEX
  8
0
 10
7.31604012
 20
8.81163174
  0
VERTEX
  8
0
 10
7.32788516
 20
8.86952335
  0
VERTEX
  8
0
 10
7.34156133
 20
8.92702856
  0
VERTEX
  8
0
 10
7.35701417
 20
8.98410371
  0
VERTEX
  8
0
 10
7.37418924
 20
9.04070516
  0
VERTEX
  8
0
 10
7.39303210
 20
9.09678923
  0
VERTEX
  8
0
 10
7.41348828
 20
9.15231227
  0
VERTEX
  8
0
 10
7.43550335
 20
9.20723063
  0
VERTEX
  8
0
 10
7.45902287
 20
9.26150064
  0
VERTEX
  8
0
 10
7.48399238
 20
9.31507865
  0
VERTEX
  8
0
 10
7.51035743
 20
9.36792100
  0
VERTEX
  8
0
 10
7.53806359
 20
9.41998403
  0
VERTEX
  8
0
 10
7.76347209
 20
9.57429274
  0
VERTEX
  8
0
 10
7.98969152
 20
9.72758176
  0
VERTEX
  8
0
 10
8.21615183
 20
9.88056568
  0
VERTEX
  8
0
 10
8.44228294
 20
10.03395908
  0
VERTEX
  8
0
 10
9.61199576
 20
9.22797231
  0
VERTEX
  8
0
 10
9.62451754
 20
9.18071493
  0
VERTEX
  8
0
 10
9.63855179
 20
9.13390027
  0
VERTEX
  8
0
 10
9.65406540
 20
9.08756159
  0
VERTEX
  8
0
 10
9.67102523
 20
9.04173212
  0
VERTEX
  8
0
 10
9.68939817
 20
8.99644512
  0
VERTEX
  8
0
 10
9.70915111
 20
8.95173382
  0
VERTEX
  8
0
 10
9.73025091
 20
8.90763147
  0
VERTEX
  8
0
 10
9.75266447
 20
8.86417132
  0
VERTEX
  8
0
 10
9.77635866
 20
8.82138662
  0
VERTEX
  8
0
 10
9.80130036
 20
8.77931060
  0
VERTEX
  8
0
 10
9.82745645
 20
8.73797652
  0
VERTEX
  8
0
 10
9.85479381
 20
8.69741761
  0
VERTEX
  8
0
 10
9.88327933
 20
8.65766713
  0
VERTEX
  8
0
 10
9.91287987
 20
8.61875831
  0
VERTEX
  8
0
 10
9.94356233
 20
8.58072441
  0
VERTEX
  8
0
 10
9.97529359
 20
8.54359867
  0
VERTEX
  8
0
 10
9.97545417
 20
8.48222472
  0
VERTEX
  8
0
 10
9.97664246
 20
8.45149559
  0
VERTEX
  8
0
 10
9.97889059
 20
8.42085077
  0
VERTEX
  8
0
 10
9.98243943
 20
8.39037455
  0
VERTEX
  8
0
 10
9.98752984
 20
8.36015125
  0
VERTEX
  8
0
 10
9.99440269
 20
8.33026517
  0
VERTEX
  8
0
 10
10.00329886
 20
8.30080062
  0
VERTEX
  8
0
 10
9.94811823
 20
8.30357505
  0
VERTEX
  8
0
 10
9.89302741
 20
8.30740768
  0
VERTEX
  8
0
 10
9.83803194
 20
8.31225874
  0
VERTEX
  8
0
 10
9.78313734
 20
8.31808847
  0
VERTEX
  8
0
 10
9.72834912
 20
8.32485709
  0
VERTEX
  8
0
 10
9.67367280
 20
8.33252484
  0
VERTEX
  8
0
 10
9.61911391
 20
8.34105195
  0
VERTEX
  8
0
 10
9.56467797
 20
8.35039865
  0
VERTEX
  8
0
 10
9.51037049
 20
8.36052517
  0
VERTEX
  8
0
 10
9.45619699
 20
8.37139174
  0
VERTEX
  8
0
 10
9.34827403
 20
8.39518595
  0
VERTEX
  8
0
 10
9.24095325
 20
8.42146315
  0
VERTEX
  8
0
 10
9.13427881
 20
8.44990517
  0
VERTEX
  8
0
 10
9.02417262
 20
8.48217788
  0
VERTEX
  8
0
 10
8.91482919
 20
8.51699580
  0
VERTEX
  8
0
 10
8.80627261
 20
8.55423848
  0
VERTEX
  8
0
 10
8.69852695
 20
8.59378550
  0
VERTEX
  8
0
 10
8.69946635
 20
8.62819678
  0
VERTEX
  8
0
 10
8.70215608
 20
8.66282584
  0
VERTEX
  8
0
 10
8.70698153
 20
8.69728028
  0
VERTEX
  8
0
 10
8.71432810
 20
8.73116766
  0
VERTEX
  8
0
 10
8.71906724
 20
8.74777608
  0
VERTEX
  8
0
 10
8.72458118
 20
8.76409558
  0
VERTEX
  8
0
 10
8.73091809
 20
8.78007710
  0
VERTEX
  8
0
 10
8.73812616
 20
8.79567160
  0
VERTEX
  8
0
 10
8.74625355
 20
8.81083002
  0
VERTEX
  8
0
 10
8.75534844
 20
8.82550332
  0
VERTEX
  8
0
 10
8.76545901
 20
8.83964243
  0
VERTEX
  8
0
 10
8.77663342
 20
8.85319831
  0
VERTEX
  8
0
 10
8.75841096
 20
8.84827530
  0
VERTEX
  8
0
 10
8.74131720
 20
8.84162679
  0
VERTEX
  8
0
 10
8.72530059
 20
8.83339005
  0
VERTEX
  8
0
 10
8.71030956
 20
8.82370230
  0
VERTEX
  8
0
 10
8.69629256
 20
8.81270081
  0
VERTEX
  8
0
 10
8.68319802
 20
8.80052281
  0
VERTEX
  8
0
 10
8.67097438
 20
8.78730555
  0
VERTEX
  8
0
 10
8.65957007
 20
8.77318629
  0
VERTEX
  8
0
 10
8.64893354
 20
8.75830225
  0
VERTEX
  8
0
 10
8.63901323
 20
8.74279070
  0
VERTEX
  8
0
 10
8.62111500
 20
8.71043401
  0
VERTEX
  8
0
 10
8.60546290
 20
8.67721421
  0
VERTEX
  8
0
 10
8.59164442
 20
8.64422926
  0
VERTEX
  8
0
 10
8.58927636
 20
8.66705087
  0
VERTEX
  8
0
 10
8.58771020
 20
8.69000748
  0
VERTEX
  8
0
 10
8.58696701
 20
8.71305140
  0
VERTEX
  8
0
 10
8.58706787
 20
8.73613496
  0
VERTEX
  8
0
 10
8.58803387
 20
8.75921049
  0
VERTEX
  8
0
 10
8.58988606
 20
8.78223033
  0
VERTEX
  8
0
 10
8.59264554
 20
8.80514678
  0
VERTEX
  8
0
 10
8.59633338
 20
8.82791220
  0
VERTEX
  8
0
 10
8.60097065
 20
8.85047889
  0
VERTEX
  8
0
 10
8.60657843
 20
8.87279919
  0
VERTEX
  8
0
 10
8.61317780
 20
8.89482543
  0
VERTEX
  8
0
 10
8.62078983
 20
8.91650993
  0
VERTEX
  8
0
 10
8.62943559
 20
8.93780503
  0
VERTEX
  8
0
 10
8.63913617
 20
8.95866304
  0
VERTEX
  8
0
 10
8.64991264
 20
8.97903630
  0
VERTEX
  8
0
 10
8.66178608
 20
8.99887714
  0
VERTEX
  8
0
 10
8.67472153
 20
9.01818446
  0
VERTEX
  8
0
 10
8.68880111
 20
9.03660960
  0
VERTEX
  8
0
 10
8.70393250
 20
9.05416157
  0
VERTEX
  8
0
 10
8.72002336
 20
9.07084942
  0
VERTEX
  8
0
 10
8.73698135
 20
9.08668218
  0
VERTEX
  8
0
 10
8.75471415
 20
9.10166888
  0
VERTEX
  8
0
 10
8.77312941
 20
9.11581855
  0
VERTEX
  8
0
 10
8.79213481
 20
9.12914022
  0
VERTEX
  8
0
 10
8.77895931
 20
9.15250330
  0
VERTEX
  8
0
 10
8.76452413
 20
9.17503888
  0
VERTEX
  8
0
 10
8.74889036
 20
9.19671435
  0
VERTEX
  8
0
 10
8.73211910
 20
9.21749709
  0
VERTEX
  8
0
 10
8.71427145
 20
9.23735449
  0
VERTEX
  8
0
 10
8.69540851
 20
9.25625392
  0
VERTEX
  8
0
 10
8.67559136
 20
9.27416277
  0
VERTEX
  8
0
 10
8.65488111
 20
9.29104842
  0
VERTEX
  8
0
 10
8.63333885
 20
9.30687825
  0
VERTEX
  8
0
 10
8.61102568
 20
9.32161964
  0
VERTEX
  8
0
 10
8.58800269
 20
9.33523998
  0
VERTEX
  8
0
 10
8.56433098
 20
9.34770665
  0
VERTEX
  8
0
 10
8.54007165
 20
9.35898703
  0
VERTEX
  8
0
 10
8.51528578
 20
9.36904849
  0
VERTEX
  8
0
 10
8.49003448
 20
9.37785844
  0
VERTEX
  8
0
 10
8.46437885
 20
9.38538424
  0
VERTEX
  8
0
 10
8.40526774
 20
9.32497109
  0
VERTEX
  8
0
 10
8.34663035
 20
9.26402803
  0
VERTEX
  8
0
 10
8.28768786
 20
9.20340613
  0
VERTEX
  8
0
 10
8.22766145
 20
9.14395647
  0
VERTEX
  8
0
 10
8.18015230
 20
9.17463140
  0
VERTEX
  8
0
 10
8.13310081
 20
9.20603698
  0
VERTEX
  8
0
 10
8.03898980
 20
9.26882404
  0
VERTEX
  8
0
 10
8.07493022
 20
9.22203295
  0
VERTEX
  8
0
 10
8.10891016
 20
9.17385761
  0
VERTEX
  8
0
 10
8.14092024
 20
9.12438306
  0
VERTEX
  8
0
 10
8.17095103
 20
9.07369438
  0
VERTEX
  8
0
 10
8.19899313
 20
9.02187661
  0
VERTEX
  8
0
 10
8.22503713
 20
8.96901481
  0
VERTEX
  8
0
 10
8.24907361
 20
8.91519405
  0
VERTEX
  8
0
 10
8.27109318
 20
8.86049938
  0
VERTEX
  8
0
 10
8.29108642
 20
8.80501585
  0
VERTEX
  8
0
 10
8.30904393
 20
8.74882853
  0
VERTEX
  8
0
 10
8.32495629
 20
8.69202247
  0
VERTEX
  8
0
 10
8.33881409
 20
8.63468273
  0
VERTEX
  8
0
 10
8.35060793
 20
8.57689437
  0
VERTEX
  8
0
 10
8.36032839
 20
8.51874245
  0
VERTEX
  8
0
 10
8.36796608
 20
8.46031201
  0
VERTEX
  8
0
 10
8.37351157
 20
8.40168813
  0
VERTEX
  8
0
 10
8.37691688
 20
8.34432713
  0
VERTEX
  8
0
 10
8.37826877
 20
8.28696073
  0
VERTEX
  8
0
 10
8.37761541
 20
8.22963373
  0
VERTEX
  8
0
 10
8.37500497
 20
8.17239090
  0
VERTEX
  8
0
 10
8.37048563
 20
8.11527704
  0
VERTEX
  8
0
 10
8.36410555
 20
8.05833694
  0
VERTEX
  8
0
 10
8.35591292
 20
8.00161537
  0
VERTEX
  8
0
 10
8.34595592
 20
7.94515713
  0
VERTEX
  8
0
 10
8.33428270
 20
7.88900701
  0
VERTEX
  8
0
 10
8.32094145
 20
7.83320979
  0
VERTEX
  8
0
 10
8.30598035
 20
7.77781025
  0
VERTEX
  8
0
 10
8.28944756
 20
7.72285319
  0
VERTEX
  8
0
 10
8.27139126
 20
7.66838340
  0
VERTEX
  8
0
 10
8.25185963
 20
7.61444565
  0
VERTEX
  8
0
 10
8.23090083
 20
7.56108474
  0
VERTEX
  8
0
 10
8.20856305
 20
7.50834545
  0
VERTEX
  8
0
 10
8.18206489
 20
7.44976025
  0
VERTEX
  8
0
 10
8.15401110
 20
7.39192978
  0
VERTEX
  8
0
 10
8.12448398
 20
7.33484600
  0
VERTEX
  8
0
 10
8.09356584
 20
7.27850090
  0
VERTEX
  8
0
 10
8.06133896
 20
7.22288645
  0
VERTEX
  8
0
 10
8.02788565
 20
7.16799460
  0
VERTEX
  8
0
 10
7.99328819
 20
7.11381734
  0
VERTEX
  8
0
 10
7.95762890
 20
7.06034664
  0
VERTEX
  8
0
 10
7.80826742
 20
7.18838300
  0
VERTEX
  8
0
 10
7.78700636
 20
7.16468033
  0
VERTEX
  8
0
 10
7.76472060
 20
7.14198354
  0
VERTEX
  8
0
 10
7.74146333
 20
7.12031095
  0
VERTEX
  8
0
 10
7.71728773
 20
7.09968089
  0
VERTEX
  8
0
 10
7.69224701
 20
7.08011166
  0
VERTEX
  8
0
 10
7.66639435
 20
7.06162158
  0
VERTEX
  8
0
 10
7.63978294
 20
7.04422898
  0
VERTEX
  8
0
 10
7.61246599
 20
7.02795215
  0
VERTEX
  8
0
 10
7.58449667
 20
7.01280943
  0
VERTEX
  8
0
 10
7.55592819
 20
6.99881913
  0
VERTEX
  8
0
 10
7.52681374
 20
6.98599956
  0
VERTEX
  8
0
 10
7.49720650
 20
6.97436904
  0
VERTEX
  8
0
 10
7.46715967
 20
6.96394589
  0
VERTEX
  8
0
 10
7.43672644
 20
6.95474842
  0
VERTEX
  8
0
 10
7.40596001
 20
6.94679495
  0
VERTEX
  8
0
 10
7.37491357
 20
6.94010379
  0
VERTEX
  8
0
 10
7.33265508
 20
6.93261738
  0
VERTEX
  8
0
 10
7.29014568
 20
6.92792107
  0
VERTEX
  8
0
 10
7.24747169
 20
6.92577798
  0
VERTEX
  8
0
 10
7.20471941
 20
6.92595128
  0
VERTEX
  8
0
 10
7.16197517
 20
6.92820409
  0
VERTEX
  8
0
 10
7.11932526
 20
6.93229957
  0
VERTEX
  8
0
 10
7.07685601
 20
6.93800085
  0
VERTEX
  8
0
 10
7.03465372
 20
6.94507109
  0
VERTEX
  8
0
 10
7.00024591
 20
6.95155060
  0
VERTEX
  8
0
 10
6.96598639
 20
6.95878134
  0
VERTEX
  8
0
 10
6.93189097
 20
6.96675777
  0
VERTEX
  8
0
 10
6.89797544
 20
6.97547437
  0
VERTEX
  8
0
 10
6.86425562
 20
6.98492564
  0
VERTEX
  8
0
 10
6.83074731
 20
6.99510604
  0
VERTEX
  8
0
 10
6.79746633
 20
7.00601005
  0
VERTEX
  8
0
 10
6.76442848
 20
7.01763217
  0
VERTEX
  8
0
 10
6.73164956
 20
7.02996686
  0
VERTEX
  8
0
 10
6.69914539
 20
7.04300860
  0
VERTEX
  8
0
 10
6.66693177
 20
7.05675189
  0
VERTEX
  8
0
 10
6.63502450
 20
7.07119119
  0
VERTEX
  8
0
 10
6.60343940
 20
7.08632099
  0
VERTEX
  8
0
 10
6.57219228
 20
7.10213576
  0
VERTEX
  8
0
 10
6.54129893
 20
7.11863000
  0
VERTEX
  8
0
 10
6.51077517
 20
7.13579817
  0
VERTEX
  8
0
 10
6.47948133
 20
7.15402943
  0
VERTEX
  8
0
 10
6.44881777
 20
7.17324024
  0
VERTEX
  8
0
 10
6.41870822
 20
7.19329410
  0
VERTEX
  8
0
 10
6.38907639
 20
7.21405451
  0
VERTEX
  8
0
 10
6.33094081
 20
7.25714902
  0
VERTEX
  8
0
 10
6.27380084
 20
7.30143183
  0
VERTEX
  8
0
 10
6.22877403
 20
7.30709749
  0
VERTEX
  8
0
 10
6.18372726
 20
7.31411102
  0
VERTEX
  8
0
 10
6.13877510
 20
7.32252762
  0
VERTEX
  8
0
 10
6.09403206
 20
7.33240250
  0
VERTEX
  8
0
 10
6.04961269
 20
7.34379085
  0
VERTEX
  8
0
 10
6.00563153
 20
7.35674788
  0
VERTEX
  8
0
 10
5.96220312
 20
7.37132877
  0
VERTEX
  8
0
 10
5.91944200
 20
7.38758874
  0
VERTEX
  8
0
 10
5.87746271
 20
7.40558298
  0
VERTEX
  8
0
 10
5.83637978
 20
7.42536670
  0
VERTEX
  8
0
 10
5.79630776
 20
7.44699508
  0
VERTEX
  8
0
 10
5.75736119
 20
7.47052333
  0
VERTEX
  8
0
 10
5.71965460
 20
7.49600666
  0
VERTEX
  8
0
 10
5.68330253
 20
7.52350025
  0
VERTEX
  8
0
 10
5.64841952
 20
7.55305932
  0
VERTEX
  8
0
 10
5.61512012
 20
7.58473905
  0
VERTEX
  8
0
 10
5.58825614
 20
7.61919633
  0
VERTEX
  8
0
 10
5.56226631
 20
7.65443644
  0
VERTEX
  8
0
 10
5.53735037
 20
7.69048748
  0
VERTEX
  8
0
 10
5.51370804
 20
7.72737756
  0
VERTEX
  8
0
 10
5.49153903
 20
7.76513477
  0
VERTEX
  8
0
 10
5.47104308
 20
7.80378722
  0
VERTEX
  8
0
 10
5.45241990
 20
7.84336301
  0
VERTEX
  8
0
 10
5.43586921
 20
7.88389023
  0
VERTEX
  8
0
 10
5.43031130
 20
7.89934676
  0
VERTEX
  8
0
 10
5.42583442
 20
7.91510010
  0
VERTEX
  8
0
 10
5.42242766
 20
7.93108779
  0
VERTEX
  8
0
 10
5.42008011
 20
7.94724736
  0
VERTEX
  8
0
 10
5.41878085
 20
7.96351632
  0
VERTEX
  8
0
 10
5.41851897
 20
7.97983220
  0
VERTEX
  8
0
 10
5.41928354
 20
7.99613252
  0
VERTEX
  8
0
 10
5.42106367
 20
8.01235481
  0
VERTEX
  8
0
 10
5.42384843
 20
8.02843660
  0
VERTEX
  8
0
 10
5.42762690
 20
8.04431540
  0
VERTEX
  8
0
 10
5.43238818
 20
8.05992874
  0
VERTEX
  8
0
 10
5.43812136
 20
8.07521414
  0
VERTEX
  8
0
 10
5.44481550
 20
8.09010913
  0
VERTEX
  8
0
 10
5.45245971
 20
8.10455123
  0
VERTEX
  8
0
 10
5.46104306
 20
8.11847797
  0
VERTEX
  8
0
 10
5.47055465
 20
8.13182687
  0
VERTEX
  8
0
 10
5.48225787
 20
8.14649611
  0
VERTEX
  8
0
 10
5.49481354
 20
8.16023511
  0
VERTEX
  8
0
 10
5.50816083
 20
8.17306908
  0
VERTEX
  8
0
 10
5.52223889
 20
8.18502325
  0
VERTEX
  8
0
 10
5.53698687
 20
8.19612283
  0
VERTEX
  8
0
 10
5.55234393
 20
8.20639303
  0
VERTEX
  8
0
 10
5.56824922
 20
8.21585908
  0
VERTEX
  8
0
 10
5.58464190
 20
8.22454618
  0
VERTEX
  8
0
 10
5.60146112
 20
8.23247956
  0
VERTEX
  8
0
 10
5.61864604
 20
8.23968443
  0
VERTEX
  8
0
 10
5.65386959
 20
8.25200950
  0
VERTEX
  8
0
 10
5.68982579
 20
8.26172313
  0
VERTEX
  8
0
 10
5.72602787
 20
8.26902704
  0
VERTEX
  8
0
 10
5.76133713
 20
8.27388497
  0
VERTEX
  8
0
 10
5.79669594
 20
8.27733593
  0
VERTEX
  8
0
 10
5.83208962
 20
8.27946034
  0
VERTEX
  8
0
 10
5.86750351
 20
8.28033862
  0
VERTEX
  8
0
 10
5.90292291
 20
8.28005118
  0
VERTEX
  8
0
 10
5.93833315
 20
8.27867845
  0
VERTEX
  8
0
 10
5.97371956
 20
8.27630083
  0
VERTEX
  8
0
 10
6.00906746
 20
8.27299874
  0
VERTEX
  8
0
 10
6.04436216
 20
8.26885260
  0
VERTEX
  8
0
 10
6.07958899
 20
8.26394282
  0
VERTEX
  8
0
 10
6.14978033
 20
8.25215402
  0
VERTEX
  8
0
 10
6.21952405
 20
8.23827567
  0
VERTEX
  8
0
 10
6.28870273
 20
8.22295108
  0
VERTEX
  8
0
 10
6.31087880
 20
8.24208043
  0
VERTEX
  8
0
 10
6.33403367
 20
8.25995423
  0
VERTEX
  8
0
 10
6.35809430
 20
8.27655544
  0
VERTEX
  8
0
 10
6.38298770
 20
8.29186698
  0
VERTEX
  8
0
 10
6.40864085
 20
8.30587179
  0
VERTEX
  8
0
 10
6.43498073
 20
8.31855282
  0
VERTEX
  8
0
 10
6.46193433
 20
8.32989299
  0
VERTEX
  8
0
 10
6.48942864
 20
8.33987526
  0
VERTEX
  8
0
 10
6.51739063
 20
8.34848255
  0
VERTEX
  8
0
 10
6.54574731
 20
8.35569781
  0
VERTEX
  8
0
 10
6.57442564
 20
8.36150398
  0
VERTEX
  8
0
 10
6.60335263
 20
8.36588398
  0
VERTEX
  8
0
 10
6.63245525
 20
8.36882077
  0
VERTEX
  8
0
 10
6.66166050
 20
8.37029728
  0
VERTEX
  8
0
 10
6.69089535
 20
8.37029644
  0
VERTEX
  8
0
 10
6.72008679
 20
8.36880120
  0
VERTEX
  8
0
 10
6.75474730
 20
8.36549926
  0
VERTEX
  8
0
 10
6.78908164
 20
8.36019407
  0
VERTEX
  8
0
 10
6.82306068
 20
8.35304221
  0
VERTEX
  8
0
 10
6.85665534
 20
8.34420023
  0
VERTEX
  8
0
 10
6.88983651
 20
8.33382471
  0
VERTEX
  8
0
 10
6.92257507
 20
8.32207221
  0
VERTEX
  8
0
 10
6.95484192
 20
8.30909929
  0
VERTEX
  8
0
 10
6.98660797
 20
8.29506253
  0
VERTEX
  8
0
 10
6.94603875
 20
8.32879385
  0
VERTEX
  8
0
 10
6.90446691
 20
8.36126461
  0
VERTEX
  8
0
 10
6.86194966
 20
8.39248284
  0
VERTEX
  8
0
 10
6.81854418
 20
8.42245657
  0
VERTEX
  8
0
 10
6.77430771
 20
8.45119383
  0
VERTEX
  8
0
 10
6.72929743
 20
8.47870265
  0
VERTEX
  8
0
 10
6.68357056
 20
8.50499105
  0
VERTEX
  8
0
 10
6.63718431
 20
8.53006707
  0
VERTEX
  8
0
 10
6.57128098
 20
8.56265542
  0
VERTEX
  8
0
 10
6.53779601
 20
8.57794716
  0
VERTEX
  8
0
 10
6.50397457
 20
8.59252093
  0
VERTEX
  8
0
 10
6.46983097
 20
8.60633946
  0
VERTEX
  8
0
 10
6.43537951
 20
8.61936551
  0
VERTEX
  8
0
 10
6.40063448
 20
8.63156180
  0
VERTEX
  8
0
 10
6.36561019
 20
8.64289109
  0
VERTEX
  8
0
 10
6.33032095
 20
8.65331610
  0
VERTEX
  8
0
 10
6.29478105
 20
8.66279958
  0
VERTEX
  8
0
 10
6.25900479
 20
8.67130428
  0
VERTEX
  8
0
 10
6.22300648
 20
8.67879292
  0
VERTEX
  8
0
 10
6.18680042
 20
8.68522826
  0
VERTEX
  8
0
 10
6.15040091
 20
8.69057302
  0
VERTEX
  8
0
 10
6.11382225
 20
8.69478996
  0
VERTEX
  8
0
 10
6.07707875
 20
8.69784181
  0
VERTEX
  8
0
 10
6.03382752
 20
8.70016314
  0
VERTEX
  8
0
 10
5.99054732
 20
8.70055914
  0
VERTEX
  8
0
 10
5.94731152
 20
8.69905350
  0
VERTEX
  8
0
 10
5.90419353
 20
8.69566996
  0
VERTEX
  8
0
 10
5.86126672
 20
8.69043220
  0
VERTEX
  8
0
 10
5.81860450
 20
8.68336395
  0
VERTEX
  8
0
 10
5.77628025
 20
8.67448892
  0
VERTEX
  8
0
 10
5.73436737
 20
8.66383081
  0
VERTEX
  8
0
 10
5.69293923
 20
8.65141334
  0
VERTEX
  8
0
 10
5.65206924
 20
8.63726022
  0
VERTEX
  8
0
 10
5.61183079
 20
8.62139516
  0
VERTEX
  8
0
 10
5.57229726
 20
8.60384187
  0
VERTEX
  8
0
 10
5.53354204
 20
8.58462406
  0
VERTEX
  8
0
 10
5.49563853
 20
8.56376544
  0
VERTEX
  8
0
 10
5.45866011
 20
8.54128972
  0
VERTEX
  8
0
 10
5.42268018
 20
8.51722061
  0
VERTEX
  8
0
 10
5.47831990
 20
8.53344445
  0
VERTEX
  8
0
 10
5.53467319
 20
8.54754762
  0
VERTEX
  8
0
 10
5.59161060
 20
8.55922401
  0
VERTEX
  8
0
 10
5.64900265
 20
8.56816752
  0
VERTEX
  8
0
 10
5.67782871
 20
8.57151879
  0
VERTEX
  8
0
 10
5.70671988
 20
8.57407204
  0
VERTEX
  8
0
 10
5.73565998
 20
8.57578902
  0
VERTEX
  8
0
 10
5.76463282
 20
8.57663146
  0
VERTEX
  8
0
 10
5.79362222
 20
8.57656111
  0
VERTEX
  8
0
 10
5.82261199
 20
8.57553968
  0
VERTEX
  8
0
 10
5.85158596
 20
8.57352893
  0
VERTEX
  8
0
 10
5.88052794
 20
8.57049059
  0
VERTEX
  8
0
 10
5.91525101
 20
8.56517119
  0
VERTEX
  8
0
 10
5.94971816
 20
8.55794790
  0
VERTEX
  8
0
 10
5.98372163
 20
8.54872337
  0
VERTEX
  8
0
 10
6.01705367
 20
8.53740026
  0
VERTEX
  8
0
 10
6.04950654
 20
8.52388120
  0
VERTEX
  8
0
 10
6.08087247
 20
8.50806885
  0
VERTEX
  8
0
 10
6.11094372
 20
8.48986585
  0
VERTEX
  8
0
 10
6.12542891
 20
8.47983744
  0
VERTEX
  8
0
 10
6.13951253
 20
8.46917486
  0
VERTEX
  8
0
 10
6.15838930
 20
8.45366276
  0
VERTEX
  8
0
 10
6.17619319
 20
8.43701054
  0
VERTEX
  8
0
 10
6.19297538
 20
8.41933863
  0
VERTEX
  8
0
 10
6.20878706
 20
8.40076747
  0
VERTEX
  8
0
 10
6.22367941
 20
8.38141749
  0
VERTEX
  8
0
 10
6.23770363
 20
8.36140913
  0
VERTEX
  8
0
 10
6.25091089
 20
8.34086283
  0
VERTEX
  8
0
 10
6.26335239
 20
8.31989902
  0
VERTEX
  8
0
 10
6.24297854
 20
8.33269011
  0
VERTEX
  8
0
 10
6.22182487
 20
8.34399282
  0
VERTEX
  8
0
 10
6.20001082
 20
8.35395668
  0
VERTEX
  8
0
 10
6.17765581
 20
8.36273125
  0
VERTEX
  8
0
 10
6.15487927
 20
8.37046605
  0
VERTEX
  8
0
 10
6.13180064
 20
8.37731064
  0
VERTEX
  8
0
 10
6.08521484
 20
8.38892732
  0
VERTEX
  8
0
 10
6.05543939
 20
8.39458484
  0
VERTEX
  8
0
 10
6.02554087
 20
8.39921703
  0
VERTEX
  8
0
 10
5.99553872
 20
8.40286039
  0
VERTEX
  8
0
 10
5.96545240
 20
8.40555144
  0
VERTEX
  8
0
 10
5.93530134
 20
8.40732667
  0
VERTEX
  8
0
 10
5.90510499
 20
8.40822260
  0
VERTEX
  8
0
 10
5.87488280
 20
8.40827573
  0
VERTEX
  8
0
 10
5.84465421
 20
8.40752257
  0
VERTEX
  8
0
 10
5.78425562
 20
8.40374340
  0
VERTEX
  8
0
 10
5.72406477
 20
8.39717715
  0
VERTEX
  8
0
 10
5.66423725
 20
8.38811588
  0
VERTEX
  8
0
 10
5.60492860
 20
8.37685165
  0
VERTEX
  8
0
 10
5.56825397
 20
8.36871671
  0
VERTEX
  8
0
 10
5.53177605
 20
8.35984197
  0
VERTEX
  8
0
 10
5.45941034
 20
8.33998097
  0
VERTEX
  8
0
 10
5.38783149
 20
8.31748445
  0
VERTEX
  8
0
 10
5.31703947
 20
8.29256818
  0
VERTEX
  8
0
 10
5.24703431
 20
8.26544793
  0
VERTEX
  8
0
 10
5.17781599
 20
8.23633950
  0
VERTEX
  8
0
 10
5.10938451
 20
8.20545865
  0
VERTEX
  8
0
 10
5.04173988
 20
8.17302118
  0
VERTEX
  8
0
 10
5.03268415
 20
8.14906868
  0
VERTEX
  8
0
 10
5.02250649
 20
8.12565087
  0
VERTEX
  8
0
 10
5.01125520
 20
8.10278054
  0
VERTEX
  8
0
 10
4.99897857
 20
8.08047048
  0
VERTEX
  8
0
 10
4.98572491
 20
8.05873350
  0
VERTEX
  8
0
 10
4.97154252
 20
8.03758238
  0
VERTEX
  8
0
 10
4.95647969
 20
8.01702993
  0
VERTEX
  8
0
 10
4.94058473
 20
7.99708894
  0
VERTEX
  8
0
 10
4.92390593
 20
7.97777221
  0
VERTEX
  8
0
 10
4.90649160
 20
7.95909253
  0
VERTEX
  8
0
 10
4.88839004
 20
7.94106270
  0
VERTEX
  8
0
 10
4.86964953
 20
7.92369552
  0
VERTEX
  8
0
 10
4.85031840
 20
7.90700378
  0
VERTEX
  8
0
 10
4.83044492
 20
7.89100028
  0
VERTEX
  8
0
 10
4.81007741
 20
7.87569782
  0
VERTEX
  8
0
 10
4.78926416
 20
7.86110918
  0
VERTEX
  8
0
 10
4.76277365
 20
7.84392882
  0
VERTEX
  8
0
 10
4.73570882
 20
7.82779487
  0
VERTEX
  8
0
 10
4.70810754
 20
7.81268186
  0
VERTEX
  8
0
 10
4.68000771
 20
7.79856433
  0
VERTEX
  8
0
 10
4.65144722
 20
7.78541680
  0
VERTEX
  8
0
 10
4.62246394
 20
7.77321382
  0
VERTEX
  8
0
 10
4.59309578
 20
7.76192991
  0
VERTEX
  8
0
 10
4.56338061
 20
7.75153960
  0
VERTEX
  8
0
 10
4.53335632
 20
7.74201744
  0
VERTEX
  8
0
 10
4.50306080
 20
7.73333794
  0
VERTEX
  8
0
 10
4.47253194
 20
7.72547566
  0
VERTEX
  8
0
 10
4.44180762
 20
7.71840511
  0
VERTEX
  8
0
 10
4.41092573
 20
7.71210083
  0
VERTEX
  8
0
 10
4.37992416
 20
7.70653736
  0
VERTEX
  8
0
 10
4.31771351
 20
7.69753095
  0
VERTEX
  8
0
 10
4.30981562
 20
7.69656195
  0
VERTEX
  8
0
 10
4.30244764
 20
7.69432335
  0
VERTEX
  8
0
 10
4.29552928
 20
7.69104700
  0
VERTEX
  8
0
 10
4.28898027
 20
7.68696474
  0
VERTEX
  8
0
 10
4.27666908
 20
7.67730982
  0
VERTEX
  8
0
 10
4.26487175
 20
7.66721331
  0
VERTEX
  8
0
 10
4.22605805
 20
7.63192620
  0
VERTEX
  8
0
 10
4.18858520
 20
7.59502023
  0
VERTEX
  8
0
 10
4.15278239
 20
7.55645025
  0
VERTEX
  8
0
 10
4.11897881
 20
7.51617108
  0
VERTEX
  8
0
 10
4.10292960
 20
7.49537644
  0
VERTEX
  8
0
 10
4.08750365
 20
7.47413757
  0
VERTEX
  8
0
 10
4.07274210
 20
7.45244882
  0
VERTEX
  8
0
 10
4.05868610
 20
7.43030455
  0
VERTEX
  8
0
 10
4.04537680
 20
7.40769912
  0
VERTEX
  8
0
 10
4.03285535
 20
7.38462687
  0
VERTEX
  8
0
 10
4.02116290
 20
7.36108216
  0
VERTEX
  8
0
 10
4.01034060
 20
7.33705934
  0
VERTEX
  8
0
 10
3.99651443
 20
7.30152851
  0
VERTEX
  8
0
 10
3.98544924
 20
7.26498804
  0
VERTEX
  8
0
 10
3.98099687
 20
7.24641759
  0
VERTEX
  8
0
 10
3.97728857
 20
7.22768881
  0
VERTEX
  8
0
 10
3.97434226
 20
7.20883308
  0
VERTEX
  8
0
 10
3.97217591
 20
7.18988176
  0
VERTEX
  8
0
 10
3.97080744
 20
7.17086620
  0
VERTEX
  8
0
 10
3.97025480
 20
7.15181777
  0
VERTEX
  8
0
 10
3.97053592
 20
7.13276783
  0
VERTEX
  8
0
 10
3.97166874
 20
7.11374776
  0
VERTEX
  8
0
 10
3.97367121
 20
7.09478890
  0
VERTEX
  8
0
 10
3.97656127
 20
7.07592263
  0
VERTEX
  8
0
 10
3.98035685
 20
7.05718031
  0
VERTEX
  8
0
 10
3.98507589
 20
7.03859330
  0
VERTEX
  8
0
 10
3.76445939
 20
6.90344857
  0
VERTEX
  8
0
 10
3.69429632
 20
6.91744050
  0
VERTEX
  8
0
 10
3.62426171
 20
6.93188206
  0
VERTEX
  8
0
 10
3.66079717
 20
6.95229873
  0
VERTEX
  8
0
 10
3.69674250
 20
6.97444264
  0
VERTEX
  8
0
 10
3.73153967
 20
6.99852356
  0
VERTEX
  8
0
 10
3.74833332
 20
7.01135595
  0
VERTEX
  8
0
 10
3.76463068
 20
7.02475124
  0
VERTEX
  8
0
 10
3.78036198
 20
7.03873567
  0
VERTEX
  8
0
 10
3.79545749
 20
7.05333545
  0
VERTEX
  8
0
 10
3.80984745
 20
7.06857680
  0
VERTEX
  8
0
 10
3.82346210
 20
7.08448594
  0
VERTEX
  8
0
 10
3.83623170
 20
7.10108908
  0
VERTEX
  8
0
 10
3.84808649
 20
7.11841246
  0
VERTEX
  8
0
 10
3.85895671
 20
7.13648229
  0
VERTEX
  8
0
 10
3.86877263
 20
7.15532478
  0
VERTEX
  8
0
 10
3.87688681
 20
7.17495093
  0
VERTEX
  8
0
 10
3.88382573
 20
7.19565597
  0
VERTEX
  8
0
 10
3.88901634
 20
7.21702542
  0
VERTEX
  8
0
 10
3.89188555
 20
7.23864477
  0
VERTEX
  8
0
 10
3.89227054
 20
7.24941863
  0
VERTEX
  8
0
 10
3.89186029
 20
7.26009952
  0
VERTEX
  8
0
 10
3.89058315
 20
7.27063565
  0
VERTEX
  8
0
 10
3.88836749
 20
7.28097519
  0
VERTEX
  8
0
 10
3.88514168
 20
7.29106633
  0
VERTEX
  8
0
 10
3.88083408
 20
7.30085725
  0
VERTEX
  8
0
 10
3.87537306
 20
7.31029616
  0
VERTEX
  8
0
 10
3.86868699
 20
7.31933123
  0
VERTEX
  8
0
 10
3.86042063
 20
7.32873658
  0
VERTEX
  8
0
 10
3.85143694
 20
7.33701384
  0
VERTEX
  8
0
 10
3.84180540
 20
7.34421923
  0
VERTEX
  8
0
 10
3.83159551
 20
7.35040895
  0
VERTEX
  8
0
 10
3.82087679
 20
7.35563920
  0
VERTEX
  8
0
 10
3.80971873
 20
7.35996618
  0
VERTEX
  8
0
 10
3.79819083
 20
7.36344610
  0
VERTEX
  8
0
 10
3.78636260
 20
7.36613516
  0
VERTEX
  8
0
 10
3.76208313
 20
7.36936551
  0
VERTEX
  8
0
 10
3.73743633
 20
7.37010685
  0
VERTEX
  8
0
 10
3.71297821
 20
7.36880883
  0
VERTEX
  8
0
 10
3.68926479
 20
7.36592105
  0
VERTEX
  8
0
 10
3.67262863
 20
7.36327080
  0
VERTEX
  8
0
 10
3.65676325
 20
7.35851293
  0
VERTEX
  8
0
 10
3.64157231
 20
7.35200472
  0
VERTEX
  8
0
 10
3.62695947
 20
7.34410348
  0
VERTEX
  8
0
 10
3.61282837
 20
7.33516650
  0
VERTEX
  8
0
 10
3.59908266
 20
7.32555106
  0
VERTEX
  8
0
 10
3.57236202
 20
7.30571398
  0
VERTEX
  8
0
 10
3.54609578
 20
7.28369283
  0
VERTEX
  8
0
 10
3.52101031
 20
7.26051837
  0
VERTEX
  8
0
 10
3.49708002
 20
7.23625975
  0
VERTEX
  8
0
 10
3.47427932
 20
7.21098608
  0
VERTEX
  8
0
 10
3.45258260
 20
7.18476649
  0
VERTEX
  8
0
 10
3.43196429
 20
7.15767010
  0
VERTEX
  8
0
 10
3.41239878
 20
7.12976604
  0
VERTEX
  8
0
 10
3.39386049
 20
7.10112344
  0
VERTEX
  8
0
 10
3.37632382
 20
7.07181141
  0
VERTEX
  8
0
 10
3.35976318
 20
7.04189909
  0
VERTEX
  8
0
 10
3.34415298
 20
7.01145560
  0
VERTEX
  8
0
 10
3.32946762
 20
6.98055006
  0
VERTEX
  8
0
 10
3.31568151
 20
6.94925160
  0
VERTEX
  8
0
 10
3.30276907
 20
6.91762935
  0
VERTEX
  8
0
 10
3.29070469
 20
6.88575242
  0
VERTEX
  8
0
 10
3.27946278
 20
6.85368995
  0
VERTEX
  8
0
 10
3.14483190
 20
6.99525792
  0
VERTEX
  8
0
 10
3.15534542
 20
7.01237448
  0
VERTEX
  8
0
 10
3.16445085
 20
7.03030198
  0
VERTEX
  8
0
 10
3.17202474
 20
7.04891195
  0
VERTEX
  8
0
 10
3.17794365
 20
7.06807592
  0
VERTEX
  8
0
 10
3.18208412
 20
7.08766543
  0
VERTEX
  8
0
 10
3.18432272
 20
7.10755202
  0
VERTEX
  8
0
 10
3.18453599
 20
7.12760721
  0
VERTEX
  8
0
 10
3.18260049
 20
7.14770255
  0
VERTEX
  8
0
 10
3.18032307
 20
7.16168112
  0
VERTEX
  8
0
 10
3.17721551
 20
7.17538684
  0
VERTEX
  8
0
 10
3.17332488
 20
7.18881981
  0
VERTEX
  8
0
 10
3.16869821
 20
7.20198017
  0
VERTEX
  8
0
 10
3.15742494
 20
7.22748357
  0
VERTEX
  8
0
 10
3.14377207
 20
7.25189803
  0
VERTEX
  8
0
 10
3.12811595
 20
7.27522456
  0
VERTEX
  8
0
 10
3.11083295
 20
7.29746415
  0
VERTEX
  8
0
 10
3.09229942
 20
7.31861782
  0
VERTEX
  8
0
 10
3.07289174
 20
7.33868656
  0
VERTEX
  8
0
 10
3.11256588
 20
7.39266309
  0
VERTEX
  8
0
 10
3.13233872
 20
7.41966742
  0
VERTEX
  8
0
 10
3.15159770
 20
7.44702502
  0
VERTEX
  8
0
 10
3.29563326
 20
7.68548874
  0
VERTEX
  8
0
 10
3.36836964
 20
7.80431362
  0
VERTEX
  8
0
 10
3.44194906
 20
7.92261160
  0
VERTEX
  8
0
 10
3.51664453
 20
8.04019098
  0
VERTEX
  8
0
 10
3.59272901
 20
8.15686007
  0
VERTEX
  8
0
 10
3.67047551
 20
8.27242717
  0
VERTEX
  8
0
 10
3.75015700
 20
8.38670060
  0
VERTEX
  8
0
 10
3.69320437
 20
8.41521973
  0
VERTEX
  8
0
 10
4.06643679
 20
8.84060878
  0
VERTEX
  8
0
 10
4.07739509
 20
8.85296413
  0
VERTEX
  8
0
 10
4.08832930
 20
8.86558443
  0
VERTEX
  8
0
 10
4.09313752
 20
8.87227747
  0
VERTEX
  8
0
 10
4.09715990
 20
8.87937698
  0
VERTEX
  8
0
 10
4.10013650
 20
8.88699637
  0
VERTEX
  8
0
 10
4.10180738
 20
8.89524905
  0
VERTEX
  8
0
 10
4.10925046
 20
8.92730882
  0
VERTEX
  8
0
 10
4.11910326
 20
8.95859680
  0
VERTEX
  8
0
 10
4.13114999
 20
8.98908791
  0
VERTEX
  8
0
 10
4.14517488
 20
9.01875703
  0
VERTEX
  8
0
 10
4.16096214
 20
9.04757910
  0
VERTEX
  8
0
 10
4.17829599
 20
9.07552901
  0
VERTEX
  8
0
 10
4.19696065
 20
9.10258168
  0
VERTEX
  8
0
 10
4.21674035
 20
9.12871201
  0
VERTEX
  8
0
 10
4.23642157
 20
9.15241264
  0
VERTEX
  8
0
 10
4.25689791
 20
9.17535201
  0
VERTEX
  8
0
 10
4.27812748
 20
9.19754770
  0
VERTEX
  8
0
 10
4.30006837
 20
9.21901726
  0
VERTEX
  8
0
 10
4.32267868
 20
9.23977825
  0
VERTEX
  8
0
 10
4.34591651
 20
9.25984825
  0
VERTEX
  8
0
 10
4.36973995
 20
9.27924481
  0
VERTEX
  8
0
 10
4.39410712
 20
9.29798550
  0
VERTEX
  8
0
 10
4.41897609
 20
9.31608788
  0
VERTEX
  8
0
 10
4.44430498
 20
9.33356952
  0
VERTEX
  8
0
 10
4.49617490
 20
9.36674082
  0
VERTEX
  8
0
 10
4.54938165
 20
9.39763989
  0
VERTEX
  8
0
 10
4.60359002
 20
9.42640726
  0
VERTEX
  8
0
 10
4.57017719
 20
9.39273348
  0
VERTEX
  8
0
 10
4.55396606
 20
9.37525226
  0
VERTEX
  8
0
 10
4.53849060
 20
9.35716485
  0
VERTEX
  8
0
 10
4.52405489
 20
9.33833877
  0
VERTEX
  8
0
 10
4.51096305
 20
9.31864154
  0
VERTEX
  8
0
 10
4.49951916
 20
9.29794067
  0
VERTEX
  8
0
 10
4.49002733
 20
9.27610370
  0
VERTEX
  8
0
 10
4.48704137
 20
9.26729267
  0
VERTEX
  8
0
 10
4.48537718
 20
9.25836622
  0
VERTEX
  8
0
 10
4.48489527
 20
9.24937755
  0
VERTEX
  8
0
 10
4.48545614
 20
9.24037984
  0
VERTEX
  8
0
 10
4.48692026
 20
9.23142630
  0
VERTEX
  8
0
 10
4.48914815
 20
9.22257010
  0
VERTEX
  8
0
 10
4.49533720
 20
9.20536254
  0
VERTEX
  8
0
 10
4.54643002
 20
9.25854014
  0
VERTEX
  8
0
 10
4.59856284
 20
9.31072190
  0
VERTEX
  8
0
 10
4.65171786
 20
9.36187944
  0
VERTEX
  8
0
 10
4.70587727
 20
9.41198443
  0
VERTEX
  8
0
 10
4.76102324
 20
9.46100852
  0
VERTEX
  8
0
 10
4.81713796
 20
9.50892334
  0
VERTEX
  8
0
 10
4.87420363
 20
9.55570054
  0
VERTEX
  8
0
 10
4.93220242
 20
9.60131179
  0
VERTEX
  8
0
 10
4.99111652
 20
9.64572871
  0
VERTEX
  8
0
 10
5.05092811
 20
9.68892296
  0
VERTEX
  8
0
 10
5.11161939
 20
9.73086618
  0
VERTEX
  8
0
 10
5.17317253
 20
9.77153003
  0
VERTEX
  8
0
 10
5.23556972
 20
9.81088615
  0
VERTEX
  8
0
 10
5.29879316
 20
9.84890619
  0
VERTEX
  8
0
 10
5.36282501
 20
9.88556179
  0
VERTEX
  8
0
 10
5.42764748
 20
9.92082460
  0
VERTEX
  8
0
 10
5.48512269
 20
9.95042076
  0
VERTEX
  8
0
 10
5.54326041
 20
9.97879926
  0
VERTEX
  8
0
 10
5.60203269
 20
10.00591269
  0
VERTEX
  8
0
 10
5.66141153
 20
10.03171362
  0
VERTEX
  8
0
 10
5.72136896
 20
10.05615464
  0
VERTEX
  8
0
 10
5.78187701
 20
10.07918831
  0
VERTEX
  8
0
 10
5.84290770
 20
10.10076722
  0
VERTEX
  8
0
 10
5.90443306
 20
10.12084395
  0
VERTEX
  8
0
 10
5.96642510
 20
10.13937108
  0
VERTEX
  8
0
 10
6.02885585
 20
10.15630118
  0
VERTEX
  8
0
 10
6.09169734
 20
10.17158684
  0
VERTEX
  8
0
 10
6.15492159
 20
10.18518062
  0
VERTEX
  8
0
 10
6.21850062
 20
10.19703512
  0
VERTEX
  8
0
 10
6.28240646
 20
10.20710290
  0
VERTEX
  8
0
 10
6.34661113
 20
10.21533655
  0
VERTEX
  8
0
 10
6.41108665
 20
10.22168865
  0
SEQEND
  0
POLYLINE
  8
Default_Layer
 66
   1
 39
0.000000
 70
    1
  0
VERTEX
  8
0
 10
8.65647621
 20
9.49260934
  0
VERTEX
  8
0
 10
8.69212196
 20
9.46640240
  0
VERTEX
  8
0
 10
8.72721871
 20
9.43932732
  0
VERTEX
  8
0
 10
8.76153063
 20
9.41123857
  0
VERTEX
  8
0
 10
8.79482186
 20
9.38199063
  0
VERTEX
  8
0
 10
8.82685654
 20
9.35143797
  0
VERTEX
  8
0
 10
8.85739883
 20
9.31943507
  0
VERTEX
  8
0
 10
8.88621287
 20
9.28583640
  0
VERTEX
  8
0
 10
8.91306280
 20
9.25049643
  0
VERTEX
  8
0
 10
8.87032692
 20
9.16416823
  0
VERTEX
  8
0
 10
8.91301329
 20
9.18617716
  0
VERTEX
  8
0
 10
8.95662300
 20
9.20644378
  0
VERTEX
  8
0
 10
8.97887196
 20
9.21548966
  0
VERTEX
  8
0
 10
9.00146918
 20
9.22357909
  0
VERTEX
  8
0
 10
9.02445380
 20
9.23053842
  0
VERTEX
  8
0
 10
9.04786497
 20
9.23619404
  0
VERTEX
  8
0
 10
8.95539723
 20
9.30837909
  0
VERTEX
  8
0
 10
8.90849093
 20
9.34388901
  0
VERTEX
  8
0
 10
8.86077772
 20
9.37824375
  0
VERTEX
  8
0
 10
8.81198861
 20
9.41086823
  0
VERTEX
  8
0
 10
8.78710654
 20
9.42635191
  0
VERTEX
  8
0
 10
8.76185464
 20
9.44118738
  0
VERTEX
  8
0
 10
8.73619928
 20
9.45530274
  0
VERTEX
  8
0
 10
8.71010683
 20
9.46862611
  0
VERTEX
  8
0
 10
8.68354368
 20
9.48108560
  0
VERTEX
  8
0
 10
8.65647621
 20
9.49260934
  0
SEQEND
  0
POLYLINE
  8
Default_Layer
 66
   1
 39
0.000000
 70
    1
  0
VERTEX
  8
0
 10
5.34260393
 20
9.26890969
  0
VERTEX
  8
0
 10
5.30411494
 20
9.23763454
  0
VERTEX
  8
0
 10
5.26626954
 20
9.20561646
  0
VERTEX
  8
0
 10
5.22906294
 20
9.17287928
  0
VERTEX
  8
0
 10
5.19249039
 20
9.13944683
  0
VERTEX
  8
0
 10
5.15654711
 20
9.10534295
  0
VERTEX
  8
0
 10
5.12122834
 20
9.07059149
  0
VERTEX
  8
0
 10
5.08652932
 20
9.03521627
  0
VERTEX
  8
0
 10
5.05244526
 20
8.99924112
  0
VERTEX
  8
0
 10
5.01897142
 20
8.96268990
  0
VERTEX
  8
0
 10
4.98610301
 20
8.92558643
  0
VERTEX
  8
0
 10
4.95383527
 20
8.88795454
  0
VERTEX
  8
0
 10
4.92216344
 20
8.84981808
  0
VERTEX
  8
0
 10
4.86058843
 20
8.77212679
  0
VERTEX
  8
0
 10
4.80133983
 20
8.69270323
  0
VERTEX
  8
0
 10
4.81101545
 20
8.66284889
  0
VERTEX
  8
0
 10
4.81959886
 20
8.63247040
  0
VERTEX
  8
0
 10
4.82701556
 20
8.60165584
  0
VERTEX
  8
0
 10
4.83319102
 20
8.57049327
  0
VERTEX
  8
0
 10
4.83805072
 20
8.53907075
  0
VERTEX
  8
0
 10
4.84152014
 20
8.50747637
  0
VERTEX
  8
0
 10
4.84352476
 20
8.47579819
  0
VERTEX
  8
0
 10
4.84399007
 20
8.44412427
  0
VERTEX
  8
0
 10
4.84284154
 20
8.41254268
  0
VERTEX
  8
0
 10
4.84000466
 20
8.38114149
  0
VERTEX
  8
0
 10
4.83540490
 20
8.35000878
  0
VERTEX
  8
0
 10
4.82896775
 20
8.31923261
  0
VERTEX
  8
0
 10
4.82061868
 20
8.28890104
  0
VERTEX
  8
0
 10
4.81028317
 20
8.25910215
  0
VERTEX
  8
0
 10
4.79788672
 20
8.22992401
  0
VERTEX
  8
0
 10
4.78335479
 20
8.20145467
  0
VERTEX
  8
0
 10
4.76985875
 20
8.17960328
  0
VERTEX
  8
0
 10
4.75553234
 20
8.15828757
  0
VERTEX
  8
0
 10
4.74040428
 20
8.13752937
  0
VERTEX
  8
0
 10
4.72450329
 20
8.11735052
  0
VERTEX
  8
0
 10
4.70785812
 20
8.09777284
  0
VERTEX
  8
0
 10
4.69049748
 20
8.07881817
  0
VERTEX
  8
0
 10
4.67245011
 20
8.06050833
  0
VERTEX
  8
0
 10
4.65374474
 20
8.04286515
  0
VERTEX
  8
0
 10
4.63441008
 20
8.02591046
  0
VERTEX
  8
0
 10
4.61447489
 20
8.00966609
  0
VERTEX
  8
0
 10
4.59396787
 20
7.99415387
  0
VERTEX
  8
0
 10
4.57291777
 20
7.97939562
  0
VERTEX
  8
0
 10
4.55135330
 20
7.96541318
  0
VERTEX
  8
0
 10
4.52930320
 20
7.95222837
  0
VERTEX
  8
0
 10
4.50679621
 20
7.93986303
  0
VERTEX
  8
0
 10
4.48386103
 20
7.92833898
  0
VERTEX
  8
0
 10
4.46376122
 20
7.91915376
  0
VERTEX
  8
0
 10
4.44333749
 20
7.91077145
  0
VERTEX
  8
0
 10
4.42261918
 20
7.90319204
  0
VERTEX
  8
0
 10
4.40163567
 20
7.89641553
  0
VERTEX
  8
0
 10
4.38041631
 20
7.89044193
  0
VERTEX
  8
0
 10
4.35899045
 20
7.88527123
  0
VERTEX
  8
0
 10
4.33738745
 20
7.88090343
  0
VERTEX
  8
0
 10
4.31563667
 20
7.87733854
  0
VERTEX
  8
0
 10
4.29376746
 20
7.87457655
  0
VERTEX
  8
0
 10
4.27180917
 20
7.87261747
  0
VERTEX
  8
0
 10
4.24979117
 20
7.87146129
  0
VERTEX
  8
0
 10
4.22774281
 20
7.87110801
  0
VERTEX
  8
0
 10
4.20569344
 20
7.87155763
  0
VERTEX
  8
0
 10
4.18367243
 20
7.87281016
  0
VERTEX
  8
0
 10
4.16170913
 20
7.87486560
  0
VERTEX
  8
0
 10
4.13983289
 20
7.87772393
  0
VERTEX
  8
0
 10
4.00217239
 20
7.66797339
  0
VERTEX
  8
0
 10
3.93344250
 20
7.56301382
  0
VERTEX
  8
0
 10
3.86534691
 20
7.45764476
  0
VERTEX
  8
0
 10
4.01455852
 20
7.62202589
  0
VERTEX
  8
0
 10
4.16287087
 20
7.78711358
  0
VERTEX
  8
0
 10
4.20556678
 20
7.78592780
  0
VERTEX
  8
0
 10
4.24829580
 20
7.78639499
  0
VERTEX
  8
0
 10
4.29097063
 20
7.78857838
  0
VERTEX
  8
0
 10
4.33350395
 20
7.79254121
  0
VERTEX
  8
0
 10
4.37580844
 20
7.79834671
  0
VERTEX
  8
0
 10
4.41779679
 20
7.80605810
  0
VERTEX
  8
0
 10
4.45938167
 20
7.81573860
  0
VERTEX
  8
0
 10
4.50047579
 20
7.82745146
  0
VERTEX
  8
0
 10
4.54335502
 20
7.84215982
  0
VERTEX
  8
0
 10
4.58534404
 20
7.85951274
  0
VERTEX
  8
0
 10
4.60591470
 20
7.86918687
  0
VERTEX
  8
0
 10
4.62615479
 20
7.87952930
  0
VERTEX
  8
0
 10
4.64602831
 20
7.89054240
  0
VERTEX
  8
0
 10
4.66549924
 20
7.90222855
  0
VERTEX
  8
0
 10
4.68453159
 20
7.91459015
  0
VERTEX
  8
0
 10
4.70308935
 20
7.92762958
  0
VERTEX
  8
0
 10
4.72113651
 20
7.94134922
  0
VERTEX
  8
0
 10
4.73863707
 20
7.95575145
  0
VERTEX
  8
0
 10
4.75555503
 20
7.97083865
  0
VERTEX
  8
0
 10
4.77185437
 20
7.98661322
  0
VERTEX
  8
0
 10
4.78749909
 20
8.00307753
  0
VERTEX
  8
0
 10
4.80245319
 20
8.02023397
  0
VERTEX
  8
0
 10
4.82985362
 20
8.05290546
  0
VERTEX
  8
0
 10
4.85786425
 20
8.08511929
  0
VERTEX
  8
0
 10
4.88478293
 20
8.11818420
  0
VERTEX
  8
0
 10
4.89730087
 20
8.13544479
  0
VERTEX
  8
0
 10
4.90890751
 20
8.15340892
  0
VERTEX
  8
0
 10
4.92559101
 20
8.18041580
  0
VERTEX
  8
0
 10
4.94088448
 20
8.20820475
  0
VERTEX
  8
0
 10
4.95477689
 20
8.23670478
  0
VERTEX
  8
0
 10
4.96725719
 20
8.26584487
  0
VERTEX
  8
0
 10
4.97831434
 20
8.29555402
  0
VERTEX
  8
0
 10
4.98793731
 20
8.32576122
  0
VERTEX
  8
0
 10
4.99611505
 20
8.35639546
  0
VERTEX
  8
0
 10
5.00283652
 20
8.38738574
  0
VERTEX
  8
0
 10
5.00809069
 20
8.41866105
  0
VERTEX
  8
0
 10
5.01186651
 20
8.45015039
  0
VERTEX
  8
0
 10
5.01415295
 20
8.48178274
  0
VERTEX
  8
0
 10
5.01493896
 20
8.51348711
  0
VERTEX
  8
0
 10
5.01421350
 20
8.54519248
  0
VERTEX
  8
0
 10
5.01196554
 20
8.57682784
  0
VERTEX
  8
0
 10
5.00818403
 20
8.60832220
  0
VERTEX
  8
0
 10
5.00285794
 20
8.63960453
  0
VERTEX
  8
0
 10
5.00044387
 20
8.65265038
  0
VERTEX
  8
0
 10
4.99793346
 20
8.66605753
  0
VERTEX
  8
0
 10
4.99777622
 20
8.67251773
  0
VERTEX
  8
0
 10
4.99895582
 20
8.67861361
  0
VERTEX
  8
0
 10
5.00192590
 20
8.68419362
  0
VERTEX
  8
0
 10
5.00714009
 20
8.68910622
  0
VERTEX
  8
0
 10
5.04261492
 20
8.72494133
  0
VERTEX
  8
0
 10
5.07888388
 20
8.75998270
  0
VERTEX
  8
0
 10
5.11592613
 20
8.79421540
  0
VERTEX
  8
0
 10
5.15372085
 20
8.82762449
  0
VERTEX
  8
0
 10
5.19224722
 20
8.86019505
  0
VERTEX
  8
0
 10
5.23148441
 20
8.89191215
  0
VERTEX
  8
0
 10
5.27141159
 20
8.92276085
  0
VERTEX
  8
0
 10
5.31200795
 20
8.95272624
  0
VERTEX
  8
0
 10
5.35325264
 20
8.98179338
  0
VERTEX
  8
0
 10
5.39512486
 20
9.00994734
  0
VERTEX
  8
0
 10
5.43760378
 20
9.03717320
  0
VERTEX
  8
0
 10
5.48066856
 20
9.06345602
  0
VERTEX
  8
0
 10
5.52429838
 20
9.08878087
  0
VERTEX
  8
0
 10
5.56847242
 20
9.11313283
  0
VERTEX
  8
0
 10
5.61316986
 20
9.13649697
  0
VERTEX
  8
0
 10
5.65836986
 20
9.15885836
  0
VERTEX
  8
0
 10
5.71231834
 20
9.18368567
  0
VERTEX
  8
0
 10
5.76710610
 20
9.20677582
  0
VERTEX
  8
0
 10
5.82266314
 20
9.22807173
  0
VERTEX
  8
0
 10
5.87891946
 20
9.24751632
  0
VERTEX
  8
0
 10
5.93580505
 20
9.26505251
  0
VERTEX
  8
0
 10
5.99324992
 20
9.28062321
  0
VERTEX
  8
0
 10
6.05118406
 20
9.29417135
  0
VERTEX
  8
0
 10
6.10953746
 20
9.30563985
  0
VERTEX
  8
0
 10
6.16824013
 20
9.31497162
  0
VERTEX
  8
0
 10
6.22722206
 20
9.32210958
  0
VERTEX
  8
0
 10
6.28641324
 20
9.32699665
  0
VERTEX
  8
0
 10
6.34574368
 20
9.32957575
  0
VERTEX
  8
0
 10
6.40514337
 20
9.32978979
  0
VERTEX
  8
0
 10
6.46454230
 20
9.32758170
  0
VERTEX
  8
0
 10
6.52387048
 20
9.32289440
  0
VERTEX
  8
0
 10
6.58305790
 20
9.31567079
  0
VERTEX
  8
0
 10
6.61612543
 20
9.31079892
  0
VERTEX
  8
0
 10
6.64903601
 20
9.30512666
  0
VERTEX
  8
0
 10
6.68178325
 20
9.29867659
  0
VERTEX
  8
0
 10
6.71436075
 20
9.29147128
  0
VERTEX
  8
0
 10
6.77898094
 20
9.27488530
  0
VERTEX
  8
0
 10
6.84284540
 20
9.25554937
  0
VERTEX
  8
0
 10
6.90590294
 20
9.23364415
  0
VERTEX
  8
0
 10
6.96810238
 20
9.20935030
  0
VERTEX
  8
0
 10
7.02939253
 20
9.18284845
  0
VERTEX
  8
0
 10
7.08972221
 20
9.15431928
  0
VERTEX
  8
0
 10
7.06168213
 20
9.17987437
  0
VERTEX
  8
0
 10
7.03240559
 20
9.20396014
  0
VERTEX
  8
0
 10
7.00206922
 20
9.22671309
  0
VERTEX
  8
0
 10
6.97084965
 20
9.24826971
  0
VERTEX
  8
0
 10
6.92507005
 20
9.27710572
  0
VERTEX
  8
0
 10
6.87804570
 20
9.30365986
  0
VERTEX
  8
0
 10
6.82987872
 20
9.32794253
  0
VERTEX
  8
0
 10
6.78067122
 20
9.34996414
  0
VERTEX
  8
0
 10
6.73052533
 20
9.36973512
  0
VERTEX
  8
0
 10
6.67954317
 20
9.38726588
  0
VERTEX
  8
0
 10
6.62782685
 20
9.40256681
  0
VERTEX
  8
0
 10
6.57547849
 20
9.41564835
  0
VERTEX
  8
0
 10
6.52260022
 20
9.42652090
  0
VERTEX
  8
0
 10
6.46929416
 20
9.43519487
  0
VERTEX
  8
0
 10
6.41566241
 20
9.44168068
  0
VERTEX
  8
0
 10
6.36180711
 20
9.44598874
  0
VERTEX
  8
0
 10
6.30783036
 20
9.44812946
  0
VERTEX
  8
0
 10
6.25383430
 20
9.44811326
  0
VERTEX
  8
0
 10
6.19992104
 20
9.44595054
  0
VERTEX
  8
0
 10
6.14619269
 20
9.44165172
  0
VERTEX
  8
0
 10
6.10922741
 20
9.43769845
  0
VERTEX
  8
0
 10
6.07239698
 20
9.43285608
  0
VERTEX
  8
0
 10
6.03570983
 20
9.42714884
  0
VERTEX
  8
0
 10
5.99917435
 20
9.42060093
  0
VERTEX
  8
0
 10
5.96279895
 20
9.41323657
  0
VERTEX
  8
0
 10
5.92659203
 20
9.40507997
  0
VERTEX
  8
0
 10
5.89056200
 20
9.39615534
  0
VERTEX
  8
0
 10
5.85471727
 20
9.38648689
  0
VERTEX
  8
0
 10
5.78361731
 20
9.36501541
  0
VERTEX
  8
0
 10
5.71335939
 20
9.34085922
  0
VERTEX
  8
0
 10
5.64401077
 20
9.31421202
  0
VERTEX
  8
0
 10
5.57563867
 20
9.28526751
  0
VERTEX
  8
0
 10
5.60415781
 20
9.44704724
  0
VERTEX
  8
0
 10
5.56970371
 20
9.42748131
  0
VERTEX
  8
0
 10
5.53581867
 20
9.40698904
  0
VERTEX
  8
0
 10
5.50246956
 20
9.38564769
  0
VERTEX
  8
0
 10
5.46962328
 20
9.36353455
  0
VERTEX
  8
0
 10
5.43724669
 20
9.34072691
  0
VERTEX
  8
0
 10
5.40530668
 20
9.31730203
  0
VERTEX
  8
0
 10
5.34260393
 20
9.26890969
  0
SEQEND
  0
POLYLINE
  8
Default_Layer
 66
   1
 39
0.000000
 70
    1
  0
VERTEX
  8
0
 10
4.22616109
 20
8.95751155
  0
VERTEX
  8
0
 10
4.29592806
 20
9.02457006
  0
VERTEX
  8
0
 10
4.33157832
 20
9.05728035
  0
VERTEX
  8
0
 10
4.36781470
 20
9.08931620
  0
VERTEX
  8
0
 10
4.36166797
 20
9.08796883
  0
VERTEX
  8
0
 10
4.35438613
 20
9.08542614
  0
VERTEX
  8
0
 10
4.33862112
 20
9.07997041
  0
VERTEX
  8
0
 10
4.33123993
 20
9.07866519
  0
VERTEX
  8
0
 10
4.32492760
 20
9.07938027
  0
VERTEX
  8
0
 10
4.32234445
 20
9.08074665
  0
VERTEX
  8
0
 10
4.32023513
 20
9.08291957
  0
VERTEX
  8
0
 10
4.31866853
 20
9.08599952
  0
VERTEX
  8
0
 10
4.31771351
 20
9.09008699
  0
VERTEX
  8
0
 10
4.32312324
 20
9.11108510
  0
VERTEX
  8
0
 10
4.33093064
 20
9.13110065
  0
VERTEX
  8
0
 10
4.34064293
 20
9.15031530
  0
VERTEX
  8
0
 10
4.35176733
 20
9.16891072
  0
VERTEX
  8
0
 10
4.37628132
 20
9.20497046
  0
VERTEX
  8
0
 10
4.40053034
 20
9.24073312
  0
VERTEX
  8
0
 10
4.36697717
 20
9.21428782
  0
VERTEX
  8
0
 10
4.35061790
 20
9.20003532
  0
VERTEX
  8
0
 10
4.33470964
 20
9.18511064
  0
VERTEX
  8
0
 10
4.31938198
 20
9.16952456
  0
VERTEX
  8
0
 10
4.30476452
 20
9.15328788
  0
VERTEX
  8
0
 10
4.29098684
 20
9.13641139
  0
VERTEX
  8
0
 10
4.27817854
 20
9.11890588
  0
VERTEX
  8
0
 10
4.26646921
 20
9.10078213
  0
VERTEX
  8
0
 10
4.25598846
 20
9.08205093
  0
VERTEX
  8
0
 10
4.24686586
 20
9.06272307
  0
VERTEX
  8
0
 10
4.23923102
 20
9.04280935
  0
VERTEX
  8
0
 10
4.23321353
 20
9.02232055
  0
VERTEX
  8
0
 10
4.22894298
 20
9.00126745
  0
VERTEX
  8
0
 10
4.22654897
 20
8.97966085
  0
VERTEX
  8
0
 10
4.22616109
 20
8.95751155
  0
SEQEND
  0
POLYLINE
  8
Default_Layer
 66
   1
 39
0.000000
 70
    1
  0
VERTEX
  8
0
 10
3.96152405
 20
8.47816738
  0
VERTEX
  8
0
 10
3.93565985
 20
8.44699331
  0
VERTEX
  8
0
 10
3.91787821
 20
8.42399815
  0
VERTEX
  8
0
 10
3.89951848
 20
8.40151685
  0
VERTEX
  8
0
 10
3.89352347
 20
8.39166790
  0
VERTEX
  8
0
 10
3.83244057
 20
8.31110287
  0
VERTEX
  8
0
 10
3.77356967
 20
8.22893807
  0
VERTEX
  8
0
 10
3.71675420
 20
8.14533205
  0
VERTEX
  8
0
 10
3.66183760
 20
8.06044339
  0
VERTEX
  8
0
 10
3.60866330
 20
7.97443067
  0
VERTEX
  8
0
 10
3.55707474
 20
7.88745245
  0
VERTEX
  8
0
 10
3.50691534
 20
7.79966732
  0
VERTEX
  8
0
 10
3.45802855
 20
7.71123384
  0
VERTEX
  8
0
 10
3.68998205
 20
8.00976411
  0
VERTEX
  8
0
 10
3.92187132
 20
8.30842285
  0
VERTEX
  8
0
 10
3.96090314
 20
8.30113248
  0
VERTEX
  8
0
 10
4.00006343
 20
8.29454867
  0
VERTEX
  8
0
 10
4.01818747
 20
8.34647563
  0
VERTEX
  8
0
 10
4.03738640
 20
8.39803626
  0
VERTEX
  8
0
 10
4.05769936
 20
8.44917737
  0
VERTEX
  8
0
 10
4.07916549
 20
8.49984578
  0
VERTEX
  8
0
 10
4.10182394
 20
8.54998828
  0
VERTEX
  8
0
 10
4.12571383
 20
8.59955169
  0
VERTEX
  8
0
 10
4.15087432
 20
8.64848281
  0
VERTEX
  8
0
 10
4.17734455
 20
8.69672845
  0
VERTEX
  8
0
 10
4.14765518
 20
8.67224307
  0
VERTEX
  8
0
 10
4.11900557
 20
8.64662057
  0
VERTEX
  8
0
 10
4.09126324
 20
8.62002456
  0
VERTEX
  8
0
 10
4.06429572
 20
8.59261861
  0
VERTEX
  8
0
 10
4.03797052
 20
8.56456633
  0
VERTEX
  8
0
 10
4.01215516
 20
8.53603130
  0
VERTEX
  8
0
 10
3.96152405
 20
8.47816738
  0
SEQEND
  0
POLYLINE
  8
Default_Layer
 66
   1
 39
0.000000
 70
    1
  0
VERTEX
  8
0
 10
7.40017827
 20
7.45824426
  0
VERTEX
  8
0
 10
7.40139584
 20
7.43107517
  0
VERTEX
  8
0
 10
7.40514958
 20
7.40355983
  0
VERTEX
  8
0
 10
7.40805499
 20
7.38990033
  0
VERTEX
  8
0
 10
7.41168739
 20
7.37642788
  0
VERTEX
  8
0
 10
7.41607779
 20
7.36323369
  0
VERTEX
  8
0
 10
7.42125717
 20
7.35040895
  0
VERTEX
  8
0
 10
7.42725651
 20
7.33804489
  0
VERTEX
  8
0
 10
7.43410680
 20
7.32623269
  0
VERTEX
  8
0
 10
7.44183904
 20
7.31506357
  0
VERTEX
  8
0
 10
7.45048420
 20
7.30462873
  0
VERTEX
  8
0
 10
7.46007327
 20
7.29501937
  0
VERTEX
  8
0
 10
7.47063725
 20
7.28632671
  0
VERTEX
  8
0
 10
7.48220711
 20
7.27864194
  0
VERTEX
  8
0
 10
7.49481385
 20
7.27205626
  0
VERTEX
  8
0
 10
7.51035369
 20
7.26604189
  0
VERTEX
  8
0
 10
7.52608811
 20
7.26145693
  0
VERTEX
  8
0
 10
7.54198487
 20
7.25820731
  0
VERTEX
  8
0
 10
7.55801173
 20
7.25619892
  0
VERTEX
  8
0
 10
7.57413644
 20
7.25533768
  0
VERTEX
  8
0
 10
7.59032676
 20
7.25552950
  0
VERTEX
  8
0
 10
7.60655045
 20
7.25668028
  0
VERTEX
  8
0
 10
7.62277527
 20
7.25869595
  0
VERTEX
  8
0
 10
7.65509934
 20
7.26494555
  0
VERTEX
  8
0
 10
7.68704102
 20
7.27352558
  0
VERTEX
  8
0
 10
7.71834238
 20
7.28368331
  0
VERTEX
  8
0
 10
7.74874550
 20
7.29466603
  0
VERTEX
  8
0
 10
7.71962284
 20
7.29565126
  0
VERTEX
  8
0
 10
7.69033158
 20
7.29858152
  0
VERTEX
  8
0
 10
7.66127316
 20
7.30370773
  0
VERTEX
  8
0
 10
7.63284904
 20
7.31128078
  0
VERTEX
  8
0
 10
7.61900029
 20
7.31606329
  0
VERTEX
  8
0
 10
7.60546066
 20
7.32155159
  0
VERTEX
  8
0
 10
7.59228032
 20
7.32777707
  0
VERTEX
  8
0
 10
7.57950947
 20
7.33477107
  0
VERTEX
  8
0
 10
7.56719828
 20
7.34256496
  0
VERTEX
  8
0
 10
7.55539694
 20
7.35119011
  0
VERTEX
  8
0
 10
7.54415562
 20
7.36067788
  0
VERTEX
  8
0
 10
7.53352451
 20
7.37105963
  0
VERTEX
  8
0
 10
7.52545154
 20
7.37987788
  0
VERTEX
  8
0
 10
7.51804636
 20
7.38912781
  0
VERTEX
  8
0
 10
7.50514855
 20
7.40878674
  0
VERTEX
  8
0
 10
7.49464942
 20
7.42976443
  0
VERTEX
  8
0
 10
7.48636730
 20
7.45178892
  0
VERTEX
  8
0
 10
7.48012054
 20
7.47458820
  0
VERTEX
  8
0
 10
7.47572749
 20
7.49789030
  0
VERTEX
  8
0
 10
7.47300648
 20
7.52142324
  0
VERTEX
  8
0
 10
7.47177586
 20
7.54491503
  0
VERTEX
  8
0
 10
7.43610553
 20
7.50148330
  0
VERTEX
  8
0
 10
7.40017827
 20
7.45824426
  0
SEQEND
  0
POLYLINE
  8
Default_Layer
 66
   1
 39
0.000000
 70
    1
  0
VERTEX
  8
0
 10
3.18422771
 20
7.36155325
  0
VERTEX
  8
0
 10
3.19596064
 20
7.35938960
  0
VERTEX
  8
0
 10
3.20769257
 20
7.35633572
  0
VERTEX
  8
0
 10
3.21910132
 20
7.35224810
  0
VERTEX
  8
0
 10
3.22986475
 20
7.34698323
  0
VERTEX
  8
0
 10
3.23966067
 20
7.34039758
  0
VERTEX
  8
0
 10
3.24816694
 20
7.33234764
  0
VERTEX
  8
0
 10
3.25506137
 20
7.32268988
  0
VERTEX
  8
0
 10
3.26002181
 20
7.31128078
  0
VERTEX
  8
0
 10
3.26325218
 20
7.29948895
  0
VERTEX
  8
0
 10
3.26547904
 20
7.28766187
  0
VERTEX
  8
0
 10
3.26677881
 20
7.27581045
  0
VERTEX
  8
0
 10
3.26722787
 20
7.26394560
  0
VERTEX
  8
0
 10
3.26587949
 20
7.24021930
  0
VERTEX
  8
0
 10
3.26204513
 20
7.21657027
  0
VERTEX
  8
0
 10
3.25633598
 20
7.19308584
  0
VERTEX
  8
0
 10
3.24936326
 20
7.16985332
  0
VERTEX
  8
0
 10
3.23407196
 20
7.12449328
  0
VERTEX
  8
0
 10
3.26679698
 20
7.17441516
  0
VERTEX
  8
0
 10
3.28241027
 20
7.19997325
  0
VERTEX
  8
0
 10
3.29713737
 20
7.22602312
  0
VERTEX
  8
0
 10
3.31068821
 20
7.25263503
  0
VERTEX
  8
0
 10
3.32277274
 20
7.27987922
  0
VERTEX
  8
0
 10
3.33310093
 20
7.30782596
  0
VERTEX
  8
0
 10
3.34138271
 20
7.33654548
  0
VERTEX
  8
0
 10
3.34408047
 20
7.35491859
  0
VERTEX
  8
0
 10
3.34495362
 20
7.36464008
  0
VERTEX
  8
0
 10
3.34504395
 20
7.37433548
  0
VERTEX
  8
0
 10
3.34400218
 20
7.38371774
  0
VERTEX
  8
0
 10
3.34147906
 20
7.39249984
  0
VERTEX
  8
0
 10
3.33712531
 20
7.40039472
  0
VERTEX
  8
0
 10
3.33059168
 20
7.40711536
  0
VERTEX
  8
0
 10
3.32068400
 20
7.40890606
  0
VERTEX
  8
0
 10
3.31087354
 20
7.40970656
  0
VERTEX
  8
0
 10
3.30116119
 20
7.40959652
  0
VERTEX
  8
0
 10
3.29154782
 20
7.40865560
  0
VERTEX
  8
0
 10
3.27262154
 20
7.40459976
  0
VERTEX
  8
0
 10
3.25410173
 20
7.39817637
  0
VERTEX
  8
0
 10
3.23599542
 20
7.39002271
  0
VERTEX
  8
0
 10
3.21830963
 20
7.38077611
  0
VERTEX
  8
0
 10
3.18422771
 20
7.36155325
  0
SEQEND
  0
POLYLINE
  8
Default_Layer
 66
   1
 39
0.000000
 70
    1
  0
VERTEX
  8
0
 10
8.47097336
 20
9.20673283
  0
VERTEX
  8
0
 10
8.57006237
 20
9.06499358
  0
VERTEX
  8
0
 10
8.55526973
 20
9.04559963
  0
VERTEX
  8
0
 10
8.54186323
 20
9.02548420
  0
VERTEX
  8
0
 10
8.52976370
 20
9.00470863
  0
VERTEX
  8
0
 10
8.51889199
 20
8.98333426
  0
VERTEX
  8
0
 10
8.50916893
 20
8.96142246
  0
VERTEX
  8
0
 10
8.50051536
 20
8.93903456
  0
VERTEX
  8
0
 10
8.49285213
 20
8.91623191
  0
VERTEX
  8
0
 10
8.48610007
 20
8.89307585
  0
VERTEX
  8
0
 10
8.48018001
 20
8.86962774
  0
VERTEX
  8
0
 10
8.47501280
 20
8.84594892
  0
VERTEX
  8
0
 10
8.46662029
 20
8.79814454
  0
VERTEX
  8
0
 10
8.46028922
 20
8.75015349
  0
VERTEX
  8
0
 10
8.45538633
 20
8.70246653
  0
VERTEX
  8
0
 10
8.44577323
 20
8.74633434
  0
VERTEX
  8
0
 10
8.43519865
 20
8.79005663
  0
VERTEX
  8
0
 10
8.42350403
 20
8.83351998
  0
VERTEX
  8
0
 10
8.41053078
 20
8.87661098
  0
VERTEX
  8
0
 10
8.39612033
 20
8.91921622
  0
VERTEX
  8
0
 10
8.38011411
 20
8.96122230
  0
VERTEX
  8
0
 10
8.36235355
 20
9.00251580
  0
VERTEX
  8
0
 10
8.34268007
 20
9.04298331
  0
VERTEX
  8
0
 10
8.47097336
 20
9.20673283
  0
SEQEND
  0
POLYLINE
  8
Default_Layer
 66
   1
 39
0.000000
 70
    1
  0
VERTEX
  8
0
 10
8.59035978
 20
8.50788552
  0
VERTEX
  8
0
 10
8.59859222
 20
8.52343241
  0
VERTEX
  8
0
 10
8.60804507
 20
8.53822457
  0
VERTEX
  8
0
 10
8.61858987
 20
8.55227806
  0
VERTEX
  8
0
 10
8.63009815
 20
8.56560894
  0
VERTEX
  8
0
 10
8.63282000
 20
8.53936603
  0
VERTEX
  8
0
 10
8.63493665
 20
8.52585768
  0
VERTEX
  8
0
 10
8.63812719
 20
8.51271365
  0
VERTEX
  8
0
 10
8.64281916
 20
8.50040062
  0
VERTEX
  8
0
 10
8.64944010
 20
8.48938528
  0
VERTEX
  8
0
 10
8.65360755
 20
8.48451009
  0
VERTEX
  8
0
 10
8.65841757
 20
8.48013433
  0
VERTEX
  8
0
 10
8.66392361
 20
8.47631633
  0
VERTEX
  8
0
 10
8.67017910
 20
8.47311444
  0
VERTEX
  8
0
 10
8.69749138
 20
8.45917536
  0
VERTEX
  8
0
 10
8.72535063
 20
8.44646874
  0
VERTEX
  8
0
 10
8.75366954
 20
8.43482196
  0
VERTEX
  8
0
 10
8.78236080
 20
8.42406238
  0
VERTEX
  8
0
 10
8.84051109
 20
8.40451435
  0
VERTEX
  8
0
 10
8.89910298
 20
8.38644367
  0
VERTEX
  8
0
 10
8.92108324
 20
8.33780981
  0
VERTEX
  8
0
 10
8.94197218
 20
8.28872244
  0
VERTEX
  8
0
 10
8.96178046
 20
8.23920576
  0
VERTEX
  8
0
 10
8.98051875
 20
8.18928399
  0
VERTEX
  8
0
 10
8.99819770
 20
8.13898135
  0
VERTEX
  8
0
 10
9.01482799
 20
8.08832204
  0
VERTEX
  8
0
 10
9.03042028
 20
8.03733028
  0
VERTEX
  8
0
 10
9.04498522
 20
7.98603028
  0
VERTEX
  8
0
 10
9.05853349
 20
7.93444625
  0
VERTEX
  8
0
 10
9.07107574
 20
7.88260241
  0
VERTEX
  8
0
 10
9.08262264
 20
7.83052297
  0
VERTEX
  8
0
 10
9.09318486
 20
7.77823213
  0
VERTEX
  8
0
 10
9.10277306
 20
7.72575412
  0
VERTEX
  8
0
 10
9.11139789
 20
7.67311315
  0
VERTEX
  8
0
 10
9.11907004
 20
7.62033342
  0
VERTEX
  8
0
 10
9.12580014
 20
7.56743915
  0
VERTEX
  8
0
 10
9.13206191
 20
7.51027267
  0
VERTEX
  8
0
 10
9.13730676
 20
7.45301937
  0
VERTEX
  8
0
 10
9.14155349
 20
7.39569280
  0
VERTEX
  8
0
 10
9.14482093
 20
7.33830652
  0
VERTEX
  8
0
 10
9.14712790
 20
7.28087407
  0
VERTEX
  8
0
 10
9.14849321
 20
7.22340900
  0
VERTEX
  8
0
 10
9.14893569
 20
7.16592487
  0
VERTEX
  8
0
 10
9.14847414
 20
7.10843521
  0
VERTEX
  8
0
 10
9.14712740
 20
7.05095359
  0
VERTEX
  8
0
 10
9.14491427
 20
6.99349354
  0
VERTEX
  8
0
 10
9.14185358
 20
6.93606862
  0
VERTEX
  8
0
 10
9.13796413
 20
6.87869237
  0
VERTEX
  8
0
 10
9.13326476
 20
6.82137835
  0
VERTEX
  8
0
 10
9.12777428
 20
6.76414010
  0
VERTEX
  8
0
 10
9.12151151
 20
6.70699118
  0
VERTEX
  8
0
 10
9.11449526
 20
6.64994513
  0
VERTEX
  8
0
 10
9.10136578
 20
6.55766558
  0
VERTEX
  8
0
 10
9.08634546
 20
6.46566403
  0
VERTEX
  8
0
 10
9.06937409
 20
6.37400171
  0
VERTEX
  8
0
 10
9.05039144
 20
6.28273983
  0
VERTEX
  8
0
 10
9.02933730
 20
6.19193963
  0
VERTEX
  8
0
 10
9.00615145
 20
6.10166232
  0
VERTEX
  8
0
 10
8.98077367
 20
6.01196912
  0
VERTEX
  8
0
 10
8.95314375
 20
5.92292125
  0
VERTEX
  8
0
 10
8.93626030
 20
5.86139361
  0
VERTEX
  8
0
 10
8.91827854
 20
5.80018027
  0
VERTEX
  8
0
 10
8.89920815
 20
5.73929847
  0
VERTEX
  8
0
 10
8.87905883
 20
5.67876545
  0
VERTEX
  8
0
 10
8.85784027
 20
5.61859845
  0
VERTEX
  8
0
 10
8.83556215
 20
5.55881468
  0
VERTEX
  8
0
 10
8.81223418
 20
5.49943140
  0
VERTEX
  8
0
 10
8.78786604
 20
5.44046583
  0
VERTEX
  8
0
 10
8.76246742
 20
5.38193521
  0
VERTEX
  8
0
 10
8.73604802
 20
5.32385677
  0
VERTEX
  8
0
 10
8.70861752
 20
5.26624775
  0
VERTEX
  8
0
 10
8.68018562
 20
5.20912538
  0
VERTEX
  8
0
 10
8.65076201
 20
5.15250689
  0
VERTEX
  8
0
 10
8.62035638
 20
5.09640953
  0
VERTEX
  8
0
 10
8.58897842
 20
5.04085051
  0
VERTEX
  8
0
 10
8.55663783
 20
4.98584708
  0
VERTEX
  8
0
 10
8.52334428
 20
4.93141648
  0
VERTEX
  8
0
 10
8.48910748
 20
4.87757593
  0
VERTEX
  8
0
 10
8.45393712
 20
4.82434267
  0
VERTEX
  8
0
 10
8.41784289
 20
4.77173393
  0
VERTEX
  8
0
 10
8.38083447
 20
4.71976695
  0
VERTEX
  8
0
 10
8.34292157
 20
4.66845897
  0
VERTEX
  8
0
 10
8.30411386
 20
4.61782721
  0
VERTEX
  8
0
 10
8.26442105
 20
4.56788891
  0
VERTEX
  8
0
 10
8.22385283
 20
4.51866131
  0
VERTEX
  8
0
 10
8.18241888
 20
4.47016164
  0
VERTEX
  8
0
 10
8.14012889
 20
4.42240713
  0
VERTEX
  8
0
 10
8.09699256
 20
4.37541502
  0
VERTEX
  8
0
 10
8.05301959
 20
4.32920254
  0
VERTEX
  8
0
 10
8.00821965
 20
4.28378692
  0
VERTEX
  8
0
 10
7.96260245
 20
4.23918541
  0
VERTEX
  8
0
 10
7.91617767
 20
4.19541523
  0
VERTEX
  8
0
 10
7.87246872
 20
4.15625275
  0
VERTEX
  8
0
 10
7.82788737
 20
4.11814496
  0
VERTEX
  8
0
 10
7.78247050
 20
4.08107467
  0
VERTEX
  8
0
 10
7.73625499
 20
4.04502469
  0
VERTEX
  8
0
 10
7.68927773
 20
4.00997785
  0
VERTEX
  8
0
 10
7.64157559
 20
3.97591694
  0
VERTEX
  8
0
 10
7.59318547
 20
3.94282479
  0
VERTEX
  8
0
 10
7.54414424
 20
3.91068420
  0
VERTEX
  8
0
 10
7.49448879
 20
3.87947799
  0
VERTEX
  8
0
 10
7.44425601
 20
3.84918897
  0
VERTEX
  8
0
 10
7.39348277
 20
3.81979996
  0
VERTEX
  8
0
 10
7.34220595
 20
3.79129377
  0
VERTEX
  8
0
 10
7.29046245
 20
3.76365320
  0
VERTEX
  8
0
 10
7.23828915
 20
3.73686108
  0
VERTEX
  8
0
 10
7.18572292
 20
3.71090022
  0
VERTEX
  8
0
 10
7.13280066
 20
3.68575342
  0
VERTEX
  8
0
 10
7.07483855
 20
3.65930852
  0
VERTEX
  8
0
 10
7.01651613
 20
3.63369499
  0
VERTEX
  8
0
 10
6.95784846
 20
3.60889918
  0
VERTEX
  8
0
 10
6.89885060
 20
3.58490739
  0
VERTEX
  8
0
 10
6.83953760
 20
3.56170597
  0
VERTEX
  8
0
 10
6.77992452
 20
3.53928122
  0
VERTEX
  8
0
 10
6.72002640
 20
3.51761949
  0
VERTEX
  8
0
 10
6.65985831
 20
3.49670709
  0
VERTEX
  8
0
 10
6.59943530
 20
3.47653035
  0
VERTEX
  8
0
 10
6.53877242
 20
3.45707560
  0
VERTEX
  8
0
 10
6.41678727
 20
3.42027736
  0
VERTEX
  8
0
 10
6.29402331
 20
3.38620296
  0
VERTEX
  8
0
 10
6.17060096
 20
3.35474303
  0
VERTEX
  8
0
 10
6.08131139
 20
3.33395050
  0
VERTEX
  8
0
 10
5.99172474
 20
3.31449079
  0
VERTEX
  8
0
 10
5.90180087
 20
3.29676535
  0
VERTEX
  8
0
 10
5.81149964
 20
3.28117564
  0
VERTEX
  8
0
 10
5.79494496
 20
3.22657370
  0
VERTEX
  8
0
 10
5.77658287
 20
3.17266740
  0
VERTEX
  8
0
 10
5.75649278
 20
3.11945385
  0
VERTEX
  8
0
 10
5.73475410
 20
3.06693018
  0
VERTEX
  8
0
 10
5.71144624
 20
3.01509349
  0
VERTEX
  8
0
 10
5.68664863
 20
2.96394089
  0
VERTEX
  8
0
 10
5.66044066
 20
2.91346952
  0
VERTEX
  8
0
 10
5.63290176
 20
2.86367647
  0
VERTEX
  8
0
 10
5.60411133
 20
2.81455886
  0
VERTEX
  8
0
 10
5.57414878
 20
2.76611381
  0
VERTEX
  8
0
 10
5.54309354
 20
2.71833843
  0
VERTEX
  8
0
 10
5.51102500
 20
2.67122983
  0
VERTEX
  8
0
 10
5.47802259
 20
2.62478514
  0
VERTEX
  8
0
 10
5.44416571
 20
2.57900147
  0
VERTEX
  8
0
 10
5.40953378
 20
2.53387592
  0
VERTEX
  8
0
 10
5.37420621
 20
2.48940562
  0
VERTEX
  8
0
 10
5.32129219
 20
2.42589327
  0
VERTEX
  8
0
 10
5.26699717
 20
2.36353709
  0
VERTEX
  8
0
 10
5.21132918
 20
2.30239331
  0
VERTEX
  8
0
 10
5.15429626
 20
2.24251811
  0
VERTEX
  8
0
 10
5.09590644
 20
2.18396770
  0
VERTEX
  8
0
 10
5.03616773
 20
2.12679829
  0
VERTEX
  8
0
 10
4.97508818
 20
2.07106607
  0
VERTEX
  8
0
 10
4.91267580
 20
2.01682725
  0
VERTEX
  8
0
 10
4.90306770
 20
2.00790223
  0
VERTEX
  8
0
 10
4.89409778
 20
1.99820190
  0
VERTEX
  8
0
 10
4.88582413
 20
1.98780605
  0
VERTEX
  8
0
 10
4.87830483
 20
1.97679448
  0
VERTEX
  8
0
 10
4.87159798
 20
1.96524697
  0
VERTEX
  8
0
 10
4.86576164
 20
1.95324331
  0
VERTEX
  8
0
 10
4.86085391
 20
1.94086329
  0
VERTEX
  8
0
 10
4.85693288
 20
1.92818669
  0
VERTEX
  8
0
 10
4.85405662
 20
1.91529332
  0
VERTEX
  8
0
 10
4.85228323
 20
1.90226294
  0
VERTEX
  8
0
 10
4.85167079
 20
1.88917536
  0
VERTEX
  8
0
 10
4.85227738
 20
1.87611036
  0
VERTEX
  8
0
 10
4.85416108
 20
1.86314774
  0
VERTEX
  8
0
 10
4.85738000
 20
1.85036727
  0
VERTEX
  8
0
 10
4.86199220
 20
1.83784874
  0
VERTEX
  8
0
 10
4.86805577
 20
1.82567196
  0
VERTEX
  8
0
 10
4.81856996
 20
1.81380695
  0
VERTEX
  8
0
 10
4.76983774
 20
1.79976544
  0
VERTEX
  8
0
 10
4.72186603
 20
1.78364917
  0
VERTEX
  8
0
 10
4.67466171
 20
1.76555990
  0
VERTEX
  8
0
 10
4.62823170
 20
1.74559936
  0
VERTEX
  8
0
 10
4.58258289
 20
1.72386930
  0
VERTEX
  8
0
 10
4.53772217
 20
1.70047145
  0
VERTEX
  8
0
 10
4.49365646
 20
1.67550757
  0
VERTEX
  8
0
 10
4.45039265
 20
1.64907939
  0
VERTEX
  8
0
 10
4.40793763
 20
1.62128866
  0
VERTEX
  8
0
 10
4.36629832
 20
1.59223712
  0
VERTEX
  8
0
 10
4.32548160
 20
1.56202651
  0
VERTEX
  8
0
 10
4.28549439
 20
1.53075858
  0
VERTEX
  8
0
 10
4.24634358
 20
1.49853507
  0
VERTEX
  8
0
 10
4.20803606
 20
1.46545772
  0
VERTEX
  8
0
 10
4.17057875
 20
1.43162827
  0
VERTEX
  8
0
 10
4.13063078
 20
1.39370249
  0
VERTEX
  8
0
 10
4.09149274
 20
1.35496603
  0
VERTEX
  8
0
 10
4.05316162
 20
1.31544523
  0
VERTEX
  8
0
 10
4.01563441
 20
1.27516644
  0
VERTEX
  8
0
 10
3.97890809
 20
1.23415601
  0
VERTEX
  8
0
 10
3.94297966
 20
1.19244027
  0
VERTEX
  8
0
 10
3.90784610
 20
1.15004558
  0
VERTEX
  8
0
 10
3.87350441
 20
1.10699828
  0
VERTEX
  8
0
 10
3.83995157
 20
1.06332471
  0
VERTEX
  8
0
 10
3.80718457
 20
1.01905123
  0
VERTEX
  8
0
 10
3.77520040
 20
0.97420417
  0
VERTEX
  8
0
 10
3.74399605
 20
0.92880988
  0
VERTEX
  8
0
 10
3.71356852
 20
0.88289471
  0
VERTEX
  8
0
 10
3.68391478
 20
0.83648500
  0
VERTEX
  8
0
 10
3.65503182
 20
0.78960709
  0
VERTEX
  8
0
 10
3.62691665
 20
0.74228734
  0
VERTEX
  8
0
 10
3.61685192
 20
0.72696593
  0
VERTEX
  8
0
 10
3.60580563
 20
0.71226677
  0
VERTEX
  8
0
 10
3.59383601
 20
0.69826213
  0
VERTEX
  8
0
 10
3.58100127
 20
0.68502425
  0
VERTEX
  8
0
 10
3.56735960
 20
0.67262541
  0
VERTEX
  8
0
 10
3.55296922
 20
0.66113787
  0
VERTEX
  8
0
 10
3.53788835
 20
0.65063388
  0
VERTEX
  8
0
 10
3.52217519
 20
0.64118572
  0
VERTEX
  8
0
 10
3.50588796
 20
0.63286563
  0
VERTEX
  8
0
 10
3.48908486
 20
0.62574588
  0
VERTEX
  8
0
 10
3.47182410
 20
0.61989873
  0
VERTEX
  8
0
 10
3.45416390
 20
0.61539645
  0
VERTEX
  8
0
 10
3.43616247
 20
0.61231129
  0
VERTEX
  8
0
 10
3.41787801
 20
0.61071552
  0
VERTEX
  8
0
 10
3.39936874
 20
0.61068140
  0
VERTEX
  8
0
 10
3.38069287
 20
0.61228119
  0
VERTEX
  8
0
 10
3.39647729
 20
0.62495970
  0
VERTEX
  8
0
 10
3.41079640
 20
0.63902323
  0
VERTEX
  8
0
 10
3.42381482
 20
0.65425899
  0
VERTEX
  8
0
 10
3.43569712
 20
0.67045423
  0
VERTEX
  8
0
 10
3.44660791
 20
0.68739616
  0
VERTEX
  8
0
 10
3.45671178
 20
0.70487203
  0
VERTEX
  8
0
 10
3.47515716
 20
0.74057448
  0
VERTEX
  8
0
 10
3.48241942
 20
0.75837485
  0
VERTEX
  8
0
 10
3.48507653
 20
0.76782001
  0
VERTEX
  8
0
 10
3.48668685
 20
0.77737958
  0
VERTEX
  8
0
 10
3.48695231
 20
0.78686689
  0
VERTEX
  8
0
 10
3.48557483
 20
0.79609526
  0
VERTEX
  8
0
 10
3.48225633
 20
0.80487803
  0
VERTEX
  8
0
 10
3.47669873
 20
0.81302850
  0
VERTEX
  8
0
 10
3.46673085
 20
0.82197485
  0
VERTEX
  8
0
 10
3.45561582
 20
0.82874935
  0
VERTEX
  8
0
 10
3.44359552
 20
0.83370126
  0
VERTEX
  8
0
 10
3.43091182
 20
0.83717984
  0
VERTEX
  8
0
 10
3.41780659
 20
0.83953436
  0
VERTEX
  8
0
 10
3.40452171
 20
0.84111407
  0
VERTEX
  8
0
 10
3.37838051
 20
0.84334614
  0
VERTEX
  8
0
 10
3.36920537
 20
0.83171888
  0
VERTEX
  8
0
 10
3.36121476
 20
0.81954641
  0
VERTEX
  8
0
 10
3.35432464
 20
0.80688165
  0
VERTEX
  8
0
 10
3.34845094
 20
0.79377755
  0
VERTEX
  8
0
 10
3.34350961
 20
0.78028705
  0
VERTEX
  8
0
 10
3.33941660
 20
0.76646310
  0
VERTEX
  8
0
 10
3.33343932
 20
0.73802660
  0
VERTEX
  8
0
 10
3.32984666
 20
0.70889157
  0
VERTEX
  8
0
 10
3.32796619
 20
0.67948154
  0
VERTEX
  8
0
 10
3.32665210
 20
0.62153063
  0
VERTEX
  8
0
 10
3.32636005
 20
0.61124561
  0
VERTEX
  8
0
 10
3.32704553
 20
0.60057619
  0
VERTEX
  8
0
 10
3.32877177
 20
0.57895533
  0
VERTEX
  8
0
 10
3.32852387
 20
0.56843947
  0
VERTEX
  8
0
 10
3.32667619
 20
0.55841037
  0
VERTEX
  8
0
 10
3.32258439
 20
0.54908581
  0
VERTEX
  8
0
 10
3.31949560
 20
0.54475580
  0
VERTEX
  8
0
 10
3.31560415
 20
0.54068359
  0
VERTEX
  8
0
 10
3.27735064
 20
0.49792563
  0
VERTEX
  8
0
 10
3.23771313
 20
0.45636801
  0
VERTEX
  8
0
 10
3.19664846
 20
0.41620744
  0
VERTEX
  8
0
 10
3.15411347
 20
0.37764063
  0
VERTEX
  8
0
 10
3.11006500
 20
0.34086430
  0
VERTEX
  8
0
 10
3.06445991
 20
0.30607515
  0
VERTEX
  8
0
 10
3.01725503
 20
0.27346991
  0
VERTEX
  8
0
 10
2.99303919
 20
0.25804772
  0
VERTEX
  8
0
 10
2.96840721
 20
0.24324527
  0
VERTEX
  8
0
 10
2.94155830
 20
0.22798188
  0
VERTEX
  8
0
 10
2.91421674
 20
0.21358451
  0
VERTEX
  8
0
 10
2.88641375
 20
0.20007609
  0
VERTEX
  8
0
 10
2.85818059
 20
0.18747960
  0
VERTEX
  8
0
 10
2.82954848
 20
0.17581799
  0
VERTEX
  8
0
 10
2.80054867
 20
0.16511422
  0
VERTEX
  8
0
 10
2.77121239
 20
0.15539124
  0
VERTEX
  8
0
 10
2.74157088
 20
0.14667202
  0
VERTEX
  8
0
 10
2.71165538
 20
0.13897952
  0
VERTEX
  8
0
 10
2.68149713
 20
0.13233668
  0
VERTEX
  8
0
 10
2.65112737
 20
0.12676647
  0
VERTEX
  8
0
 10
2.62057732
 20
0.12229185
  0
VERTEX
  8
0
 10
2.58987824
 20
0.11893578
  0
VERTEX
  8
0
 10
2.55906136
 20
0.11672121
  0
VERTEX
  8
0
 10
2.52815791
 20
0.11567110
  0
VERTEX
  8
0
 10
2.49719914
 20
0.11580841
  0
VERTEX
  8
0
 10
2.45327652
 20
0.11792521
  0
VERTEX
  8
0
 10
2.40958010
 20
0.12214850
  0
VERTEX
  8
0
 10
2.36617148
 20
0.12841895
  0
VERTEX
  8
0
 10
2.32311224
 20
0.13667721
  0
VERTEX
  8
0
 10
2.28046398
 20
0.14686395
  0
VERTEX
  8
0
 10
2.23828831
 20
0.15891982
  0
VERTEX
  8
0
 10
2.19664682
 20
0.17278548
  0
VERTEX
  8
0
 10
2.15560111
 20
0.18840160
  0
VERTEX
  8
0
 10
2.11521278
 20
0.20570884
  0
VERTEX
  8
0
 10
2.07554343
 20
0.22464785
  0
VERTEX
  8
0
 10
2.03665464
 20
0.24515930
  0
VERTEX
  8
0
 10
1.99860803
 20
0.26718384
  0
VERTEX
  8
0
 10
1.96146519
 20
0.29066214
  0
VERTEX
  8
0
 10
1.92528771
 20
0.31553487
  0
VERTEX
  8
0
 10
1.89013719
 20
0.34174266
  0
VERTEX
  8
0
 10
1.85607524
 20
0.36922620
  0
VERTEX
  8
0
 10
1.86965920
 20
0.40752671
  0
VERTEX
  8
0
 10
1.88071502
 20
0.44648159
  0
VERTEX
  8
0
 10
1.88969332
 20
0.48595835
  0
VERTEX
  8
0
 10
1.89704474
 20
0.52582452
  0
VERTEX
  8
0
 10
1.90321990
 20
0.56594762
  0
VERTEX
  8
0
 10
1.90866944
 20
0.60619518
  0
VERTEX
  8
0
 10
1.91919417
 20
0.68653371
  0
VERTEX
  8
0
 10
1.93290613
 20
0.71628630
  0
VERTEX
  8
0
 10
1.94751653
 20
0.74560224
  0
VERTEX
  8
0
 10
1.96300502
 20
0.77446191
  0
VERTEX
  8
0
 10
1.97935122
 20
0.80284568
  0
VERTEX
  8
0
 10
1.99653477
 20
0.83073390
  0
VERTEX
  8
0
 10
2.01453528
 20
0.85810694
  0
VERTEX
  8
0
 10
2.03333239
 20
0.88494517
  0
VERTEX
  8
0
 10
2.05290573
 20
0.91122897
  0
VERTEX
  8
0
 10
2.07323493
 20
0.93693868
  0
VERTEX
  8
0
 10
2.09429961
 20
0.96205469
  0
VERTEX
  8
0
 10
2.11607941
 20
0.98655735
  0
VERTEX
  8
0
 10
2.13855397
 20
1.01042704
  0
VERTEX
  8
0
 10
2.16170289
 20
1.03364412
  0
VERTEX
  8
0
 10
2.18550582
 20
1.05618895
  0
VERTEX
  8
0
 10
2.20994239
 20
1.07804191
  0
VERTEX
  8
0
 10
2.23499222
 20
1.09918335
  0
VERTEX
  8
0
 10
2.26063495
 20
1.11959365
  0
VERTEX
  8
0
 10
2.28685020
 20
1.13925318
  0
VERTEX
  8
0
 10
2.31361760
 20
1.15814229
  0
VERTEX
  8
0
 10
2.34091679
 20
1.17624136
  0
VERTEX
  8
0
 10
2.36872739
 20
1.19353075
  0
VERTEX
  8
0
 10
2.39702903
 20
1.20999083
  0
VERTEX
  8
0
 10
2.42580134
 20
1.22560196
  0
VERTEX
  8
0
 10
2.45502395
 20
1.24034451
  0
VERTEX
  8
0
 10
2.48467649
 20
1.25419886
  0
VERTEX
  8
0
 10
2.51473859
 20
1.26714535
  0
VERTEX
  8
0
 10
2.54518988
 20
1.27916437
  0
VERTEX
  8
0
 10
2.57600998
 20
1.29023628
  0
VERTEX
  8
0
 10
2.60717854
 20
1.30034143
  0
VERTEX
  8
0
 10
2.63867517
 20
1.30946021
  0
VERTEX
  8
0
 10
2.67047950
 20
1.31757298
  0
VERTEX
  8
0
 10
2.70257118
 20
1.32466010
  0
VERTEX
  8
0
 10
2.71882446
 20
1.32429996
  0
VERTEX
  8
0
 10
2.73491615
 20
1.32232499
  0
VERTEX
  8
0
 10
2.75088540
 20
1.31912759
  0
VERTEX
  8
0
 10
2.76677135
 20
1.31510019
  0
VERTEX
  8
0
 10
2.79844991
 20
1.30612507
  0
VERTEX
  8
0
 10
2.81432081
 20
1.30196218
  0
VERTEX
  8
0
 10
2.83026497
 20
1.29853897
  0
VERTEX
  8
0
 10
2.86105900
 20
1.33789864
  0
VERTEX
  8
0
 10
2.89117859
 20
1.37787655
  0
VERTEX
  8
0
 10
2.92184416
 20
1.41732454
  0
VERTEX
  8
0
 10
2.93776306
 20
1.43649102
  0
VERTEX
  8
0
 10
2.95427611
 20
1.45509447
  0
VERTEX
  8
0
 10
3.01479980
 20
1.46762418
  0
VERTEX
  8
0
 10
3.07524006
 20
1.48117596
  0
VERTEX
  8
0
 10
3.13551749
 20
1.49582445
  0
VERTEX
  8
0
 10
3.19555266
 20
1.51164431
  0
VERTEX
  8
0
 10
3.25526617
 20
1.52871017
  0
VERTEX
  8
0
 10
3.31457861
 20
1.54709669
  0
VERTEX
  8
0
 10
3.37341056
 20
1.56687850
  0
VERTEX
  8
0
 10
3.43168260
 20
1.58813025
  0
VERTEX
  8
0
 10
3.48931534
 20
1.61092658
  0
VERTEX
  8
0
 10
3.54622935
 20
1.63534215
  0
VERTEX
  8
0
 10
3.60234522
 20
1.66145159
  0
VERTEX
  8
0
 10
3.65758355
 20
1.68932956
  0
VERTEX
  8
0
 10
3.71186492
 20
1.71905069
  0
VERTEX
  8
0
 10
3.76510991
 20
1.75068963
  0
VERTEX
  8
0
 10
3.81723912
 20
1.78432102
  0
VERTEX
  8
0
 10
3.86817313
 20
1.82001952
  0
VERTEX
  8
0
 10
3.89575644
 20
1.84090760
  0
VERTEX
  8
0
 10
3.92295976
 20
1.86246937
  0
VERTEX
  8
0
 10
3.94970818
 20
1.88471410
  0
VERTEX
  8
0
 10
3.97592681
 20
1.90765109
  0
VERTEX
  8
0
 10
4.00154075
 20
1.93128962
  0
VERTEX
  8
0
 10
4.02647511
 20
1.95563897
  0
VERTEX
  8
0
 10
4.05065499
 20
1.98070842
  0
VERTEX
  8
0
 10
4.07400550
 20
2.00650726
  0
VERTEX
  8
0
 10
4.09645174
 20
2.03304478
  0
VERTEX
  8
0
 10
4.11791881
 20
2.06033024
  0
VERTEX
  8
0
 10
4.13833182
 20
2.08837295
  0
VERTEX
  8
0
 10
4.15761587
 20
2.11718218
  0
VERTEX
  8
0
 10
4.17569607
 20
2.14676721
  0
VERTEX
  8
0
 10
4.19249751
 20
2.17713733
  0
VERTEX
  8
0
 10
4.20794532
 20
2.20830183
  0
VERTEX
  8
0
 10
4.22196458
 20
2.24026998
  0
VERTEX
  8
0
 10
4.24091043
 20
2.21999800
  0
VERTEX
  8
0
 10
4.25874827
 20
2.19878662
  0
VERTEX
  8
0
 10
4.27575109
 20
2.17688475
  0
VERTEX
  8
0
 10
4.29219188
 20
2.15454128
  0
VERTEX
  8
0
 10
4.28525338
 20
2.19779957
  0
VERTEX
  8
0
 10
4.27926484
 20
2.24112718
  0
VERTEX
  8
0
 10
4.27421024
 20
2.28451417
  0
VERTEX
  8
0
 10
4.27007356
 20
2.32795057
  0
VERTEX
  8
0
 10
4.26683876
 20
2.37142642
  0
VERTEX
  8
0
 10
4.26448983
 20
2.41493177
  0
VERTEX
  8
0
 10
4.26301072
 20
2.45845666
  0
VERTEX
  8
0
 10
4.26238542
 20
2.50199113
  0
VERTEX
  8
0
 10
4.26259791
 20
2.54552523
  0
VERTEX
  8
0
 10
4.26363214
 20
2.58904899
  0
VERTEX
  8
0
 10
4.26547210
 20
2.63255246
  0
VERTEX
  8
0
 10
4.26810176
 20
2.67602568
  0
VERTEX
  8
0
 10
4.27150510
 20
2.71945869
  0
VERTEX
  8
0
 10
4.27566608
 20
2.76284153
  0
VERTEX
  8
0
 10
4.28619687
 20
2.84941690
  0
VERTEX
  8
0
 10
4.29956592
 20
2.93567210
  0
VERTEX
  8
0
 10
4.31564503
 20
3.02152748
  0
VERTEX
  8
0
 10
4.33430598
 20
3.10690338
  0
VERTEX
  8
0
 10
4.35542054
 20
3.19172014
  0
VERTEX
  8
0
 10
4.37886052
 20
3.27589808
  0
VERTEX
  8
0
 10
4.40449769
 20
3.35935755
  0
VERTEX
  8
0
 10
4.43220385
 20
3.44201888
  0
VERTEX
  8
0
 10
4.46185077
 20
3.52380241
  0
VERTEX
  8
0
 10
4.49551769
 20
3.61008361
  0
VERTEX
  8
0
 10
4.53135947
 20
3.69547257
  0
VERTEX
  8
0
 10
4.56933498
 20
3.77992816
  0
VERTEX
  8
0
 10
4.60940304
 20
3.86340923
  0
VERTEX
  8
0
 10
4.65152253
 20
3.94587463
  0
VERTEX
  8
0
 10
4.69565229
 20
4.02728320
  0
VERTEX
  8
0
 10
4.74175117
 20
4.10759380
  0
VERTEX
  8
0
 10
4.78977802
 20
4.18676528
  0
VERTEX
  8
0
 10
4.79699278
 20
4.21581969
  0
VERTEX
  8
0
 10
4.80500642
 20
4.24468140
  0
VERTEX
  8
0
 10
4.81389524
 20
4.27328618
  0
VERTEX
  8
0
 10
4.82373549
 20
4.30156980
  0
VERTEX
  8
0
 10
4.83460346
 20
4.32946802
  0
VERTEX
  8
0
 10
4.84657542
 20
4.35691662
  0
VERTEX
  8
0
 10
4.85972765
 20
4.38385136
  0
VERTEX
  8
0
 10
4.87413643
 20
4.41020801
  0
VERTEX
  8
0
 10
4.88976124
 20
4.43701926
  0
VERTEX
  8
0
 10
4.90619486
 20
4.46328228
  0
VERTEX
  8
0
 10
4.92339701
 20
4.48901087
  0
VERTEX
  8
0
 10
4.94132742
 20
4.51421882
  0
VERTEX
  8
0
 10
4.95994581
 20
4.53891994
  0
VERTEX
  8
0
 10
4.97921192
 20
4.56312803
  0
VERTEX
  8
0
 10
5.01952621
 20
4.61012031
  0
VERTEX
  8
0
 10
5.06194813
 20
4.65530605
  0
VERTEX
  8
0
 10
5.10615550
 20
4.69879566
  0
VERTEX
  8
0
 10
5.15182616
 20
4.74069953
  0
VERTEX
  8
0
 10
5.19863795
 20
4.78112807
  0
VERTEX
  8
0
 10
5.23816666
 20
4.81325540
  0
VERTEX
  8
0
 10
5.27830406
 20
4.84455863
  0
VERTEX
  8
0
 10
5.31901855
 20
4.87506874
  0
VERTEX
  8
0
 10
5.36027851
 20
4.90481671
  0
VERTEX
  8
0
 10
5.40205233
 20
4.93383354
  0
VERTEX
  8
0
 10
5.44430840
 20
4.96215022
  0
VERTEX
  8
0
 10
5.48701509
 20
4.98979772
  0
VERTEX
  8
0
 10
5.53014080
 20
5.01680705
  0
VERTEX
  8
0
 10
5.61752281
 20
5.06903509
  0
VERTEX
  8
0
 10
5.70620151
 20
5.11908225
  0
VERTEX
  8
0
 10
5.79592398
 20
5.16719642
  0
VERTEX
  8
0
 10
5.88643731
 20
5.21362549
  0
VERTEX
  8
0
 10
5.94921783
 20
5.24448003
  0
VERTEX
  8
0
 10
6.01232842
 20
5.27462576
  0
VERTEX
  8
0
 10
6.13947908
 20
5.33288612
  0
VERTEX
  8
0
 10
6.26776786
 20
5.38859726
  0
VERTEX
  8
0
 10
6.39707331
 20
5.44194987
  0
VERTEX
  8
0
 10
6.52727400
 20
5.49313464
  0
VERTEX
  8
0
 10
6.65824849
 20
5.54234226
  0
VERTEX
  8
0
 10
6.78987534
 20
5.58976342
  0
VERTEX
  8
0
 10
6.92203311
 20
5.63558881
  0
VERTEX
  8
0
 10
7.03545127
 20
5.67317557
  0
VERTEX
  8
0
 10
7.14922272
 20
5.70971956
  0
VERTEX
  8
0
 10
7.26334744
 20
5.74516558
  0
VERTEX
  8
0
 10
7.37782544
 20
5.77945843
  0
VERTEX
  8
0
 10
7.49265671
 20
5.81254291
  0
VERTEX
  8
0
 10
7.60784126
 20
5.84436382
  0
VERTEX
  8
0
 10
7.72337910
 20
5.87486597
  0
VERTEX
  8
0
 10
7.83927020
 20
5.90399414
  0
VERTEX
  8
0
 10
7.78480925
 20
5.90164230
  0
VERTEX
  8
0
 10
7.73042859
 20
5.89802589
  0
VERTEX
  8
0
 10
7.67612822
 20
5.89329344
  0
VERTEX
  8
0
 10
7.62190814
 20
5.88759349
  0
VERTEX
  8
0
 10
7.51370884
 20
5.87388525
  0
VERTEX
  8
0
 10
7.40583071
 20
5.85808946
  0
VERTEX
  8
0
 10
7.32094172
 20
5.84422114
  0
VERTEX
  8
0
 10
7.23628958
 20
5.82908724
  0
VERTEX
  8
0
 10
7.15186226
 20
5.81279516
  0
VERTEX
  8
0
 10
7.06764771
 20
5.79545227
  0
VERTEX
  8
0
 10
6.98363388
 20
5.77716598
  0
VERTEX
  8
0
 10
6.89980874
 20
5.75804366
  0
VERTEX
  8
0
 10
6.73267632
 20
5.71772050
  0
VERTEX
  8
0
 10
6.78473515
 20
5.73669821
  0
VERTEX
  8
0
 10
6.83648021
 20
5.75681856
  0
VERTEX
  8
0
 10
6.88783061
 20
5.77811817
  0
VERTEX
  8
0
 10
6.93870540
 20
5.80063368
  0
VERTEX
  8
0
 10
6.98902368
 20
5.82440172
  0
VERTEX
  8
0
 10
7.03870454
 20
5.84945892
  0
VERTEX
  8
0
 10
7.08766704
 20
5.87584191
  0
VERTEX
  8
0
 10
7.13583028
 20
5.90358733
  0
VERTEX
  8
0
 10
7.18311334
 20
5.93273181
  0
VERTEX
  8
0
 10
7.22943530
 20
5.96331199
  0
VERTEX
  8
0
 10
7.27471523
 20
5.99536449
  0
VERTEX
  8
0
 10
7.31887224
 20
6.02892594
  0
VERTEX
  8
0
 10
7.36182538
 20
6.06403299
  0
VERTEX
  8
0
 10
7.40349376
 20
6.10072225
  0
VERTEX
  8
0
 10
7.44379645
 20
6.13903037
  0
VERTEX
  8
0
 10
7.48265253
 20
6.17899398
  0
VERTEX
  8
0
 10
7.51733565
 20
6.21747358
  0
VERTEX
  8
0
 10
7.55053954
 20
6.25738899
  0
VERTEX
  8
0
 10
7.58217200
 20
6.29866457
  0
VERTEX
  8
0
 10
7.61214081
 20
6.34122467
  0
VERTEX
  8
0
 10
7.64035378
 20
6.38499365
  0
VERTEX
  8
0
 10
7.66671869
 20
6.42989584
  0
VERTEX
  8
0
 10
7.69114333
 20
6.47585561
  0
VERTEX
  8
0
 10
7.71353550
 20
6.52279731
  0
VERTEX
  8
0
 10
7.73380298
 20
6.57064529
  0
VERTEX
  8
0
 10
7.75185357
 20
6.61932389
  0
VERTEX
  8
0
 10
7.76759506
 20
6.66875747
  0
VERTEX
  8
0
 10
7.78093524
 20
6.71887039
  0
VERTEX
  8
0
 10
7.79178190
 20
6.76958699
  0
VERTEX
  8
0
 10
7.80004284
 20
6.82083162
  0
VERTEX
  8
0
 10
7.80562585
 20
6.87252864
  0
VERTEX
  8
0
 10
7.80843871
 20
6.92460240
  0
VERTEX
  8
0
 10
7.99317077
 20
6.73944212
  0
VERTEX
  8
0
 10
8.03020493
 20
6.78300121
  0
VERTEX
  8
0
 10
8.06607626
 20
6.82752115
  0
VERTEX
  8
0
 10
8.10076205
 20
6.87296919
  0
VERTEX
  8
0
 10
8.13423960
 20
6.91931260
  0
VERTEX
  8
0
 10
8.16648619
 20
6.96651863
  0
VERTEX
  8
0
 10
8.19747913
 20
7.01455454
  0
VERTEX
  8
0
 10
8.22719570
 20
7.06338757
  0
VERTEX
  8
0
 10
8.25561320
 20
7.11298500
  0
VERTEX
  8
0
 10
8.28270892
 20
7.16331407
  0
VERTEX
  8
0
 10
8.30846015
 20
7.21434205
  0
VERTEX
  8
0
 10
8.33284419
 20
7.26603618
  0
VERTEX
  8
0
 10
8.35583832
 20
7.31836373
  0
VERTEX
  8
0
 10
8.37741985
 20
7.37129195
  0
VERTEX
  8
0
 10
8.39756606
 20
7.42478810
  0
VERTEX
  8
0
 10
8.41625425
 20
7.47881944
  0
VERTEX
  8
0
 10
8.43346171
 20
7.53335322
  0
VERTEX
  8
0
 10
8.44957864
 20
7.58954504
  0
VERTEX
  8
0
 10
8.46426627
 20
7.64613793
  0
VERTEX
  8
0
 10
8.47751646
 20
7.70309338
  0
VERTEX
  8
0
 10
8.48932105
 20
7.76037288
  0
VERTEX
  8
0
 10
8.49967188
 20
7.81793791
  0
VERTEX
  8
0
 10
8.50856079
 20
7.87574996
  0
VERTEX
  8
0
 10
8.51597964
 20
7.93377052
  0
VERTEX
  8
0
 10
8.52192027
 20
7.99196106
  0
VERTEX
  8
0
 10
8.52637453
 20
8.05028308
  0
VERTEX
  8
0
 10
8.52933425
 20
8.10869806
  0
VERTEX
  8
0
 10
8.53079129
 20
8.16716749
  0
VERTEX
  8
0
 10
8.53073749
 20
8.22565285
  0
VERTEX
  8
0
 10
8.52916470
 20
8.28411563
  0
VERTEX
  8
0
 10
8.52606476
 20
8.34251731
  0
VERTEX
  8
0
 10
8.52142952
 20
8.40081939
  0
VERTEX
  8
0
 10
8.51525082
 20
8.45898333
  0
VERTEX
  8
0
 10
8.50846361
 20
8.50718967
  0
VERTEX
  8
0
 10
8.49974943
 20
8.55507484
  0
VERTEX
  8
0
 10
8.50984979
 20
8.54705801
  0
VERTEX
  8
0
 10
8.52039877
 20
8.53974072
  0
VERTEX
  8
0
 10
8.54264589
 20
8.52701603
  0
VERTEX
  8
0
 10
8.56609737
 20
8.51652342
  0
VERTEX
  8
0
 10
8.59035978
 20
8.50788552
  0
SEQEND
  0
POLYLINE
  8
Default_Layer
 66
   1
 39
0.000000
 70
    1
  0
VERTEX
  8
0
 10
8.79367639
 20
8.02391663
  0
VERTEX
  8
0
 10
8.80362503
 20
7.94039742
  0
VERTEX
  8
0
 10
8.81174707
 20
7.85667849
  0
VERTEX
  8
0
 10
8.81802243
 20
7.77280099
  0
VERTEX
  8
0
 10
8.82243104
 20
7.68880607
  0
VERTEX
  8
0
 10
8.82495283
 20
7.60473486
  0
VERTEX
  8
0
 10
8.82556772
 20
7.52062853
  0
VERTEX
  8
0
 10
8.82425564
 20
7.43652823
  0
VERTEX
  8
0
 10
8.82099652
 20
7.35247509
  0
VERTEX
  8
0
 10
8.81456627
 20
7.25403944
  0
VERTEX
  8
0
 10
8.81028566
 20
7.20485838
  0
VERTEX
  8
0
 10
8.80525158
 20
7.15573426
  0
VERTEX
  8
0
 10
8.79943166
 20
7.10669145
  0
VERTEX
  8
0
 10
8.79279353
 20
7.05775426
  0
VERTEX
  8
0
 10
8.78530482
 20
7.00894705
  0
VERTEX
  8
0
 10
8.77693317
 20
6.96029414
  0
VERTEX
  8
0
 10
8.76764621
 20
6.91181988
  0
VERTEX
  8
0
 10
8.75741157
 20
6.86354860
  0
VERTEX
  8
0
 10
8.74619689
 20
6.81550465
  0
VERTEX
  8
0
 10
8.73396980
 20
6.76771236
  0
VERTEX
  8
0
 10
8.72069792
 20
6.72019606
  0
VERTEX
  8
0
 10
8.70634891
 20
6.67298010
  0
VERTEX
  8
0
 10
8.69089038
 20
6.62608881
  0
VERTEX
  8
0
 10
8.67428997
 20
6.57954654
  0
VERTEX
  8
0
 10
8.65758219
 20
6.53598808
  0
VERTEX
  8
0
 10
8.63966592
 20
6.49284148
  0
VERTEX
  8
0
 10
8.62053300
 20
6.45017336
  0
VERTEX
  8
0
 10
8.60017527
 20
6.40805034
  0
VERTEX
  8
0
 10
8.57858459
 20
6.36653903
  0
VERTEX
  8
0
 10
8.55575279
 20
6.32570605
  0
VERTEX
  8
0
 10
8.53167173
 20
6.28561801
  0
VERTEX
  8
0
 10
8.50633324
 20
6.24634154
  0
VERTEX
  8
0
 10
8.47972917
 20
6.20794324
  0
VERTEX
  8
0
 10
8.45185138
 20
6.17048973
  0
VERTEX
  8
0
 10
8.42269169
 20
6.13404762
  0
VERTEX
  8
0
 10
8.39224197
 20
6.09868355
  0
VERTEX
  8
0
 10
8.36049405
 20
6.06446411
  0
VERTEX
  8
0
 10
8.32743979
 20
6.03145592
  0
VERTEX
  8
0
 10
8.29307102
 20
5.99972561
  0
VERTEX
  8
0
 10
8.25737959
 20
5.96933979
  0
VERTEX
  8
0
 10
8.47140158
 20
6.00496730
  0
VERTEX
  8
0
 10
8.46366803
 20
5.95238869
  0
VERTEX
  8
0
 10
8.45431512
 20
5.90013251
  0
VERTEX
  8
0
 10
8.44339956
 20
5.84821404
  0
VERTEX
  8
0
 10
8.43097806
 20
5.79664860
  0
VERTEX
  8
0
 10
8.41710731
 20
5.74545149
  0
VERTEX
  8
0
 10
8.40184403
 20
5.69463802
  0
VERTEX
  8
0
 10
8.38524492
 20
5.64422349
  0
VERTEX
  8
0
 10
8.36736668
 20
5.59422322
  0
VERTEX
  8
0
 10
8.34826602
 20
5.54465249
  0
VERTEX
  8
0
 10
8.32799965
 20
5.49552662
  0
VERTEX
  8
0
 10
8.30662426
 20
5.44686092
  0
VERTEX
  8
0
 10
8.28419657
 20
5.39867069
  0
VERTEX
  8
0
 10
8.26077328
 20
5.35097123
  0
VERTEX
  8
0
 10
8.23641109
 20
5.30377785
  0
VERTEX
  8
0
 10
8.21116671
 20
5.25710586
  0
VERTEX
  8
0
 10
8.18509685
 20
5.21097055
  0
VERTEX
  8
0
 10
8.14078951
 20
5.13768594
  0
VERTEX
  8
0
 10
8.09415514
 20
5.06596148
  0
VERTEX
  8
0
 10
8.04527740
 20
4.99581170
  0
VERTEX
  8
0
 10
7.99423997
 20
4.92725118
  0
VERTEX
  8
0
 10
7.94112654
 20
4.86029445
  0
VERTEX
  8
0
 10
7.88602077
 20
4.79495608
  0
VERTEX
  8
0
 10
7.82900636
 20
4.73125061
  0
VERTEX
  8
0
 10
7.77016697
 20
4.66919260
  0
VERTEX
  8
0
 10
7.70958628
 20
4.60879660
  0
VERTEX
  8
0
 10
7.64734797
 20
4.55007717
  0
VERTEX
  8
0
 10
7.58353572
 20
4.49304884
  0
VERTEX
  8
0
 10
7.51823321
 20
4.43772619
  0
VERTEX
  8
0
 10
7.45152410
 20
4.38412376
  0
VERTEX
  8
0
 10
7.38349209
 20
4.33225610
  0
VERTEX
  8
0
 10
7.31422085
 20
4.28213777
  0
VERTEX
  8
0
 10
7.24379406
 20
4.23378332
  0
VERTEX
  8
0
 10
7.17503276
 20
4.18868067
  0
VERTEX
  8
0
 10
7.10533634
 20
4.14513841
  0
VERTEX
  8
0
 10
7.03474919
 20
4.10312318
  0
VERTEX
  8
0
 10
6.96331574
 20
4.06260159
  0
VERTEX
  8
0
 10
6.89108038
 20
4.02354029
  0
VERTEX
  8
0
 10
6.81808753
 20
3.98590590
  0
VERTEX
  8
0
 10
6.74438161
 20
3.94966504
  0
VERTEX
  8
0
 10
6.67000701
 20
3.91478436
  0
VERTEX
  8
0
 10
6.59500816
 20
3.88123047
  0
VERTEX
  8
0
 10
6.51942946
 20
3.84897001
  0
VERTEX
  8
0
 10
6.44331533
 20
3.81796961
  0
VERTEX
  8
0
 10
6.36671017
 20
3.78819590
  0
VERTEX
  8
0
 10
6.28965840
 20
3.75961550
  0
VERTEX
  8
0
 10
6.21220442
 20
3.73219504
  0
VERTEX
  8
0
 10
6.13439264
 20
3.70590116
  0
VERTEX
  8
0
 10
6.05626749
 20
3.68070048
  0
VERTEX
  8
0
 10
6.12527220
 20
3.68937586
  0
VERTEX
  8
0
 10
6.19399088
 20
3.69995411
  0
VERTEX
  8
0
 10
6.26241851
 20
3.71229073
  0
VERTEX
  8
0
 10
6.33055007
 20
3.72624118
  0
VERTEX
  8
0
 10
6.39838054
 20
3.74166094
  0
VERTEX
  8
0
 10
6.46590490
 20
3.75840550
  0
VERTEX
  8
0
 10
6.53311814
 20
3.77633032
  0
VERTEX
  8
0
 10
6.60001523
 20
3.79529089
  0
VERTEX
  8
0
 10
6.67696654
 20
3.81905397
  0
VERTEX
  8
0
 10
6.75343422
 20
3.84445385
  0
VERTEX
  8
0
 10
6.82936421
 20
3.87149742
  0
VERTEX
  8
0
 10
6.90470243
 20
3.90019159
  0
VERTEX
  8
0
 10
6.97939482
 20
3.93054325
  0
VERTEX
  8
0
 10
7.05338730
 20
3.96255930
  0
VERTEX
  8
0
 10
7.12662581
 20
3.99624665
  0
VERTEX
  8
0
 10
7.19905627
 20
4.03161219
  0
VERTEX
  8
0
 10
7.27062461
 20
4.06866282
  0
VERTEX
  8
0
 10
7.34127676
 20
4.10740545
  0
VERTEX
  8
0
 10
7.41095865
 20
4.14784698
  0
VERTEX
  8
0
 10
7.47961622
 20
4.18999429
  0
VERTEX
  8
0
 10
7.54719538
 20
4.23385431
  0
VERTEX
  8
0
 10
7.61364208
 20
4.27943391
  0
VERTEX
  8
0
 10
7.67890223
 20
4.32674001
  0
VERTEX
  8
0
 10
7.74292177
 20
4.37577950
  0
VERTEX
  8
0
 10
7.80082887
 20
4.42243830
  0
VERTEX
  8
0
 10
7.85749361
 20
4.47060292
  0
VERTEX
  8
0
 10
7.91287796
 20
4.52023761
  0
VERTEX
  8
0
 10
7.96694392
 20
4.57130661
  0
VERTEX
  8
0
 10
8.01965348
 20
4.62377416
  0
VERTEX
  8
0
 10
8.07096862
 20
4.67760452
  0
VERTEX
  8
0
 10
8.12085133
 20
4.73276193
  0
VERTEX
  8
0
 10
8.16926359
 20
4.78921063
  0
VERTEX
  8
0
 10
8.21616740
 20
4.84691488
  0
VERTEX
  8
0
 10
8.26152475
 20
4.90583891
  0
VERTEX
  8
0
 10
8.30529761
 20
4.96594697
  0
VERTEX
  8
0
 10
8.34744798
 20
5.02720331
  0
VERTEX
  8
0
 10
8.38793784
 20
5.08957217
  0
VERTEX
  8
0
 10
8.42672919
 20
5.15301781
  0
VERTEX
  8
0
 10
8.46378401
 20
5.21750445
  0
VERTEX
  8
0
 10
8.49906428
 20
5.28299636
  0
VERTEX
  8
0
 10
8.52354197
 20
5.33081916
  0
VERTEX
  8
0
 10
8.54710335
 20
5.37908268
  0
VERTEX
  8
0
 10
8.56975543
 20
5.42776798
  0
VERTEX
  8
0
 10
8.59150525
 20
5.47685610
  0
VERTEX
  8
0
 10
8.61235984
 20
5.52632812
  0
VERTEX
  8
0
 10
8.63232621
 20
5.57616508
  0
VERTEX
  8
0
 10
8.65141140
 20
5.62634804
  0
VERTEX
  8
0
 10
8.66962242
 20
5.67685806
  0
VERTEX
  8
0
 10
8.68696631
 20
5.72767619
  0
VERTEX
  8
0
 10
8.70345009
 20
5.77878349
  0
VERTEX
  8
0
 10
8.71908078
 20
5.83016102
  0
VERTEX
  8
0
 10
8.73386542
 20
5.88178984
  0
VERTEX
  8
0
 10
8.74781102
 20
5.93365099
  0
VERTEX
  8
0
 10
8.76092461
 20
5.98572554
  0
VERTEX
  8
0
 10
8.77321322
 20
6.03799455
  0
VERTEX
  8
0
 10
8.78468386
 20
6.09043906
  0
VERTEX
  8
0
 10
8.67094989
 20
6.09043906
  0
VERTEX
  8
0
 10
8.69885882
 20
6.14027931
  0
VERTEX
  8
0
 10
8.72471232
 20
6.19118741
  0
VERTEX
  8
0
 10
8.74860673
 20
6.24304294
  0
VERTEX
  8
0
 10
8.77063840
 20
6.29572546
  0
VERTEX
  8
0
 10
8.78772739
 20
6.34004388
  0
VERTEX
  8
0
 10
8.80377173
 20
6.38472850
  0
VERTEX
  8
0
 10
8.81878458
 20
6.42975611
  0
VERTEX
  8
0
 10
8.83277913
 20
6.47510350
  0
VERTEX
  8
0
 10
8.84576854
 20
6.52074746
  0
VERTEX
  8
0
 10
8.85776599
 20
6.56666479
  0
VERTEX
  8
0
 10
8.86878465
 20
6.61283227
  0
VERTEX
  8
0
 10
8.87883770
 20
6.65922669
  0
VERTEX
  8
0
 10
8.88793830
 20
6.70582486
  0
VERTEX
  8
0
 10
8.89609962
 20
6.75260355
  0
VERTEX
  8
0
 10
8.90333485
 20
6.79953956
  0
VERTEX
  8
0
 10
8.90965715
 20
6.84660968
  0
VERTEX
  8
0
 10
8.91507970
 20
6.89379070
  0
VERTEX
  8
0
 10
8.91961567
 20
6.94105941
  0
VERTEX
  8
0
 10
8.92327822
 20
6.98839261
  0
VERTEX
  8
0
 10
8.92608055
 20
7.03576708
  0
VERTEX
  8
0
 10
8.92834308
 20
7.09839018
  0
VERTEX
  8
0
 10
8.92907822
 20
7.16102105
  0
VERTEX
  8
0
 10
8.92831218
 20
7.22363336
  0
VERTEX
  8
0
 10
8.92607118
 20
7.28620075
  0
VERTEX
  8
0
 10
8.92238144
 20
7.34869689
  0
VERTEX
  8
0
 10
8.91726918
 20
7.41109542
  0
VERTEX
  8
0
 10
8.91076062
 20
7.47337000
  0
VERTEX
  8
0
 10
8.90288198
 20
7.53549430
  0
VERTEX
  8
0
 10
8.89365949
 20
7.59744195
  0
VERTEX
  8
0
 10
8.88311935
 20
7.65918662
  0
VERTEX
  8
0
 10
8.87128779
 20
7.72070196
  0
VERTEX
  8
0
 10
8.85819103
 20
7.78196162
  0
VERTEX
  8
0
 10
8.84385529
 20
7.84293926
  0
VERTEX
  8
0
 10
8.82830679
 20
7.90360854
  0
VERTEX
  8
0
 10
8.81157175
 20
7.96394311
  0
VERTEX
  8
0
 10
8.79367639
 20
8.02391663
  0
SEQEND
  0
POLYLINE
  8
Default_Layer
 66
   1
 39
0.000000
 70
    1
  0
VERTEX
  8
0
 10
4.85084152
 20
4.08570648
  0
VERTEX
  8
0
 10
4.84080556
 20
4.05604956
  0
VERTEX
  8
0
 10
4.83147816
 20
4.02611765
  0
VERTEX
  8
0
 10
4.82300585
 20
3.99592480
  0
VERTEX
  8
0
 10
4.81553517
 20
3.96548505
  0
VERTEX
  8
0
 10
4.80921264
 20
3.93481246
  0
VERTEX
  8
0
 10
4.80418479
 20
3.90392107
  0
VERTEX
  8
0
 10
4.80059815
 20
3.87282495
  0
VERTEX
  8
0
 10
4.79859925
 20
3.84153814
  0
VERTEX
  8
0
 10
4.79829298
 20
3.81114824
  0
VERTEX
  8
0
 10
4.79993876
 20
3.78061381
  0
VERTEX
  8
0
 10
4.80372228
 20
3.75022391
  0
VERTEX
  8
0
 10
4.80982920
 20
3.72026757
  0
VERTEX
  8
0
 10
4.81844519
 20
3.69103385
  0
VERTEX
  8
0
 10
4.82375211
 20
3.67677830
  0
VERTEX
  8
0
 10
4.82975593
 20
3.66281179
  0
VERTEX
  8
0
 10
4.83647985
 20
3.64917046
  0
VERTEX
  8
0
 10
4.84394708
 20
3.63589043
  0
VERTEX
  8
0
 10
4.85218084
 20
3.62300784
  0
VERTEX
  8
0
 10
4.86120433
 20
3.61055882
  0
VERTEX
  8
0
 10
4.87163053
 20
3.59810629
  0
VERTEX
  8
0
 10
4.88269404
 20
3.58605822
  0
VERTEX
  8
0
 10
4.89442195
 20
3.57461032
  0
VERTEX
  8
0
 10
4.90684137
 20
3.56395830
  0
VERTEX
  8
0
 10
4.91997938
 20
3.55429786
  0
VERTEX
  8
0
 10
4.93386309
 20
3.54582472
  0
VERTEX
  8
0
 10
4.94851959
 20
3.53873458
  0
VERTEX
  8
0
 10
4.96397599
 20
3.53322315
  0
VERTEX
  8
0
 10
4.99413255
 20
3.52444206
  0
VERTEX
  8
0
 10
5.02478389
 20
3.51752371
  0
VERTEX
  8
0
 10
5.05580659
 20
3.51250823
  0
VERTEX
  8
0
 10
5.08707717
 20
3.50943579
  0
VERTEX
  8
0
 10
5.11847221
 20
3.50834652
  0
VERTEX
  8
0
 10
5.14986825
 20
3.50928056
  0
VERTEX
  8
0
 10
5.18114185
 20
3.51227807
  0
VERTEX
  8
0
 10
5.21216956
 20
3.51737918
  0
VERTEX
  8
0
 10
5.23225887
 20
3.52170184
  0
VERTEX
  8
0
 10
5.25205112
 20
3.52697003
  0
VERTEX
  8
0
 10
5.27153224
 20
3.53314777
  0
VERTEX
  8
0
 10
5.29068818
 20
3.54019904
  0
VERTEX
  8
0
 10
5.30950489
 20
3.54808784
  0
VERTEX
  8
0
 10
5.32796833
 20
3.55677817
  0
VERTEX
  8
0
 10
5.34606444
 20
3.56623401
  0
VERTEX
  8
0
 10
5.36377917
 20
3.57641936
  0
VERTEX
  8
0
 10
5.38109847
 20
3.58729823
  0
VERTEX
  8
0
 10
5.39800829
 20
3.59883459
  0
VERTEX
  8
0
 10
5.43054328
 20
3.62373581
  0
VERTEX
  8
0
 10
5.46127174
 20
3.65083498
  0
VERTEX
  8
0
 10
5.49008126
 20
3.67984405
  0
VERTEX
  8
0
 10
5.43776105
 20
3.67225862
  0
VERTEX
  8
0
 10
5.38498921
 20
3.66653191
  0
VERTEX
  8
0
 10
5.33196445
 20
3.66306136
  0
VERTEX
  8
0
 10
5.27888549
 20
3.66224441
  0
VERTEX
  8
0
 10
5.25238779
 20
3.66295523
  0
VERTEX
  8
0
 10
5.22595106
 20
3.66447849
  0
VERTEX
  8
0
 10
5.19960014
 20
3.66686386
  0
VERTEX
  8
0
 10
5.17335987
 20
3.67016104
  0
VERTEX
  8
0
 10
5.14725509
 20
3.67441969
  0
VERTEX
  8
0
 10
5.12131064
 20
3.67968949
  0
VERTEX
  8
0
 10
5.09555136
 20
3.68602014
  0
VERTEX
  8
0
 10
5.07000209
 20
3.69346130
  0
VERTEX
  8
0
 10
5.03914048
 20
3.70462601
  0
VERTEX
  8
0
 10
5.02403561
 20
3.71125076
  0
VERTEX
  8
0
 10
5.00922228
 20
3.71856274
  0
VERTEX
  8
0
 10
4.99475622
 20
3.72655619
  0
VERTEX
  8
0
 10
4.98069311
 20
3.73522533
  0
VERTEX
  8
0
 10
4.96708866
 20
3.74456440
  0
VERTEX
  8
0
 10
4.95399857
 20
3.75456762
  0
VERTEX
  8
0
 10
4.94147855
 20
3.76522922
  0
VERTEX
  8
0
 10
4.92958428
 20
3.77654342
  0
VERTEX
  8
0
 10
4.91837148
 20
3.78850447
  0
VERTEX
  8
0
 10
4.90789585
 20
3.80110659
  0
VERTEX
  8
0
 10
4.89821308
 20
3.81434400
  0
VERTEX
  8
0
 10
4.88937888
 20
3.82821094
  0
VERTEX
  8
0
 10
4.88144895
 20
3.84270164
  0
VERTEX
  8
0
 10
4.87447900
 20
3.85781032
  0
VERTEX
  8
0
 10
4.86876195
 20
3.87130205
  0
VERTEX
  8
0
 10
4.86387365
 20
3.88498007
  0
VERTEX
  8
0
 10
4.85635746
 20
3.91282126
  0
VERTEX
  8
0
 10
4.85147882
 20
3.94118634
  0
VERTEX
  8
0
 10
4.84878608
 20
3.96992778
  0
VERTEX
  8
0
 10
4.84782762
 20
3.99889805
  0
VERTEX
  8
0
 10
4.84815179
 20
4.02794961
  0
VERTEX
  8
0
 10
4.85084152
 20
4.08570648
  0
SEQEND
  0
POLYLINE
  8
Default_Layer
 66
   1
 39
0.000000
 70
    1
  0
VERTEX
  8
0
 10
4.75432180
 20
3.50821538
  0
VERTEX
  8
0
 10
4.72990897
 20
3.46216511
  0
VERTEX
  8
0
 10
4.70707058
 20
3.41538583
  0
VERTEX
  8
0
 10
4.68577327
 20
3.36792735
  0
VERTEX
  8
0
 10
4.66598366
 20
3.31983947
  0
VERTEX
  8
0
 10
4.64766839
 20
3.27117199
  0
VERTEX
  8
0
 10
4.63079407
 20
3.22197472
  0
VERTEX
  8
0
 10
4.61532734
 20
3.17229746
  0
VERTEX
  8
0
 10
4.60123484
 20
3.12219002
  0
VERTEX
  8
0
 10
4.58848318
 20
3.07170221
  0
VERTEX
  8
0
 10
4.57703900
 20
3.02088382
  0
VERTEX
  8
0
 10
4.56686893
 20
2.96978467
  0
VERTEX
  8
0
 10
4.55793960
 20
2.91845456
  0
VERTEX
  8
0
 10
4.55021763
 20
2.86694330
  0
VERTEX
  8
0
 10
4.54366966
 20
2.81530069
  0
VERTEX
  8
0
 10
4.53826231
 20
2.76357653
  0
VERTEX
  8
0
 10
4.53396222
 20
2.71182063
  0
VERTEX
  8
0
 10
4.53136750
 20
2.67137151
  0
VERTEX
  8
0
 10
4.52976036
 20
2.63089731
  0
VERTEX
  8
0
 10
4.52880223
 20
2.54990173
  0
VERTEX
  8
0
 10
4.52967472
 20
2.46889009
  0
VERTEX
  8
0
 10
4.53096471
 20
2.38791860
  0
VERTEX
  8
0
 10
4.53572861
 20
2.39930913
  0
VERTEX
  8
0
 10
4.53901516
 20
2.41095658
  0
VERTEX
  8
0
 10
4.55216221
 20
2.48617694
  0
VERTEX
  8
0
 10
4.56674344
 20
2.56116647
  0
VERTEX
  8
0
 10
4.58285219
 20
2.63585490
  0
VERTEX
  8
0
 10
4.60058181
 20
2.71017200
  0
VERTEX
  8
0
 10
4.62002563
 20
2.78404749
  0
VERTEX
  8
0
 10
4.64127698
 20
2.85741114
  0
VERTEX
  8
0
 10
4.66442921
 20
2.93019268
  0
VERTEX
  8
0
 10
4.68957565
 20
3.00232186
  0
VERTEX
  8
0
 10
4.70961462
 20
3.05395593
  0
VERTEX
  8
0
 10
4.73100949
 20
3.10523270
  0
VERTEX
  8
0
 10
4.75406436
 20
3.15583503
  0
VERTEX
  8
0
 10
4.77908334
 20
3.20544577
  0
VERTEX
  8
0
 10
4.80637052
 20
3.25374779
  0
VERTEX
  8
0
 10
4.82095972
 20
3.27730891
  0
VERTEX
  8
0
 10
4.83623001
 20
3.30042392
  0
VERTEX
  8
0
 10
4.85221940
 20
3.32305317
  0
VERTEX
  8
0
 10
4.86896589
 20
3.34515702
  0
VERTEX
  8
0
 10
4.88650752
 20
3.36669583
  0
VERTEX
  8
0
 10
4.90488228
 20
3.38762996
  0
VERTEX
  8
0
 10
4.88321693
 20
3.39876188
  0
VERTEX
  8
0
 10
4.86187074
 20
3.41073485
  0
VERTEX
  8
0
 10
4.84109059
 20
3.42369137
  0
VERTEX
  8
0
 10
4.82112338
 20
3.43777396
  0
VERTEX
  8
0
 10
4.80221600
 20
3.45312515
  0
VERTEX
  8
0
 10
4.78461535
 20
3.46988743
  0
VERTEX
  8
0
 10
4.76856832
 20
3.48820334
  0
VERTEX
  8
0
 10
4.75432180
 20
3.50821538
  0
SEQEND
  0
POLYLINE
  8
Default_Layer
 66
   1
 39
0.000000
 70
    1
  0
VERTEX
  8
0
 10
2.44016086
 20
1.03030493
  0
VERTEX
  8
0
 10
2.42112738
 20
1.01647171
  0
VERTEX
  8
0
 10
2.40269219
 20
1.00162772
  0
VERTEX
  8
0
 10
2.38494775
 20
0.98581999
  0
VERTEX
  8
0
 10
2.36798652
 20
0.96909557
  0
VERTEX
  8
0
 10
2.35190095
 20
0.95150150
  0
VERTEX
  8
0
 10
2.33678351
 20
0.93308484
  0
VERTEX
  8
0
 10
2.32272665
 20
0.91389262
  0
VERTEX
  8
0
 10
2.30982284
 20
0.89397189
  0
VERTEX
  8
0
 10
2.29816454
 20
0.87336970
  0
VERTEX
  8
0
 10
2.28784419
 20
0.85213309
  0
VERTEX
  8
0
 10
2.27895427
 20
0.83030910
  0
VERTEX
  8
0
 10
2.27158723
 20
0.80794478
  0
VERTEX
  8
0
 10
2.26583554
 20
0.78508718
  0
VERTEX
  8
0
 10
2.26179164
 20
0.76178334
  0
VERTEX
  8
0
 10
2.25954801
 20
0.73808031
  0
VERTEX
  8
0
 10
2.25919709
 20
0.71402513
  0
VERTEX
  8
0
 10
2.28172924
 20
0.74046609
  0
VERTEX
  8
0
 10
2.30475920
 20
0.76644939
  0
VERTEX
  8
0
 10
2.32868840
 20
0.79154949
  0
VERTEX
  8
0
 10
2.35391831
 20
0.81534086
  0
VERTEX
  8
0
 10
2.37998499
 20
0.83799276
  0
VERTEX
  8
0
 10
2.40710599
 20
0.85935989
  0
VERTEX
  8
0
 10
2.43521155
 20
0.87941201
  0
VERTEX
  8
0
 10
2.46423191
 20
0.89811889
  0
VERTEX
  8
0
 10
2.49409734
 20
0.91545030
  0
VERTEX
  8
0
 10
2.52473806
 20
0.93137599
  0
VERTEX
  8
0
 10
2.55608434
 20
0.94586575
  0
VERTEX
  8
0
 10
2.58806642
 20
0.95888933
  0
VERTEX
  8
0
 10
2.62061454
 20
0.97041649
  0
VERTEX
  8
0
 10
2.65365896
 20
0.98041701
  0
VERTEX
  8
0
 10
2.68712992
 20
0.98886065
  0
VERTEX
  8
0
 10
2.72095767
 20
0.99571718
  0
VERTEX
  8
0
 10
2.75507246
 20
1.00095635
  0
VERTEX
  8
0
 10
2.78940453
 20
1.00454795
  0
VERTEX
  8
0
 10
2.82388414
 20
1.00646172
  0
VERTEX
  8
0
 10
2.85844153
 20
1.00666744
  0
VERTEX
  8
0
 10
2.73031953
 20
1.15585764
  0
VERTEX
  8
0
 10
2.69207907
 20
1.14533425
  0
VERTEX
  8
0
 10
2.65409052
 20
1.13363862
  0
VERTEX
  8
0
 10
2.61650944
 20
1.12061820
  0
VERTEX
  8
0
 10
2.57949140
 20
1.10612044
  0
VERTEX
  8
0
 10
2.54319196
 20
1.08999278
  0
VERTEX
  8
0
 10
2.50776669
 20
1.07208268
  0
VERTEX
  8
0
 10
2.47337113
 20
1.05223758
  0
VERTEX
  8
0
 10
2.44016086
 20
1.03030493
  0
SEQEND
  0
POLYLINE
  8
Default_Layer
 66
   1
 39
0.000000
 70
    1
  0
VERTEX
  8
0
 10
9.14301440
 20
8.31476043
  0
VERTEX
  8
0
 10
9.18747558
 20
8.29965930
  0
VERTEX
  8
0
 10
9.23223623
 20
8.28563895
  0
VERTEX
  8
0
 10
9.27727462
 20
8.27265410
  0
VERTEX
  8
0
 10
9.32256907
 20
8.26065945
  0
VERTEX
  8
0
 10
9.36809787
 20
8.24960972
  0
VERTEX
  8
0
 10
9.41383931
 20
8.23945962
  0
VERTEX
  8
0
 10
9.45977169
 20
8.23016385
  0
VERTEX
  8
0
 10
9.50587331
 20
8.22167714
  0
VERTEX
  8
0
 10
9.59849744
 20
8.20694971
  0
VERTEX
  8
0
 10
9.69153808
 20
8.19491502
  0
VERTEX
  8
0
 10
9.78482160
 20
8.18521076
  0
VERTEX
  8
0
 10
9.87817436
 20
8.17747462
  0
VERTEX
  8
0
 10
10.15856972
 20
7.49781135
  0
VERTEX
  8
0
 10
10.12353770
 20
7.40532756
  0
VERTEX
  8
0
 10
10.09092241
 20
7.31194452
  0
VERTEX
  8
0
 10
10.07565403
 20
7.26490574
  0
VERTEX
  8
0
 10
10.06114941
 20
7.21763010
  0
VERTEX
  8
0
 10
10.04746174
 20
7.17011360
  0
VERTEX
  8
0
 10
10.03464422
 20
7.12235221
  0
VERTEX
  8
0
 10
10.01820611
 20
7.05302014
  0
VERTEX
  8
0
 10
10.01100272
 20
7.01810170
  0
VERTEX
  8
0
 10
10.00469056
 20
6.98302167
  0
VERTEX
  8
0
 10
9.99943021
 20
6.94778507
  0
VERTEX
  8
0
 10
9.99538223
 20
6.91239693
  0
VERTEX
  8
0
 10
9.99270723
 20
6.87686225
  0
VERTEX
  8
0
 10
9.99156577
 20
6.84118607
  0
VERTEX
  8
0
 10
9.97136051
 20
6.81832395
  0
VERTEX
  8
0
 10
9.95186469
 20
6.79491523
  0
VERTEX
  8
0
 10
9.93304708
 20
6.77099341
  0
VERTEX
  8
0
 10
9.91487643
 20
6.74659198
  0
VERTEX
  8
0
 10
9.88035107
 20
6.69648427
  0
VERTEX
  8
0
 10
9.84803872
 20
6.64486007
  0
VERTEX
  8
0
 10
9.81768946
 20
6.59198736
  0
VERTEX
  8
0
 10
9.78905340
 20
6.53813411
  0
VERTEX
  8
0
 10
9.76188063
 20
6.48356828
  0
VERTEX
  8
0
 10
9.73592125
 20
6.42855784
  0
VERTEX
  8
0
 10
9.50245829
 20
6.83814574
  0
VERTEX
  8
0
 10
9.26950919
 20
7.24799057
  0
VERTEX
  8
0
 10
9.26099038
 20
7.26301958
  0
VERTEX
  8
0
 10
9.25184531
 20
7.27797634
  0
VERTEX
  8
0
 10
9.24780570
 20
7.28563587
  0
VERTEX
  8
0
 10
9.24453086
 20
7.29352725
  0
VERTEX
  8
0
 10
9.24232789
 20
7.30173376
  0
VERTEX
  8
0
 10
9.24150391
 20
7.31033871
  0
VERTEX
  8
0
 10
9.24199636
 20
7.40272615
  0
VERTEX
  8
0
 10
9.24090173
 20
7.44888776
  0
VERTEX
  8
0
 10
9.23799254
 20
7.49498513
  0
VERTEX
  8
0
 10
9.27148032
 20
7.51619115
  0
VERTEX
  8
0
 10
9.30561844
 20
7.53629720
  0
VERTEX
  8
0
 10
9.34054341
 20
7.55497408
  0
VERTEX
  8
0
 10
9.37639172
 20
7.57189259
  0
VERTEX
  8
0
 10
9.36927504
 20
7.57924280
  0
VERTEX
  8
0
 10
9.36167098
 20
7.58561923
  0
VERTEX
  8
0
 10
9.35362808
 20
7.59106781
  0
VERTEX
  8
0
 10
9.34519490
 20
7.59563445
  0
VERTEX
  8
0
 10
9.33641998
 20
7.59936507
  0
VERTEX
  8
0
 10
9.32735187
 20
7.60230558
  0
VERTEX
  8
0
 10
9.30853030
 20
7.60599994
  0
VERTEX
  8
0
 10
9.28911860
 20
7.60708486
  0
VERTEX
  8
0
 10
9.26950517
 20
7.60592768
  0
VERTEX
  8
0
 10
9.25007842
 20
7.60289571
  0
VERTEX
  8
0
 10
9.23122674
 20
7.59835630
  0
VERTEX
  8
0
 10
9.21701000
 20
7.66113265
  0
VERTEX
  8
0
 10
9.23424951
 20
7.67485574
  0
VERTEX
  8
0
 10
9.25226282
 20
7.68705406
  0
VERTEX
  8
0
 10
9.27097867
 20
7.69782071
  0
VERTEX
  8
0
 10
9.29032580
 20
7.70724876
  0
VERTEX
  8
0
 10
9.31023296
 20
7.71543131
  0
VERTEX
  8
0
 10
9.33062889
 20
7.72246144
  0
VERTEX
  8
0
 10
9.35144232
 20
7.72843224
  0
VERTEX
  8
0
 10
9.37260201
 20
7.73343680
  0
VERTEX
  8
0
 10
9.39403670
 20
7.73756820
  0
VERTEX
  8
0
 10
9.41567512
 20
7.74091953
  0
VERTEX
  8
0
 10
9.45927813
 20
7.74565432
  0
VERTEX
  8
0
 10
9.50284101
 20
7.74838586
  0
VERTEX
  8
0
 10
9.54579368
 20
7.74985886
  0
VERTEX
  8
0
 10
9.53569549
 20
7.79184670
  0
VERTEX
  8
0
 10
9.52387708
 20
7.83347324
  0
VERTEX
  8
0
 10
9.51020798
 20
7.87454577
  0
VERTEX
  8
0
 10
9.49455772
 20
7.91487161
  0
VERTEX
  8
0
 10
9.47679582
 20
7.95425805
  0
VERTEX
  8
0
 10
9.45679181
 20
7.99251239
  0
VERTEX
  8
0
 10
9.43441522
 20
8.02944194
  0
VERTEX
  8
0
 10
9.42229644
 20
8.04734970
  0
VERTEX
  8
0
 10
9.40953558
 20
8.06485401
  0
VERTEX
  8
0
 10
9.39918214
 20
8.07816079
  0
VERTEX
  8
0
 10
9.38830681
 20
8.09114642
  0
VERTEX
  8
0
 10
9.37616289
 20
8.10271894
  0
VERTEX
  8
0
 10
9.36938187
 20
8.10763405
  0
VERTEX
  8
0
 10
9.36200368
 20
8.11178640
  0
VERTEX
  8
0
 10
9.30992468
 20
8.13907843
  0
VERTEX
  8
0
 10
9.28424147
 20
8.15365130
  0
VERTEX
  8
0
 10
9.25914638
 20
8.16915654
  0
VERTEX
  8
0
 10
9.23490237
 20
8.18583000
  0
VERTEX
  8
0
 10
9.21177239
 20
8.20390755
  0
VERTEX
  8
0
 10
9.19001939
 20
8.22362502
  0
VERTEX
  8
0
 10
9.16990632
 20
8.24521827
  0
VERTEX
  8
0
 10
9.16385761
 20
8.25265701
  0
VERTEX
  8
0
 10
9.15870715
 20
8.26060057
  0
VERTEX
  8
0
 10
9.15438970
 20
8.26897569
  0
VERTEX
  8
0
 10
9.15084003
 20
8.27770911
  0
VERTEX
  8
0
 10
9.14578308
 20
8.29595777
  0
VERTEX
  8
0
 10
9.14301440
 20
8.31476043
  0
SEQEND
  0
POLYLINE
  8
Default_Layer
 66
   1
 39
0.000000
 70
    1
  0
VERTEX
  8
0
 10
9.64976434
 20
8.12651700
  0
VERTEX
  8
0
 10
9.66536075
 20
8.08573937
  0
VERTEX
  8
0
 10
9.68025862
 20
8.04458738
  0
VERTEX
  8
0
 10
9.69412075
 20
8.00304799
  0
VERTEX
  8
0
 10
9.70660992
 20
7.96110815
  0
VERTEX
  8
0
 10
9.71738890
 20
7.91875482
  0
VERTEX
  8
0
 10
9.72612048
 20
7.87597494
  0
VERTEX
  8
0
 10
9.73246743
 20
7.83275548
  0
VERTEX
  8
0
 10
9.73609254
 20
7.78908338
  0
VERTEX
  8
0
 10
9.65421778
 20
7.73941040
  0
VERTEX
  8
0
 10
9.70207753
 20
7.73521791
  0
VERTEX
  8
0
 10
9.74978472
 20
7.72918676
  0
VERTEX
  8
0
 10
9.77344311
 20
7.72505767
  0
VERTEX
  8
0
 10
9.79689777
 20
7.71996006
  0
VERTEX
  8
0
 10
9.82009349
 20
7.71372435
  0
VERTEX
  8
0
 10
9.84297507
 20
7.70618090
  0
VERTEX
  8
0
 10
9.80310288
 20
7.81509478
  0
VERTEX
  8
0
 10
9.78250438
 20
7.86951257
  0
VERTEX
  8
0
 10
9.76069351
 20
7.92341450
  0
VERTEX
  8
0
 10
9.73709215
 20
7.97643324
  0
VERTEX
  8
0
 10
9.72443940
 20
8.00249662
  0
VERTEX
  8
0
 10
9.71112224
 20
8.02820146
  0
VERTEX
  8
0
 10
9.69706841
 20
8.05350183
  0
VERTEX
  8
0
 10
9.68220566
 20
8.07835182
  0
VERTEX
  8
0
 10
9.66646173
 20
8.10270552
  0
VERTEX
  8
0
 10
9.64976434
 20
8.12651700
  0
SEQEND
  0
POLYLINE
  8
Default_Layer
 66
   1
 39
0.000000
 70
    1
  0
VERTEX
  8
0
 10
6.16212230
 20
7.14119368
  0
VERTEX
  8
0
 10
6.19897457
 20
7.11378941
  0
VERTEX
  8
0
 10
6.23471282
 20
7.08491683
  0
VERTEX
  8
0
 10
6.26925875
 20
7.05461708
  0
VERTEX
  8
0
 10
6.30253408
 20
7.02293133
  0
VERTEX
  8
0
 10
6.33446054
 20
6.98990071
  0
VERTEX
  8
0
 10
6.36495984
 20
6.95556638
  0
VERTEX
  8
0
 10
6.39395369
 20
6.91996948
  0
VERTEX
  8
0
 10
6.42136382
 20
6.88315116
  0
VERTEX
  8
0
 10
6.44746337
 20
6.84376406
  0
VERTEX
  8
0
 10
6.45966326
 20
6.82344148
  0
VERTEX
  8
0
 10
6.47123350
 20
6.80272698
  0
VERTEX
  8
0
 10
6.48212679
 20
6.78164114
  0
VERTEX
  8
0
 10
6.49229584
 20
6.76020454
  0
VERTEX
  8
0
 10
6.50169334
 20
6.73843774
  0
VERTEX
  8
0
 10
6.51027201
 20
6.71636132
  0
VERTEX
  8
0
 10
6.51798455
 20
6.69399585
  0
VERTEX
  8
0
 10
6.52478366
 20
6.67136191
  0
VERTEX
  8
0
 10
6.53062205
 20
6.64848008
  0
VERTEX
  8
0
 10
6.53545241
 20
6.62537092
  0
VERTEX
  8
0
 10
6.53922746
 20
6.60205502
  0
VERTEX
  8
0
 10
6.54189989
 20
6.57855295
  0
VERTEX
  8
0
 10
6.54342242
 20
6.55488527
  0
VERTEX
  8
0
 10
6.54374774
 20
6.53107257
  0
VERTEX
  8
0
 10
6.54281117
 20
6.50406300
  0
VERTEX
  8
0
 10
6.54032988
 20
6.47727084
  0
VERTEX
  8
0
 10
6.53636297
 20
6.45073284
  0
VERTEX
  8
0
 10
6.53096953
 20
6.42448578
  0
VERTEX
  8
0
 10
6.52420864
 20
6.39856640
  0
VERTEX
  8
0
 10
6.51613940
 20
6.37301146
  0
VERTEX
  8
0
 10
6.50682089
 20
6.34785772
  0
VERTEX
  8
0
 10
6.49631220
 20
6.32314194
  0
VERTEX
  8
0
 10
6.48467242
 20
6.29890088
  0
VERTEX
  8
0
 10
6.47196063
 20
6.27517130
  0
VERTEX
  8
0
 10
6.45823594
 20
6.25198994
  0
VERTEX
  8
0
 10
6.44355741
 20
6.22939358
  0
VERTEX
  8
0
 10
6.42798416
 20
6.20741896
  0
VERTEX
  8
0
 10
6.41157525
 20
6.18610286
  0
VERTEX
  8
0
 10
6.39438979
 20
6.16548201
  0
VERTEX
  8
0
 10
6.37648686
 20
6.14559319
  0
VERTEX
  8
0
 10
6.34668808
 20
6.10742777
  0
VERTEX
  8
0
 10
6.31852910
 20
6.06812988
  0
VERTEX
  8
0
 10
6.29199775
 20
6.02776940
  0
VERTEX
  8
0
 10
6.26708187
 20
5.98641621
  0
VERTEX
  8
0
 10
6.24376930
 20
5.94414018
  0
VERTEX
  8
0
 10
6.22204785
 20
5.90101118
  0
VERTEX
  8
0
 10
6.20190536
 20
5.85709911
  0
VERTEX
  8
0
 10
6.18332966
 20
5.81247383
  0
VERTEX
  8
0
 10
6.16630858
 20
5.76720523
  0
VERTEX
  8
0
 10
6.15082996
 20
5.72136317
  0
VERTEX
  8
0
 10
6.13688162
 20
5.67501755
  0
VERTEX
  8
0
 10
6.12445140
 20
5.62823823
  0
VERTEX
  8
0
 10
6.11352712
 20
5.58109509
  0
VERTEX
  8
0
 10
6.10409662
 20
5.53365802
  0
VERTEX
  8
0
 10
6.09614773
 20
5.48599689
  0
VERTEX
  8
0
 10
6.08966828
 20
5.43818157
  0
VERTEX
  8
0
 10
6.08590734
 20
5.49745627
  0
VERTEX
  8
0
 10
6.08437447
 20
5.55688552
  0
VERTEX
  8
0
 10
6.08514592
 20
5.61635090
  0
VERTEX
  8
0
 10
6.08829799
 20
5.67573399
  0
VERTEX
  8
0
 10
6.09390694
 20
5.73491635
  0
VERTEX
  8
0
 10
6.10204905
 20
5.79377956
  0
VERTEX
  8
0
 10
6.11280060
 20
5.85220518
  0
VERTEX
  8
0
 10
6.12623786
 20
5.91007479
  0
VERTEX
  8
0
 10
6.13367977
 20
5.93637725
  0
VERTEX
  8
0
 10
6.14190251
 20
5.96245087
  0
VERTEX
  8
0
 10
6.15094822
 20
5.98824348
  0
VERTEX
  8
0
 10
6.16085906
 20
6.01370289
  0
VERTEX
  8
0
 10
6.17167719
 20
6.03877690
  0
VERTEX
  8
0
 10
6.18344474
 20
6.06341333
  0
VERTEX
  8
0
 10
6.19620389
 20
6.08755999
  0
VERTEX
  8
0
 10
6.20999677
 20
6.11116468
  0
VERTEX
  8
0
 10
6.17695693
 20
6.10409064
  0
VERTEX
  8
0
 10
6.14378247
 20
6.09840688
  0
VERTEX
  8
0
 10
6.11048934
 20
6.09400826
  0
VERTEX
  8
0
 10
6.07709347
 20
6.09078967
  0
VERTEX
  8
0
 10
6.04361078
 20
6.08864595
  0
VERTEX
  8
0
 10
6.01005720
 20
6.08747200
  0
VERTEX
  8
0
 10
5.97644868
 20
6.08716267
  0
VERTEX
  8
0
 10
5.94280115
 20
6.08761284
  0
VERTEX
  8
0
 10
5.87545275
 20
6.09037115
  0
VERTEX
  8
0
 10
5.80813949
 20
6.09490588
  0
VERTEX
  8
0
 10
5.67412818
 20
6.10594046
  0
VERTEX
  8
0
 10
5.59674534
 20
6.10815229
  0
VERTEX
  8
0
 10
5.51930428
 20
6.10874928
  0
VERTEX
  8
0
 10
5.44185921
 20
6.10763408
  0
VERTEX
  8
0
 10
5.36446432
 20
6.10470934
  0
VERTEX
  8
0
 10
5.28717380
 20
6.09987770
  0
VERTEX
  8
0
 10
5.21004186
 20
6.09304181
  0
VERTEX
  8
0
 10
5.13312269
 20
6.08410432
  0
VERTEX
  8
0
 10
5.05647049
 20
6.07296788
  0
VERTEX
  8
0
 10
5.00052316
 20
6.06301572
  0
VERTEX
  8
0
 10
4.94471433
 20
6.05159325
  0
VERTEX
  8
0
 10
4.88925477
 20
6.03841041
  0
VERTEX
  8
0
 10
4.83435523
 20
6.02317715
  0
VERTEX
  8
0
 10
4.78022648
 20
6.00560343
  0
VERTEX
  8
0
 10
4.75351701
 20
5.99584826
  0
VERTEX
  8
0
 10
4.72707928
 20
5.98539920
  0
VERTEX
  8
0
 10
4.70093962
 20
5.97422000
  0
VERTEX
  8
0
 10
4.67512439
 20
5.96227440
  0
VERTEX
  8
0
 10
4.64965992
 20
5.94952615
  0
VERTEX
  8
0
 10
4.62457257
 20
5.93593900
  0
VERTEX
  8
0
 10
4.59089361
 20
5.91549657
  0
VERTEX
  8
0
 10
4.55843606
 20
5.89277088
  0
VERTEX
  8
0
 10
4.54280614
 20
5.88055088
  0
VERTEX
  8
0
 10
4.52765056
 20
5.86775893
  0
VERTEX
  8
0
 10
4.51302565
 20
5.85439466
  0
VERTEX
  8
0
 10
4.49898774
 20
5.84045770
  0
VERTEX
  8
0
 10
4.48559315
 20
5.82594766
  0
VERTEX
  8
0
 10
4.47289822
 20
5.81086418
  0
VERTEX
  8
0
 10
4.46095928
 20
5.79520687
  0
VERTEX
  8
0
 10
4.44983264
 20
5.77897535
  0
VERTEX
  8
0
 10
4.43957465
 20
5.76216926
  0
VERTEX
  8
0
 10
4.43024163
 20
5.74478822
  0
VERTEX
  8
0
 10
4.42188990
 20
5.72683184
  0
VERTEX
  8
0
 10
4.41457580
 20
5.70829976
  0
VERTEX
  8
0
 10
4.40788337
 20
5.68833299
  0
VERTEX
  8
0
 10
4.40245012
 20
5.66812196
  0
VERTEX
  8
0
 10
4.39822649
 20
5.64770544
  0
VERTEX
  8
0
 10
4.39516293
 20
5.62712219
  0
VERTEX
  8
0
 10
4.39320989
 20
5.60641098
  0
VERTEX
  8
0
 10
4.39231781
 20
5.58561057
  0
VERTEX
  8
0
 10
4.39243714
 20
5.56475973
  0
VERTEX
  8
0
 10
4.39351832
 20
5.54389722
  0
VERTEX
  8
0
 10
4.39551180
 20
5.52306180
  0
VERTEX
  8
0
 10
4.39836802
 20
5.50229226
  0
VERTEX
  8
0
 10
4.40203744
 20
5.48162734
  0
VERTEX
  8
0
 10
4.40647049
 20
5.46110581
  0
VERTEX
  8
0
 10
4.41742929
 20
5.42064800
  0
VERTEX
  8
0
 10
4.43084798
 20
5.38122894
  0
VERTEX
  8
0
 10
4.43615518
 20
5.36725708
  0
VERTEX
  8
0
 10
4.44183171
 20
5.35327719
  0
VERTEX
  8
0
 10
4.44638417
 20
5.33899220
  0
VERTEX
  8
0
 10
4.44777219
 20
5.33164245
  0
VERTEX
  8
0
 10
4.44831917
 20
5.32410503
  0
VERTEX
  8
0
 10
4.44836968
 20
5.25857939
  0
VERTEX
  8
0
 10
4.45034516
 20
5.19311398
  0
VERTEX
  8
0
 10
4.45409104
 20
5.12772885
  0
VERTEX
  8
0
 10
4.45945276
 20
5.06244409
  0
VERTEX
  8
0
 10
4.46627577
 20
4.99727976
  0
VERTEX
  8
0
 10
4.47440551
 20
4.93225594
  0
VERTEX
  8
0
 10
4.48368741
 20
4.86739271
  0
VERTEX
  8
0
 10
4.49396691
 20
4.80271012
  0
VERTEX
  8
0
 10
4.50902855
 20
4.71964740
  0
VERTEX
  8
0
 10
4.52589973
 20
4.63695602
  0
VERTEX
  8
0
 10
4.54450317
 20
4.55464602
  0
VERTEX
  8
0
 10
4.56476160
 20
4.47272744
  0
VERTEX
  8
0
 10
4.58659774
 20
4.39121031
  0
VERTEX
  8
0
 10
4.60993430
 20
4.31010466
  0
VERTEX
  8
0
 10
4.63469401
 20
4.22942054
  0
VERTEX
  8
0
 10
4.66079958
 20
4.14916798
  0
VERTEX
  8
0
 10
4.63798223
 20
4.20060550
  0
VERTEX
  8
0
 10
4.61585438
 20
4.25236519
  0
VERTEX
  8
0
 10
4.59443508
 20
4.30443800
  0
VERTEX
  8
0
 10
4.57374342
 20
4.35681492
  0
VERTEX
  8
0
 10
4.55379846
 20
4.40948690
  0
VERTEX
  8
0
 10
4.53461926
 20
4.46244492
  0
VERTEX
  8
0
 10
4.51622491
 20
4.51567994
  0
VERTEX
  8
0
 10
4.49863446
 20
4.56918293
  0
VERTEX
  8
0
 10
4.48186699
 20
4.62294485
  0
VERTEX
  8
0
 10
4.46594156
 20
4.67695668
  0
VERTEX
  8
0
 10
4.45087725
 20
4.73120938
  0
VERTEX
  8
0
 10
4.43669312
 20
4.78569392
  0
VERTEX
  8
0
 10
4.42340825
 20
4.84040126
  0
VERTEX
  8
0
 10
4.41104169
 20
4.89532238
  0
VERTEX
  8
0
 10
4.39961252
 20
4.95044823
  0
VERTEX
  8
0
 10
4.38913982
 20
5.00576980
  0
VERTEX
  8
0
 10
4.37644591
 20
5.08672256
  0
VERTEX
  8
0
 10
4.37111363
 20
5.12734496
  0
VERTEX
  8
0
 10
4.36653005
 20
5.16805268
  0
VERTEX
  8
0
 10
4.36274938
 20
5.20883667
  0
VERTEX
  8
0
 10
4.35982581
 20
5.24968790
  0
VERTEX
  8
0
 10
4.35781353
 20
5.29059735
  0
VERTEX
  8
0
 10
4.35676674
 20
5.33155597
  0
VERTEX
  8
0
 10
4.35622729
 20
5.34360187
  0
VERTEX
  8
0
 10
4.35469927
 20
5.35548518
  0
VERTEX
  8
0
 10
4.34960484
 20
5.37891658
  0
VERTEX
  8
0
 10
4.34333818
 20
5.40215529
  0
VERTEX
  8
0
 10
4.33775399
 20
5.42550640
  0
VERTEX
  8
0
 10
4.33005632
 20
5.46713712
  0
VERTEX
  8
0
 10
4.32450741
 20
5.50923453
  0
VERTEX
  8
0
 10
4.32131303
 20
5.55160693
  0
VERTEX
  8
0
 10
4.32067890
 20
5.59406263
  0
VERTEX
  8
0
 10
4.32281078
 20
5.63640995
  0
VERTEX
  8
0
 10
4.32497826
 20
5.65748305
  0
VERTEX
  8
0
 10
4.32791440
 20
5.67845717
  0
VERTEX
  8
0
 10
4.33164491
 20
5.69930835
  0
VERTEX
  8
0
 10
4.33619552
 20
5.72001262
  0
VERTEX
  8
0
 10
4.34159193
 20
5.74054602
  0
VERTEX
  8
0
 10
4.34785987
 20
5.76088460
  0
VERTEX
  8
0
 10
4.35429020
 20
5.77919983
  0
VERTEX
  8
0
 10
4.36155406
 20
5.79719190
  0
VERTEX
  8
0
 10
4.36962784
 20
5.81483069
  0
VERTEX
  8
0
 10
4.37848796
 20
5.83208609
  0
VERTEX
  8
0
 10
4.38811085
 20
5.84892800
  0
VERTEX
  8
0
 10
4.39847290
 20
5.86532630
  0
VERTEX
  8
0
 10
4.40955055
 20
5.88125089
  0
VERTEX
  8
0
 10
4.42132020
 20
5.89667166
  0
VERTEX
  8
0
 10
4.43375826
 20
5.91155849
  0
VERTEX
  8
0
 10
4.44684116
 20
5.92588129
  0
VERTEX
  8
0
 10
4.46054530
 20
5.93960994
  0
VERTEX
  8
0
 10
4.47484710
 20
5.95271433
  0
VERTEX
  8
0
 10
4.48972298
 20
5.96516435
  0
VERTEX
  8
0
 10
4.50514935
 20
5.97692990
  0
VERTEX
  8
0
 10
4.52110263
 20
5.98798087
  0
VERTEX
  8
0
 10
4.53755923
 20
5.99828714
  0
VERTEX
  8
0
 10
4.58187131
 20
6.02322599
  0
VERTEX
  8
0
 10
4.62740281
 20
6.04564775
  0
VERTEX
  8
0
 10
4.67398410
 20
6.06577320
  0
VERTEX
  8
0
 10
4.72144557
 20
6.08382314
  0
VERTEX
  8
0
 10
4.76961761
 20
6.10001837
  0
VERTEX
  8
0
 10
4.81833061
 20
6.11457970
  0
VERTEX
  8
0
 10
4.86741495
 20
6.12772792
  0
VERTEX
  8
0
 10
4.91670102
 20
6.13968382
  0
VERTEX
  8
0
 10
4.97071419
 20
6.15096416
  0
VERTEX
  8
0
 10
5.02492708
 20
6.16097716
  0
VERTEX
  8
0
 10
5.07932062
 20
6.16977426
  0
VERTEX
  8
0
 10
5.13387575
 20
6.17740691
  0
VERTEX
  8
0
 10
5.18857339
 20
6.18392653
  0
VERTEX
  8
0
 10
5.24339448
 20
6.18938456
  0
VERTEX
  8
0
 10
5.29831994
 20
6.19383243
  0
VERTEX
  8
0
 10
5.35333072
 20
6.19732159
  0
VERTEX
  8
0
 10
5.40840773
 20
6.19990347
  0
VERTEX
  8
0
 10
5.46353192
 20
6.20162951
  0
VERTEX
  8
0
 10
5.51868420
 20
6.20255113
  0
VERTEX
  8
0
 10
5.57384552
 20
6.20271978
  0
VERTEX
  8
0
 10
5.68411898
 20
6.20100391
  0
VERTEX
  8
0
 10
5.79419974
 20
6.19689338
  0
VERTEX
  8
0
 10
5.82737254
 20
6.19534745
  0
VERTEX
  8
0
 10
5.86054233
 20
6.19310100
  0
VERTEX
  8
0
 10
5.92689295
 20
6.18813638
  0
VERTEX
  8
0
 10
5.96008381
 20
6.18623316
  0
VERTEX
  8
0
 10
5.99329174
 20
6.18525931
  0
VERTEX
  8
0
 10
6.02652175
 20
6.18562228
  0
VERTEX
  8
0
 10
6.05977885
 20
6.18772957
  0
VERTEX
  8
0
 10
6.10005885
 20
6.19199884
  0
VERTEX
  8
0
 10
6.14032882
 20
6.19856743
  0
VERTEX
  8
0
 10
6.18016923
 20
6.20771133
  0
VERTEX
  8
0
 10
6.19979726
 20
6.21333528
  0
VERTEX
  8
0
 10
6.21916057
 20
6.21970655
  0
VERTEX
  8
0
 10
6.23820674
 20
6.22685964
  0
VERTEX
  8
0
 10
6.25688333
 20
6.23482907
  0
VERTEX
  8
0
 10
6.27513788
 20
6.24364932
  0
VERTEX
  8
0
 10
6.29291798
 20
6.25335490
  0
VERTEX
  8
0
 10
6.31017116
 20
6.26398030
  0
VERTEX
  8
0
 10
6.32684500
 20
6.27556004
  0
VERTEX
  8
0
 10
6.34288706
 20
6.28812859
  0
VERTEX
  8
0
 10
6.35824489
 20
6.30172048
  0
VERTEX
  8
0
 10
6.37727872
 20
6.32165323
  0
VERTEX
  8
0
 10
6.39475292
 20
6.34318777
  0
VERTEX
  8
0
 10
6.41038445
 20
6.36615951
  0
VERTEX
  8
0
 10
6.42389029
 20
6.39040386
  0
VERTEX
  8
0
 10
6.43498742
 20
6.41575621
  0
VERTEX
  8
0
 10
6.44339282
 20
6.44205197
  0
VERTEX
  8
0
 10
6.44649767
 20
6.45550219
  0
VERTEX
  8
0
 10
6.44882346
 20
6.46912655
  0
VERTEX
  8
0
 10
6.45033480
 20
6.48290446
  0
VERTEX
  8
0
 10
6.45099632
 20
6.49681535
  0
VERTEX
  8
0
 10
6.45202355
 20
6.52260882
  0
VERTEX
  8
0
 10
6.45218478
 20
6.54842349
  0
VERTEX
  8
0
 10
6.45148314
 20
6.57423038
  0
VERTEX
  8
0
 10
6.44992176
 20
6.60000051
  0
VERTEX
  8
0
 10
6.44750379
 20
6.62570490
  0
VERTEX
  8
0
 10
6.44423236
 20
6.65131458
  0
VERTEX
  8
0
 10
6.44011060
 20
6.67680056
  0
VERTEX
  8
0
 10
6.43514165
 20
6.70213386
  0
VERTEX
  8
0
 10
6.42932865
 20
6.72728551
  0
VERTEX
  8
0
 10
6.42267473
 20
6.75222652
  0
VERTEX
  8
0
 10
6.41518303
 20
6.77692791
  0
VERTEX
  8
0
 10
6.40685669
 20
6.80136071
  0
VERTEX
  8
0
 10
6.39769884
 20
6.82549593
  0
VERTEX
  8
0
 10
6.38771262
 20
6.84930459
  0
VERTEX
  8
0
 10
6.37690117
 20
6.87275772
  0
VERTEX
  8
0
 10
6.36526762
 20
6.89582633
  0
VERTEX
  8
0
 10
6.34573716
 20
6.93088111
  0
VERTEX
  8
0
 10
6.32424058
 20
6.96468335
  0
VERTEX
  8
0
 10
6.30092343
 20
6.99723306
  0
VERTEX
  8
0
 10
6.27593121
 20
7.02853024
  0
VERTEX
  8
0
 10
6.24940946
 20
7.05857490
  0
VERTEX
  8
0
 10
6.22150371
 20
7.08736702
  0
VERTEX
  8
0
 10
6.19235948
 20
7.11490662
  0
VERTEX
  8
0
 10
6.16212230
 20
7.14119368
  0
SEQEND
  0
POLYLINE
  8
Default_Layer
 66
   1
 39
0.000000
 70
    1
  0
VERTEX
  8
0
 10
5.05124626
 20
5.90056842
  0
VERTEX
  8
0
 10
5.09646753
 20
5.90823140
  0
VERTEX
  8
0
 10
5.14186782
 20
5.91513125
  0
VERTEX
  8
0
 10
5.18742141
 20
5.92122142
  0
VERTEX
  8
0
 10
5.23310259
 20
5.92645537
  0
VERTEX
  8
0
 10
5.27888564
 20
5.93078655
  0
VERTEX
  8
0
 10
5.32474484
 20
5.93416843
  0
VERTEX
  8
0
 10
5.37065447
 20
5.93655445
  0
VERTEX
  8
0
 10
5.41658882
 20
5.93789808
  0
VERTEX
  8
0
 10
5.46252216
 20
5.93815277
  0
VERTEX
  8
0
 10
5.50842878
 20
5.93727198
  0
VERTEX
  8
0
 10
5.55428296
 20
5.93520917
  0
VERTEX
  8
0
 10
5.60005899
 20
5.93191779
  0
VERTEX
  8
0
 10
5.64573113
 20
5.92735129
  0
VERTEX
  8
0
 10
5.69127369
 20
5.92146315
  0
VERTEX
  8
0
 10
5.73666093
 20
5.91420680
  0
VERTEX
  8
0
 10
5.78186714
 20
5.90553571
  0
VERTEX
  8
0
 10
5.76755121
 20
5.87379626
  0
VERTEX
  8
0
 10
5.75583567
 20
5.84097691
  0
VERTEX
  8
0
 10
5.74683997
 20
5.80731451
  0
VERTEX
  8
0
 10
5.74068354
 20
5.77304591
  0
VERTEX
  8
0
 10
5.73870737
 20
5.75575831
  0
VERTEX
  8
0
 10
5.73748581
 20
5.73840798
  0
VERTEX
  8
0
 10
5.73703378
 20
5.72102453
  0
VERTEX
  8
0
 10
5.73736621
 20
5.70363757
  0
VERTEX
  8
0
 10
5.73849803
 20
5.68627670
  0
VERTEX
  8
0
 10
5.74044418
 20
5.66897154
  0
VERTEX
  8
0
 10
5.74321957
 20
5.65175168
  0
VERTEX
  8
0
 10
5.74683914
 20
5.63464674
  0
VERTEX
  8
0
 10
5.72601083
 20
5.65637711
  0
VERTEX
  8
0
 10
5.70422519
 20
5.67700626
  0
VERTEX
  8
0
 10
5.68154256
 20
5.69655700
  0
VERTEX
  8
0
 10
5.65802328
 20
5.71505218
  0
VERTEX
  8
0
 10
5.63372768
 20
5.73251462
  0
VERTEX
  8
0
 10
5.60871613
 20
5.74896716
  0
VERTEX
  8
0
 10
5.58304895
 20
5.76443264
  0
VERTEX
  8
0
 10
5.55678650
 20
5.77893387
  0
VERTEX
  8
0
 10
5.52998911
 20
5.79249370
  0
VERTEX
  8
0
 10
5.50271713
 20
5.80513496
  0
VERTEX
  8
0
 10
5.47503090
 20
5.81688047
  0
VERTEX
  8
0
 10
5.44699076
 20
5.82775309
  0
VERTEX
  8
0
 10
5.41865707
 20
5.83777562
  0
VERTEX
  8
0
 10
5.39009016
 20
5.84697092
  0
VERTEX
  8
0
 10
5.36135037
 20
5.85536181
  0
VERTEX
  8
0
 10
5.33249805
 20
5.86297112
  0
VERTEX
  8
0
 10
5.29787199
 20
5.87117997
  0
VERTEX
  8
0
 10
5.26300808
 20
5.87796266
  0
VERTEX
  8
0
 10
5.22794946
 20
5.88353097
  0
VERTEX
  8
0
 10
5.19273929
 20
5.88809665
  0
VERTEX
  8
0
 10
5.12203693
 20
5.89506719
  0
VERTEX
  8
0
 10
5.05124626
 20
5.90056842
  0
SEQEND
  0
POLYLINE
  8
Default_Layer
 66
   1
 39
0.000000
 70
    1
  0
VERTEX
  8
0
 10
3.36536276
 20
3.60893161
  0
VERTEX
  8
0
 10
3.43532059
 20
3.61746078
  0
VERTEX
  8
0
 10
3.50541190
 20
3.62492812
  0
VERTEX
  8
0
 10
3.57561763
 20
3.63132358
  0
VERTEX
  8
0
 10
3.64591870
 20
3.63663713
  0
VERTEX
  8
0
 10
3.71629605
 20
3.64085873
  0
VERTEX
  8
0
 10
3.78673060
 20
3.64397835
  0
VERTEX
  8
0
 10
3.85720329
 20
3.64598594
  0
VERTEX
  8
0
 10
3.92769505
 20
3.64687148
  0
VERTEX
  8
0
 10
3.98295238
 20
3.64639091
  0
VERTEX
  8
0
 10
4.03826692
 20
3.64517869
  0
VERTEX
  8
0
 10
4.09357544
 20
3.64300098
  0
VERTEX
  8
0
 10
4.14881471
 20
3.63962394
  0
VERTEX
  8
0
 10
4.20392149
 20
3.63481371
  0
VERTEX
  8
0
 10
4.25883257
 20
3.62833645
  0
VERTEX
  8
0
 10
4.31348472
 20
3.61995832
  0
VERTEX
  8
0
 10
4.36781470
 20
3.60944546
  0
VERTEX
  8
0
 10
4.26385741
 20
3.60474446
  0
VERTEX
  8
0
 10
4.15985195
 20
3.60080622
  0
VERTEX
  8
0
 10
3.95176075
 20
3.59454357
  0
VERTEX
  8
0
 10
3.97802372
 20
3.57483162
  0
VERTEX
  8
0
 10
4.00325899
 20
3.55339744
  0
VERTEX
  8
0
 10
4.02700887
 20
3.53023701
  0
VERTEX
  8
0
 10
4.04881574
 20
3.50534633
  0
VERTEX
  8
0
 10
4.05884752
 20
3.49225089
  0
VERTEX
  8
0
 10
4.06822192
 20
3.47872138
  0
VERTEX
  8
0
 10
4.07688173
 20
3.46475730
  0
VERTEX
  8
0
 10
4.08476976
 20
3.45035814
  0
VERTEX
  8
0
 10
4.09182879
 20
3.43552341
  0
VERTEX
  8
0
 10
4.09800161
 20
3.42025260
  0
VERTEX
  8
0
 10
4.10323102
 20
3.40454521
  0
VERTEX
  8
0
 10
4.10745982
 20
3.38840074
  0
VERTEX
  8
0
 10
4.10956158
 20
3.37908472
  0
VERTEX
  8
0
 10
4.11078518
 20
3.36961012
  0
VERTEX
  8
0
 10
4.11170985
 20
3.35041805
  0
VERTEX
  8
0
 10
4.11245789
 20
3.33129021
  0
VERTEX
  8
0
 10
4.11346069
 20
3.32189590
  0
VERTEX
  8
0
 10
4.11525333
 20
3.31269229
  0
VERTEX
  8
0
 10
4.13120854
 20
3.29433774
  0
VERTEX
  8
0
 10
4.14654650
 20
3.27505083
  0
VERTEX
  8
0
 10
4.16074636
 20
3.25483053
  0
VERTEX
  8
0
 10
4.17328721
 20
3.23367586
  0
VERTEX
  8
0
 10
4.18364818
 20
3.21158581
  0
VERTEX
  8
0
 10
4.18784843
 20
3.20018970
  0
VERTEX
  8
0
 10
4.19130838
 20
3.18855937
  0
VERTEX
  8
0
 10
4.19396292
 20
3.17669469
  0
VERTEX
  8
0
 10
4.19574693
 20
3.16459554
  0
VERTEX
  8
0
 10
4.19659531
 20
3.15226179
  0
VERTEX
  8
0
 10
4.19644295
 20
3.13969332
  0
VERTEX
  8
0
 10
4.19556969
 20
3.12878527
  0
VERTEX
  8
0
 10
4.19382063
 20
3.11815861
  0
VERTEX
  8
0
 10
4.19124935
 20
3.10781572
  0
VERTEX
  8
0
 10
4.18790942
 20
3.09775900
  0
VERTEX
  8
0
 10
4.17913787
 20
3.07851357
  0
VERTEX
  8
0
 10
4.16793452
 20
3.06044138
  0
VERTEX
  8
0
 10
4.15472792
 20
3.04356150
  0
VERTEX
  8
0
 10
4.13994664
 20
3.02789300
  0
VERTEX
  8
0
 10
4.12401920
 20
3.01345496
  0
VERTEX
  8
0
 10
4.10737417
 20
3.00026643
  0
VERTEX
  8
0
 10
4.03799611
 20
3.02355431
  0
VERTEX
  8
0
 10
3.96761140
 20
3.04426287
  0
VERTEX
  8
0
 10
3.93208829
 20
3.05352131
  0
VERTEX
  8
0
 10
3.89636960
 20
3.06198061
  0
VERTEX
  8
0
 10
3.86047401
 20
3.06958934
  0
VERTEX
  8
0
 10
3.82442023
 20
3.07629605
  0
VERTEX
  8
0
 10
3.78822695
 20
3.08204931
  0
VERTEX
  8
0
 10
3.75191285
 20
3.08679769
  0
VERTEX
  8
0
 10
3.71549663
 20
3.09048975
  0
VERTEX
  8
0
 10
3.67899699
 20
3.09307406
  0
VERTEX
  8
0
 10
3.64243261
 20
3.09449917
  0
VERTEX
  8
0
 10
3.60582219
 20
3.09471365
  0
VERTEX
  8
0
 10
3.56918443
 20
3.09366607
  0
VERTEX
  8
0
 10
3.53253800
 20
3.09130499
  0
VERTEX
  8
0
 10
3.54790163
 20
3.07977406
  0
VERTEX
  8
0
 10
3.56266746
 20
3.06752516
  0
VERTEX
  8
0
 10
3.57681782
 20
3.05459304
  0
VERTEX
  8
0
 10
3.59033502
 20
3.04101245
  0
VERTEX
  8
0
 10
3.60320136
 20
3.02681814
  0
VERTEX
  8
0
 10
3.61539916
 20
3.01204486
  0
VERTEX
  8
0
 10
3.62691073
 20
2.99672736
  0
VERTEX
  8
0
 10
3.63771838
 20
2.98090039
  0
VERTEX
  8
0
 10
3.64780441
 20
2.96459871
  0
VERTEX
  8
0
 10
3.65715115
 20
2.94785706
  0
VERTEX
  8
0
 10
3.66574091
 20
2.93071020
  0
VERTEX
  8
0
 10
3.67355598
 20
2.91319287
  0
VERTEX
  8
0
 10
3.68057869
 20
2.89533983
  0
VERTEX
  8
0
 10
3.68679134
 20
2.87718582
  0
VERTEX
  8
0
 10
3.69217626
 20
2.85876560
  0
VERTEX
  8
0
 10
3.69671574
 20
2.84011392
  0
VERTEX
  8
0
 10
3.70186452
 20
2.81497551
  0
VERTEX
  8
0
 10
3.70556507
 20
2.78963136
  0
VERTEX
  8
0
 10
3.70792678
 20
2.76413264
  0
VERTEX
  8
0
 10
3.70905904
 20
2.73853055
  0
VERTEX
  8
0
 10
3.70907125
 20
2.71287628
  0
VERTEX
  8
0
 10
3.70807281
 20
2.68722100
  0
VERTEX
  8
0
 10
3.70617310
 20
2.66161590
  0
VERTEX
  8
0
 10
3.70348154
 20
2.63611217
  0
VERTEX
  8
0
 10
3.68858349
 20
2.66686254
  0
VERTEX
  8
0
 10
3.67264870
 20
2.69768819
  0
VERTEX
  8
0
 10
3.65526667
 20
2.72788556
  0
VERTEX
  8
0
 10
3.63602693
 20
2.75675111
  0
VERTEX
  8
0
 10
3.62558213
 20
2.77046460
  0
VERTEX
  8
0
 10
3.61451898
 20
2.78358131
  0
VERTEX
  8
0
 10
3.60278615
 20
2.79601329
  0
VERTEX
  8
0
 10
3.59033234
 20
2.80767260
  0
VERTEX
  8
0
 10
3.57710624
 20
2.81847130
  0
VERTEX
  8
0
 10
3.56305654
 20
2.82832144
  0
VERTEX
  8
0
 10
3.54813192
 20
2.83713509
  0
VERTEX
  8
0
 10
3.53228107
 20
2.84482429
  0
VERTEX
  8
0
 10
3.54982987
 20
2.81700786
  0
VERTEX
  8
0
 10
3.56553199
 20
2.78799611
  0
VERTEX
  8
0
 10
3.57908233
 20
2.75793456
  0
VERTEX
  8
0
 10
3.59017578
 20
2.72696874
  0
VERTEX
  8
0
 10
3.59470583
 20
2.71119221
  0
VERTEX
  8
0
 10
3.59850724
 20
2.69524418
  0
VERTEX
  8
0
 10
3.60154188
 20
2.67914285
  0
VERTEX
  8
0
 10
3.60377161
 20
2.66290640
  0
VERTEX
  8
0
 10
3.60515829
 20
2.64655303
  0
VERTEX
  8
0
 10
3.60566379
 20
2.63010093
  0
VERTEX
  8
0
 10
3.60524996
 20
2.61356829
  0
VERTEX
  8
0
 10
3.60387867
 20
2.59697329
  0
VERTEX
  8
0
 10
3.52440793
 20
2.56825694
  0
VERTEX
  8
0
 10
3.44436313
 20
2.54121565
  0
VERTEX
  8
0
 10
3.36379643
 20
2.51577414
  0
VERTEX
  8
0
 10
3.28276004
 20
2.49185715
  0
VERTEX
  8
0
 10
3.20130614
 20
2.46938940
  0
VERTEX
  8
0
 10
3.11948691
 20
2.44829562
  0
VERTEX
  8
0
 10
3.03735455
 20
2.42850053
  0
VERTEX
  8
0
 10
2.95496125
 20
2.40992887
  0
VERTEX
  8
0
 10
2.88390261
 20
2.39518622
  0
VERTEX
  8
0
 10
2.81262518
 20
2.38155960
  0
VERTEX
  8
0
 10
2.74114300
 20
2.36908917
  0
VERTEX
  8
0
 10
2.66947014
 20
2.35781507
  0
VERTEX
  8
0
 10
2.59762063
 20
2.34777743
  0
VERTEX
  8
0
 10
2.52560854
 20
2.33901642
  0
VERTEX
  8
0
 10
2.45344791
 20
2.33157216
  0
VERTEX
  8
0
 10
2.38115280
 20
2.32548482
  0
VERTEX
  8
0
 10
2.38910155
 20
2.38231835
  0
VERTEX
  8
0
 10
2.39624739
 20
2.43927232
  0
VERTEX
  8
0
 10
2.40181954
 20
2.49637081
  0
VERTEX
  8
0
 10
2.40504721
 20
2.55363791
  0
VERTEX
  8
0
 10
2.43711853
 20
2.59214416
  0
VERTEX
  8
0
 10
2.46840701
 20
2.63130278
  0
VERTEX
  8
0
 10
2.49883639
 20
2.67113181
  0
VERTEX
  8
0
 10
2.52833039
 20
2.71164934
  0
VERTEX
  8
0
 10
2.55681272
 20
2.75287342
  0
VERTEX
  8
0
 10
2.58420713
 20
2.79482213
  0
VERTEX
  8
0
 10
2.61043732
 20
2.83751352
  0
VERTEX
  8
0
 10
2.63542702
 20
2.88096566
  0
VERTEX
  8
0
 10
2.65421112
 20
2.91666074
  0
VERTEX
  8
0
 10
2.67199259
 20
2.95308246
  0
VERTEX
  8
0
 10
2.68833887
 20
2.99021876
  0
VERTEX
  8
0
 10
2.70281740
 20
3.02805760
  0
VERTEX
  8
0
 10
2.71499561
 20
3.06658694
  0
VERTEX
  8
0
 10
2.72008692
 20
3.08610678
  0
VERTEX
  8
0
 10
2.72444093
 20
3.10579473
  0
VERTEX
  8
0
 10
2.72800359
 20
3.12564928
  0
VERTEX
  8
0
 10
2.73072081
 20
3.14566893
  0
VERTEX
  8
0
 10
2.73253853
 20
3.16585217
  0
VERTEX
  8
0
 10
2.73340268
 20
3.18619750
  0
VERTEX
  8
0
 10
2.82780942
 20
3.24332008
  0
VERTEX
  8
0
 10
2.92174246
 20
3.30120541
  0
VERTEX
  8
0
 10
3.01511346
 20
3.35997394
  0
VERTEX
  8
0
 10
3.10783410
 20
3.41974610
  0
VERTEX
  8
0
 10
3.17432791
 20
3.46414400
  0
VERTEX
  8
0
 10
3.24032391
 20
3.50939297
  0
VERTEX
  8
0
 10
3.27270869
 20
3.53284344
  0
VERTEX
  8
0
 10
3.30445717
 20
3.55711488
  0
VERTEX
  8
0
 10
3.33539874
 20
3.58241003
  0
VERTEX
  8
0
 10
3.36536276
 20
3.60893161
  0
SEQEND
  0
POLYLINE
  8
Default_Layer
 66
   1
 39
0.000000
 70
    1
  0
VERTEX
  8
0
 10
3.31020864
 20
3.27535192
  0
VERTEX
  8
0
 10
3.33331888
 20
3.26188705
  0
VERTEX
  8
0
 10
3.35554593
 20
3.24715260
  0
VERTEX
  8
0
 10
3.37705036
 20
3.23138843
  0
VERTEX
  8
0
 10
3.39799277
 20
3.21483439
  0
VERTEX
  8
0
 10
3.43883380
 20
3.18031623
  0
VERTEX
  8
0
 10
3.47935367
 20
3.14551705
  0
VERTEX
  8
0
 10
3.47906462
 20
3.19496520
  0
VERTEX
  8
0
 10
3.47912484
 20
3.21966921
  0
VERTEX
  8
0
 10
3.48012445
 20
3.24434913
  0
VERTEX
  8
0
 10
3.49034993
 20
3.25177632
  0
VERTEX
  8
0
 10
3.50143753
 20
3.25768001
  0
VERTEX
  8
0
 10
3.51319756
 20
3.26235123
  0
VERTEX
  8
0
 10
3.52544033
 20
3.26608105
  0
VERTEX
  8
0
 10
3.55061538
 20
3.27188070
  0
VERTEX
  8
0
 10
3.57544517
 20
3.27740735
  0
VERTEX
  8
0
 10
3.61379637
 20
3.28430245
  0
VERTEX
  8
0
 10
3.65227101
 20
3.29041573
  0
VERTEX
  8
0
 10
3.72950632
 20
3.30073437
  0
VERTEX
  8
0
 10
3.80698250
 20
3.30923846
  0
VERTEX
  8
0
 10
3.88453095
 20
3.31680315
  0
VERTEX
  8
0
 10
3.84877475
 20
3.32431931
  0
VERTEX
  8
0
 10
3.81280038
 20
3.33031987
  0
VERTEX
  8
0
 10
3.77665062
 20
3.33484082
  0
VERTEX
  8
0
 10
3.74036827
 20
3.33791818
  0
VERTEX
  8
0
 10
3.70399608
 20
3.33958795
  0
VERTEX
  8
0
 10
3.66757686
 20
3.33988613
  0
VERTEX
  8
0
 10
3.63115336
 20
3.33884873
  0
VERTEX
  8
0
 10
3.59476839
 20
3.33651176
  0
VERTEX
  8
0
 10
3.55846470
 20
3.33291122
  0
VERTEX
  8
0
 10
3.52228509
 20
3.32808311
  0
VERTEX
  8
0
 10
3.48627233
 20
3.32206345
  0
VERTEX
  8
0
 10
3.45046921
 20
3.31488823
  0
VERTEX
  8
0
 10
3.41491850
 20
3.30659346
  0
VERTEX
  8
0
 10
3.37966298
 20
3.29721515
  0
VERTEX
  8
0
 10
3.34474543
 20
3.28678930
  0
VERTEX
  8
0
 10
3.31020864
 20
3.27535192
  0
SEQEND
  0
POLYLINE
  8
Default_Layer
 66
   1
 39
0.000000
 70
    1
  0
VERTEX
  8
0
 10
5.48374368
 20
2.41737981
  0
VERTEX
  8
0
 10
5.51415633
 20
2.37002589
  0
VERTEX
  8
0
 10
5.54353323
 20
2.32200557
  0
VERTEX
  8
0
 10
5.60030387
 20
2.22476859
  0
VERTEX
  8
0
 10
5.58180849
 20
2.24355285
  0
VERTEX
  8
0
 10
5.56257945
 20
2.26156031
  0
VERTEX
  8
0
 10
5.54266192
 20
2.27879296
  0
VERTEX
  8
0
 10
5.52210106
 20
2.29525282
  0
VERTEX
  8
0
 10
5.50094204
 20
2.31094189
  0
VERTEX
  8
0
 10
5.47923002
 20
2.32586218
  0
VERTEX
  8
0
 10
5.45701016
 20
2.34001570
  0
VERTEX
  8
0
 10
5.43432764
 20
2.35340445
  0
VERTEX
  8
0
 10
5.44811884
 20
2.36824211
  0
VERTEX
  8
0
 10
5.46096263
 20
2.38391479
  0
VERTEX
  8
0
 10
5.47284292
 20
2.40032614
  0
VERTEX
  8
0
 10
5.48374368
 20
2.41737981
  0
SEQEND
  0
ENDSEC
  0
EOF
