  0
SECTION
  2
HEADER
  9
$ACADVER
  1
AC1009
  9
$INSBASE
 10
0.0
 20
0.0
 30
0.0
  9
$EXTMIN
 10
0.0664711194073178
 20
0.2189045326056416
 30
0.0
  9
$EXTMAX
 10
7.4138121737080569
 20
16.329790634114531
 30
0.0
  9
$LIMMIN
 10
0.0
 20
0.0
  9
$LIMMAX
 10
12.0
 20
9.0
  9
$ORTHOMODE
 70
     0
  9
$REGENMODE
 70
     1
  9
$FILLMODE
 70
     1
  9
$QTEXTMODE
 70
     0
  9
$MIRRTEXT
 70
     1
  9
$DRAGMODE
 70
     2
  9
$LTSCALE
 40
1.0
  9
$OSMODE
 70
  2495
  9
$ATTMODE
 70
     1
  9
$TEXTSIZE
 40
0.2
  9
$TRACEWID
 40
0.05
  9
$TEXTSTYLE
  7
STANDARD
  9
$CLAYER
  8
2
  9
$CELTYPE
  6
BYBLOCK
  9
$CECOLOR
 62
     2
  9
$DIMSCALE
 40
1.0
  9
$DIMASZ
 40
0.18
  9
$DIMEXO
 40
0.0625
  9
$DIMDLI
 40
0.38
  9
$DIMRND
 40
0.0
  9
$DIMDLE
 40
0.0
  9
$DIMEXE
 40
0.18
  9
$DIMTP
 40
0.0
  9
$DIMTM
 40
0.0
  9
$DIMTXT
 40
0.18
  9
$DIMCEN
 40
0.09
  9
$DIMTSZ
 40
0.0
  9
$DIMTOL
 70
     0
  9
$DIMLIM
 70
     0
  9
$DIMTIH
 70
     1
  9
$DIMTOH
 70
     1
  9
$DIMSE1
 70
     0
  9
$DIMSE2
 70
     0
  9
$DIMTAD
 70
     0
  9
$DIMZIN
 70
     0
  9
$DIMBLK
  1

  9
$DIMASO
 70
     1
  9
$DIMSHO
 70
     1
  9
$DIMPOST
  1

  9
$DIMAPOST
  1

  9
$DIMALT
 70
     0
  9
$DIMALTD
 70
     2
  9
$DIMALTF
 40
25.399999999999999
  9
$DIMLFAC
 40
1.0
  9
$DIMTOFL
 70
     0
  9
$DIMTVP
 40
0.0
  9
$DIMTIX
 70
     0
  9
$DIMSOXD
 70
     0
  9
$DIMSAH
 70
     0
  9
$DIMBLK1
  1

  9
$DIMBLK2
  1

  9
$DIMSTYLE
  2
STANDARD
  9
$DIMCLRD
 70
     0
  9
$DIMCLRE
 70
     0
  9
$DIMCLRT
 70
     0
  9
$DIMTFAC
 40
1.0
  9
$DIMGAP
 40
0.09
  9
$LUNITS
 70
     2
  9
$LUPREC
 70
     4
  9
$SKETCHINC
 40
0.1
  9
$FILLETRAD
 40
0.5
  9
$AUNITS
 70
     0
  9
$AUPREC
 70
     0
  9
$MENU
  1
.
  9
$ELEVATION
 40
0.0
  9
$PELEVATION
 40
0.0
  9
$THICKNESS
 40
0.0
  9
$LIMCHECK
 70
     0
  9
$BLIPMODE
 70
     0
  9
$CHAMFERA
 40
0.5
  9
$CHAMFERB
 40
0.5
  9
$SKPOLY
 70
     0
  9
$TDCREATE
 40
2453353.8004591442
  9
$TDUPDATE
 40
2455210.3848840739
  9
$TDINDWG
 40
4881704.0925467936
  9
$TDUSRTIMER
 40
4881704.0925467936
  9
$USRTIMER
 70
     1
  9
$ANGBASE
 50
0.0
  9
$ANGDIR
 70
     0
  9
$PDMODE
 70
     0
  9
$PDSIZE
 40
0.0
  9
$PLINEWID
 40
0.0
  9
$COORDS
 70
     1
  9
$SPLFRAME
 70
     0
  9
$SPLINETYPE
 70
     6
  9
$SPLINESEGS
 70
     8
  9
$ATTDIA
 70
     0
  9
$ATTREQ
 70
     1
  9
$HANDLING
 70
     1
  9
$HANDSEED
  5
DD4
  9
$SURFTAB1
 70
     6
  9
$SURFTAB2
 70
     6
  9
$SURFTYPE
 70
     6
  9
$SURFU
 70
     6
  9
$SURFV
 70
     6
  9
$UCSNAME
  2

  9
$UCSORG
 10
0.0
 20
0.0
 30
0.0
  9
$UCSXDIR
 10
1.0
 20
0.0
 30
0.0
  9
$UCSYDIR
 10
0.0
 20
1.0
 30
0.0
  9
$PUCSNAME
  2

  9
$PUCSORG
 10
0.0
 20
0.0
 30
0.0
  9
$PUCSXDIR
 10
1.0
 20
0.0
 30
0.0
  9
$PUCSYDIR
 10
0.0
 20
1.0
 30
0.0
  9
$USERI1
 70
     0
  9
$USERI2
 70
     0
  9
$USERI3
 70
     0
  9
$USERI4
 70
     0
  9
$USERI5
 70
     0
  9
$USERR1
 40
0.0
  9
$USERR2
 40
0.0
  9
$USERR3
 40
0.0
  9
$USERR4
 40
0.0
  9
$USERR5
 40
0.0
  9
$WORLDVIEW
 70
     1
  9
$SHADEDGE
 70
     3
  9
$SHADEDIF
 70
    70
  9
$TILEMODE
 70
     1
  9
$MAXACTVP
 70
    64
  9
$PLIMCHECK
 70
     0
  9
$PEXTMIN
 10
1.0000000000000000E+020
 20
1.0000000000000000E+020
 30
1.0000000000000000E+020
  9
$PEXTMAX
 10
-1.0000000000000000E+020
 20
-1.0000000000000000E+020
 30
-1.0000000000000000E+020
  9
$PLIMMIN
 10
0.0
 20
0.0
  9
$PLIMMAX
 10
12.0
 20
9.0
  9
$UNITMODE
 70
     0
  9
$VISRETAIN
 70
     1
  9
$PLINEGEN
 70
     0
  9
$PSLTSCALE
 70
     1
  0
ENDSEC
  0
SECTION
  2
TABLES
  0
TABLE
  2
VPORT
 70
     1
  0
VPORT
  2
*ACTIVE
 70
     0
 10
0.0
 20
0.0
 11
1.0
 21
1.0
 12
5.5580798719457176
 22
8.3630047850653302
 13
0.0
 23
0.0
 14
0.5
 24
0.5
 15
0.5
 25
0.5
 16
0.0
 26
0.0
 36
1.0
 17
0.0
 27
0.0
 37
0.0
 40
41.757598136567033
 41
1.263224181360201
 42
50.0
 43
0.0
 44
0.0
 50
0.0
 51
0.0
 71
    16
 72
   100
 73
     1
 74
     1
 75
     0
 76
     0
 77
     0
 78
     0
  0
ENDTAB
  0
TABLE
  2
LTYPE
 70
     5
  0
LTYPE
  2
CONTINUOUS
 70
     0
  3
Solid line
 72
    65
 73
     0
 40
0.0
  0
LTYPE
  2
DASHDOT
 70
     0
  3
__ . __ . __ . __ . __ . __ . __ . __ . __ . __
 72
    65
 73
     4
 40
1.0
 49
0.5
 49
-0.25
 49
0.0
 49
-0.25
  0
LTYPE
  2
DASHED
 70
     0
  3
__ __ __ __ __ __ __ __ __ __ __ __ __ __ __ __
 72
    65
 73
     2
 40
0.75
 49
0.5
 49
-0.25
  0
LTYPE
  2
DIVIDE
 70
     0
  3
____ . . ____ . . ____ . . ____ . . ____ . . __
 72
    65
 73
     6
 40
1.25
 49
0.5
 49
-0.25
 49
0.0
 49
-0.25
 49
0.0
 49
-0.25
  0
LTYPE
  2
DOT
 70
     0
  3
. . . . . . . . . . . . . . . . . . . . . . . . 
 72
    65
 73
     2
 40
0.25
 49
0.0
 49
-0.25
  0
ENDTAB
  0
TABLE
  2
LAYER
 70
     4
  0
LAYER
  2
0
 70
     0
 62
     7
  6
CONTINUOUS
  0
LAYER
  2
LAYER_1
 70
     0
 62
     7
  6
CONTINUOUS
  0
LAYER
  2
1
 70
     0
 62
     7
  6
CONTINUOUS
  0
LAYER
  2
2
 70
     0
 62
     7
  6
CONTINUOUS
  0
ENDTAB
  0
TABLE
  2
STYLE
 70
     1
  0
STYLE
  2
STANDARD
 70
     0
 40
0.0
 41
1.0
 50
0.0
 71
     0
 42
0.2
  3
txt
  4

  0
ENDTAB
  0
TABLE
  2
VIEW
 70
     0
  0
ENDTAB
  0
TABLE
  2
UCS
 70
     0
  0
ENDTAB
  0
TABLE
  2
APPID
 70
     1
  0
APPID
  2
ACAD
 70
     0
  0
ENDTAB
  0
TABLE
  2
DIMSTYLE
 70
     1
  0
DIMSTYLE
  2
STANDARD
 70
     0
  3

  4

  5

  6

  7

 40
1.0
 41
0.18
 42
0.0625
 43
0.38
 44
0.18
 45
0.0
 46
0.0
 47
0.0
 48
0.0
140
0.18
141
0.09
142
0.0
143
25.399999999999999
144
1.0
145
0.0
146
1.0
147
0.09
 71
     0
 72
     0
 73
     1
 74
     1
 75
     0
 76
     0
 77
     0
 78
     0
170
     0
171
     2
172
     0
173
     0
174
     0
175
     0
176
     0
177
     0
178
     0
  0
ENDTAB
  0
ENDSEC
  0
SECTION
  2
BLOCKS
  0
BLOCK
  8
0
  2
$MODEL_SPACE
 70
     0
 10
0.0
 20
0.0
 30
0.0
  3
$MODEL_SPACE
  1

  0
ENDBLK
  5
21
  8
0
  0
BLOCK
 67
     1
  8
0
  2
$PAPER_SPACE
 70
     0
 10
0.0
 20
0.0
 30
0.0
  3
$PAPER_SPACE
  1

  0
ENDBLK
  5
76
 67
     1
  8
0
  0
ENDSEC
  0
SECTION
  2
ENTITIES
  0
LINE
  5
6CF
  8
1
  6
CONTINUOUS
 62
     1
 10
4.2150555091154622
 20
10.08904635334304
 30
0.0
 11
5.5780698193844751
 21
12.39037589386623
 31
0.0
  0
LINE
  5
6D0
  8
1
  6
CONTINUOUS
 62
     1
 10
5.3436222676497698
 20
11.348698994111119
 30
0.0
 11
5.1269778702672379
 21
10.822289239277779
 31
0.0
  0
LINE
  5
6D1
  8
1
  6
CONTINUOUS
 62
     1
 10
5.1269778702672379
 20
10.822289239277779
 30
0.0
 11
4.7269347786186584
 21
9.9246471718967602
 31
0.0
  0
LINE
  5
732
  8
1
  6
CONTINUOUS
 62
     1
 10
5.7827862042649816
 20
12.40278294749535
 30
0.0
 11
5.3436222676497698
 21
11.348698994111119
 31
0.0
  0
LINE
  5
73E
  8
2
  6
CONTINUOUS
 62
     2
 10
7.397842360452433
 20
5.5118546842618379
 30
0.0
 11
7.2172111194073159
 21
5.6155742285299803
 31
0.0
  0
LINE
  5
73F
  8
2
  6
CONTINUOUS
 62
     2
 10
7.2172111194073159
 20
5.6155742285299803
 30
0.0
 11
6.7597591194073159
 21
5.8543542285299814
 31
0.0
  0
LINE
  5
740
  8
2
  6
CONTINUOUS
 62
     2
 10
6.7597591194073159
 20
5.8543542285299814
 30
0.0
 11
6.6734471194073173
 21
5.899394228529979
 31
0.0
  0
LINE
  5
741
  8
2
  6
CONTINUOUS
 62
     2
 10
6.6734471194073173
 20
5.899394228529979
 30
0.0
 11
6.6303111194073159
 21
5.9219142285299791
 31
0.0
  0
LINE
  5
742
  8
2
  6
CONTINUOUS
 62
     2
 10
6.6303111194073159
 20
5.9219142285299791
 30
0.0
 11
6.612399119407316
 21
5.9321662285299803
 31
0.0
  0
LINE
  5
743
  8
2
  6
CONTINUOUS
 62
     2
 10
6.612399119407316
 20
5.9321662285299803
 30
0.0
 11
6.5981271194073159
 21
5.9442542285299798
 31
0.0
  0
LINE
  5
744
  8
2
  6
CONTINUOUS
 62
     2
 10
6.5981271194073159
 20
5.9442542285299798
 30
0.0
 11
6.5854551194073174
 21
5.9586582285299814
 31
0.0
  0
LINE
  5
745
  8
2
  6
CONTINUOUS
 62
     2
 10
6.5854551194073174
 20
5.9586582285299814
 30
0.0
 11
6.5635031194073159
 21
5.9916342285299802
 31
0.0
  0
LINE
  5
746
  8
2
  6
CONTINUOUS
 62
     2
 10
6.5635031194073159
 20
5.9916342285299802
 30
0.0
 11
6.4057591194073158
 21
6.2153662285299802
 31
0.0
  0
LINE
  5
747
  8
2
  6
CONTINUOUS
 62
     2
 10
6.4057591194073158
 20
6.2153662285299802
 30
0.0
 11
6.2197631194073164
 21
6.4485862285299804
 31
0.0
  0
LINE
  5
748
  8
2
  6
CONTINUOUS
 62
     2
 10
6.2197631194073164
 20
6.4485862285299804
 30
0.0
 11
5.9511311194073171
 21
6.8107222285299791
 31
0.0
  0
LINE
  5
749
  8
2
  6
CONTINUOUS
 62
     2
 10
5.9511311194073171
 20
6.8107222285299791
 30
0.0
 11
5.6707551194073167
 21
7.2506222285299797
 31
0.0
  0
LINE
  5
74A
  8
2
  6
CONTINUOUS
 62
     2
 10
5.6707551194073167
 20
7.2506222285299797
 30
0.0
 11
5.5635711194073174
 21
7.3974622285299789
 31
0.0
  0
LINE
  5
74B
  8
2
  6
CONTINUOUS
 62
     2
 10
5.5635711194073174
 20
7.3974622285299789
 30
0.0
 11
5.3496351194073171
 21
7.7866062285299789
 31
0.0
  0
LINE
  5
74C
  8
2
  6
CONTINUOUS
 62
     2
 10
5.3496351194073171
 20
7.7866062285299789
 30
0.0
 11
5.2142101747528358
 21
8.0427000629642205
 31
0.0
  0
LINE
  5
76D
  8
2
  6
CONTINUOUS
 62
     2
 10
4.7617374841980764
 20
8.3620839836940881
 30
0.0
 11
4.581963119407316
 21
8.3753142285299802
 31
0.0
  0
LINE
  5
76E
  8
2
  6
CONTINUOUS
 62
     2
 10
4.581963119407316
 20
8.3753142285299802
 30
0.0
 11
4.5605351194073167
 21
8.3800302285299804
 31
0.0
  0
LINE
  5
76F
  8
2
  6
CONTINUOUS
 62
     2
 10
4.5605351194073167
 20
8.3800302285299804
 30
0.0
 11
4.5401631194073184
 21
8.3865462285299799
 31
0.0
  0
LINE
  5
770
  8
2
  6
CONTINUOUS
 62
     2
 10
4.5401631194073184
 20
8.3865462285299799
 30
0.0
 11
4.5210911194073171
 21
8.3951502285299782
 31
0.0
  0
LINE
  5
771
  8
2
  6
CONTINUOUS
 62
     2
 10
4.5210911194073171
 20
8.3951502285299782
 30
0.0
 11
4.3508951194073173
 21
8.4896782285299803
 31
0.0
  0
LINE
  5
772
  8
2
  6
CONTINUOUS
 62
     2
 10
4.3508951194073173
 20
8.4896782285299803
 30
0.0
 11
4.3082431194073161
 21
8.5133862285299813
 31
0.0
  0
LINE
  5
773
  8
2
  6
CONTINUOUS
 62
     2
 10
4.3082431194073161
 20
8.5133862285299813
 30
0.0
 11
4.2869151194073174
 21
8.5252422285299794
 31
0.0
  0
LINE
  5
774
  8
2
  6
CONTINUOUS
 62
     2
 10
4.2869151194073174
 20
8.5252422285299794
 30
0.0
 11
4.2815831194073173
 21
8.5282062285299798
 31
0.0
  0
LINE
  5
775
  8
2
  6
CONTINUOUS
 62
     2
 10
4.2815831194073173
 20
8.5282062285299798
 30
0.0
 11
4.2789151194073174
 21
8.5296902285299794
 31
0.0
  0
LINE
  5
776
  8
2
  6
CONTINUOUS
 62
     2
 10
4.2789151194073174
 20
8.5296902285299794
 30
0.0
 11
4.2775831194073159
 21
8.5304302285299798
 31
0.0
  0
LINE
  5
777
  8
2
  6
CONTINUOUS
 62
     2
 10
4.2775831194073159
 20
8.5304302285299798
 30
0.0
 11
4.2772071194073158
 21
8.5306582285299797
 31
0.0
  0
LINE
  5
778
  8
2
  6
CONTINUOUS
 62
     2
 10
4.2772071194073158
 20
8.5306582285299797
 30
0.0
 11
4.2772071194073158
 21
8.5429902285299804
 31
0.0
  0
LINE
  5
779
  8
2
  6
CONTINUOUS
 62
     2
 10
4.2772071194073158
 20
8.5429902285299804
 30
0.0
 11
4.2772071194073158
 21
8.5460782285299803
 31
0.0
  0
LINE
  5
77A
  8
2
  6
CONTINUOUS
 62
     2
 10
4.2772071194073158
 20
8.5460782285299803
 30
0.0
 11
4.2772071194073158
 21
8.5476262285299782
 31
0.0
  0
LINE
  5
77B
  8
2
  6
CONTINUOUS
 62
     2
 10
4.2772071194073158
 20
8.5476262285299782
 30
0.0
 11
4.2772071194073158
 21
8.5480102285299804
 31
0.0
  0
LINE
  5
77C
  8
2
  6
CONTINUOUS
 62
     2
 10
4.2772071194073158
 20
8.5480102285299804
 30
0.0
 11
4.2772071194073158
 21
8.5480622285299805
 31
0.0
  0
LINE
  5
77D
  8
2
  6
CONTINUOUS
 62
     2
 10
4.2772071194073158
 20
8.5480622285299805
 30
0.0
 11
4.2773151194073167
 21
8.5482182285299793
 31
0.0
  0
LINE
  5
77E
  8
2
  6
CONTINUOUS
 62
     2
 10
4.2773151194073167
 20
8.5482182285299793
 30
0.0
 11
4.6893431194073161
 21
9.0100502285299804
 31
0.0
  0
LINE
  5
77F
  8
2
  6
CONTINUOUS
 62
     2
 10
4.6893431194073161
 20
9.0100502285299804
 30
0.0
 11
4.8263071194073159
 21
9.1738222285299802
 31
0.0
  0
LINE
  5
780
  8
2
  6
CONTINUOUS
 62
     2
 10
4.8263071194073159
 20
9.1738222285299802
 30
0.0
 11
4.8863706612418527
 21
9.2494620137529129
 31
0.0
  0
LINE
  5
790
  8
2
  6
CONTINUOUS
 62
     2
 10
4.8863706612418527
 20
9.2494620137529129
 30
0.0
 11
5.0566271194073158
 21
9.4540302285299802
 31
0.0
  0
LINE
  5
791
  8
2
  6
CONTINUOUS
 62
     2
 10
5.0566271194073158
 20
9.4540302285299802
 30
0.0
 11
5.1303751194073159
 21
9.5645502285299813
 31
0.0
  0
LINE
  5
792
  8
2
  6
CONTINUOUS
 62
     2
 10
5.1303751194073159
 20
9.5645502285299813
 30
0.0
 11
5.1924511194073171
 21
9.6950142285299812
 31
0.0
  0
LINE
  5
793
  8
2
  6
CONTINUOUS
 62
     2
 10
5.1924511194073171
 20
9.6950142285299812
 30
0.0
 11
5.5437871194073161
 21
10.41647822852998
 31
0.0
  0
LINE
  5
794
  8
2
  6
CONTINUOUS
 62
     2
 10
5.5437871194073161
 20
10.41647822852998
 30
0.0
 11
5.7039151194073163
 21
10.81046222852998
 31
0.0
  0
LINE
  5
795
  8
2
  6
CONTINUOUS
 62
     2
 10
5.7039151194073163
 20
10.81046222852998
 30
0.0
 11
6.1620351194073173
 21
11.92039022852998
 31
0.0
  0
LINE
  5
796
  8
2
  6
CONTINUOUS
 62
     2
 10
6.1620351194073173
 20
11.92039022852998
 30
0.0
 11
6.6478471194073174
 21
12.949422228529979
 31
0.0
  0
LINE
  5
797
  8
2
  6
CONTINUOUS
 62
     2
 10
6.6478471194073174
 20
12.949422228529979
 30
0.0
 11
7.0066436616377734
 21
14.20332031005564
 31
0.0
  0
LINE
  5
7C9
  8
2
  6
CONTINUOUS
 62
     2
 10
7.0066436616377734
 20
14.20332031005564
 30
0.0
 11
7.081467119407316
 21
14.60117022852998
 31
0.0
  0
LINE
  5
7CA
  8
2
  6
CONTINUOUS
 62
     2
 10
7.081467119407316
 20
14.60117022852998
 30
0.0
 11
7.1131191194073171
 21
14.836266228529979
 31
0.0
  0
LINE
  5
7CB
  8
2
  6
CONTINUOUS
 62
     2
 10
7.1131191194073171
 20
14.836266228529979
 30
0.0
 11
7.1297871194073172
 21
14.95438622852998
 31
0.0
  0
LINE
  5
7CC
  8
2
  6
CONTINUOUS
 62
     2
 10
7.1297871194073172
 20
14.95438622852998
 30
0.0
 11
7.1267351194073161
 21
15.077650228529979
 31
0.0
  0
LINE
  5
7CD
  8
2
  6
CONTINUOUS
 62
     2
 10
7.1267351194073161
 20
15.077650228529979
 30
0.0
 11
7.1131591194073174
 21
15.20489422852998
 31
0.0
  0
LINE
  5
7CE
  8
2
  6
CONTINUOUS
 62
     2
 10
7.1131591194073174
 20
15.20489422852998
 30
0.0
 11
7.0891151194073174
 21
15.327486228529979
 31
0.0
  0
LINE
  5
7CF
  8
2
  6
CONTINUOUS
 62
     2
 10
7.0891151194073174
 20
15.327486228529979
 30
0.0
 11
6.973243119407317
 21
15.732846228529979
 31
0.0
  0
LINE
  5
7D0
  8
2
  6
CONTINUOUS
 62
     2
 10
6.973243119407317
 20
15.732846228529979
 30
0.0
 11
6.8491031194073173
 21
15.981270228529979
 31
0.0
  0
LINE
  5
7D1
  8
2
  6
CONTINUOUS
 62
     2
 10
6.8491031194073173
 20
15.981270228529979
 30
0.0
 11
6.8038951194073158
 21
16.05521422852998
 31
0.0
  0
LINE
  5
7D2
  8
2
  6
CONTINUOUS
 62
     2
 10
6.8038951194073158
 20
16.05521422852998
 30
0.0
 11
6.7449351194073159
 21
16.12167822852998
 31
0.0
  0
LINE
  5
7D3
  8
2
  6
CONTINUOUS
 62
     2
 10
6.7449351194073159
 20
16.12167822852998
 30
0.0
 11
6.6200791194073174
 21
16.260238228529978
 31
0.0
  0
LINE
  5
7D4
  8
2
  6
CONTINUOUS
 62
     2
 10
6.6200791194073174
 20
16.260238228529978
 30
0.0
 11
6.6040271194073172
 21
16.277194228529979
 31
0.0
  0
LINE
  5
7D5
  8
2
  6
CONTINUOUS
 62
     2
 10
6.6040271194073172
 20
16.277194228529979
 30
0.0
 11
6.5959191194073172
 21
16.285534228529979
 31
0.0
  0
LINE
  5
7D6
  8
2
  6
CONTINUOUS
 62
     2
 10
6.5959191194073172
 20
16.285534228529979
 30
0.0
 11
6.5918391194073171
 21
16.289662228529981
 31
0.0
  0
LINE
  5
7D7
  8
2
  6
CONTINUOUS
 62
     2
 10
6.5918391194073171
 20
16.289662228529981
 30
0.0
 11
6.5897951194073174
 21
16.29171822852998
 31
0.0
  0
LINE
  5
7D8
  8
2
  6
CONTINUOUS
 62
     2
 10
6.5897951194073174
 20
16.29171822852998
 30
0.0
 11
6.5887711194073173
 21
16.292742228529981
 31
0.0
  0
LINE
  5
7D9
  8
2
  6
CONTINUOUS
 62
     2
 10
6.5887711194073173
 20
16.292742228529981
 30
0.0
 11
6.588819119407316
 21
16.292218228529979
 31
0.0
  0
LINE
  5
7DA
  8
2
  6
CONTINUOUS
 62
     2
 10
6.588819119407316
 20
16.292218228529979
 30
0.0
 11
6.7509471194073161
 21
15.83283022852998
 31
0.0
  0
LINE
  5
7DB
  8
2
  6
CONTINUOUS
 62
     2
 10
6.7509471194073161
 20
15.83283022852998
 30
0.0
 11
6.770315119407317
 21
15.713670228529979
 31
0.0
  0
LINE
  5
7DC
  8
2
  6
CONTINUOUS
 62
     2
 10
6.770315119407317
 20
15.713670228529979
 30
0.0
 11
6.7744111194073158
 21
15.62546222852998
 31
0.0
  0
LINE
  5
7DD
  8
2
  6
CONTINUOUS
 62
     2
 10
6.7744111194073158
 20
15.62546222852998
 30
0.0
 11
6.7800231194073159
 21
15.568346228529981
 31
0.0
  0
LINE
  5
7DE
  8
2
  6
CONTINUOUS
 62
     2
 10
6.7800231194073159
 20
15.568346228529981
 30
0.0
 11
6.7897431194073183
 21
15.44722622852998
 31
0.0
  0
LINE
  5
7DF
  8
2
  6
CONTINUOUS
 62
     2
 10
6.7897431194073183
 20
15.44722622852998
 30
0.0
 11
6.7897431194073183
 21
15.29979022852998
 31
0.0
  0
LINE
  5
7E0
  8
2
  6
CONTINUOUS
 62
     2
 10
6.7897431194073183
 20
15.29979022852998
 30
0.0
 11
6.7860071194073184
 21
15.20743422852998
 31
0.0
  0
LINE
  5
7E1
  8
2
  6
CONTINUOUS
 62
     2
 10
6.7860071194073184
 20
15.20743422852998
 30
0.0
 11
6.7635831194073157
 21
15.09321022852998
 31
0.0
  0
LINE
  5
7E2
  8
2
  6
CONTINUOUS
 62
     2
 10
6.7635831194073157
 20
15.09321022852998
 30
0.0
 11
6.6856991194073174
 21
14.78429822852998
 31
0.0
  0
LINE
  5
7E3
  8
2
  6
CONTINUOUS
 62
     2
 10
6.6856991194073174
 20
14.78429822852998
 30
0.0
 11
6.595155119407317
 21
14.555282228529981
 31
0.0
  0
LINE
  5
7E4
  8
2
  6
CONTINUOUS
 62
     2
 10
6.595155119407317
 20
14.555282228529981
 30
0.0
 11
6.479927119407316
 21
14.337230228529981
 31
0.0
  0
LINE
  5
7E5
  8
2
  6
CONTINUOUS
 62
     2
 10
6.479927119407316
 20
14.337230228529981
 30
0.0
 11
6.214843119407317
 21
13.895574228529981
 31
0.0
  0
LINE
  5
7E6
  8
2
  6
CONTINUOUS
 62
     2
 10
6.214843119407317
 20
13.895574228529981
 30
0.0
 11
6.1377351194073171
 21
13.79235022852998
 31
0.0
  0
LINE
  5
7E7
  8
2
  6
CONTINUOUS
 62
     2
 10
6.1377351194073171
 20
13.79235022852998
 30
0.0
 11
6.0538511194073159
 21
13.699218228529981
 31
0.0
  0
LINE
  5
7E8
  8
2
  6
CONTINUOUS
 62
     2
 10
6.0538511194073159
 20
13.699218228529981
 30
0.0
 11
5.993703119407316
 21
13.63907422852998
 31
0.0
  0
LINE
  5
7E9
  8
2
  6
CONTINUOUS
 62
     2
 10
5.993703119407316
 20
13.63907422852998
 30
0.0
 11
5.9786711194073163
 21
13.62404222852998
 31
0.0
  0
LINE
  5
7EA
  8
2
  6
CONTINUOUS
 62
     2
 10
5.9786711194073163
 20
13.62404222852998
 30
0.0
 11
5.9711551194073174
 21
13.616526228529979
 31
0.0
  0
LINE
  5
7EB
  8
2
  6
CONTINUOUS
 62
     2
 10
5.9711551194073174
 20
13.616526228529979
 30
0.0
 11
5.9702191194073171
 21
13.615586228529979
 31
0.0
  0
LINE
  5
7EC
  8
2
  6
CONTINUOUS
 62
     2
 10
5.9702191194073171
 20
13.615586228529979
 30
0.0
 11
5.9697471194073159
 21
13.615114228529981
 31
0.0
  0
LINE
  5
7ED
  8
2
  6
CONTINUOUS
 62
     2
 10
5.9697471194073159
 20
13.615114228529981
 30
0.0
 11
5.9695111194073158
 21
13.61488222852998
 31
0.0
  0
LINE
  5
7EE
  8
2
  6
CONTINUOUS
 62
     2
 10
5.9695111194073158
 20
13.61488222852998
 30
0.0
 11
5.9693311194073164
 21
13.61518222852998
 31
0.0
  0
LINE
  5
7EF
  8
2
  6
CONTINUOUS
 62
     2
 10
5.9693311194073164
 20
13.61518222852998
 30
0.0
 11
5.9846791194073159
 21
13.876638228529981
 31
0.0
  0
LINE
  5
7F0
  8
2
  6
CONTINUOUS
 62
     2
 10
5.9846791194073159
 20
13.876638228529981
 30
0.0
 11
6.0021711194073157
 21
14.137962228529981
 31
0.0
  0
LINE
  5
7F1
  8
2
  6
CONTINUOUS
 62
     2
 10
6.0021711194073157
 20
14.137962228529981
 30
0.0
 11
5.9816471194073157
 21
14.39452622852998
 31
0.0
  0
LINE
  5
7F2
  8
2
  6
CONTINUOUS
 62
     2
 10
5.9816471194073157
 20
14.39452622852998
 30
0.0
 11
5.9449695450427997
 21
14.874889957740731
 31
0.0
  0
LINE
  5
7FF
  8
2
  6
CONTINUOUS
 62
     2
 10
4.8568831194073159
 20
16.307086228529979
 30
0.0
 11
4.8557991194073171
 21
16.30780622852998
 31
0.0
  0
LINE
  5
800
  8
2
  6
CONTINUOUS
 62
     2
 10
4.8557991194073171
 20
16.30780622852998
 30
0.0
 11
4.8552591194073171
 21
16.308166228529981
 31
0.0
  0
LINE
  5
801
  8
2
  6
CONTINUOUS
 62
     2
 10
4.8552591194073171
 20
16.308166228529981
 30
0.0
 11
4.8547231194073159
 21
16.308526228529981
 31
0.0
  0
LINE
  5
802
  8
2
  6
CONTINUOUS
 62
     2
 10
4.8828027935797174
 20
16.329790634114531
 30
0.0
 11
5.1005831194073163
 21
15.91784622852998
 31
0.0
  0
LINE
  5
803
  8
2
  6
CONTINUOUS
 62
     2
 10
5.1005831194073163
 20
15.91784622852998
 30
0.0
 11
5.2036311194073184
 21
15.73531422852998
 31
0.0
  0
LINE
  5
804
  8
2
  6
CONTINUOUS
 62
     2
 10
5.2036311194073184
 20
15.73531422852998
 30
0.0
 11
5.2437111194073172
 21
15.63569422852998
 31
0.0
  0
LINE
  5
805
  8
2
  6
CONTINUOUS
 62
     2
 10
5.2437111194073172
 20
15.63569422852998
 30
0.0
 11
5.3071831194073171
 21
15.430614228529979
 31
0.0
  0
LINE
  5
806
  8
2
  6
CONTINUOUS
 62
     2
 10
5.3071831194073171
 20
15.430614228529979
 30
0.0
 11
5.3399791194073174
 21
15.319134228529981
 31
0.0
  0
LINE
  5
807
  8
2
  6
CONTINUOUS
 62
     2
 10
5.3399791194073174
 20
15.319134228529981
 30
0.0
 11
5.3623071194073173
 21
15.20400622852998
 31
0.0
  0
LINE
  5
808
  8
2
  6
CONTINUOUS
 62
     2
 10
5.3623071194073173
 20
15.20400622852998
 30
0.0
 11
5.4120591194073171
 21
14.72853022852998
 31
0.0
  0
LINE
  5
809
  8
2
  6
CONTINUOUS
 62
     2
 10
5.4120591194073171
 20
14.72853022852998
 30
0.0
 11
5.4149071194073173
 21
14.701102228529979
 31
0.0
  0
LINE
  5
80A
  8
2
  6
CONTINUOUS
 62
     2
 10
5.4149071194073173
 20
14.701102228529979
 30
0.0
 11
5.4184431194073159
 21
14.68771022852998
 31
0.0
  0
LINE
  5
80B
  8
2
  6
CONTINUOUS
 62
     2
 10
5.4184431194073159
 20
14.68771022852998
 30
0.0
 11
5.4239111194073164
 21
14.674666228529979
 31
0.0
  0
LINE
  5
80C
  8
2
  6
CONTINUOUS
 62
     2
 10
5.4239111194073164
 20
14.674666228529979
 30
0.0
 11
5.4265791194073163
 21
14.66837822852998
 31
0.0
  0
LINE
  5
80D
  8
2
  6
CONTINUOUS
 62
     2
 10
5.4265791194073163
 20
14.66837822852998
 30
0.0
 11
5.4304231194073171
 21
14.654662228529981
 31
0.0
  0
LINE
  5
80E
  8
2
  6
CONTINUOUS
 62
     2
 10
5.4304231194073171
 20
14.654662228529981
 30
0.0
 11
5.4325471194073174
 21
14.63965822852998
 31
0.0
  0
LINE
  5
80F
  8
2
  6
CONTINUOUS
 62
     2
 10
5.4325471194073174
 20
14.63965822852998
 30
0.0
 11
5.4329471194073147
 21
14.60693822852998
 31
0.0
  0
LINE
  5
810
  8
2
  6
CONTINUOUS
 62
     2
 10
5.4329471194073147
 20
14.60693822852998
 30
0.0
 11
5.4349111194073174
 21
14.42601022852998
 31
0.0
  0
LINE
  5
811
  8
2
  6
CONTINUOUS
 62
     2
 10
5.4349111194073174
 20
14.42601022852998
 30
0.0
 11
5.4414671194073172
 21
14.19132222852998
 31
0.0
  0
LINE
  5
812
  8
2
  6
CONTINUOUS
 62
     2
 10
5.4414671194073172
 20
14.19132222852998
 30
0.0
 11
5.4198271194073184
 21
13.96027022852998
 31
0.0
  0
LINE
  5
813
  8
2
  6
CONTINUOUS
 62
     2
 10
5.4198271194073184
 20
13.96027022852998
 30
0.0
 11
5.3447151194073159
 21
13.628930228529979
 31
0.0
  0
LINE
  5
814
  8
2
  6
CONTINUOUS
 62
     2
 10
5.3447151194073159
 20
13.628930228529979
 30
0.0
 11
5.2483751194073172
 21
13.319214228529979
 31
0.0
  0
LINE
  5
815
  8
2
  6
CONTINUOUS
 62
     2
 10
5.2483751194073172
 20
13.319214228529979
 30
0.0
 11
5.0199871194073173
 21
12.770118228529981
 31
0.0
  0
LINE
  5
816
  8
2
  6
CONTINUOUS
 62
     2
 10
5.0199871194073173
 20
12.770118228529981
 30
0.0
 11
4.8821899177218917
 21
12.53087391406515
 31
0.0
  0
LINE
  5
829
  8
2
  6
CONTINUOUS
 62
     2
 10
4.8821899177218917
 20
12.53087391406515
 30
0.0
 11
4.4457479492461811
 21
11.837545247873569
 31
0.0
  0
LINE
  5
858
  8
2
  6
CONTINUOUS
 62
     2
 10
4.2524431194073173
 20
11.796830228529981
 30
0.0
 11
4.2489471194073172
 21
11.80000622852998
 31
0.0
  0
LINE
  5
859
  8
2
  6
CONTINUOUS
 62
     2
 10
4.2489471194073172
 20
11.80000622852998
 30
0.0
 11
4.2458031194073174
 21
11.804026228529979
 31
0.0
  0
LINE
  5
85A
  8
2
  6
CONTINUOUS
 62
     2
 10
4.2458031194073174
 20
11.804026228529979
 30
0.0
 11
4.2395351194073161
 21
11.81247022852998
 31
0.0
  0
LINE
  5
85B
  8
2
  6
CONTINUOUS
 62
     2
 10
4.2395351194073161
 20
11.81247022852998
 30
0.0
 11
4.2375671194073163
 21
11.815690228529981
 31
0.0
  0
LINE
  5
85C
  8
2
  6
CONTINUOUS
 62
     2
 10
4.2375671194073163
 20
11.815690228529981
 30
0.0
 11
4.2355431194073159
 21
11.820342228529981
 31
0.0
  0
LINE
  5
85D
  8
2
  6
CONTINUOUS
 62
     2
 10
4.2355431194073159
 20
11.820342228529981
 30
0.0
 11
4.2245151194073172
 21
11.85365422852998
 31
0.0
  0
LINE
  5
85E
  8
2
  6
CONTINUOUS
 62
     2
 10
4.2245151194073172
 20
11.85365422852998
 30
0.0
 11
4.205051119407317
 21
11.914270228529981
 31
0.0
  0
LINE
  5
85F
  8
2
  6
CONTINUOUS
 62
     2
 10
4.205051119407317
 20
11.914270228529981
 30
0.0
 11
4.1468311194073157
 21
12.09538622852998
 31
0.0
  0
LINE
  5
860
  8
2
  6
CONTINUOUS
 62
     2
 10
4.1468311194073157
 20
12.09538622852998
 30
0.0
 11
4.0965591194073161
 21
12.273638228529981
 31
0.0
  0
LINE
  5
861
  8
2
  6
CONTINUOUS
 62
     2
 10
4.0965591194073161
 20
12.273638228529981
 30
0.0
 11
4.0578391194073173
 21
12.52752222852998
 31
0.0
  0
LINE
  5
862
  8
2
  6
CONTINUOUS
 62
     2
 10
4.0578391194073173
 20
12.52752222852998
 30
0.0
 11
4.0162817029876274
 21
13.05708643790102
 31
0.0
  0
LINE
  5
889
  8
2
  6
CONTINUOUS
 62
     2
 10
3.545849059192105
 20
14.39140448212104
 30
0.0
 11
3.2745981736052121
 21
14.70592870866126
 31
0.0
  0
LINE
  5
890
  8
2
  6
CONTINUOUS
 62
     2
 10
3.26015271634185
 20
14.695731915298889
 30
0.0
 11
3.3601551194073171
 21
14.46491822852998
 31
0.0
  0
LINE
  5
891
  8
2
  6
CONTINUOUS
 62
     2
 10
3.3601551194073171
 20
14.46491822852998
 30
0.0
 11
3.4758511194073161
 21
14.057662228529979
 31
0.0
  0
LINE
  5
892
  8
2
  6
CONTINUOUS
 62
     2
 10
3.4758511194073161
 20
14.057662228529979
 30
0.0
 11
3.5027391194073161
 21
13.796402228529979
 31
0.0
  0
LINE
  5
893
  8
2
  6
CONTINUOUS
 62
     2
 10
3.5027391194073161
 20
13.796402228529979
 30
0.0
 11
3.5505685273833101
 21
13.11030264183818
 31
0.0
  0
LINE
  5
8A2
  8
2
  6
CONTINUOUS
 62
     2
 10
3.5505685273833101
 20
13.11030264183818
 30
0.0
 11
3.5914484325723852
 21
12.71513022501046
 31
0.0
  0
LINE
  5
943
  8
2
  6
CONTINUOUS
 62
     2
 10
3.5222111425147622
 20
10.78544601987905
 30
0.0
 11
3.2165756269614612
 21
10.77197080835661
 31
0.0
  0
LINE
  5
952
  8
2
  6
CONTINUOUS
 62
     2
 10
2.6713631875054129
 20
10.89289839913949
 30
0.0
 11
2.1244790283856951
 21
11.871997458208661
 31
0.0
  0
LINE
  5
953
  8
2
  6
CONTINUOUS
 62
     2
 10
2.1244790283856951
 20
11.871997458208661
 30
0.0
 11
1.8332187045354289
 21
12.51432347170873
 31
0.0
  0
LINE
  5
954
  8
2
  6
CONTINUOUS
 62
     2
 10
1.8332187045354289
 20
12.51432347170873
 30
0.0
 11
1.664942422607343
 21
12.871118844534299
 31
0.0
  0
LINE
  5
A98
  8
2
  6
CONTINUOUS
 62
     2
 10
2.3061178442324581
 20
10.09556440188476
 30
0.0
 11
2.831143119407316
 21
9.8948222285299803
 31
0.0
  0
LINE
  5
A99
  8
2
  6
CONTINUOUS
 62
     2
 10
2.831143119407316
 20
9.8948222285299803
 30
0.0
 11
3.1066958529991942
 21
9.8284944607202327
 31
0.0
  0
LINE
  5
AA9
  8
2
  6
CONTINUOUS
 62
     2
 10
3.2875686582195951
 20
9.6000726190759096
 30
0.0
 11
3.2685911194073172
 21
9.4468622285299801
 31
0.0
  0
LINE
  5
AAA
  8
2
  6
CONTINUOUS
 62
     2
 10
3.2685911194073172
 20
9.4468622285299801
 30
0.0
 11
3.2673951194073161
 21
9.4274902285299795
 31
0.0
  0
LINE
  5
AAB
  8
2
  6
CONTINUOUS
 62
     2
 10
3.2673951194073161
 20
9.4274902285299795
 30
0.0
 11
3.2679511194073161
 21
9.4117782285299807
 31
0.0
  0
LINE
  5
AAC
  8
2
  6
CONTINUOUS
 62
     2
 10
3.2679511194073161
 20
9.4117782285299807
 30
0.0
 11
3.272787119407317
 21
9.3805702285299795
 31
0.0
  0
LINE
  5
AAD
  8
2
  6
CONTINUOUS
 62
     2
 10
3.272787119407317
 20
9.3805702285299795
 30
0.0
 11
3.2813471194073149
 21
9.3496822285299803
 31
0.0
  0
LINE
  5
AAE
  8
2
  6
CONTINUOUS
 62
     2
 10
3.2813471194073149
 20
9.3496822285299803
 30
0.0
 11
3.3449374644137002
 21
9.0960364992441125
 31
0.0
  0
LINE
  5
B4B
  8
2
  6
CONTINUOUS
 62
     2
 10
2.6853165451331771
 20
7.8104595417234624
 30
0.0
 11
2.4206151194073171
 21
7.6308382285299787
 31
0.0
  0
LINE
  5
B4C
  8
2
  6
CONTINUOUS
 62
     2
 10
2.4206151194073171
 20
7.6308382285299787
 30
0.0
 11
1.904543119407315
 21
7.2415582285299802
 31
0.0
  0
LINE
  5
B4D
  8
2
  6
CONTINUOUS
 62
     2
 10
1.904543119407315
 20
7.2415582285299802
 30
0.0
 11
0.9755071194073163
 21
6.6164142285299814
 31
0.0
  0
LINE
  5
B4E
  8
2
  6
CONTINUOUS
 62
     2
 10
0.9755071194073163
 20
6.6164142285299814
 30
0.0
 11
0.7166751194073165
 21
6.4144142285299814
 31
0.0
  0
LINE
  5
B4F
  8
2
  6
CONTINUOUS
 62
     2
 10
0.7166751194073165
 20
6.4144142285299814
 30
0.0
 11
0.5349631194073173
 21
6.3082022285299804
 31
0.0
  0
LINE
  5
B50
  8
2
  6
CONTINUOUS
 62
     2
 10
0.5349631194073173
 20
6.3082022285299804
 30
0.0
 11
0.4075151194073161
 21
6.2444702285299813
 31
0.0
  0
LINE
  5
B51
  8
2
  6
CONTINUOUS
 62
     2
 10
0.4075151194073161
 20
6.2444702285299813
 30
0.0
 11
0.2870231194073174
 21
6.1707982285299803
 31
0.0
  0
LINE
  5
B52
  8
2
  6
CONTINUOUS
 62
     2
 10
0.2870231194073174
 20
6.1707982285299803
 30
0.0
 11
0.1897734984074819
 21
6.0824911679584019
 31
0.0
  0
LINE
  5
B58
  8
2
  6
CONTINUOUS
 62
     2
 10
0.0726161205806615
 20
5.9162197802129164
 30
0.0
 11
0.0667671194073165
 21
5.8852422285299797
 31
0.0
  0
LINE
  5
B59
  8
2
  6
CONTINUOUS
 62
     2
 10
0.0667671194073165
 20
5.8852422285299797
 30
0.0
 11
0.0664711194073178
 21
5.8533942285299814
 31
0.0
  0
LINE
  5
B5A
  8
2
  6
CONTINUOUS
 62
     2
 10
0.0664711194073178
 20
5.8533942285299814
 30
0.0
 11
0.0881991194073173
 21
5.5278582285299791
 31
0.0
  0
LINE
  5
B5B
  8
2
  6
CONTINUOUS
 62
     2
 10
0.0881991194073173
 20
5.5278582285299791
 30
0.0
 11
0.0898551194073178
 21
5.5165822285299804
 31
0.0
  0
LINE
  5
B5C
  8
2
  6
CONTINUOUS
 62
     2
 10
0.0898551194073178
 20
5.5165822285299804
 30
0.0
 11
0.0925351194073176
 21
5.5058742285299802
 31
0.0
  0
LINE
  5
B5D
  8
2
  6
CONTINUOUS
 62
     2
 10
0.0925351194073176
 20
5.5058742285299802
 30
0.0
 11
0.0965471194073171
 21
5.495578228529979
 31
0.0
  0
LINE
  5
B5E
  8
2
  6
CONTINUOUS
 62
     2
 10
0.0965471194073171
 20
5.495578228529979
 30
0.0
 11
0.1021951194073179
 21
5.485538228529979
 31
0.0
  0
LINE
  5
B5F
  8
2
  6
CONTINUOUS
 62
     2
 10
0.1021951194073179
 20
5.485538228529979
 30
0.0
 11
0.1097791194073174
 21
5.4755982285299813
 31
0.0
  0
LINE
  5
B60
  8
2
  6
CONTINUOUS
 62
     2
 10
0.1097791194073174
 20
5.4755982285299813
 30
0.0
 11
0.1196111194073168
 21
5.4655982285299798
 31
0.0
  0
LINE
  5
B61
  8
2
  6
CONTINUOUS
 62
     2
 10
0.1196111194073168
 20
5.4655982285299798
 30
0.0
 11
0.2149671194073175
 21
5.3839382285299804
 31
0.0
  0
LINE
  5
B62
  8
2
  6
CONTINUOUS
 62
     2
 10
0.2149671194073175
 20
5.3839382285299804
 30
0.0
 11
0.2413791194073163
 21
5.3681422285299814
 31
0.0
  0
LINE
  5
B63
  8
2
  6
CONTINUOUS
 62
     2
 10
0.2413791194073163
 20
5.3681422285299814
 30
0.0
 11
0.2550351194073173
 21
5.3624622285299797
 31
0.0
  0
LINE
  5
B64
  8
2
  6
CONTINUOUS
 62
     2
 10
0.2550351194073173
 20
5.3624622285299797
 30
0.0
 11
0.2689751194073171
 21
5.3586422285299804
 31
0.0
  0
LINE
  5
B65
  8
2
  6
CONTINUOUS
 62
     2
 10
0.2689751194073171
 20
5.3586422285299804
 30
0.0
 11
0.2987951194073162
 21
5.3546142285299814
 31
0.0
  0
LINE
  5
B66
  8
2
  6
CONTINUOUS
 62
     2
 10
0.2987951194073162
 20
5.3546142285299814
 30
0.0
 11
0.3879871194073168
 21
5.3446982285299791
 31
0.0
  0
LINE
  5
B67
  8
2
  6
CONTINUOUS
 62
     2
 10
0.3879871194073168
 20
5.3446982285299791
 30
0.0
 11
0.4323031194073171
 21
5.3369022285299801
 31
0.0
  0
LINE
  5
B68
  8
2
  6
CONTINUOUS
 62
     2
 10
0.4323031194073171
 20
5.3369022285299801
 30
0.0
 11
0.4510991194073172
 21
5.3318742285299789
 31
0.0
  0
LINE
  5
B69
  8
2
  6
CONTINUOUS
 62
     2
 10
0.4510991194073172
 20
5.3318742285299789
 30
0.0
 11
0.4663991194073169
 21
5.3259342285299791
 31
0.0
  0
LINE
  5
B6A
  8
2
  6
CONTINUOUS
 62
     2
 10
0.4663991194073169
 20
5.3259342285299791
 30
0.0
 11
0.4724431194073162
 21
5.3225862285299801
 31
0.0
  0
LINE
  5
B6B
  8
2
  6
CONTINUOUS
 62
     2
 10
0.4724431194073162
 20
5.3225862285299801
 30
0.0
 11
0.4772591194073161
 21
5.3189662285299804
 31
0.0
  0
LINE
  5
B6C
  8
2
  6
CONTINUOUS
 62
     2
 10
0.4772591194073161
 20
5.3189662285299804
 30
0.0
 11
0.4791711194073169
 21
5.3170462285299802
 31
0.0
  0
LINE
  5
B6D
  8
2
  6
CONTINUOUS
 62
     2
 10
0.4791711194073169
 20
5.3170462285299802
 30
0.0
 11
0.480823119407317
 21
5.3149702285299814
 31
0.0
  0
LINE
  5
B6E
  8
2
  6
CONTINUOUS
 62
     2
 10
0.480823119407317
 20
5.3149702285299814
 30
0.0
 11
0.4838031194073178
 21
5.3100102285299791
 31
0.0
  0
LINE
  5
B6F
  8
2
  6
CONTINUOUS
 62
     2
 10
0.4838031194073178
 20
5.3100102285299791
 30
0.0
 11
0.4863711194073161
 21
5.3040582285299802
 31
0.0
  0
LINE
  5
B70
  8
2
  6
CONTINUOUS
 62
     2
 10
0.4863711194073161
 20
5.3040582285299802
 30
0.0
 11
0.4903791194073169
 21
5.28955022852998
 31
0.0
  0
LINE
  5
B71
  8
2
  6
CONTINUOUS
 62
     2
 10
0.4903791194073169
 20
5.28955022852998
 30
0.0
 11
0.4930751194073171
 21
5.2721942285299814
 31
0.0
  0
LINE
  5
B72
  8
2
  6
CONTINUOUS
 62
     2
 10
0.4930751194073171
 20
5.2721942285299814
 30
0.0
 11
0.495894976063928
 21
5.2319860326945511
 31
0.0
  0
LINE
  5
B85
  8
2
  6
CONTINUOUS
 62
     2
 10
1.4022991748468061
 20
5.048554666517151
 30
0.0
 11
1.894559178460957
 21
5.184680461566316
 31
0.0
  0
LINE
  5
BF9
  8
2
  6
CONTINUOUS
 62
     2
 10
7.413812173708056
 20
0.2189045326056417
 30
0.0
 11
7.397842360452433
 21
5.5118546842618379
 31
0.0
  0
ARC
  5
C50
  8
2
  6
BYBLOCK
 62
     2
 10
4.3314716690735944
 20
11.90003679512351
 30
0.0
 40
0.1302469258285003
 50
232.87585448546221
 51
331.32812464690318
  0
ARC
  5
C5C
  8
2
  6
BYBLOCK
 62
     2
 10
3.508352967216922
 20
12.725429380460669
 30
0.0
 40
0.0837312902422307
 50
220.07413825217779
 51
352.93458451133313
  0
ARC
  5
C63
  8
1
  6
BYBLOCK
 62
     1
 10
4.5025034561498867
 20
10.10495218950053
 30
0.0
 40
0.2878876827482815
 50
183.167212871267
 51
321.22208669970951
  0
ARC
  5
C6B
  8
2
  6
BYBLOCK
 62
     2
 10
3.268217236325877
 20
14.69963777423092
 30
0.0
 40
0.0089605924229201
 50
44.593059589125893
 51
205.84212634725489
  0
ARC
  5
C83
  8
2
  6
BYBLOCK
 62
     2
 10
9.0005789741926741
 20
5.5580493838327802
 30
0.0
 40
5.5699458364965668
 50
188.32374104655011
 51
253.44831748768379
  0
ARC
  5
C87
  8
2
  6
BYBLOCK
 62
     2
 10
2.2756133771454881
 20
3.4347767371132041
 30
0.0
 40
1.7909118758861311
 50
47.33612203736363
 51
102.28479242319059
  0
ARC
  5
C8C
  8
2
  6
BYBLOCK
 62
     2
 10
0.9450632633269018
 20
6.5310430032624414
 30
0.0
 40
1.5513981911067349
 50
256.11780790428799
 51
287.14105098373318
  0
ARC
  5
C93
  8
2
  6
BYBLOCK
 62
     2
 10
0.7186863018162392
 20
5.1969794328765664
 30
0.0
 40
0.2255248032064073
 50
171.0702796945161
 51
229.70760501454509
  0
ARC
  5
C97
  8
2
  6
BYBLOCK
 62
     2
 10
0.4252120279960125
 20
5.7921864185873702
 30
0.0
 40
0.373775532535488
 50
129.04221648929811
 51
160.61955644313809
  0
ARC
  5
CA1
  8
2
  6
BYBLOCK
 62
     2
 10
3.765672264977217
 20
8.8352507693328963
 30
0.0
 40
1.489082113781836
 50
154.8524130208186
 51
223.48805239219271
  0
ARC
  5
CA3
  8
2
  6
BYBLOCK
 62
     2
 10
2.2344973888469482
 20
8.3895726172637541
 30
0.0
 40
1.0939208338151849
 50
13.23261154959552
 51
80.357401925076914
  0
ARC
  5
CA8
  8
2
  6
BYBLOCK
 62
     2
 10
1.2504150116560091
 20
9.0749906072221886
 30
0.0
 40
2.0946281853057078
 50
348.01352391019259
 51
0.5756921859795796
  0
ARC
  5
CAE
  8
2
  6
BYBLOCK
 62
     2
 10
3.0289440512256451
 20
9.5811059413248163
 30
0.0
 40
0.2593191512551461
 50
4.1943752110125994
 51
72.552574605188227
  0
ARC
  5
CB2
  8
2
  6
BYBLOCK
 62
     2
 10
2.9670146827859911
 20
12.1287693895255
 30
0.0
 40
2.1379212223506379
 50
191.27392201045791
 51
251.99315666268231
  0
ARC
  5
CB9
  8
2
  6
BYBLOCK
 62
     2
 10
2.8282269911313351
 20
12.91799812383295
 30
0.0
 40
2.3001315225800791
 50
211.65720581322481
 51
254.10907282023459
  0
ARC
  5
CCF
  8
2
  6
BYBLOCK
 62
     2
 10
1.9342299183847731
 20
13.07311757251885
 30
0.0
 40
2.0821135009996601
 50
359.55884949144638
 51
39.282792413487321
  0
POLYLINE
  5
CDD
  8
1
  6
BYBLOCK
 62
     1
 66
     1
 10
0.0
 20
0.0
 30
0.0
  0
VERTEX
  5
DCA
  8
1
  6
BYBLOCK
 62
     1
 10
5.5780698193844751
 20
12.39037589386623
 30
0.0
  0
VERTEX
  5
DCB
  8
1
  6
BYBLOCK
 62
     1
 10
5.9316708478144431
 20
13.2030379065737
 30
0.0
  0
VERTEX
  5
DCC
  8
1
  6
BYBLOCK
 62
     1
 10
5.7827862042649816
 20
12.40278294749535
 30
0.0
  0
SEQEND
  5
DCD
  8
1
  6
BYBLOCK
 62
     1
  0
ARC
  5
CEC
  8
2
  6
BYBLOCK
 62
     2
 10
3.4962506649785721
 20
11.1116716328102
 30
0.0
 40
0.3272569280033892
 50
274.54991210082977
 51
21.751010006180291
  0
ARC
  5
CFB
  8
2
  6
BYBLOCK
 62
     2
 10
2.8836874097938949
 20
13.37305673318429
 30
0.0
 40
1.629685697292236
 50
164.3447867573762
 51
207.99215050518009
  0
ARC
  5
CFC
  8
2
  6
BYBLOCK
 62
     2
 10
6.2858197418654473
 20
15.126993272088111
 30
0.0
 40
5.1421276367399908
 50
194.8073145065444
 51
206.0212510043134
  0
ARC
  5
D03
  8
2
  6
BYBLOCK
 62
     2
 10
16.49061169690922
 20
17.46923641491809
 30
0.0
 40
15.811730881387479
 50
197.9046972005325
 51
205.3248606850413
  0
ARC
  5
D09
  8
2
  6
BYBLOCK
 62
     2
 10
3.132763801581953
 20
11.68363036173845
 30
0.0
 40
0.9155039941725073
 50
239.73597827319841
 51
275.25262250791991
  0
ARC
  5
D10
  8
2
  6
BYBLOCK
 62
     2
 10
7.3034217374054391
 20
14.73802627819947
 30
0.0
 40
4.9556135531302781
 50
176.46870949737379
 51
225.01527127551901
  0
ARC
  5
D13
  8
2
  6
BYBLOCK
 62
     2
 10
9.0357653854137308
 20
16.6677622634393
 30
0.0
 40
6.8727441742046498
 50
193.6527709710891
 51
215.5534141697128
  0
ARC
  5
D2A
  8
2
  6
BYBLOCK
 62
     2
 10
3.896208520405438
 20
14.494342503168159
 30
0.0
 40
2.083803757855998
 50
10.522494570567741
 51
61.740979763017272
  0
ARC
  5
D2F
  8
2
  6
BYBLOCK
 62
     2
 10
4.6964049747194201
 20
7.7893250665081961
 30
0.0
 40
0.5764729950403023
 50
26.07365602174508
 51
83.492606108936371
  0
ARC
  5
D96
  8
2
  6
BYBLOCK
 62
     2
 10
2.676985877194038
 20
7.012176306565288
 30
0.0
 40
0.3329229994585415
 50
66.672947418371493
 51
181.50963641454689
  0
ARC
  5
D97
  8
2
  6
BYBLOCK
 62
     2
 10
2.4352403858934659
 20
7.36934982524361
 30
0.0
 40
0.377104208255701
 50
256.02627569744959
 51
352.15630813546881
  0
ENDSEC
  0
EOF
