0
SECTION
2
HEADER
9
$ACADVER
1
AC1003
9
$INSBASE
10
0.0
20
0.0
30
0.0
9
$EXTMIN
10
0.000
20
0.000
30
0.0
9
$EXTMAX
10
807.000
20
811.000
30
0.0
9
$LIMMIN
10
0.000
20
0.000
9
$LIMMAX
10
807.000
20
811.000
9
$LTSCALE
40
1.0
9
$LUNITS
70
2
9
$LUPREC
70
3
9
$LIMCHECK
70
0
9
$UCSNAME
2

9
$UCSORG
10
0.0
20
0.0
30
0.0
9
$UCSXDIR
10
1.0
20
0.0
30
0.0
9
$UCSYDIR
10
0.0
20
1.0
30
0.0
9
$WORLDVIEW
70
1
9
$UNITMODE
70
0
0
ENDSEC
0
SECTION
2
TABLES
0
TABLE
2
VPORT
70
1
0
VPORT
2
*ACTIVE
70
0
10
0.0
20
0.0
11
1.0
21
1.0
12
403.500
22
405.500
13
0.0
23
0.0
14
1.0
24
1.0
15
0.0
25
0.0
16
0.0
26
0.0
36
1.0
17
0.0
27
0.0
37
0.0
40
500.0
41
1.005
42
50.0
43
0.0
44
0.0
50
0.0
51
0.0
71
0
72
100
73
1
74
1
75
0
76
0
77
0
78
0
0
ENDTAB
0
TABLE
2
LTYPE
70
1
0
LTYPE
2
CONTINUOUS
70
64
3
Solid line
72
65
73
0
40
0.000
0
ENDTAB
0
TABLE
2
LAYER
70
1
0
LAYER
2
0
70
64
62
7
6
CONTINUOUS
0
ENDTAB
0
ENDSEC
0
SECTION
2
BLOCKS
0
ENDSEC
0
SECTION
2
ENTITIES
0
POLYLINE
8
0
6
CONTINUOUS
66
1
62
7
10
0.0
20
0.0
30
0.000000
0
VERTEX
8
0
10
103.000000
20
659.000000
0
VERTEX
8
0
10
103.200000
20
659.900000
0
VERTEX
8
0
10
123.750000
20
684.250000
0
VERTEX
8
0
10
124.000000
20
685.000000
0
VERTEX
8
0
10
154.846154
20
713.230769
0
VERTEX
8
0
10
157.153846
20
714.769231
0
VERTEX
8
0
10
183.900000
20
733.200000
0
VERTEX
8
0
10
185.100000
20
733.800000
0
VERTEX
8
0
10
240.200000
20
763.600000
0
VERTEX
8
0
10
278.200000
20
779.600000
0
VERTEX
8
0
10
309.076923
20
788.615385
0
VERTEX
8
0
10
332.900000
20
793.300000
0
VERTEX
8
0
10
367.019169
20
797.520767
0
VERTEX
8
0
10
390.980831
20
798.479233
0
VERTEX
8
0
10
427.983373
20
797.517815
0
VERTEX
8
0
10
451.250000
20
794.250000
0
VERTEX
8
0
10
465.000000
20
793.000000
0
VERTEX
8
0
10
489.000000
20
787.000000
0
VERTEX
8
0
10
505.940000
20
783.580000
0
VERTEX
8
0
10
549.900000
20
768.800000
0
VERTEX
8
0
10
579.900000
20
755.700000
0
VERTEX
8
0
10
608.250000
20
739.250000
0
VERTEX
8
0
10
610.100000
20
738.200000
0
VERTEX
8
0
10
640.795082
20
717.754098
0
VERTEX
8
0
10
647.250000
20
712.250000
0
VERTEX
8
0
10
671.000000
20
691.000000
0
VERTEX
8
0
10
675.760000
20
684.820000
0
VERTEX
8
0
10
694.000000
20
667.000000
0
VERTEX
8
0
10
697.000000
20
661.000000
0
SEQEND
0
POLYLINE
8
0
6
CONTINUOUS
66
1
62
7
10
0.0
20
0.0
30
0.000000
0
VERTEX
8
0
10
402.000000
20
659.000000
0
VERTEX
8
0
10
399.959016
20
659.549180
0
VERTEX
8
0
10
383.000000
20
661.000000
0
VERTEX
8
0
10
377.000000
20
660.000000
0
SEQEND
0
POLYLINE
8
0
6
CONTINUOUS
66
1
62
7
10
0.0
20
0.0
30
0.000000
0
VERTEX
8
0
10
428.000000
20
659.000000
0
VERTEX
8
0
10
423.000000
20
661.000000
0
VERTEX
8
0
10
410.951220
20
660.439024
0
VERTEX
8
0
10
402.000000
20
659.000000
0
SEQEND
0
POLYLINE
8
0
6
CONTINUOUS
66
1
62
7
10
0.0
20
0.0
30
0.000000
0
VERTEX
8
0
10
671.000000
20
659.000000
0
VERTEX
8
0
10
669.100000
20
660.200000
0
VERTEX
8
0
10
642.000000
20
661.000000
0
VERTEX
8
0
10
641.000000
20
660.000000
0
VERTEX
8
0
10
628.000000
20
660.000000
0
VERTEX
8
0
10
627.000000
20
661.000000
0
VERTEX
8
0
10
523.000000
20
659.000000
0
VERTEX
8
0
10
522.000000
20
660.000000
0
VERTEX
8
0
10
498.000000
20
660.000000
0
VERTEX
8
0
10
497.000000
20
659.000000
0
VERTEX
8
0
10
431.000000
20
661.000000
0
VERTEX
8
0
10
428.000000
20
659.000000
0
SEQEND
0
POLYLINE
8
0
6
CONTINUOUS
66
1
62
7
10
0.0
20
0.0
30
0.000000
0
VERTEX
8
0
10
700.000000
20
659.000000
0
VERTEX
8
0
10
697.000000
20
661.000000
0
SEQEND
0
POLYLINE
8
0
6
CONTINUOUS
66
1
62
7
10
0.0
20
0.0
30
0.000000
0
VERTEX
8
0
10
702.000000
20
659.000000
0
VERTEX
8
0
10
700.000000
20
659.000000
0
SEQEND
0
POLYLINE
8
0
6
CONTINUOUS
66
1
62
7
10
0.0
20
0.0
30
0.000000
0
VERTEX
8
0
10
102.000000
20
658.000000
0
VERTEX
8
0
10
103.000000
20
658.000000
0
VERTEX
8
0
10
103.000000
20
659.000000
0
SEQEND
0
POLYLINE
8
0
6
CONTINUOUS
66
1
62
7
10
0.0
20
0.0
30
0.000000
0
VERTEX
8
0
10
681.000000
20
658.000000
0
VERTEX
8
0
10
679.100000
20
659.200000
0
VERTEX
8
0
10
678.000000
20
660.000000
0
VERTEX
8
0
10
671.000000
20
659.000000
0
SEQEND
0
POLYLINE
8
0
6
CONTINUOUS
66
1
62
7
10
0.0
20
0.0
30
0.000000
0
VERTEX
8
0
10
681.000000
20
658.000000
0
VERTEX
8
0
10
697.000000
20
661.000000
0
SEQEND
0
POLYLINE
8
0
6
CONTINUOUS
66
1
62
7
10
0.0
20
0.0
30
0.000000
0
VERTEX
8
0
10
124.000000
20
657.000000
0
VERTEX
8
0
10
127.000000
20
659.000000
0
VERTEX
8
0
10
133.000000
20
659.000000
0
VERTEX
8
0
10
134.000000
20
658.000000
0
VERTEX
8
0
10
141.011100
20
658.511616
0
VERTEX
8
0
10
271.000000
20
661.000000
0
VERTEX
8
0
10
340.000000
20
661.000000
0
VERTEX
8
0
10
341.000000
20
660.000000
0
VERTEX
8
0
10
375.000000
20
661.000000
0
VERTEX
8
0
10
377.000000
20
660.000000
0
SEQEND
0
POLYLINE
8
0
6
CONTINUOUS
66
1
62
7
10
0.0
20
0.0
30
0.000000
0
VERTEX
8
0
10
102.000000
20
656.000000
0
VERTEX
8
0
10
102.000000
20
658.000000
0
SEQEND
0
POLYLINE
8
0
6
CONTINUOUS
66
1
62
7
10
0.0
20
0.0
30
0.000000
0
VERTEX
8
0
10
115.000000
20
656.000000
0
VERTEX
8
0
10
113.900000
20
656.800000
0
VERTEX
8
0
10
103.000000
20
659.000000
0
SEQEND
0
POLYLINE
8
0
6
CONTINUOUS
66
1
62
7
10
0.0
20
0.0
30
0.000000
0
VERTEX
8
0
10
115.000000
20
656.000000
0
VERTEX
8
0
10
118.000000
20
658.000000
0
VERTEX
8
0
10
120.088235
20
657.352941
0
VERTEX
8
0
10
124.000000
20
657.000000
0
SEQEND
0
POLYLINE
8
0
6
CONTINUOUS
66
1
62
7
10
0.0
20
0.0
30
0.000000
0
VERTEX
8
0
10
404.000000
20
653.000000
0
VERTEX
8
0
10
402.517241
20
655.206897
0
VERTEX
8
0
10
402.000000
20
659.000000
0
SEQEND
0
POLYLINE
8
0
6
CONTINUOUS
66
1
62
7
10
0.0
20
0.0
30
0.000000
0
VERTEX
8
0
10
432.000000
20
652.000000
0
VERTEX
8
0
10
428.000000
20
659.000000
0
SEQEND
0
POLYLINE
8
0
6
CONTINUOUS
66
1
62
250
10
0.0
20
0.0
30
0.000000
0
VERTEX
8
0
10
692.000000
20
651.000000
0
VERTEX
8
0
10
692.000000
20
652.000000
0
VERTEX
8
0
10
699.200000
20
656.900000
0
VERTEX
8
0
10
700.000000
20
659.000000
0
SEQEND
0
POLYLINE
8
0
6
CONTINUOUS
66
1
62
7
10
0.0
20
0.0
30
0.000000
0
VERTEX
8
0
10
117.000000
20
650.000000
0
VERTEX
8
0
10
115.352941
20
653.088235
0
VERTEX
8
0
10
115.000000
20
656.000000
0
SEQEND
0
POLYLINE
8
0
6
CONTINUOUS
66
1
62
7
10
0.0
20
0.0
30
0.000000
0
VERTEX
8
0
10
404.000000
20
653.000000
0
VERTEX
8
0
10
418.000000
20
655.000000
0
VERTEX
8
0
10
422.750000
20
651.750000
0
VERTEX
8
0
10
424.000000
20
650.000000
0
VERTEX
8
0
10
429.000000
20
650.000000
0
VERTEX
8
0
10
432.000000
20
652.000000
0
SEQEND
0
POLYLINE
8
0
6
CONTINUOUS
66
1
62
7
10
0.0
20
0.0
30
0.000000
0
VERTEX
8
0
10
116.000000
20
649.000000
0
VERTEX
8
0
10
113.100000
20
649.300000
0
VERTEX
8
0
10
105.180000
20
653.240000
0
VERTEX
8
0
10
102.000000
20
656.000000
0
SEQEND
0
POLYLINE
8
0
6
CONTINUOUS
66
1
62
7
10
0.0
20
0.0
30
0.000000
0
VERTEX
8
0
10
116.000000
20
649.000000
0
VERTEX
8
0
10
117.000000
20
650.000000
0
SEQEND
0
POLYLINE
8
0
6
CONTINUOUS
66
1
62
251
10
0.0
20
0.0
30
0.000000
0
VERTEX
8
0
10
691.000000
20
649.000000
0
VERTEX
8
0
10
691.000000
20
650.000000
0
VERTEX
8
0
10
692.000000
20
651.000000
0
SEQEND
0
POLYLINE
8
0
6
CONTINUOUS
66
1
62
252
10
0.0
20
0.0
30
0.000000
0
VERTEX
8
0
10
693.000000
20
649.000000
0
VERTEX
8
0
10
691.000000
20
649.000000
0
SEQEND
0
POLYLINE
8
0
6
CONTINUOUS
66
1
62
252
10
0.0
20
0.0
30
0.000000
0
VERTEX
8
0
10
693.000000
20
649.000000
0
VERTEX
8
0
10
693.000000
20
650.000000
0
VERTEX
8
0
10
692.000000
20
651.000000
0
SEQEND
0
POLYLINE
8
0
6
CONTINUOUS
66
1
62
7
10
0.0
20
0.0
30
0.000000
0
VERTEX
8
0
10
123.000000
20
648.000000
0
VERTEX
8
0
10
123.000000
20
649.000000
0
VERTEX
8
0
10
122.000000
20
650.000000
0
VERTEX
8
0
10
117.000000
20
650.000000
0
SEQEND
0
POLYLINE
8
0
6
CONTINUOUS
66
1
62
7
10
0.0
20
0.0
30
0.000000
0
VERTEX
8
0
10
116.000000
20
647.000000
0
VERTEX
8
0
10
116.000000
20
649.000000
0
SEQEND
0
POLYLINE
8
0
6
CONTINUOUS
66
1
62
7
10
0.0
20
0.0
30
0.000000
0
VERTEX
8
0
10
402.000000
20
647.000000
0
VERTEX
8
0
10
400.000000
20
647.000000
0
SEQEND
0
POLYLINE
8
0
6
CONTINUOUS
66
1
62
7
10
0.0
20
0.0
30
0.000000
0
VERTEX
8
0
10
402.000000
20
647.000000
0
VERTEX
8
0
10
402.700000
20
648.100000
0
VERTEX
8
0
10
404.000000
20
653.000000
0
SEQEND
0
POLYLINE
8
0
6
CONTINUOUS
66
1
62
7
10
0.0
20
0.0
30
0.000000
0
VERTEX
8
0
10
671.000000
20
647.000000
0
VERTEX
8
0
10
671.800000
20
649.100000
0
VERTEX
8
0
10
680.200000
20
655.900000
0
VERTEX
8
0
10
681.000000
20
658.000000
0
SEQEND
0
POLYLINE
8
0
6
CONTINUOUS
66
1
62
251
10
0.0
20
0.0
30
0.000000
0
VERTEX
8
0
10
114.000000
20
645.000000
0
VERTEX
8
0
10
114.000000
20
646.000000
0
VERTEX
8
0
10
116.000000
20
647.000000
0
SEQEND
0
POLYLINE
8
0
6
CONTINUOUS
66
1
62
250
10
0.0
20
0.0
30
0.000000
0
VERTEX
8
0
10
116.000000
20
645.000000
0
VERTEX
8
0
10
114.000000
20
645.000000
0
SEQEND
0
POLYLINE
8
0
6
CONTINUOUS
66
1
62
250
10
0.0
20
0.0
30
0.000000
0
VERTEX
8
0
10
116.000000
20
645.000000
0
VERTEX
8
0
10
116.000000
20
647.000000
0
SEQEND
0
POLYLINE
8
0
6
CONTINUOUS
66
1
62
7
10
0.0
20
0.0
30
0.000000
0
VERTEX
8
0
10
388.000000
20
646.000000
0
VERTEX
8
0
10
392.000000
20
645.000000
0
VERTEX
8
0
10
397.000000
20
645.000000
0
VERTEX
8
0
10
400.000000
20
647.000000
0
SEQEND
0
POLYLINE
8
0
6
CONTINUOUS
66
1
62
7
10
0.0
20
0.0
30
0.000000
0
VERTEX
8
0
10
681.000000
20
645.000000
0
VERTEX
8
0
10
680.100000
20
645.200000
0
VERTEX
8
0
10
676.932432
20
646.594595
0
VERTEX
8
0
10
671.000000
20
647.000000
0
SEQEND
0
POLYLINE
8
0
6
CONTINUOUS
66
1
62
250
10
0.0
20
0.0
30
0.000000
0
VERTEX
8
0
10
681.000000
20
645.000000
0
VERTEX
8
0
10
691.000000
20
649.000000
0
SEQEND
0
POLYLINE
8
0
6
CONTINUOUS
66
1
62
7
10
0.0
20
0.0
30
0.000000
0
VERTEX
8
0
10
120.000000
20
644.000000
0
VERTEX
8
0
10
116.000000
20
645.000000
0
SEQEND
0
POLYLINE
8
0
6
CONTINUOUS
66
1
62
7
10
0.0
20
0.0
30
0.000000
0
VERTEX
8
0
10
120.000000
20
644.000000
0
VERTEX
8
0
10
123.000000
20
647.000000
0
VERTEX
8
0
10
123.000000
20
648.000000
0
SEQEND
0
POLYLINE
8
0
6
CONTINUOUS
66
1
62
250
10
0.0
20
0.0
30
0.000000
0
VERTEX
8
0
10
658.000000
20
642.000000
0
VERTEX
8
0
10
659.900000
20
643.200000
0
VERTEX
8
0
10
661.000000
20
644.000000
0
VERTEX
8
0
10
664.000000
20
644.000000
0
VERTEX
8
0
10
665.000000
20
643.000000
0
VERTEX
8
0
10
667.100000
20
643.700000
0
VERTEX
8
0
10
669.000000
20
644.000000
0
VERTEX
8
0
10
670.200000
20
645.900000
0
VERTEX
8
0
10
671.000000
20
647.000000
0
SEQEND
0
POLYLINE
8
0
6
CONTINUOUS
66
1
62
7
10
0.0
20
0.0
30
0.000000
0
VERTEX
8
0
10
142.000000
20
641.000000
0
VERTEX
8
0
10
140.100000
20
641.300000
0
VERTEX
8
0
10
123.000000
20
648.000000
0
SEQEND
0
POLYLINE
8
0
6
CONTINUOUS
66
1
62
7
10
0.0
20
0.0
30
0.000000
0
VERTEX
8
0
10
692.000000
20
640.000000
0
VERTEX
8
0
10
693.750000
20
642.250000
0
VERTEX
8
0
10
696.000000
20
645.000000
0
VERTEX
8
0
10
696.000000
20
648.000000
0
VERTEX
8
0
10
694.000000
20
649.000000
0
VERTEX
8
0
10
693.000000
20
649.000000
0
SEQEND
0
POLYLINE
8
0
6
CONTINUOUS
66
1
62
7
10
0.0
20
0.0
30
0.000000
0
VERTEX
8
0
10
379.000000
20
639.000000
0
VERTEX
8
0
10
379.000000
20
643.000000
0
VERTEX
8
0
10
384.000000
20
647.000000
0
VERTEX
8
0
10
388.000000
20
646.000000
0
SEQEND
0
POLYLINE
8
0
6
CONTINUOUS
66
1
62
250
10
0.0
20
0.0
30
0.000000
0
VERTEX
8
0
10
382.000000
20
639.000000
0
VERTEX
8
0
10
379.000000
20
639.000000
0
SEQEND
0
POLYLINE
8
0
6
CONTINUOUS
66
1
62
7
10
0.0
20
0.0
30
0.000000
0
VERTEX
8
0
10
382.000000
20
639.000000
0
VERTEX
8
0
10
386.000000
20
642.000000
0
VERTEX
8
0
10
388.000000
20
644.000000
0
VERTEX
8
0
10
388.000000
20
646.000000
0
SEQEND
0
POLYLINE
8
0
6
CONTINUOUS
66
1
62
7
10
0.0
20
0.0
30
0.000000
0
VERTEX
8
0
10
359.000000
20
638.000000
0
VERTEX
8
0
10
360.100000
20
638.800000
0
VERTEX
8
0
10
364.000000
20
645.000000
0
VERTEX
8
0
10
364.250000
20
645.750000
0
VERTEX
8
0
10
371.750000
20
654.250000
0
VERTEX
8
0
10
373.000000
20
655.000000
0
VERTEX
8
0
10
377.000000
20
658.000000
0
VERTEX
8
0
10
377.000000
20
660.000000
0
SEQEND
0
POLYLINE
8
0
6
CONTINUOUS
66
1
62
7
10
0.0
20
0.0
30
0.000000
0
VERTEX
8
0
10
688.000000
20
638.000000
0
VERTEX
8
0
10
688.000000
20
639.000000
0
VERTEX
8
0
10
689.000000
20
640.000000
0
VERTEX
8
0
10
692.000000
20
640.000000
0
SEQEND
0
POLYLINE
8
0
6
CONTINUOUS
66
1
62
7
10
0.0
20
0.0
30
0.000000
0
VERTEX
8
0
10
82.000000
20
637.000000
0
VERTEX
8
0
10
81.800000
20
637.900000
0
VERTEX
8
0
10
81.000000
20
639.000000
0
VERTEX
8
0
10
81.000000
20
658.000000
0
VERTEX
8
0
10
82.000000
20
659.000000
0
VERTEX
8
0
10
99.000000
20
659.000000
0
VERTEX
8
0
10
101.000000
20
658.000000
0
VERTEX
8
0
10
102.000000
20
658.000000
0
SEQEND
0
POLYLINE
8
0
6
CONTINUOUS
66
1
62
250
10
0.0
20
0.0
30
0.000000
0
VERTEX
8
0
10
82.000000
20
637.000000
0
VERTEX
8
0
10
85.000000
20
638.000000
0
VERTEX
8
0
10
99.250000
20
654.750000
0
VERTEX
8
0
10
102.000000
20
656.000000
0
SEQEND
0
POLYLINE
8
0
6
CONTINUOUS
66
1
62
7
10
0.0
20
0.0
30
0.000000
0
VERTEX
8
0
10
425.000000
20
637.000000
0
VERTEX
8
0
10
423.000000
20
643.000000
0
VERTEX
8
0
10
419.000000
20
646.000000
0
VERTEX
8
0
10
410.000000
20
646.000000
0
VERTEX
8
0
10
409.000000
20
645.000000
0
VERTEX
8
0
10
405.000000
20
645.000000
0
VERTEX
8
0
10
402.000000
20
647.000000
0
SEQEND
0
POLYLINE
8
0
6
CONTINUOUS
66
1
62
250
10
0.0
20
0.0
30
0.000000
0
VERTEX
8
0
10
722.000000
20
637.000000
0
VERTEX
8
0
10
720.100000
20
637.200000
0
VERTEX
8
0
10
702.800000
20
656.900000
0
VERTEX
8
0
10
702.000000
20
659.000000
0
SEQEND
0
POLYLINE
8
0
6
CONTINUOUS
66
1
62
7
10
0.0
20
0.0
30
0.000000
0
VERTEX
8
0
10
722.000000
20
637.000000
0
VERTEX
8
0
10
722.000000
20
638.000000
0
VERTEX
8
0
10
722.000000
20
660.000000
0
VERTEX
8
0
10
721.000000
20
661.000000
0
VERTEX
8
0
10
714.964706
20
660.458824
0
VERTEX
8
0
10
702.000000
20
659.000000
0
SEQEND
0
POLYLINE
8
0
6
CONTINUOUS
66
1
62
7
10
0.0
20
0.0
30
0.000000
0
VERTEX
8
0
10
683.000000
20
636.000000
0
VERTEX
8
0
10
685.200000
20
637.600000
0
VERTEX
8
0
10
688.000000
20
638.000000
0
SEQEND
0
POLYLINE
8
0
6
CONTINUOUS
66
1
62
7
10
0.0
20
0.0
30
0.000000
0
VERTEX
8
0
10
689.000000
20
636.000000
0
VERTEX
8
0
10
688.000000
20
638.000000
0
SEQEND
0
POLYLINE
8
0
6
CONTINUOUS
66
1
62
250
10
0.0
20
0.0
30
0.000000
0
VERTEX
8
0
10
361.000000
20
635.000000
0
VERTEX
8
0
10
359.000000
20
638.000000
0
SEQEND
0
POLYLINE
8
0
6
CONTINUOUS
66
1
62
7
10
0.0
20
0.0
30
0.000000
0
VERTEX
8
0
10
361.000000
20
635.000000
0
VERTEX
8
0
10
365.750000
20
636.250000
0
VERTEX
8
0
10
370.200000
20
638.900000
0
VERTEX
8
0
10
373.769231
20
645.153846
0
VERTEX
8
0
10
380.153846
20
650.769231
0
VERTEX
8
0
10
380.900000
20
651.200000
0
VERTEX
8
0
10
389.000000
20
654.000000
0
VERTEX
8
0
10
394.000000
20
654.000000
0
VERTEX
8
0
10
396.750000
20
651.750000
0
VERTEX
8
0
10
400.000000
20
647.000000
0
SEQEND
0
POLYLINE
8
0
6
CONTINUOUS
66
1
62
7
10
0.0
20
0.0
30
0.000000
0
VERTEX
8
0
10
678.000000
20
635.000000
0
VERTEX
8
0
10
678.000000
20
636.000000
0
VERTEX
8
0
10
680.800000
20
644.100000
0
VERTEX
8
0
10
681.000000
20
645.000000
0
SEQEND
0
POLYLINE
8
0
6
CONTINUOUS
66
1
62
7
10
0.0
20
0.0
30
0.000000
0
VERTEX
8
0
10
678.000000
20
635.000000
0
VERTEX
8
0
10
683.000000
20
636.000000
0
SEQEND
0
POLYLINE
8
0
6
CONTINUOUS
66
1
62
7
10
0.0
20
0.0
30
0.000000
0
VERTEX
8
0
10
683.000000
20
636.000000
0
VERTEX
8
0
10
684.000000
20
635.000000
0
VERTEX
8
0
10
688.000000
20
635.000000
0
VERTEX
8
0
10
689.000000
20
636.000000
0
SEQEND
0
POLYLINE
8
0
6
CONTINUOUS
66
1
62
7
10
0.0
20
0.0
30
0.000000
0
VERTEX
8
0
10
693.000000
20
635.000000
0
VERTEX
8
0
10
689.000000
20
636.000000
0
SEQEND
0
POLYLINE
8
0
6
CONTINUOUS
66
1
62
250
10
0.0
20
0.0
30
0.000000
0
VERTEX
8
0
10
693.000000
20
635.000000
0
VERTEX
8
0
10
692.000000
20
640.000000
0
SEQEND
0
POLYLINE
8
0
6
CONTINUOUS
66
1
62
250
10
0.0
20
0.0
30
0.000000
0
VERTEX
8
0
10
109.000000
20
633.000000
0
VERTEX
8
0
10
108.000000
20
634.000000
0
SEQEND
0
POLYLINE
8
0
6
CONTINUOUS
66
1
62
251
10
0.0
20
0.0
30
0.000000
0
VERTEX
8
0
10
111.000000
20
633.000000
0
VERTEX
8
0
10
109.000000
20
633.000000
0
SEQEND
0
POLYLINE
8
0
6
CONTINUOUS
66
1
62
251
10
0.0
20
0.0
30
0.000000
0
VERTEX
8
0
10
110.000000
20
631.000000
0
VERTEX
8
0
10
109.250000
20
631.250000
0
VERTEX
8
0
10
109.000000
20
633.000000
0
SEQEND
0
POLYLINE
8
0
6
CONTINUOUS
66
1
62
250
10
0.0
20
0.0
30
0.000000
0
VERTEX
8
0
10
110.000000
20
631.000000
0
VERTEX
8
0
10
110.750000
20
631.250000
0
VERTEX
8
0
10
111.000000
20
633.000000
0
SEQEND
0
POLYLINE
8
0
6
CONTINUOUS
66
1
62
7
10
0.0
20
0.0
30
0.000000
0
VERTEX
8
0
10
81.000000
20
630.000000
0
VERTEX
8
0
10
82.000000
20
637.000000
0
SEQEND
0
POLYLINE
8
0
6
CONTINUOUS
66
1
62
7
10
0.0
20
0.0
30
0.000000
0
VERTEX
8
0
10
426.000000
20
630.000000
0
VERTEX
8
0
10
425.200000
20
631.100000
0
VERTEX
8
0
10
424.000000
20
635.000000
0
VERTEX
8
0
10
425.000000
20
637.000000
0
SEQEND
0
POLYLINE
8
0
6
CONTINUOUS
66
1
62
7
10
0.0
20
0.0
30
0.000000
0
VERTEX
8
0
10
123.000000
20
628.000000
0
VERTEX
8
0
10
111.000000
20
633.000000
0
SEQEND
0
POLYLINE
8
0
6
CONTINUOUS
66
1
62
7
10
0.0
20
0.0
30
0.000000
0
VERTEX
8
0
10
123.000000
20
628.000000
0
VERTEX
8
0
10
123.000000
20
632.000000
0
VERTEX
8
0
10
114.750000
20
637.750000
0
VERTEX
8
0
10
112.900000
20
638.800000
0
VERTEX
8
0
10
101.000000
20
645.000000
0
VERTEX
8
0
10
100.800000
20
645.900000
0
VERTEX
8
0
10
100.000000
20
647.000000
0
VERTEX
8
0
10
102.000000
20
649.000000
0
VERTEX
8
0
10
105.000000
20
649.000000
0
VERTEX
8
0
10
110.000000
20
646.000000
0
VERTEX
8
0
10
114.000000
20
645.000000
0
SEQEND
0
POLYLINE
8
0
6
CONTINUOUS
66
1
62
7
10
0.0
20
0.0
30
0.000000
0
VERTEX
8
0
10
724.000000
20
628.000000
0
VERTEX
8
0
10
722.000000
20
637.000000
0
SEQEND
0
POLYLINE
8
0
6
CONTINUOUS
66
1
62
7
10
0.0
20
0.0
30
0.000000
0
VERTEX
8
0
10
376.000000
20
627.000000
0
VERTEX
8
0
10
378.000000
20
628.000000
0
VERTEX
8
0
10
382.000000
20
632.000000
0
VERTEX
8
0
10
382.000000
20
639.000000
0
SEQEND
0
POLYLINE
8
0
6
CONTINUOUS
66
1
62
250
10
0.0
20
0.0
30
0.000000
0
VERTEX
8
0
10
726.000000
20
627.000000
0
VERTEX
8
0
10
725.750000
20
627.750000
0
VERTEX
8
0
10
724.000000
20
628.000000
0
SEQEND
0
POLYLINE
8
0
6
CONTINUOUS
66
1
62
7
10
0.0
20
0.0
30
0.000000
0
VERTEX
8
0
10
724.000000
20
626.000000
0
VERTEX
8
0
10
724.000000
20
628.000000
0
SEQEND
0
POLYLINE
8
0
6
CONTINUOUS
66
1
62
250
10
0.0
20
0.0
30
0.000000
0
VERTEX
8
0
10
724.000000
20
626.000000
0
VERTEX
8
0
10
725.000000
20
626.000000
0
VERTEX
8
0
10
726.000000
20
627.000000
0
SEQEND
0
POLYLINE
8
0
6
CONTINUOUS
66
1
62
7
10
0.0
20
0.0
30
0.000000
0
VERTEX
8
0
10
423.000000
20
625.000000
0
VERTEX
8
0
10
423.000000
20
626.000000
0
VERTEX
8
0
10
426.000000
20
630.000000
0
SEQEND
0
POLYLINE
8
0
6
CONTINUOUS
66
1
62
7
10
0.0
20
0.0
30
0.000000
0
VERTEX
8
0
10
122.000000
20
623.000000
0
VERTEX
8
0
10
121.000000
20
623.000000
0
VERTEX
8
0
10
110.000000
20
630.000000
0
VERTEX
8
0
10
110.000000
20
631.000000
0
SEQEND
0
POLYLINE
8
0
6
CONTINUOUS
66
1
62
250
10
0.0
20
0.0
30
0.000000
0
VERTEX
8
0
10
122.000000
20
623.000000
0
VERTEX
8
0
10
124.000000
20
625.000000
0
VERTEX
8
0
10
124.000000
20
627.000000
0
VERTEX
8
0
10
123.000000
20
628.000000
0
SEQEND
0
POLYLINE
8
0
6
CONTINUOUS
66
1
62
7
10
0.0
20
0.0
30
0.000000
0
VERTEX
8
0
10
423.000000
20
623.000000
0
VERTEX
8
0
10
423.000000
20
625.000000
0
SEQEND
0
POLYLINE
8
0
6
CONTINUOUS
66
1
62
7
10
0.0
20
0.0
30
0.000000
0
VERTEX
8
0
10
427.000000
20
622.000000
0
VERTEX
8
0
10
423.000000
20
623.000000
0
SEQEND
0
POLYLINE
8
0
6
CONTINUOUS
66
1
62
7
10
0.0
20
0.0
30
0.000000
0
VERTEX
8
0
10
655.000000
20
622.000000
0
VERTEX
8
0
10
662.000000
20
623.000000
0
VERTEX
8
0
10
663.250000
20
623.750000
0
VERTEX
8
0
10
665.100000
20
624.800000
0
VERTEX
8
0
10
668.000000
20
633.000000
0
VERTEX
8
0
10
668.750000
20
633.250000
0
VERTEX
8
0
10
671.060000
20
634.580000
0
VERTEX
8
0
10
678.000000
20
635.000000
0
SEQEND
0
POLYLINE
8
0
6
CONTINUOUS
66
1
62
7
10
0.0
20
0.0
30
0.000000
0
VERTEX
8
0
10
359.000000
20
621.000000
0
VERTEX
8
0
10
359.445545
20
630.955446
0
VERTEX
8
0
10
361.000000
20
634.000000
0
VERTEX
8
0
10
361.000000
20
635.000000
0
SEQEND
0
POLYLINE
8
0
6
CONTINUOUS
66
1
62
7
10
0.0
20
0.0
30
0.000000
0
VERTEX
8
0
10
120.000000
20
644.000000
0
VERTEX
8
0
10
133.000000
20
634.000000
0
VERTEX
8
0
10
133.927835
20
629.412371
0
VERTEX
8
0
10
137.250000
20
624.250000
0
VERTEX
8
0
10
139.000000
20
623.000000
0
VERTEX
8
0
10
149.000000
20
620.000000
0
VERTEX
8
0
10
153.000000
20
621.000000
0
SEQEND
0
POLYLINE
8
0
6
CONTINUOUS
66
1
62
251
10
0.0
20
0.0
30
0.000000
0
VERTEX
8
0
10
361.000000
20
619.000000
0
VERTEX
8
0
10
360.000000
20
619.000000
0
VERTEX
8
0
10
359.000000
20
621.000000
0
SEQEND
0
POLYLINE
8
0
6
CONTINUOUS
66
1
62
251
10
0.0
20
0.0
30
0.000000
0
VERTEX
8
0
10
361.000000
20
619.000000
0
VERTEX
8
0
10
361.000000
20
620.000000
0
VERTEX
8
0
10
359.000000
20
621.000000
0
SEQEND
0
POLYLINE
8
0
6
CONTINUOUS
66
1
62
7
10
0.0
20
0.0
30
0.000000
0
VERTEX
8
0
10
361.000000
20
619.000000
0
VERTEX
8
0
10
364.750000
20
621.250000
0
VERTEX
8
0
10
366.750000
20
628.250000
0
VERTEX
8
0
10
367.000000
20
629.000000
0
VERTEX
8
0
10
367.000000
20
630.000000
0
VERTEX
8
0
10
369.000000
20
632.000000
0
VERTEX
8
0
10
372.000000
20
633.000000
0
VERTEX
8
0
10
374.750000
20
634.250000
0
VERTEX
8
0
10
377.250000
20
636.750000
0
VERTEX
8
0
10
379.000000
20
639.000000
0
SEQEND
0
POLYLINE
8
0
6
CONTINUOUS
66
1
62
7
10
0.0
20
0.0
30
0.000000
0
VERTEX
8
0
10
409.000000
20
618.000000
0
VERTEX
8
0
10
409.250000
20
622.750000
0
VERTEX
8
0
10
416.060000
20
624.580000
0
VERTEX
8
0
10
423.000000
20
625.000000
0
SEQEND
0
POLYLINE
8
0
6
CONTINUOUS
66
1
62
7
10
0.0
20
0.0
30
0.000000
0
VERTEX
8
0
10
409.000000
20
618.000000
0
VERTEX
8
0
10
410.000000
20
618.000000
0
VERTEX
8
0
10
413.000000
20
616.000000
0
VERTEX
8
0
10
420.000000
20
616.000000
0
VERTEX
8
0
10
422.200000
20
618.900000
0
VERTEX
8
0
10
423.000000
20
623.000000
0
SEQEND
0
POLYLINE
8
0
6
CONTINUOUS
66
1
62
7
10
0.0
20
0.0
30
0.000000
0
VERTEX
8
0
10
393.000000
20
615.000000
0
VERTEX
8
0
10
395.769231
20
619.153846
0
VERTEX
8
0
10
398.000000
20
622.000000
0
VERTEX
8
0
10
398.000000
20
624.000000
0
VERTEX
8
0
10
397.100000
20
625.200000
0
VERTEX
8
0
10
388.053846
20
624.569231
0
VERTEX
8
0
10
385.250000
20
623.750000
0
VERTEX
8
0
10
385.000000
20
623.000000
0
VERTEX
8
0
10
386.000000
20
618.000000
0
VERTEX
8
0
10
390.206897
20
615.517241
0
VERTEX
8
0
10
393.000000
20
615.000000
0
SEQEND
0
POLYLINE
8
0
6
CONTINUOUS
66
1
62
7
10
0.0
20
0.0
30
0.000000
0
VERTEX
8
0
10
449.000000
20
610.000000
0
VERTEX
8
0
10
448.000000
20
611.000000
0
VERTEX
8
0
10
449.250000
20
614.750000
0
VERTEX
8
0
10
449.750000
20
615.250000
0
VERTEX
8
0
10
451.000000
20
622.000000
0
VERTEX
8
0
10
450.750000
20
622.750000
0
VERTEX
8
0
10
449.000000
20
624.000000
0
VERTEX
8
0
10
448.000000
20
624.000000
0
VERTEX
8
0
10
446.800000
20
625.900000
0
VERTEX
8
0
10
444.000000
20
631.000000
0
VERTEX
8
0
10
444.000000
20
632.000000
0
VERTEX
8
0
10
440.100000
20
635.200000
0
VERTEX
8
0
10
436.962069
20
636.544828
0
VERTEX
8
0
10
425.000000
20
637.000000
0
SEQEND
0
POLYLINE
8
0
6
CONTINUOUS
66
1
62
7
10
0.0
20
0.0
30
0.000000
0
VERTEX
8
0
10
351.000000
20
605.000000
0
VERTEX
8
0
10
348.000000
20
606.000000
0
VERTEX
8
0
10
346.000000
20
608.000000
0
VERTEX
8
0
10
346.000000
20
612.000000
0
VERTEX
8
0
10
349.750000
20
615.250000
0
VERTEX
8
0
10
352.482759
20
627.206897
0
VERTEX
8
0
10
353.000000
20
630.000000
0
VERTEX
8
0
10
352.250000
20
631.250000
0
VERTEX
8
0
10
353.000000
20
636.000000
0
VERTEX
8
0
10
355.000000
20
638.000000
0
VERTEX
8
0
10
359.000000
20
638.000000
0
SEQEND
0
POLYLINE
8
0
6
CONTINUOUS
66
1
62
7
10
0.0
20
0.0
30
0.000000
0
VERTEX
8
0
10
351.000000
20
605.000000
0
VERTEX
8
0
10
353.594595
20
609.067568
0
VERTEX
8
0
10
354.405405
20
613.932432
0
VERTEX
8
0
10
356.200000
20
618.900000
0
VERTEX
8
0
10
358.000000
20
621.000000
0
VERTEX
8
0
10
359.000000
20
621.000000
0
SEQEND
0
POLYLINE
8
0
6
CONTINUOUS
66
1
62
7
10
0.0
20
0.0
30
0.000000
0
VERTEX
8
0
10
377.000000
20
604.000000
0
VERTEX
8
0
10
376.000000
20
604.000000
0
VERTEX
8
0
10
374.000000
20
606.000000
0
VERTEX
8
0
10
374.800000
20
609.100000
0
VERTEX
8
0
10
375.750000
20
610.250000
0
VERTEX
8
0
10
378.000000
20
612.000000
0
VERTEX
8
0
10
379.000000
20
616.000000
0
VERTEX
8
0
10
379.000000
20
622.000000
0
VERTEX
8
0
10
376.000000
20
627.000000
0
SEQEND
0
POLYLINE
8
0
6
CONTINUOUS
66
1
62
7
10
0.0
20
0.0
30
0.000000
0
VERTEX
8
0
10
425.000000
20
603.000000
0
VERTEX
8
0
10
422.000000
20
603.000000
0
SEQEND
0
POLYLINE
8
0
6
CONTINUOUS
66
1
62
7
10
0.0
20
0.0
30
0.000000
0
VERTEX
8
0
10
425.000000
20
603.000000
0
VERTEX
8
0
10
425.000000
20
604.000000
0
VERTEX
8
0
10
431.000000
20
610.000000
0
VERTEX
8
0
10
431.000000
20
614.000000
0
VERTEX
8
0
10
428.200000
20
618.100000
0
VERTEX
8
0
10
427.000000
20
622.000000
0
SEQEND
0
POLYLINE
8
0
6
CONTINUOUS
66
1
62
7
10
0.0
20
0.0
30
0.000000
0
VERTEX
8
0
10
396.000000
20
604.000000
0
VERTEX
8
0
10
400.932432
20
603.594595
0
VERTEX
8
0
10
408.750000
20
602.250000
0
VERTEX
8
0
10
409.750000
20
603.250000
0
VERTEX
8
0
10
409.750000
20
608.750000
0
VERTEX
8
0
10
408.250000
20
610.250000
0
VERTEX
8
0
10
407.000000
20
615.000000
0
VERTEX
8
0
10
409.000000
20
618.000000
0
SEQEND
0
POLYLINE
8
0
6
CONTINUOUS
66
1
62
7
10
0.0
20
0.0
30
0.000000
0
VERTEX
8
0
10
630.000000
20
601.000000
0
VERTEX
8
0
10
630.000000
20
604.000000
0
VERTEX
8
0
10
632.846154
20
606.230769
0
VERTEX
8
0
10
636.000000
20
608.000000
0
SEQEND
0
POLYLINE
8
0
6
CONTINUOUS
66
1
62
7
10
0.0
20
0.0
30
0.000000
0
VERTEX
8
0
10
630.000000
20
601.000000
0
VERTEX
8
0
10
638.923077
20
602.384615
0
VERTEX
8
0
10
655.900000
20
611.300000
0
VERTEX
8
0
10
660.000000
20
613.000000
0
VERTEX
8
0
10
670.750000
20
619.250000
0
VERTEX
8
0
10
671.750000
20
620.250000
0
VERTEX
8
0
10
692.000000
20
632.000000
0
VERTEX
8
0
10
693.000000
20
635.000000
0
SEQEND
0
POLYLINE
8
0
6
CONTINUOUS
66
1
62
7
10
0.0
20
0.0
30
0.000000
0
VERTEX
8
0
10
395.000000
20
594.000000
0
VERTEX
8
0
10
402.048780
20
595.560976
0
VERTEX
8
0
10
410.000000
20
596.000000
0
SEQEND
0
POLYLINE
8
0
6
CONTINUOUS
66
1
62
7
10
0.0
20
0.0
30
0.000000
0
VERTEX
8
0
10
550.000000
20
592.000000
0
VERTEX
8
0
10
551.000000
20
595.000000
0
VERTEX
8
0
10
555.000000
20
599.000000
0
VERTEX
8
0
10
558.100000
20
600.800000
0
VERTEX
8
0
10
562.900000
20
604.200000
0
VERTEX
8
0
10
587.076923
20
616.615385
0
VERTEX
8
0
10
614.000000
20
622.000000
0
VERTEX
8
0
10
642.000000
20
631.000000
0
VERTEX
8
0
10
644.250000
20
632.750000
0
VERTEX
8
0
10
648.800000
20
639.100000
0
VERTEX
8
0
10
650.250000
20
642.750000
0
VERTEX
8
0
10
653.846154
20
646.230769
0
VERTEX
8
0
10
656.750000
20
648.250000
0
VERTEX
8
0
10
670.000000
20
657.000000
0
VERTEX
8
0
10
671.000000
20
659.000000
0
SEQEND
0
POLYLINE
8
0
6
CONTINUOUS
66
1
62
7
10
0.0
20
0.0
30
0.000000
0
VERTEX
8
0
10
553.000000
20
591.000000
0
VERTEX
8
0
10
551.000000
20
591.000000
0
VERTEX
8
0
10
550.000000
20
592.000000
0
SEQEND
0
POLYLINE
8
0
6
CONTINUOUS
66
1
62
7
10
0.0
20
0.0
30
0.000000
0
VERTEX
8
0
10
398.000000
20
589.000000
0
VERTEX
8
0
10
400.250000
20
589.750000
0
VERTEX
8
0
10
402.000000
20
591.000000
0
VERTEX
8
0
10
412.000000
20
590.000000
0
SEQEND
0
POLYLINE
8
0
6
CONTINUOUS
66
1
62
7
10
0.0
20
0.0
30
0.000000
0
VERTEX
8
0
10
453.000000
20
589.000000
0
VERTEX
8
0
10
451.000000
20
590.000000
0
VERTEX
8
0
10
450.250000
20
595.750000
0
VERTEX
8
0
10
450.750000
20
596.250000
0
VERTEX
8
0
10
450.750000
20
602.750000
0
VERTEX
8
0
10
448.400000
20
606.200000
0
VERTEX
8
0
10
448.250000
20
608.750000
0
VERTEX
8
0
10
449.000000
20
610.000000
0
SEQEND
0
POLYLINE
8
0
6
CONTINUOUS
66
1
62
7
10
0.0
20
0.0
30
0.000000
0
VERTEX
8
0
10
453.000000
20
589.000000
0
VERTEX
8
0
10
456.760000
20
594.180000
0
VERTEX
8
0
10
458.800000
20
602.100000
0
VERTEX
8
0
10
460.000000
20
604.000000
0
VERTEX
8
0
10
461.000000
20
608.000000
0
VERTEX
8
0
10
456.646154
20
614.369231
0
VERTEX
8
0
10
456.000000
20
617.000000
0
VERTEX
8
0
10
457.750000
20
619.250000
0
VERTEX
8
0
10
458.200000
20
619.900000
0
VERTEX
8
0
10
459.000000
20
621.000000
0
VERTEX
8
0
10
459.000000
20
625.000000
0
VERTEX
8
0
10
457.000000
20
627.000000
0
VERTEX
8
0
10
456.000000
20
627.000000
0
VERTEX
8
0
10
453.800000
20
629.900000
0
VERTEX
8
0
10
453.420000
20
631.060000
0
VERTEX
8
0
10
453.000000
20
637.000000
0
VERTEX
8
0
10
450.000000
20
640.000000
0
VERTEX
8
0
10
443.900000
20
640.800000
0
VERTEX
8
0
10
443.000000
20
641.000000
0
VERTEX
8
0
10
440.000000
20
648.000000
0
VERTEX
8
0
10
432.000000
20
652.000000
0
SEQEND
0
POLYLINE
8
0
6
CONTINUOUS
66
1
62
7
10
0.0
20
0.0
30
0.000000
0
VERTEX
8
0
10
354.000000
20
588.000000
0
VERTEX
8
0
10
354.000000
20
589.000000
0
VERTEX
8
0
10
353.000000
20
592.000000
0
VERTEX
8
0
10
350.250000
20
594.250000
0
VERTEX
8
0
10
349.000000
20
596.000000
0
VERTEX
8
0
10
349.800000
20
600.100000
0
VERTEX
8
0
10
352.000000
20
602.000000
0
VERTEX
8
0
10
352.000000
20
604.000000
0
VERTEX
8
0
10
351.000000
20
605.000000
0
SEQEND
0
POLYLINE
8
0
6
CONTINUOUS
66
1
62
250
10
0.0
20
0.0
30
0.000000
0
VERTEX
8
0
10
358.000000
20
588.000000
0
VERTEX
8
0
10
354.000000
20
588.000000
0
SEQEND
0
POLYLINE
8
0
6
CONTINUOUS
66
1
62
7
10
0.0
20
0.0
30
0.000000
0
VERTEX
8
0
10
358.000000
20
588.000000
0
VERTEX
8
0
10
359.000000
20
593.000000
0
VERTEX
8
0
10
359.000000
20
599.000000
0
VERTEX
8
0
10
358.000000
20
600.000000
0
VERTEX
8
0
10
358.000000
20
603.000000
0
VERTEX
8
0
10
359.400000
20
605.200000
0
VERTEX
8
0
10
359.000000
20
615.000000
0
VERTEX
8
0
10
361.000000
20
619.000000
0
SEQEND
0
POLYLINE
8
0
6
CONTINUOUS
66
1
62
7
10
0.0
20
0.0
30
0.000000
0
VERTEX
8
0
10
388.000000
20
588.000000
0
VERTEX
8
0
10
381.000000
20
592.000000
0
VERTEX
8
0
10
380.000000
20
593.000000
0
VERTEX
8
0
10
380.000000
20
597.000000
0
VERTEX
8
0
10
380.750000
20
598.250000
0
VERTEX
8
0
10
380.000000
20
603.000000
0
VERTEX
8
0
10
379.000000
20
604.000000
0
VERTEX
8
0
10
377.000000
20
604.000000
0
SEQEND
0
POLYLINE
8
0
6
CONTINUOUS
66
1
62
7
10
0.0
20
0.0
30
0.000000
0
VERTEX
8
0
10
425.000000
20
588.000000
0
VERTEX
8
0
10
426.300000
20
590.900000
0
VERTEX
8
0
10
427.000000
20
592.000000
0
VERTEX
8
0
10
427.000000
20
600.000000
0
VERTEX
8
0
10
425.000000
20
603.000000
0
SEQEND
0
POLYLINE
8
0
6
CONTINUOUS
66
1
62
7
10
0.0
20
0.0
30
0.000000
0
VERTEX
8
0
10
393.000000
20
585.000000
0
VERTEX
8
0
10
393.000000
20
587.000000
0
VERTEX
8
0
10
392.000000
20
588.000000
0
VERTEX
8
0
10
388.000000
20
588.000000
0
SEQEND
0
POLYLINE
8
0
6
CONTINUOUS
66
1
62
7
10
0.0
20
0.0
30
0.000000
0
VERTEX
8
0
10
388.000000
20
584.000000
0
VERTEX
8
0
10
388.000000
20
588.000000
0
SEQEND
0
POLYLINE
8
0
6
CONTINUOUS
66
1
62
250
10
0.0
20
0.0
30
0.000000
0
VERTEX
8
0
10
388.000000
20
584.000000
0
VERTEX
8
0
10
393.000000
20
585.000000
0
SEQEND
0
POLYLINE
8
0
6
CONTINUOUS
66
1
62
7
10
0.0
20
0.0
30
0.000000
0
VERTEX
8
0
10
359.000000
20
583.000000
0
VERTEX
8
0
10
357.100000
20
583.200000
0
VERTEX
8
0
10
354.800000
20
584.900000
0
VERTEX
8
0
10
354.000000
20
588.000000
0
SEQEND
0
POLYLINE
8
0
6
CONTINUOUS
66
1
62
7
10
0.0
20
0.0
30
0.000000
0
VERTEX
8
0
10
359.000000
20
583.000000
0
VERTEX
8
0
10
358.750000
20
587.750000
0
VERTEX
8
0
10
358.000000
20
588.000000
0
SEQEND
0
POLYLINE
8
0
6
CONTINUOUS
66
1
62
7
10
0.0
20
0.0
30
0.000000
0
VERTEX
8
0
10
388.000000
20
582.000000
0
VERTEX
8
0
10
388.000000
20
584.000000
0
SEQEND
0
POLYLINE
8
0
6
CONTINUOUS
66
1
62
7
10
0.0
20
0.0
30
0.000000
0
VERTEX
8
0
10
448.000000
20
581.000000
0
VERTEX
8
0
10
442.250000
20
584.250000
0
VERTEX
8
0
10
442.405405
20
589.932432
0
VERTEX
8
0
10
443.000000
20
591.000000
0
VERTEX
8
0
10
441.000000
20
607.000000
0
VERTEX
8
0
10
442.200000
20
608.900000
0
VERTEX
8
0
10
444.000000
20
613.000000
0
VERTEX
8
0
10
443.594595
20
617.932432
0
VERTEX
8
0
10
442.750000
20
619.750000
0
VERTEX
8
0
10
442.250000
20
620.250000
0
VERTEX
8
0
10
436.100000
20
628.200000
0
VERTEX
8
0
10
431.940000
20
629.580000
0
VERTEX
8
0
10
426.000000
20
630.000000
0
SEQEND
0
POLYLINE
8
0
6
CONTINUOUS
66
1
62
7
10
0.0
20
0.0
30
0.000000
0
VERTEX
8
0
10
448.000000
20
581.000000
0
VERTEX
8
0
10
450.100000
20
581.800000
0
VERTEX
8
0
10
453.000000
20
584.000000
0
VERTEX
8
0
10
453.000000
20
589.000000
0
SEQEND
0
POLYLINE
8
0
6
CONTINUOUS
66
1
62
7
10
0.0
20
0.0
30
0.000000
0
VERTEX
8
0
10
393.000000
20
585.000000
0
VERTEX
8
0
10
394.000000
20
585.000000
0
VERTEX
8
0
10
396.000000
20
583.000000
0
VERTEX
8
0
10
397.000000
20
581.000000
0
VERTEX
8
0
10
402.000000
20
582.500000
0
VERTEX
8
0
10
408.000000
20
580.000000
0
VERTEX
8
0
10
409.250000
20
580.750000
0
VERTEX
8
0
10
414.180000
20
583.760000
0
VERTEX
8
0
10
422.100000
20
587.700000
0
VERTEX
8
0
10
425.000000
20
588.000000
0
SEQEND
0
POLYLINE
8
0
6
CONTINUOUS
66
1
62
7
10
0.0
20
0.0
30
0.000000
0
VERTEX
8
0
10
425.000000
20
579.000000
0
VERTEX
8
0
10
425.000000
20
580.000000
0
VERTEX
8
0
10
426.000000
20
586.000000
0
VERTEX
8
0
10
425.000000
20
588.000000
0
SEQEND
0
POLYLINE
8
0
6
CONTINUOUS
66
1
62
7
10
0.0
20
0.0
30
0.000000
0
VERTEX
8
0
10
376.000000
20
576.000000
0
VERTEX
8
0
10
376.000000
20
577.000000
0
VERTEX
8
0
10
375.000000
20
582.000000
0
VERTEX
8
0
10
377.000000
20
584.000000
0
VERTEX
8
0
10
377.000000
20
585.000000
0
VERTEX
8
0
10
373.000000
20
593.000000
0
VERTEX
8
0
10
373.000000
20
597.000000
0
VERTEX
8
0
10
374.750000
20
598.250000
0
VERTEX
8
0
10
376.600000
20
601.200000
0
VERTEX
8
0
10
377.000000
20
604.000000
0
SEQEND
0
POLYLINE
8
0
6
CONTINUOUS
66
1
62
7
10
0.0
20
0.0
30
0.000000
0
VERTEX
8
0
10
376.000000
20
576.000000
0
VERTEX
8
0
10
377.000000
20
576.000000
0
VERTEX
8
0
10
387.100000
20
581.800000
0
VERTEX
8
0
10
388.000000
20
582.000000
0
SEQEND
0
POLYLINE
8
0
6
CONTINUOUS
66
1
62
250
10
0.0
20
0.0
30
0.000000
0
VERTEX
8
0
10
499.000000
20
576.000000
0
VERTEX
8
0
10
501.100000
20
576.700000
0
VERTEX
8
0
10
505.820000
20
579.240000
0
VERTEX
8
0
10
510.900000
20
582.300000
0
VERTEX
8
0
10
523.088235
20
587.647059
0
VERTEX
8
0
10
528.900000
20
589.300000
0
VERTEX
8
0
10
534.032995
20
590.538071
0
VERTEX
8
0
10
550.000000
20
592.000000
0
SEQEND
0
POLYLINE
8
0
6
CONTINUOUS
66
1
62
7
10
0.0
20
0.0
30
0.000000
0
VERTEX
8
0
10
308.000000
20
575.000000
0
VERTEX
8
0
10
304.088235
20
575.352941
0
VERTEX
8
0
10
298.200000
20
578.400000
0
VERTEX
8
0
10
295.800000
20
579.600000
0
VERTEX
8
0
10
278.911765
20
586.647059
0
VERTEX
8
0
10
259.100000
20
590.200000
0
VERTEX
8
0
10
249.804878
20
597.756098
0
VERTEX
8
0
10
246.100000
20
600.200000
0
VERTEX
8
0
10
230.180000
20
607.240000
0
VERTEX
8
0
10
221.846154
20
612.769231
0
VERTEX
8
0
10
186.100000
20
621.300000
0
VERTEX
8
0
10
178.846154
20
624.769231
0
VERTEX
8
0
10
161.900000
20
630.800000
0
VERTEX
8
0
10
159.000000
20
632.000000
0
VERTEX
8
0
10
151.180000
20
641.240000
0
VERTEX
8
0
10
147.820000
20
643.760000
0
VERTEX
8
0
10
141.000000
20
647.000000
0
VERTEX
8
0
10
139.100000
20
647.300000
0
VERTEX
8
0
10
136.153846
20
649.230769
0
VERTEX
8
0
10
132.750000
20
651.750000
0
VERTEX
8
0
10
127.000000
20
653.000000
0
VERTEX
8
0
10
124.000000
20
656.000000
0
VERTEX
8
0
10
124.000000
20
657.000000
0
SEQEND
0
POLYLINE
8
0
6
CONTINUOUS
66
1
62
7
10
0.0
20
0.0
30
0.000000
0
VERTEX
8
0
10
369.000000
20
573.000000
0
VERTEX
8
0
10
365.000000
20
574.000000
0
VERTEX
8
0
10
361.400000
20
579.200000
0
VERTEX
8
0
10
359.750000
20
582.750000
0
VERTEX
8
0
10
359.000000
20
583.000000
0
SEQEND
0
POLYLINE
8
0
6
CONTINUOUS
66
1
62
7
10
0.0
20
0.0
30
0.000000
0
VERTEX
8
0
10
369.000000
20
573.000000
0
VERTEX
8
0
10
369.000000
20
574.000000
0
VERTEX
8
0
10
366.000000
20
586.000000
0
VERTEX
8
0
10
366.800000
20
587.100000
0
VERTEX
8
0
10
368.000000
20
589.000000
0
VERTEX
8
0
10
368.000000
20
591.000000
0
VERTEX
8
0
10
365.000000
20
598.000000
0
VERTEX
8
0
10
366.700000
20
604.900000
0
VERTEX
8
0
10
365.200000
20
608.100000
0
VERTEX
8
0
10
364.000000
20
611.000000
0
VERTEX
8
0
10
371.000000
20
617.000000
0
VERTEX
8
0
10
372.000000
20
621.000000
0
VERTEX
8
0
10
371.000000
20
623.000000
0
VERTEX
8
0
10
373.900000
20
626.200000
0
VERTEX
8
0
10
376.000000
20
627.000000
0
SEQEND
0
POLYLINE
8
0
6
CONTINUOUS
66
1
62
7
10
0.0
20
0.0
30
0.000000
0
VERTEX
8
0
10
410.000000
20
573.000000
0
VERTEX
8
0
10
396.250000
20
573.250000
0
VERTEX
8
0
10
394.000000
20
576.000000
0
VERTEX
8
0
10
394.000000
20
577.000000
0
VERTEX
8
0
10
388.000000
20
582.000000
0
SEQEND
0
POLYLINE
8
0
6
CONTINUOUS
66
1
62
7
10
0.0
20
0.0
30
0.000000
0
VERTEX
8
0
10
410.000000
20
573.000000
0
VERTEX
8
0
10
413.900000
20
574.300000
0
VERTEX
8
0
10
420.076923
20
578.615385
0
VERTEX
8
0
10
425.000000
20
579.000000
0
SEQEND
0
POLYLINE
8
0
6
CONTINUOUS
66
1
62
7
10
0.0
20
0.0
30
0.000000
0
VERTEX
8
0
10
444.000000
20
573.000000
0
VERTEX
8
0
10
437.846154
20
575.769231
0
VERTEX
8
0
10
434.000000
20
583.000000
0
VERTEX
8
0
10
434.000000
20
585.000000
0
VERTEX
8
0
10
435.000000
20
586.000000
0
VERTEX
8
0
10
434.000000
20
604.000000
0
VERTEX
8
0
10
437.000000
20
611.000000
0
VERTEX
8
0
10
436.000000
20
618.000000
0
VERTEX
8
0
10
433.000000
20
621.000000
0
VERTEX
8
0
10
427.000000
20
622.000000
0
SEQEND
0
POLYLINE
8
0
6
CONTINUOUS
66
1
62
7
10
0.0
20
0.0
30
0.000000
0
VERTEX
8
0
10
444.000000
20
573.000000
0
VERTEX
8
0
10
448.000000
20
581.000000
0
SEQEND
0
POLYLINE
8
0
6
CONTINUOUS
66
1
62
251
10
0.0
20
0.0
30
0.000000
0
VERTEX
8
0
10
262.000000
20
572.000000
0
VERTEX
8
0
10
261.000000
20
572.000000
0
SEQEND
0
POLYLINE
8
0
6
CONTINUOUS
66
1
62
7
10
0.0
20
0.0
30
0.000000
0
VERTEX
8
0
10
370.000000
20
572.000000
0
VERTEX
8
0
10
370.000000
20
573.000000
0
VERTEX
8
0
10
369.000000
20
573.000000
0
SEQEND
0
POLYLINE
8
0
6
CONTINUOUS
66
1
62
7
10
0.0
20
0.0
30
0.000000
0
VERTEX
8
0
10
370.000000
20
572.000000
0
VERTEX
8
0
10
372.100000
20
572.800000
0
VERTEX
8
0
10
375.250000
20
574.750000
0
VERTEX
8
0
10
376.000000
20
576.000000
0
SEQEND
0
POLYLINE
8
0
6
CONTINUOUS
66
1
62
7
10
0.0
20
0.0
30
0.000000
0
VERTEX
8
0
10
447.000000
20
569.000000
0
VERTEX
8
0
10
444.000000
20
573.000000
0
SEQEND
0
POLYLINE
8
0
6
CONTINUOUS
66
1
62
7
10
0.0
20
0.0
30
0.000000
0
VERTEX
8
0
10
447.000000
20
569.000000
0
VERTEX
8
0
10
455.000000
20
572.000000
0
VERTEX
8
0
10
479.000000
20
580.000000
0
VERTEX
8
0
10
490.000000
20
580.000000
0
VERTEX
8
0
10
497.900000
20
576.800000
0
VERTEX
8
0
10
499.000000
20
576.000000
0
SEQEND
0
POLYLINE
8
0
6
CONTINUOUS
66
1
62
7
10
0.0
20
0.0
30
0.000000
0
VERTEX
8
0
10
362.000000
20
563.000000
0
VERTEX
8
0
10
354.100000
20
568.200000
0
VERTEX
8
0
10
350.932432
20
569.594595
0
VERTEX
8
0
10
342.900000
20
571.700000
0
VERTEX
8
0
10
332.951220
20
576.560976
0
VERTEX
8
0
10
325.000000
20
577.000000
0
VERTEX
8
0
10
323.750000
20
577.750000
0
VERTEX
8
0
10
323.000000
20
578.000000
0
VERTEX
8
0
10
313.088235
20
576.647059
0
VERTEX
8
0
10
308.000000
20
575.000000
0
SEQEND
0
POLYLINE
8
0
6
CONTINUOUS
66
1
62
7
10
0.0
20
0.0
30
0.000000
0
VERTEX
8
0
10
363.000000
20
563.000000
0
VERTEX
8
0
10
362.000000
20
563.000000
0
SEQEND
0
POLYLINE
8
0
6
CONTINUOUS
66
1
62
7
10
0.0
20
0.0
30
0.000000
0
VERTEX
8
0
10
363.000000
20
563.000000
0
VERTEX
8
0
10
367.754098
20
568.204918
0
VERTEX
8
0
10
370.000000
20
570.000000
0
VERTEX
8
0
10
370.000000
20
572.000000
0
SEQEND
0
POLYLINE
8
0
6
CONTINUOUS
66
1
62
7
10
0.0
20
0.0
30
0.000000
0
VERTEX
8
0
10
364.000000
20
562.000000
0
VERTEX
8
0
10
363.000000
20
563.000000
0
SEQEND
0
POLYLINE
8
0
6
CONTINUOUS
66
1
62
7
10
0.0
20
0.0
30
0.000000
0
VERTEX
8
0
10
445.000000
20
562.000000
0
VERTEX
8
0
10
442.000000
20
562.000000
0
VERTEX
8
0
10
440.750000
20
562.750000
0
VERTEX
8
0
10
440.250000
20
563.250000
0
VERTEX
8
0
10
426.750000
20
573.750000
0
VERTEX
8
0
10
425.000000
20
579.000000
0
SEQEND
0
POLYLINE
8
0
6
CONTINUOUS
66
1
62
7
10
0.0
20
0.0
30
0.000000
0
VERTEX
8
0
10
445.000000
20
562.000000
0
VERTEX
8
0
10
445.750000
20
562.250000
0
VERTEX
8
0
10
447.000000
20
569.000000
0
SEQEND
0
POLYLINE
8
0
6
CONTINUOUS
66
1
62
7
10
0.0
20
0.0
30
0.000000
0
VERTEX
8
0
10
323.000000
20
559.000000
0
VERTEX
8
0
10
323.000000
20
561.000000
0
VERTEX
8
0
10
308.000000
20
573.000000
0
VERTEX
8
0
10
308.000000
20
575.000000
0
SEQEND
0
POLYLINE
8
0
6
CONTINUOUS
66
1
62
7
10
0.0
20
0.0
30
0.000000
0
VERTEX
8
0
10
324.000000
20
559.000000
0
VERTEX
8
0
10
323.000000
20
559.000000
0
SEQEND
0
POLYLINE
8
0
6
CONTINUOUS
66
1
62
7
10
0.0
20
0.0
30
0.000000
0
VERTEX
8
0
10
484.000000
20
558.000000
0
VERTEX
8
0
10
485.200000
20
561.900000
0
VERTEX
8
0
10
492.000000
20
569.000000
0
VERTEX
8
0
10
493.000000
20
569.000000
0
VERTEX
8
0
10
499.000000
20
575.000000
0
VERTEX
8
0
10
499.000000
20
576.000000
0
SEQEND
0
POLYLINE
8
0
6
CONTINUOUS
66
1
62
7
10
0.0
20
0.0
30
0.000000
0
VERTEX
8
0
10
696.000000
20
558.000000
0
VERTEX
8
0
10
704.000000
20
561.000000
0
VERTEX
8
0
10
706.000000
20
563.000000
0
VERTEX
8
0
10
706.000000
20
564.000000
0
VERTEX
8
0
10
704.100000
20
565.200000
0
VERTEX
8
0
10
703.000000
20
566.000000
0
VERTEX
8
0
10
689.250000
20
564.750000
0
VERTEX
8
0
10
688.100000
20
563.800000
0
VERTEX
8
0
10
684.800000
20
561.100000
0
VERTEX
8
0
10
684.000000
20
559.000000
0
SEQEND
0
POLYLINE
8
0
6
CONTINUOUS
66
1
62
7
10
0.0
20
0.0
30
0.000000
0
VERTEX
8
0
10
484.000000
20
557.000000
0
VERTEX
8
0
10
484.000000
20
558.000000
0
SEQEND
0
POLYLINE
8
0
6
CONTINUOUS
66
1
62
7
10
0.0
20
0.0
30
0.000000
0
VERTEX
8
0
10
684.000000
20
559.000000
0
VERTEX
8
0
10
686.000000
20
557.000000
0
VERTEX
8
0
10
692.000000
20
557.000000
0
VERTEX
8
0
10
696.000000
20
558.000000
0
SEQEND
0
POLYLINE
8
0
6
CONTINUOUS
66
1
62
250
10
0.0
20
0.0
30
0.000000
0
VERTEX
8
0
10
358.000000
20
556.000000
0
VERTEX
8
0
10
351.955446
20
557.554455
0
VERTEX
8
0
10
339.000000
20
559.000000
0
VERTEX
8
0
10
338.000000
20
558.000000
0
VERTEX
8
0
10
324.000000
20
559.000000
0
SEQEND
0
POLYLINE
8
0
6
CONTINUOUS
66
1
62
7
10
0.0
20
0.0
30
0.000000
0
VERTEX
8
0
10
358.000000
20
556.000000
0
VERTEX
8
0
10
362.000000
20
563.000000
0
SEQEND
0
POLYLINE
8
0
6
CONTINUOUS
66
1
62
7
10
0.0
20
0.0
30
0.000000
0
VERTEX
8
0
10
446.000000
20
556.000000
0
VERTEX
8
0
10
445.000000
20
562.000000
0
SEQEND
0
POLYLINE
8
0
6
CONTINUOUS
66
1
62
7
10
0.0
20
0.0
30
0.000000
0
VERTEX
8
0
10
446.000000
20
556.000000
0
VERTEX
8
0
10
464.000000
20
560.000000
0
VERTEX
8
0
10
468.000000
20
560.000000
0
VERTEX
8
0
10
470.900000
20
558.700000
0
VERTEX
8
0
10
482.100000
20
558.200000
0
VERTEX
8
0
10
484.000000
20
558.000000
0
SEQEND
0
POLYLINE
8
0
6
CONTINUOUS
66
1
62
7
10
0.0
20
0.0
30
0.000000
0
VERTEX
8
0
10
486.000000
20
556.000000
0
VERTEX
8
0
10
484.000000
20
557.000000
0
SEQEND
0
POLYLINE
8
0
6
CONTINUOUS
66
1
62
7
10
0.0
20
0.0
30
0.000000
0
VERTEX
8
0
10
407.000000
20
555.000000
0
VERTEX
8
0
10
408.000000
20
562.000000
0
VERTEX
8
0
10
411.000000
20
566.000000
0
VERTEX
8
0
10
410.000000
20
573.000000
0
SEQEND
0
POLYLINE
8
0
6
CONTINUOUS
66
1
62
7
10
0.0
20
0.0
30
0.000000
0
VERTEX
8
0
10
416.000000
20
555.000000
0
VERTEX
8
0
10
417.000000
20
556.000000
0
VERTEX
8
0
10
417.000000
20
558.000000
0
SEQEND
0
POLYLINE
8
0
6
CONTINUOUS
66
1
62
7
10
0.0
20
0.0
30
0.000000
0
VERTEX
8
0
10
698.000000
20
555.000000
0
VERTEX
8
0
10
696.000000
20
557.000000
0
VERTEX
8
0
10
696.000000
20
558.000000
0
SEQEND
0
POLYLINE
8
0
6
CONTINUOUS
66
1
62
250
10
0.0
20
0.0
30
0.000000
0
VERTEX
8
0
10
301.000000
20
554.000000
0
VERTEX
8
0
10
297.691781
20
556.178082
0
VERTEX
8
0
10
291.932432
20
557.594595
0
VERTEX
8
0
10
287.067568
20
558.405405
0
VERTEX
8
0
10
270.750000
20
565.750000
0
VERTEX
8
0
10
266.000000
20
569.000000
0
SEQEND
0
POLYLINE
8
0
6
CONTINUOUS
66
1
62
250
10
0.0
20
0.0
30
0.000000
0
VERTEX
8
0
10
301.000000
20
554.000000
0
VERTEX
8
0
10
305.206897
20
555.482759
0
VERTEX
8
0
10
319.088235
20
558.647059
0
VERTEX
8
0
10
323.000000
20
559.000000
0
SEQEND
0
POLYLINE
8
0
6
CONTINUOUS
66
1
62
7
10
0.0
20
0.0
30
0.000000
0
VERTEX
8
0
10
399.000000
20
554.000000
0
VERTEX
8
0
10
399.000000
20
555.000000
0
VERTEX
8
0
10
395.000000
20
567.000000
0
VERTEX
8
0
10
396.000000
20
568.000000
0
SEQEND
0
POLYLINE
8
0
6
CONTINUOUS
66
1
62
250
10
0.0
20
0.0
30
0.000000
0
VERTEX
8
0
10
416.000000
20
555.000000
0
VERTEX
8
0
10
417.000000
20
554.000000
0
VERTEX
8
0
10
446.000000
20
556.000000
0
SEQEND
0
POLYLINE
8
0
6
CONTINUOUS
66
1
62
250
10
0.0
20
0.0
30
0.000000
0
VERTEX
8
0
10
721.000000
20
554.000000
0
VERTEX
8
0
10
713.067568
20
555.405405
0
VERTEX
8
0
10
705.000000
20
556.000000
0
VERTEX
8
0
10
698.000000
20
555.000000
0
SEQEND
0
POLYLINE
8
0
6
CONTINUOUS
66
1
62
7
10
0.0
20
0.0
30
0.000000
0
VERTEX
8
0
10
721.000000
20
554.000000
0
VERTEX
8
0
10
721.750000
20
554.250000
0
VERTEX
8
0
10
723.250000
20
625.750000
0
VERTEX
8
0
10
724.000000
20
626.000000
0
SEQEND
0
POLYLINE
8
0
6
CONTINUOUS
66
1
62
7
10
0.0
20
0.0
30
0.000000
0
VERTEX
8
0
10
362.000000
20
553.000000
0
VERTEX
8
0
10
358.000000
20
556.000000
0
SEQEND
0
POLYLINE
8
0
6
CONTINUOUS
66
1
62
250
10
0.0
20
0.0
30
0.000000
0
VERTEX
8
0
10
396.000000
20
553.000000
0
VERTEX
8
0
10
394.000000
20
554.000000
0
VERTEX
8
0
10
365.000000
20
555.000000
0
VERTEX
8
0
10
362.000000
20
553.000000
0
SEQEND
0
POLYLINE
8
0
6
CONTINUOUS
66
1
62
7
10
0.0
20
0.0
30
0.000000
0
VERTEX
8
0
10
396.000000
20
553.000000
0
VERTEX
8
0
10
399.000000
20
554.000000
0
SEQEND
0
POLYLINE
8
0
6
CONTINUOUS
66
1
62
7
10
0.0
20
0.0
30
0.000000
0
VERTEX
8
0
10
399.000000
20
554.000000
0
VERTEX
8
0
10
401.000000
20
553.000000
0
VERTEX
8
0
10
406.750000
20
554.250000
0
VERTEX
8
0
10
407.000000
20
555.000000
0
SEQEND
0
POLYLINE
8
0
6
CONTINUOUS
66
1
62
7
10
0.0
20
0.0
30
0.000000
0
VERTEX
8
0
10
414.000000
20
553.000000
0
VERTEX
8
0
10
407.000000
20
555.000000
0
SEQEND
0
POLYLINE
8
0
6
CONTINUOUS
66
1
62
7
10
0.0
20
0.0
30
0.000000
0
VERTEX
8
0
10
414.000000
20
553.000000
0
VERTEX
8
0
10
416.000000
20
555.000000
0
SEQEND
0
POLYLINE
8
0
6
CONTINUOUS
66
1
62
7
10
0.0
20
0.0
30
0.000000
0
VERTEX
8
0
10
499.000000
20
553.000000
0
VERTEX
8
0
10
497.900000
20
553.800000
0
VERTEX
8
0
10
488.000000
20
557.000000
0
VERTEX
8
0
10
486.000000
20
556.000000
0
SEQEND
0
POLYLINE
8
0
6
CONTINUOUS
66
1
62
7
10
0.0
20
0.0
30
0.000000
0
VERTEX
8
0
10
502.000000
20
553.000000
0
VERTEX
8
0
10
499.000000
20
553.000000
0
SEQEND
0
POLYLINE
8
0
6
CONTINUOUS
66
1
62
250
10
0.0
20
0.0
30
0.000000
0
VERTEX
8
0
10
502.000000
20
553.000000
0
VERTEX
8
0
10
502.800000
20
555.100000
0
VERTEX
8
0
10
519.200000
20
561.600000
0
VERTEX
8
0
10
522.088235
20
562.647059
0
VERTEX
8
0
10
527.800000
20
564.400000
0
VERTEX
8
0
10
530.153846
20
565.769231
0
VERTEX
8
0
10
541.788235
20
574.247059
0
VERTEX
8
0
10
548.000000
20
580.000000
0
SEQEND
0
POLYLINE
8
0
6
CONTINUOUS
66
1
62
7
10
0.0
20
0.0
30
0.000000
0
VERTEX
8
0
10
517.000000
20
551.000000
0
VERTEX
8
0
10
518.250000
20
553.750000
0
VERTEX
8
0
10
559.900000
20
569.200000
0
VERTEX
8
0
10
569.000000
20
570.000000
0
VERTEX
8
0
10
596.900000
20
580.200000
0
VERTEX
8
0
10
629.100000
20
600.800000
0
VERTEX
8
0
10
630.000000
20
601.000000
0
SEQEND
0
POLYLINE
8
0
6
CONTINUOUS
66
1
62
7
10
0.0
20
0.0
30
0.000000
0
VERTEX
8
0
10
656.000000
20
551.000000
0
VERTEX
8
0
10
662.100000
20
553.800000
0
VERTEX
8
0
10
672.900000
20
558.300000
0
VERTEX
8
0
10
684.000000
20
559.000000
0
SEQEND
0
POLYLINE
8
0
6
CONTINUOUS
66
1
62
7
10
0.0
20
0.0
30
0.000000
0
VERTEX
8
0
10
721.000000
20
551.000000
0
VERTEX
8
0
10
721.000000
20
554.000000
0
SEQEND
0
POLYLINE
8
0
6
CONTINUOUS
66
1
62
7
10
0.0
20
0.0
30
0.000000
0
VERTEX
8
0
10
107.000000
20
550.000000
0
VERTEX
8
0
10
105.000000
20
551.000000
0
VERTEX
8
0
10
98.951220
20
550.439024
0
VERTEX
8
0
10
90.000000
20
550.000000
0
SEQEND
0
POLYLINE
8
0
6
CONTINUOUS
66
1
62
250
10
0.0
20
0.0
30
0.000000
0
VERTEX
8
0
10
107.000000
20
550.000000
0
VERTEX
8
0
10
110.911765
20
551.352941
0
VERTEX
8
0
10
117.000000
20
554.000000
0
VERTEX
8
0
10
125.000000
20
554.000000
0
VERTEX
8
0
10
127.000000
20
553.000000
0
SEQEND
0
POLYLINE
8
0
6
CONTINUOUS
66
1
62
7
10
0.0
20
0.0
30
0.000000
0
VERTEX
8
0
10
276.000000
20
550.000000
0
VERTEX
8
0
10
275.200000
20
551.100000
0
VERTEX
8
0
10
257.846154
20
560.769231
0
VERTEX
8
0
10
249.153846
20
565.230769
0
VERTEX
8
0
10
246.897611
20
566.129693
0
VERTEX
8
0
10
232.029183
20
567.466926
0
VERTEX
8
0
10
215.750000
20
573.750000
0
VERTEX
8
0
10
214.000000
20
574.000000
0
VERTEX
8
0
10
178.900000
20
594.800000
0
VERTEX
8
0
10
176.900000
20
595.800000
0
VERTEX
8
0
10
156.307692
20
604.461538
0
VERTEX
8
0
10
151.153846
20
608.230769
0
VERTEX
8
0
10
145.946154
20
610.569231
0
VERTEX
8
0
10
137.100000
20
612.200000
0
VERTEX
8
0
10
135.900000
20
612.800000
0
VERTEX
8
0
10
126.900000
20
619.700000
0
VERTEX
8
0
10
125.100000
20
620.300000
0
VERTEX
8
0
10
122.000000
20
622.000000
0
VERTEX
8
0
10
122.000000
20
623.000000
0
SEQEND
0
POLYLINE
8
0
6
CONTINUOUS
66
1
62
252
10
0.0
20
0.0
30
0.000000
0
VERTEX
8
0
10
697.000000
20
550.000000
0
VERTEX
8
0
10
695.000000
20
550.000000
0
SEQEND
0
POLYLINE
8
0
6
CONTINUOUS
66
1
62
250
10
0.0
20
0.0
30
0.000000
0
VERTEX
8
0
10
697.000000
20
550.000000
0
VERTEX
8
0
10
698.000000
20
555.000000
0
SEQEND
0
POLYLINE
8
0
6
CONTINUOUS
66
1
62
7
10
0.0
20
0.0
30
0.000000
0
VERTEX
8
0
10
148.000000
20
549.000000
0
VERTEX
8
0
10
147.000000
20
549.000000
0
VERTEX
8
0
10
141.000000
20
551.000000
0
VERTEX
8
0
10
140.750000
20
551.750000
0
VERTEX
8
0
10
135.820000
20
555.760000
0
VERTEX
8
0
10
135.100000
20
556.200000
0
VERTEX
8
0
10
129.000000
20
559.000000
0
VERTEX
8
0
10
115.000000
20
559.000000
0
VERTEX
8
0
10
114.000000
20
558.000000
0
VERTEX
8
0
10
107.000000
20
560.000000
0
VERTEX
8
0
10
103.000000
20
560.000000
0
VERTEX
8
0
10
101.100000
20
558.800000
0
VERTEX
8
0
10
99.900000
20
558.200000
0
VERTEX
8
0
10
90.250000
20
553.750000
0
VERTEX
8
0
10
89.800000
20
553.100000
0
VERTEX
8
0
10
89.800000
20
550.900000
0
VERTEX
8
0
10
90.000000
20
550.000000
0
SEQEND
0
POLYLINE
8
0
6
CONTINUOUS
66
1
62
250
10
0.0
20
0.0
30
0.000000
0
VERTEX
8
0
10
718.000000
20
549.000000
0
VERTEX
8
0
10
721.000000
20
551.000000
0
SEQEND
0
POLYLINE
8
0
6
CONTINUOUS
66
1
62
7
10
0.0
20
0.0
30
0.000000
0
VERTEX
8
0
10
83.000000
20
548.000000
0
VERTEX
8
0
10
81.531034
20
564.972414
0
VERTEX
8
0
10
81.000000
20
629.000000
0
VERTEX
8
0
10
81.000000
20
630.000000
0
SEQEND
0
POLYLINE
8
0
6
CONTINUOUS
66
1
62
7
10
0.0
20
0.0
30
0.000000
0
VERTEX
8
0
10
83.000000
20
548.000000
0
VERTEX
8
0
10
84.000000
20
548.000000
0
VERTEX
8
0
10
88.750000
20
549.250000
0
VERTEX
8
0
10
90.000000
20
550.000000
0
SEQEND
0
POLYLINE
8
0
6
CONTINUOUS
66
1
62
7
10
0.0
20
0.0
30
0.000000
0
VERTEX
8
0
10
363.000000
20
548.000000
0
VERTEX
8
0
10
362.000000
20
553.000000
0
SEQEND
0
POLYLINE
8
0
6
CONTINUOUS
66
1
62
7
10
0.0
20
0.0
30
0.000000
0
VERTEX
8
0
10
508.000000
20
548.000000
0
VERTEX
8
0
10
508.000000
20
549.000000
0
VERTEX
8
0
10
503.100000
20
552.200000
0
VERTEX
8
0
10
502.000000
20
553.000000
0
SEQEND
0
POLYLINE
8
0
6
CONTINUOUS
66
1
62
7
10
0.0
20
0.0
30
0.000000
0
VERTEX
8
0
10
508.000000
20
548.000000
0
VERTEX
8
0
10
509.000000
20
548.000000
0
VERTEX
8
0
10
517.000000
20
551.000000
0
SEQEND
0
POLYLINE
8
0
6
CONTINUOUS
66
1
62
250
10
0.0
20
0.0
30
0.000000
0
VERTEX
8
0
10
564.000000
20
548.000000
0
VERTEX
8
0
10
565.900000
20
549.200000
0
VERTEX
8
0
10
581.000000
20
553.000000
0
VERTEX
8
0
10
597.000000
20
552.000000
0
VERTEX
8
0
10
598.048780
20
552.560976
0
VERTEX
8
0
10
612.000000
20
555.000000
0
VERTEX
8
0
10
613.000000
20
554.000000
0
VERTEX
8
0
10
618.000000
20
555.000000
0
VERTEX
8
0
10
626.951220
20
553.560976
0
VERTEX
8
0
10
635.000000
20
552.000000
0
VERTEX
8
0
10
648.000000
20
552.000000
0
VERTEX
8
0
10
649.000000
20
553.000000
0
VERTEX
8
0
10
651.076923
20
552.384615
0
VERTEX
8
0
10
656.000000
20
551.000000
0
SEQEND
0
POLYLINE
8
0
6
CONTINUOUS
66
1
62
250
10
0.0
20
0.0
30
0.000000
0
VERTEX
8
0
10
697.000000
20
548.000000
0
VERTEX
8
0
10
696.000000
20
548.000000
0
VERTEX
8
0
10
695.000000
20
549.000000
0
VERTEX
8
0
10
695.000000
20
550.000000
0
SEQEND
0
POLYLINE
8
0
6
CONTINUOUS
66
1
62
252
10
0.0
20
0.0
30
0.000000
0
VERTEX
8
0
10
697.000000
20
548.000000
0
VERTEX
8
0
10
697.000000
20
550.000000
0
SEQEND
0
POLYLINE
8
0
6
CONTINUOUS
66
1
62
7
10
0.0
20
0.0
30
0.000000
0
VERTEX
8
0
10
708.000000
20
548.000000
0
VERTEX
8
0
10
708.900000
20
549.200000
0
VERTEX
8
0
10
710.000000
20
550.000000
0
VERTEX
8
0
10
716.000000
20
550.000000
0
VERTEX
8
0
10
718.000000
20
549.000000
0
SEQEND
0
POLYLINE
8
0
6
CONTINUOUS
66
1
62
7
10
0.0
20
0.0
30
0.000000
0
VERTEX
8
0
10
291.000000
20
547.000000
0
VERTEX
8
0
10
290.000000
20
547.000000
0
VERTEX
8
0
10
276.000000
20
550.000000
0
SEQEND
0
POLYLINE
8
0
6
CONTINUOUS
66
1
62
7
10
0.0
20
0.0
30
0.000000
0
VERTEX
8
0
10
291.000000
20
547.000000
0
VERTEX
8
0
10
291.000000
20
548.000000
0
VERTEX
8
0
10
293.000000
20
550.000000
0
VERTEX
8
0
10
299.100000
20
552.800000
0
VERTEX
8
0
10
301.000000
20
554.000000
0
SEQEND
0
POLYLINE
8
0
6
CONTINUOUS
66
1
62
7
10
0.0
20
0.0
30
0.000000
0
VERTEX
8
0
10
697.000000
20
548.000000
0
VERTEX
8
0
10
698.000000
20
548.000000
0
VERTEX
8
0
10
705.900000
20
547.300000
0
VERTEX
8
0
10
708.000000
20
548.000000
0
SEQEND
0
POLYLINE
8
0
6
CONTINUOUS
66
1
62
7
10
0.0
20
0.0
30
0.000000
0
VERTEX
8
0
10
107.000000
20
546.000000
0
VERTEX
8
0
10
106.000000
20
547.000000
0
VERTEX
8
0
10
106.800000
20
549.100000
0
VERTEX
8
0
10
107.000000
20
550.000000
0
SEQEND
0
POLYLINE
8
0
6
CONTINUOUS
66
1
62
7
10
0.0
20
0.0
30
0.000000
0
VERTEX
8
0
10
718.000000
20
546.000000
0
VERTEX
8
0
10
717.000000
20
546.000000
0
VERTEX
8
0
10
709.000000
20
546.000000
0
VERTEX
8
0
10
708.000000
20
548.000000
0
SEQEND
0
POLYLINE
8
0
6
CONTINUOUS
66
1
62
250
10
0.0
20
0.0
30
0.000000
0
VERTEX
8
0
10
718.000000
20
546.000000
0
VERTEX
8
0
10
718.000000
20
549.000000
0
SEQEND
0
POLYLINE
8
0
6
CONTINUOUS
66
1
62
7
10
0.0
20
0.0
30
0.000000
0
VERTEX
8
0
10
443.000000
20
545.000000
0
VERTEX
8
0
10
443.000000
20
546.000000
0
VERTEX
8
0
10
444.200000
20
549.900000
0
VERTEX
8
0
10
445.000000
20
551.000000
0
SEQEND
0
POLYLINE
8
0
6
CONTINUOUS
66
1
62
250
10
0.0
20
0.0
30
0.000000
0
VERTEX
8
0
10
558.000000
20
545.000000
0
VERTEX
8
0
10
551.250000
20
546.250000
0
VERTEX
8
0
10
550.750000
20
546.750000
0
VERTEX
8
0
10
531.060000
20
550.420000
0
VERTEX
8
0
10
517.250000
20
550.250000
0
VERTEX
8
0
10
517.000000
20
551.000000
0
SEQEND
0
POLYLINE
8
0
6
CONTINUOUS
66
1
62
250
10
0.0
20
0.0
30
0.000000
0
VERTEX
8
0
10
558.000000
20
545.000000
0
VERTEX
8
0
10
561.264706
20
547.558824
0
VERTEX
8
0
10
564.000000
20
548.000000
0
SEQEND
0
POLYLINE
8
0
6
CONTINUOUS
66
1
62
7
10
0.0
20
0.0
30
0.000000
0
VERTEX
8
0
10
678.000000
20
545.000000
0
VERTEX
8
0
10
677.000000
20
546.000000
0
SEQEND
0
POLYLINE
8
0
6
CONTINUOUS
66
1
62
7
10
0.0
20
0.0
30
0.000000
0
VERTEX
8
0
10
678.000000
20
545.000000
0
VERTEX
8
0
10
684.000000
20
550.000000
0
VERTEX
8
0
10
690.000000
20
550.000000
0
VERTEX
8
0
10
691.000000
20
549.000000
0
VERTEX
8
0
10
694.100000
20
549.800000
0
VERTEX
8
0
10
695.000000
20
550.000000
0
SEQEND
0
POLYLINE
8
0
6
CONTINUOUS
66
1
62
250
10
0.0
20
0.0
30
0.000000
0
VERTEX
8
0
10
721.000000
20
544.000000
0
VERTEX
8
0
10
718.000000
20
546.000000
0
SEQEND
0
POLYLINE
8
0
6
CONTINUOUS
66
1
62
7
10
0.0
20
0.0
30
0.000000
0
VERTEX
8
0
10
721.000000
20
544.000000
0
VERTEX
8
0
10
723.000000
20
546.000000
0
VERTEX
8
0
10
723.000000
20
549.000000
0
VERTEX
8
0
10
721.000000
20
551.000000
0
SEQEND
0
POLYLINE
8
0
6
CONTINUOUS
66
1
62
7
10
0.0
20
0.0
30
0.000000
0
VERTEX
8
0
10
83.000000
20
543.000000
0
VERTEX
8
0
10
82.000000
20
545.000000
0
VERTEX
8
0
10
82.800000
20
547.100000
0
VERTEX
8
0
10
83.000000
20
548.000000
0
SEQEND
0
POLYLINE
8
0
6
CONTINUOUS
66
1
62
7
10
0.0
20
0.0
30
0.000000
0
VERTEX
8
0
10
244.000000
20
543.000000
0
VERTEX
8
0
10
239.750000
20
545.750000
0
VERTEX
8
0
10
227.088235
20
549.352941
0
VERTEX
8
0
10
201.000000
20
551.000000
0
VERTEX
8
0
10
198.932432
20
550.405405
0
VERTEX
8
0
10
190.100000
20
548.700000
0
VERTEX
8
0
10
186.000000
20
547.000000
0
VERTEX
8
0
10
163.000000
20
547.000000
0
VERTEX
8
0
10
155.946154
20
548.569231
0
VERTEX
8
0
10
148.000000
20
549.000000
0
SEQEND
0
POLYLINE
8
0
6
CONTINUOUS
66
1
62
7
10
0.0
20
0.0
30
0.000000
0
VERTEX
8
0
10
244.000000
20
543.000000
0
VERTEX
8
0
10
247.000000
20
543.000000
0
VERTEX
8
0
10
248.250000
20
543.750000
0
VERTEX
8
0
10
248.900000
20
544.200000
0
VERTEX
8
0
10
260.932432
20
547.405405
0
VERTEX
8
0
10
262.032995
20
547.538071
0
VERTEX
8
0
10
275.000000
20
548.000000
0
VERTEX
8
0
10
276.000000
20
550.000000
0
SEQEND
0
POLYLINE
8
0
6
CONTINUOUS
66
1
62
7
10
0.0
20
0.0
30
0.000000
0
VERTEX
8
0
10
327.000000
20
543.000000
0
VERTEX
8
0
10
324.000000
20
558.000000
0
VERTEX
8
0
10
324.000000
20
559.000000
0
SEQEND
0
POLYLINE
8
0
6
CONTINUOUS
66
1
62
250
10
0.0
20
0.0
30
0.000000
0
VERTEX
8
0
10
488.000000
20
543.000000
0
VERTEX
8
0
10
487.300000
20
544.100000
0
VERTEX
8
0
10
486.000000
20
556.000000
0
SEQEND
0
POLYLINE
8
0
6
CONTINUOUS
66
1
62
7
10
0.0
20
0.0
30
0.000000
0
VERTEX
8
0
10
490.000000
20
543.000000
0
VERTEX
8
0
10
488.000000
20
543.000000
0
SEQEND
0
POLYLINE
8
0
6
CONTINUOUS
66
1
62
7
10
0.0
20
0.0
30
0.000000
0
VERTEX
8
0
10
490.000000
20
543.000000
0
VERTEX
8
0
10
491.250000
20
544.750000
0
VERTEX
8
0
10
496.240000
20
547.820000
0
VERTEX
8
0
10
498.760000
20
551.180000
0
VERTEX
8
0
10
499.000000
20
553.000000
0
SEQEND
0
POLYLINE
8
0
6
CONTINUOUS
66
1
62
250
10
0.0
20
0.0
30
0.000000
0
VERTEX
8
0
10
89.000000
20
542.000000
0
VERTEX
8
0
10
83.000000
20
543.000000
0
SEQEND
0
POLYLINE
8
0
6
CONTINUOUS
66
1
62
250
10
0.0
20
0.0
30
0.000000
0
VERTEX
8
0
10
89.000000
20
542.000000
0
VERTEX
8
0
10
94.000000
20
544.000000
0
VERTEX
8
0
10
95.000000
20
543.000000
0
VERTEX
8
0
10
101.000000
20
543.000000
0
VERTEX
8
0
10
102.000000
20
544.000000
0
VERTEX
8
0
10
104.000000
20
544.000000
0
VERTEX
8
0
10
105.000000
20
543.000000
0
VERTEX
8
0
10
107.000000
20
544.000000
0
VERTEX
8
0
10
107.000000
20
546.000000
0
SEQEND
0
POLYLINE
8
0
6
CONTINUOUS
66
1
62
7
10
0.0
20
0.0
30
0.000000
0
VERTEX
8
0
10
371.000000
20
542.000000
0
VERTEX
8
0
10
368.846154
20
543.769231
0
VERTEX
8
0
10
363.000000
20
548.000000
0
SEQEND
0
POLYLINE
8
0
6
CONTINUOUS
66
1
62
7
10
0.0
20
0.0
30
0.000000
0
VERTEX
8
0
10
490.000000
20
543.000000
0
VERTEX
8
0
10
490.250000
20
542.250000
0
VERTEX
8
0
10
497.946154
20
542.430769
0
VERTEX
8
0
10
505.750000
20
546.250000
0
VERTEX
8
0
10
508.000000
20
548.000000
0
SEQEND
0
POLYLINE
8
0
6
CONTINUOUS
66
1
62
7
10
0.0
20
0.0
30
0.000000
0
VERTEX
8
0
10
564.000000
20
542.000000
0
VERTEX
8
0
10
563.000000
20
542.000000
0
VERTEX
8
0
10
558.000000
20
544.000000
0
VERTEX
8
0
10
558.000000
20
545.000000
0
SEQEND
0
POLYLINE
8
0
6
CONTINUOUS
66
1
62
7
10
0.0
20
0.0
30
0.000000
0
VERTEX
8
0
10
564.000000
20
542.000000
0
VERTEX
8
0
10
564.000000
20
548.000000
0
SEQEND
0
POLYLINE
8
0
6
CONTINUOUS
66
1
62
7
10
0.0
20
0.0
30
0.000000
0
VERTEX
8
0
10
721.000000
20
542.000000
0
VERTEX
8
0
10
721.000000
20
544.000000
0
SEQEND
0
POLYLINE
8
0
6
CONTINUOUS
66
1
62
7
10
0.0
20
0.0
30
0.000000
0
VERTEX
8
0
10
437.000000
20
541.000000
0
VERTEX
8
0
10
443.000000
20
545.000000
0
SEQEND
0
POLYLINE
8
0
6
CONTINUOUS
66
1
62
7
10
0.0
20
0.0
30
0.000000
0
VERTEX
8
0
10
404.000000
20
539.000000
0
VERTEX
8
0
10
401.250000
20
541.250000
0
VERTEX
8
0
10
395.000000
20
545.000000
0
VERTEX
8
0
10
396.000000
20
553.000000
0
SEQEND
0
POLYLINE
8
0
6
CONTINUOUS
66
1
62
7
10
0.0
20
0.0
30
0.000000
0
VERTEX
8
0
10
404.000000
20
539.000000
0
VERTEX
8
0
10
409.100000
20
542.800000
0
VERTEX
8
0
10
413.000000
20
545.000000
0
VERTEX
8
0
10
414.000000
20
553.000000
0
SEQEND
0
POLYLINE
8
0
6
CONTINUOUS
66
1
62
7
10
0.0
20
0.0
30
0.000000
0
VERTEX
8
0
10
708.000000
20
538.000000
0
VERTEX
8
0
10
719.900000
20
541.200000
0
VERTEX
8
0
10
721.000000
20
542.000000
0
SEQEND
0
POLYLINE
8
0
6
CONTINUOUS
66
1
62
7
10
0.0
20
0.0
30
0.000000
0
VERTEX
8
0
10
485.000000
20
537.000000
0
VERTEX
8
0
10
488.000000
20
543.000000
0
SEQEND
0
POLYLINE
8
0
6
CONTINUOUS
66
1
62
7
10
0.0
20
0.0
30
0.000000
0
VERTEX
8
0
10
404.000000
20
536.000000
0
VERTEX
8
0
10
403.000000
20
537.000000
0
VERTEX
8
0
10
404.000000
20
539.000000
0
SEQEND
0
POLYLINE
8
0
6
CONTINUOUS
66
1
62
7
10
0.0
20
0.0
30
0.000000
0
VERTEX
8
0
10
661.000000
20
536.000000
0
VERTEX
8
0
10
670.000000
20
536.000000
0
VERTEX
8
0
10
678.000000
20
542.000000
0
VERTEX
8
0
10
678.000000
20
545.000000
0
SEQEND
0
POLYLINE
8
0
6
CONTINUOUS
66
1
62
251
10
0.0
20
0.0
30
0.000000
0
VERTEX
8
0
10
358.000000
20
535.000000
0
VERTEX
8
0
10
363.000000
20
548.000000
0
SEQEND
0
POLYLINE
8
0
6
CONTINUOUS
66
1
62
250
10
0.0
20
0.0
30
0.000000
0
VERTEX
8
0
10
98.000000
20
534.000000
0
VERTEX
8
0
10
95.800000
20
535.400000
0
VERTEX
8
0
10
92.000000
20
536.000000
0
VERTEX
8
0
10
89.000000
20
539.000000
0
VERTEX
8
0
10
89.000000
20
542.000000
0
SEQEND
0
POLYLINE
8
0
6
CONTINUOUS
66
1
62
250
10
0.0
20
0.0
30
0.000000
0
VERTEX
8
0
10
473.000000
20
534.000000
0
VERTEX
8
0
10
484.000000
20
557.000000
0
SEQEND
0
POLYLINE
8
0
6
CONTINUOUS
66
1
62
7
10
0.0
20
0.0
30
0.000000
0
VERTEX
8
0
10
690.000000
20
534.000000
0
VERTEX
8
0
10
691.800000
20
538.100000
0
VERTEX
8
0
10
694.000000
20
540.000000
0
VERTEX
8
0
10
702.000000
20
540.000000
0
VERTEX
8
0
10
708.000000
20
538.000000
0
SEQEND
0
POLYLINE
8
0
6
CONTINUOUS
66
1
62
250
10
0.0
20
0.0
30
0.000000
0
VERTEX
8
0
10
112.000000
20
533.000000
0
VERTEX
8
0
10
98.000000
20
534.000000
0
SEQEND
0
POLYLINE
8
0
6
CONTINUOUS
66
1
62
250
10
0.0
20
0.0
30
0.000000
0
VERTEX
8
0
10
450.000000
20
533.000000
0
VERTEX
8
0
10
447.250000
20
535.250000
0
VERTEX
8
0
10
444.352941
20
541.088235
0
VERTEX
8
0
10
443.000000
20
545.000000
0
SEQEND
0
POLYLINE
8
0
6
CONTINUOUS
66
1
62
7
10
0.0
20
0.0
30
0.000000
0
VERTEX
8
0
10
690.000000
20
534.000000
0
VERTEX
8
0
10
690.900000
20
533.800000
0
VERTEX
8
0
10
692.000000
20
533.000000
0
VERTEX
8
0
10
707.000000
20
533.000000
0
VERTEX
8
0
10
709.000000
20
535.000000
0
VERTEX
8
0
10
708.000000
20
538.000000
0
SEQEND
0
POLYLINE
8
0
6
CONTINUOUS
66
1
62
250
10
0.0
20
0.0
30
0.000000
0
VERTEX
8
0
10
325.000000
20
531.000000
0
VERTEX
8
0
10
314.900000
20
536.800000
0
VERTEX
8
0
10
304.911765
20
541.647059
0
VERTEX
8
0
10
293.200000
20
545.400000
0
VERTEX
8
0
10
291.000000
20
547.000000
0
SEQEND
0
POLYLINE
8
0
6
CONTINUOUS
66
1
62
7
10
0.0
20
0.0
30
0.000000
0
VERTEX
8
0
10
325.000000
20
531.000000
0
VERTEX
8
0
10
325.439024
20
539.951220
0
VERTEX
8
0
10
326.200000
20
541.900000
0
VERTEX
8
0
10
327.000000
20
543.000000
0
SEQEND
0
POLYLINE
8
0
6
CONTINUOUS
66
1
62
250
10
0.0
20
0.0
30
0.000000
0
VERTEX
8
0
10
656.000000
20
530.000000
0
VERTEX
8
0
10
656.000000
20
531.000000
0
VERTEX
8
0
10
656.461929
20
538.032995
0
VERTEX
8
0
10
656.000000
20
551.000000
0
SEQEND
0
POLYLINE
8
0
6
CONTINUOUS
66
1
62
7
10
0.0
20
0.0
30
0.000000
0
VERTEX
8
0
10
146.000000
20
529.000000
0
VERTEX
8
0
10
143.000000
20
531.000000
0
VERTEX
8
0
10
142.800000
20
531.900000
0
VERTEX
8
0
10
141.100000
20
534.200000
0
VERTEX
8
0
10
129.100000
20
536.300000
0
VERTEX
8
0
10
123.250000
20
540.250000
0
VERTEX
8
0
10
122.250000
20
543.250000
0
VERTEX
8
0
10
119.955446
20
544.554455
0
VERTEX
8
0
10
107.000000
20
546.000000
0
SEQEND
0
POLYLINE
8
0
6
CONTINUOUS
66
1
62
7
10
0.0
20
0.0
30
0.000000
0
VERTEX
8
0
10
146.000000
20
529.000000
0
VERTEX
8
0
10
148.000000
20
549.000000
0
SEQEND
0
POLYLINE
8
0
6
CONTINUOUS
66
1
62
7
10
0.0
20
0.0
30
0.000000
0
VERTEX
8
0
10
656.000000
20
530.000000
0
VERTEX
8
0
10
657.000000
20
530.000000
0
VERTEX
8
0
10
661.750000
20
528.750000
0
VERTEX
8
0
10
662.250000
20
528.250000
0
VERTEX
8
0
10
673.088235
20
528.647059
0
VERTEX
8
0
10
684.846154
20
530.769231
0
VERTEX
8
0
10
687.750000
20
532.250000
0
VERTEX
8
0
10
690.000000
20
534.000000
0
SEQEND
0
POLYLINE
8
0
6
CONTINUOUS
66
1
62
7
10
0.0
20
0.0
30
0.000000
0
VERTEX
8
0
10
326.000000
20
527.000000
0
VERTEX
8
0
10
325.000000
20
531.000000
0
SEQEND
0
POLYLINE
8
0
6
CONTINUOUS
66
1
62
7
10
0.0
20
0.0
30
0.000000
0
VERTEX
8
0
10
126.000000
20
525.000000
0
VERTEX
8
0
10
120.000000
20
536.000000
0
SEQEND
0
POLYLINE
8
0
6
CONTINUOUS
66
1
62
7
10
0.0
20
0.0
30
0.000000
0
VERTEX
8
0
10
98.000000
20
534.000000
0
VERTEX
8
0
10
96.250000
20
531.750000
0
VERTEX
8
0
10
96.000000
20
529.000000
0
VERTEX
8
0
10
97.000000
20
528.000000
0
VERTEX
8
0
10
107.000000
20
528.000000
0
VERTEX
8
0
10
109.900000
20
526.800000
0
VERTEX
8
0
10
111.067568
20
526.405405
0
VERTEX
8
0
10
125.000000
20
524.000000
0
VERTEX
8
0
10
126.000000
20
525.000000
0
SEQEND
0
POLYLINE
8
0
6
CONTINUOUS
66
1
62
7
10
0.0
20
0.0
30
0.000000
0
VERTEX
8
0
10
146.000000
20
524.000000
0
VERTEX
8
0
10
126.000000
20
525.000000
0
SEQEND
0
POLYLINE
8
0
6
CONTINUOUS
66
1
62
7
10
0.0
20
0.0
30
0.000000
0
VERTEX
8
0
10
146.000000
20
524.000000
0
VERTEX
8
0
10
146.000000
20
529.000000
0
SEQEND
0
POLYLINE
8
0
6
CONTINUOUS
66
1
62
7
10
0.0
20
0.0
30
0.000000
0
VERTEX
8
0
10
340.000000
20
524.000000
0
VERTEX
8
0
10
340.000000
20
525.000000
0
VERTEX
8
0
10
327.000000
20
543.000000
0
SEQEND
0
POLYLINE
8
0
6
CONTINUOUS
66
1
62
250
10
0.0
20
0.0
30
0.000000
0
VERTEX
8
0
10
563.000000
20
523.000000
0
VERTEX
8
0
10
564.000000
20
542.000000
0
SEQEND
0
POLYLINE
8
0
6
CONTINUOUS
66
1
62
7
10
0.0
20
0.0
30
0.000000
0
VERTEX
8
0
10
338.000000
20
522.000000
0
VERTEX
8
0
10
334.750000
20
523.750000
0
VERTEX
8
0
10
331.000000
20
526.000000
0
VERTEX
8
0
10
326.000000
20
527.000000
0
SEQEND
0
POLYLINE
8
0
6
CONTINUOUS
66
1
62
252
10
0.0
20
0.0
30
0.000000
0
VERTEX
8
0
10
338.000000
20
522.000000
0
VERTEX
8
0
10
340.000000
20
524.000000
0
SEQEND
0
POLYLINE
8
0
6
CONTINUOUS
66
1
62
250
10
0.0
20
0.0
30
0.000000
0
VERTEX
8
0
10
490.000000
20
522.000000
0
VERTEX
8
0
10
504.100000
20
522.700000
0
VERTEX
8
0
10
512.900000
20
526.200000
0
VERTEX
8
0
10
514.900000
20
527.200000
0
VERTEX
8
0
10
525.040984
20
529.549180
0
VERTEX
8
0
10
539.923077
20
531.384615
0
VERTEX
8
0
10
551.900000
20
536.200000
0
VERTEX
8
0
10
554.000000
20
537.000000
0
SEQEND
0
POLYLINE
8
0
6
CONTINUOUS
66
1
62
7
10
0.0
20
0.0
30
0.000000
0
VERTEX
8
0
10
246.000000
20
520.000000
0
VERTEX
8
0
10
244.615385
20
524.923077
0
VERTEX
8
0
10
244.000000
20
542.000000
0
VERTEX
8
0
10
244.000000
20
543.000000
0
SEQEND
0
POLYLINE
8
0
6
CONTINUOUS
66
1
62
250
10
0.0
20
0.0
30
0.000000
0
VERTEX
8
0
10
304.000000
20
519.000000
0
VERTEX
8
0
10
290.100000
20
526.200000
0
VERTEX
8
0
10
285.923077
20
527.615385
0
VERTEX
8
0
10
282.000000
20
528.000000
0
VERTEX
8
0
10
280.750000
20
527.250000
0
VERTEX
8
0
10
269.911765
20
527.647059
0
VERTEX
8
0
10
264.000000
20
529.000000
0
SEQEND
0
POLYLINE
8
0
6
CONTINUOUS
66
1
62
7
10
0.0
20
0.0
30
0.000000
0
VERTEX
8
0
10
342.000000
20
519.000000
0
VERTEX
8
0
10
338.250000
20
521.250000
0
VERTEX
8
0
10
338.000000
20
522.000000
0
SEQEND
0
POLYLINE
8
0
6
CONTINUOUS
66
1
62
250
10
0.0
20
0.0
30
0.000000
0
VERTEX
8
0
10
342.000000
20
519.000000
0
VERTEX
8
0
10
342.000000
20
523.000000
0
VERTEX
8
0
10
341.000000
20
524.000000
0
VERTEX
8
0
10
340.000000
20
524.000000
0
SEQEND
0
POLYLINE
8
0
6
CONTINUOUS
66
1
62
250
10
0.0
20
0.0
30
0.000000
0
VERTEX
8
0
10
467.000000
20
519.000000
0
VERTEX
8
0
10
466.000000
20
520.000000
0
VERTEX
8
0
10
466.000000
20
523.000000
0
VERTEX
8
0
10
468.000000
20
526.000000
0
VERTEX
8
0
10
468.000000
20
527.000000
0
SEQEND
0
POLYLINE
8
0
6
CONTINUOUS
66
1
62
250
10
0.0
20
0.0
30
0.000000
0
VERTEX
8
0
10
467.000000
20
519.000000
0
VERTEX
8
0
10
468.000000
20
519.000000
0
VERTEX
8
0
10
474.204918
20
523.754098
0
VERTEX
8
0
10
483.250000
20
535.750000
0
VERTEX
8
0
10
485.000000
20
537.000000
0
SEQEND
0
POLYLINE
8
0
6
CONTINUOUS
66
1
62
7
10
0.0
20
0.0
30
0.000000
0
VERTEX
8
0
10
563.000000
20
523.000000
0
VERTEX
8
0
10
565.750000
20
521.750000
0
VERTEX
8
0
10
575.000000
20
519.000000
0
VERTEX
8
0
10
576.000000
20
520.000000
0
VERTEX
8
0
10
578.000000
20
520.000000
0
VERTEX
8
0
10
579.000000
20
519.000000
0
VERTEX
8
0
10
598.000000
20
519.000000
0
VERTEX
8
0
10
620.900000
20
524.200000
0
VERTEX
8
0
10
626.088235
20
526.647059
0
VERTEX
8
0
10
644.044554
20
528.554455
0
VERTEX
8
0
10
656.000000
20
530.000000
0
SEQEND
0
POLYLINE
8
0
6
CONTINUOUS
66
1
62
250
10
0.0
20
0.0
30
0.000000
0
VERTEX
8
0
10
246.000000
20
520.000000
0
VERTEX
8
0
10
247.076923
20
520.615385
0
VERTEX
8
0
10
254.000000
20
522.000000
0
VERTEX
8
0
10
267.967005
20
520.538071
0
VERTEX
8
0
10
289.100000
20
520.300000
0
VERTEX
8
0
10
290.900000
20
519.700000
0
VERTEX
8
0
10
295.000000
20
518.000000
0
VERTEX
8
0
10
303.000000
20
518.000000
0
VERTEX
8
0
10
304.000000
20
519.000000
0
SEQEND
0
POLYLINE
8
0
6
CONTINUOUS
66
1
62
250
10
0.0
20
0.0
30
0.000000
0
VERTEX
8
0
10
487.000000
20
518.000000
0
VERTEX
8
0
10
486.541176
20
530.964706
0
VERTEX
8
0
10
485.615385
20
535.923077
0
VERTEX
8
0
10
485.000000
20
537.000000
0
SEQEND
0
POLYLINE
8
0
6
CONTINUOUS
66
1
62
250
10
0.0
20
0.0
30
0.000000
0
VERTEX
8
0
10
327.000000
20
517.000000
0
VERTEX
8
0
10
318.088235
20
518.352941
0
VERTEX
8
0
10
317.000000
20
519.000000
0
VERTEX
8
0
10
311.000000
20
519.000000
0
VERTEX
8
0
10
310.000000
20
518.000000
0
VERTEX
8
0
10
306.911765
20
518.647059
0
VERTEX
8
0
10
304.000000
20
519.000000
0
SEQEND
0
POLYLINE
8
0
6
CONTINUOUS
66
1
62
7
10
0.0
20
0.0
30
0.000000
0
VERTEX
8
0
10
327.000000
20
517.000000
0
VERTEX
8
0
10
326.000000
20
527.000000
0
SEQEND
0
POLYLINE
8
0
6
CONTINUOUS
66
1
62
7
10
0.0
20
0.0
30
0.000000
0
VERTEX
8
0
10
487.000000
20
518.000000
0
VERTEX
8
0
10
490.000000
20
517.000000
0
VERTEX
8
0
10
491.000000
20
518.000000
0
VERTEX
8
0
10
500.000000
20
518.000000
0
VERTEX
8
0
10
501.000000
20
517.000000
0
VERTEX
8
0
10
503.060000
20
517.580000
0
VERTEX
8
0
10
508.940000
20
518.420000
0
VERTEX
8
0
10
519.750000
20
520.250000
0
VERTEX
8
0
10
522.250000
20
521.750000
0
VERTEX
8
0
10
552.984407
20
522.483368
0
VERTEX
8
0
10
563.000000
20
523.000000
0
SEQEND
0
POLYLINE
8
0
6
CONTINUOUS
66
1
62
7
10
0.0
20
0.0
30
0.000000
0
VERTEX
8
0
10
146.000000
20
524.000000
0
VERTEX
8
0
10
147.000000
20
523.000000
0
VERTEX
8
0
10
149.000000
20
524.000000
0
VERTEX
8
0
10
170.060000
20
522.420000
0
VERTEX
8
0
10
179.000000
20
521.000000
0
VERTEX
8
0
10
196.011891
20
516.487515
0
VERTEX
8
0
10
236.000000
20
516.000000
0
VERTEX
8
0
10
245.200000
20
518.900000
0
VERTEX
8
0
10
246.000000
20
520.000000
0
SEQEND
0
POLYLINE
8
0
6
CONTINUOUS
66
1
62
7
10
0.0
20
0.0
30
0.000000
0
VERTEX
8
0
10
347.000000
20
510.000000
0
VERTEX
8
0
10
344.760000
20
515.820000
0
VERTEX
8
0
10
342.000000
20
519.000000
0
SEQEND
0
POLYLINE
8
0
6
CONTINUOUS
66
1
62
7
10
0.0
20
0.0
30
0.000000
0
VERTEX
8
0
10
347.000000
20
509.000000
0
VERTEX
8
0
10
347.000000
20
510.000000
0
SEQEND
0
POLYLINE
8
0
6
CONTINUOUS
66
1
62
250
10
0.0
20
0.0
30
0.000000
0
VERTEX
8
0
10
460.000000
20
504.000000
0
VERTEX
8
0
10
460.800000
20
509.100000
0
VERTEX
8
0
10
466.250000
20
517.750000
0
VERTEX
8
0
10
467.000000
20
519.000000
0
SEQEND
0
POLYLINE
8
0
6
CONTINUOUS
66
1
62
7
10
0.0
20
0.0
30
0.000000
0
VERTEX
8
0
10
341.000000
20
494.000000
0
VERTEX
8
0
10
338.352941
20
498.088235
0
VERTEX
8
0
10
337.647059
20
500.911765
0
VERTEX
8
0
10
335.300000
20
506.100000
0
VERTEX
8
0
10
327.000000
20
517.000000
0
SEQEND
0
POLYLINE
8
0
6
CONTINUOUS
66
1
62
7
10
0.0
20
0.0
30
0.000000
0
VERTEX
8
0
10
341.000000
20
494.000000
0
VERTEX
8
0
10
346.000000
20
509.000000
0
VERTEX
8
0
10
347.000000
20
509.000000
0
SEQEND
0
POLYLINE
8
0
6
CONTINUOUS
66
1
62
7
10
0.0
20
0.0
30
0.000000
0
VERTEX
8
0
10
347.000000
20
509.000000
0
VERTEX
8
0
10
348.100000
20
508.200000
0
VERTEX
8
0
10
350.200000
20
505.100000
0
VERTEX
8
0
10
350.800000
20
503.900000
0
VERTEX
8
0
10
355.250000
20
498.250000
0
VERTEX
8
0
10
360.250000
20
495.250000
0
VERTEX
8
0
10
371.000000
20
494.000000
0
VERTEX
8
0
10
374.076923
20
495.615385
0
VERTEX
8
0
10
377.923077
20
496.384615
0
VERTEX
8
0
10
392.750000
20
501.250000
0
VERTEX
8
0
10
395.000000
20
503.000000
0
SEQEND
0
POLYLINE
8
0
6
CONTINUOUS
66
1
62
7
10
0.0
20
0.0
30
0.000000
0
VERTEX
8
0
10
464.000000
20
493.000000
0
VERTEX
8
0
10
460.800000
20
502.900000
0
VERTEX
8
0
10
460.000000
20
504.000000
0
SEQEND
0
POLYLINE
8
0
6
CONTINUOUS
66
1
62
7
10
0.0
20
0.0
30
0.000000
0
VERTEX
8
0
10
464.000000
20
493.000000
0
VERTEX
8
0
10
466.000000
20
494.000000
0
VERTEX
8
0
10
467.750000
20
497.250000
0
VERTEX
8
0
10
468.400000
20
499.800000
0
VERTEX
8
0
10
475.250000
20
513.750000
0
VERTEX
8
0
10
486.000000
20
518.000000
0
VERTEX
8
0
10
487.000000
20
518.000000
0
SEQEND
0
POLYLINE
8
0
6
CONTINUOUS
66
1
62
7
10
0.0
20
0.0
30
0.000000
0
VERTEX
8
0
10
409.000000
20
499.000000
0
VERTEX
8
0
10
410.900000
20
498.700000
0
VERTEX
8
0
10
427.750000
20
493.750000
0
VERTEX
8
0
10
429.000000
20
493.000000
0
VERTEX
8
0
10
440.750000
20
492.250000
0
VERTEX
8
0
10
443.000000
20
493.000000
0
VERTEX
8
0
10
450.623077
20
496.484615
0
VERTEX
8
0
10
460.000000
20
504.000000
0
SEQEND
0
POLYLINE
8
0
6
CONTINUOUS
66
1
62
7
10
0.0
20
0.0
30
0.000000
0
VERTEX
8
0
10
382.000000
20
478.000000
0
VERTEX
8
0
10
382.846154
20
478.230769
0
VERTEX
8
0
10
388.000000
20
481.000000
0
VERTEX
8
0
10
394.000000
20
481.000000
0
VERTEX
8
0
10
395.750000
20
479.750000
0
VERTEX
8
0
10
400.000000
20
474.000000
0
VERTEX
8
0
10
402.250000
20
474.750000
0
VERTEX
8
0
10
405.000000
20
478.000000
0
VERTEX
8
0
10
413.000000
20
481.000000
0
VERTEX
8
0
10
423.000000
20
480.000000
0
SEQEND
0
POLYLINE
8
0
6
CONTINUOUS
66
1
62
7
10
0.0
20
0.0
30
0.000000
0
VERTEX
8
0
10
403.000000
20
404.000000
0
VERTEX
8
0
10
403.000000
20
408.000000
0
SEQEND
0
POLYLINE
8
0
6
CONTINUOUS
66
1
62
7
10
0.0
20
0.0
30
0.000000
0
VERTEX
8
0
10
455.000000
20
404.000000
0
VERTEX
8
0
10
454.535398
20
418.969027
0
VERTEX
8
0
10
452.700000
20
427.900000
0
VERTEX
8
0
10
451.615385
20
432.923077
0
VERTEX
8
0
10
449.800000
20
436.900000
0
VERTEX
8
0
10
449.000000
20
438.000000
0
VERTEX
8
0
10
451.200000
20
442.900000
0
VERTEX
8
0
10
451.800000
20
444.100000
0
VERTEX
8
0
10
456.700000
20
456.100000
0
VERTEX
8
0
10
465.000000
20
492.000000
0
VERTEX
8
0
10
464.000000
20
493.000000
0
SEQEND
0
POLYLINE
8
0
6
CONTINUOUS
66
1
62
7
10
0.0
20
0.0
30
0.000000
0
VERTEX
8
0
10
355.000000
20
399.000000
0
VERTEX
8
0
10
353.800000
20
401.900000
0
VERTEX
8
0
10
352.000000
20
407.000000
0
VERTEX
8
0
10
352.000000
20
419.000000
0
VERTEX
8
0
10
353.300000
20
421.900000
0
VERTEX
8
0
10
353.800000
20
423.100000
0
VERTEX
8
0
10
356.352941
20
434.911765
0
VERTEX
8
0
10
357.000000
20
439.000000
0
VERTEX
8
0
10
354.800000
20
442.900000
0
VERTEX
8
0
10
354.200000
20
444.100000
0
VERTEX
8
0
10
352.384615
20
448.076923
0
VERTEX
8
0
10
350.700000
20
454.900000
0
VERTEX
8
0
10
342.405405
20
485.067568
0
VERTEX
8
0
10
341.000000
20
494.000000
0
SEQEND
0
POLYLINE
8
0
6
CONTINUOUS
66
1
62
7
10
0.0
20
0.0
30
0.000000
0
VERTEX
8
0
10
353.000000
20
389.000000
0
VERTEX
8
0
10
354.384615
20
397.923077
0
VERTEX
8
0
10
355.000000
20
399.000000
0
SEQEND
0
POLYLINE
8
0
6
CONTINUOUS
66
1
62
7
10
0.0
20
0.0
30
0.000000
0
VERTEX
8
0
10
433.000000
20
378.000000
0
VERTEX
8
0
10
437.300000
20
385.900000
0
VERTEX
8
0
10
441.800000
20
398.100000
0
VERTEX
8
0
10
442.250000
20
398.750000
0
VERTEX
8
0
10
451.735294
20
401.441176
0
VERTEX
8
0
10
455.000000
20
404.000000
0
SEQEND
0
POLYLINE
8
0
6
CONTINUOUS
66
1
62
7
10
0.0
20
0.0
30
0.000000
0
VERTEX
8
0
10
377.000000
20
374.000000
0
VERTEX
8
0
10
374.000000
20
376.000000
0
VERTEX
8
0
10
372.700000
20
378.900000
0
VERTEX
8
0
10
371.300000
20
383.100000
0
VERTEX
8
0
10
367.250000
20
395.250000
0
VERTEX
8
0
10
355.000000
20
399.000000
0
SEQEND
0
POLYLINE
8
0
6
CONTINUOUS
66
1
62
7
10
0.0
20
0.0
30
0.000000
0
VERTEX
8
0
10
469.000000
20
359.000000
0
VERTEX
8
0
10
468.200000
20
361.100000
0
VERTEX
8
0
10
458.000000
20
402.000000
0
VERTEX
8
0
10
456.000000
20
404.000000
0
VERTEX
8
0
10
455.000000
20
404.000000
0
SEQEND
0
POLYLINE
8
0
6
CONTINUOUS
66
1
62
7
10
0.0
20
0.0
30
0.000000
0
VERTEX
8
0
10
344.000000
20
356.000000
0
VERTEX
8
0
10
343.000000
20
357.000000
0
VERTEX
8
0
10
343.000000
20
366.000000
0
VERTEX
8
0
10
343.615385
20
367.076923
0
VERTEX
8
0
10
350.000000
20
387.000000
0
VERTEX
8
0
10
353.000000
20
389.000000
0
SEQEND
0
POLYLINE
8
0
6
CONTINUOUS
66
1
62
251
10
0.0
20
0.0
30
0.000000
0
VERTEX
8
0
10
344.000000
20
356.000000
0
VERTEX
8
0
10
346.000000
20
358.000000
0
VERTEX
8
0
10
346.000000
20
360.000000
0
SEQEND
0
POLYLINE
8
0
6
CONTINUOUS
66
1
62
250
10
0.0
20
0.0
30
0.000000
0
VERTEX
8
0
10
356.000000
20
342.000000
0
VERTEX
8
0
10
354.580000
20
349.940000
0
VERTEX
8
0
10
353.000000
20
358.000000
0
VERTEX
8
0
10
354.000000
20
388.000000
0
VERTEX
8
0
10
353.000000
20
389.000000
0
SEQEND
0
POLYLINE
8
0
6
CONTINUOUS
66
1
62
7
10
0.0
20
0.0
30
0.000000
0
VERTEX
8
0
10
389.000000
20
342.000000
0
VERTEX
8
0
10
387.800000
20
344.900000
0
VERTEX
8
0
10
386.000000
20
349.000000
0
VERTEX
8
0
10
387.250000
20
354.750000
0
VERTEX
8
0
10
393.000000
20
362.000000
0
VERTEX
8
0
10
396.100000
20
360.200000
0
VERTEX
8
0
10
401.750000
20
354.750000
0
VERTEX
8
0
10
403.000000
20
353.000000
0
SEQEND
0
POLYLINE
8
0
6
CONTINUOUS
66
1
62
7
10
0.0
20
0.0
30
0.000000
0
VERTEX
8
0
10
421.000000
20
342.000000
0
VERTEX
8
0
10
422.200000
20
343.900000
0
VERTEX
8
0
10
426.000000
20
353.000000
0
VERTEX
8
0
10
426.000000
20
356.000000
0
VERTEX
8
0
10
424.000000
20
358.000000
0
VERTEX
8
0
10
412.900000
20
352.200000
0
VERTEX
8
0
10
412.000000
20
352.000000
0
VERTEX
8
0
10
409.750000
20
354.750000
0
VERTEX
8
0
10
407.100000
20
354.700000
0
VERTEX
8
0
10
403.000000
20
353.000000
0
SEQEND
0
POLYLINE
8
0
6
CONTINUOUS
66
1
62
7
10
0.0
20
0.0
30
0.000000
0
VERTEX
8
0
10
399.000000
20
341.000000
0
VERTEX
8
0
10
403.000000
20
353.000000
0
SEQEND
0
POLYLINE
8
0
6
CONTINUOUS
66
1
62
250
10
0.0
20
0.0
30
0.000000
0
VERTEX
8
0
10
356.000000
20
342.000000
0
VERTEX
8
0
10
357.900000
20
341.800000
0
VERTEX
8
0
10
372.000000
20
340.000000
0
VERTEX
8
0
10
387.000000
20
340.000000
0
VERTEX
8
0
10
389.000000
20
342.000000
0
SEQEND
0
POLYLINE
8
0
6
CONTINUOUS
66
1
62
7
10
0.0
20
0.0
30
0.000000
0
VERTEX
8
0
10
393.000000
20
340.000000
0
VERTEX
8
0
10
389.000000
20
342.000000
0
SEQEND
0
POLYLINE
8
0
6
CONTINUOUS
66
1
62
7
10
0.0
20
0.0
30
0.000000
0
VERTEX
8
0
10
393.000000
20
340.000000
0
VERTEX
8
0
10
399.000000
20
341.000000
0
SEQEND
0
POLYLINE
8
0
6
CONTINUOUS
66
1
62
7
10
0.0
20
0.0
30
0.000000
0
VERTEX
8
0
10
465.000000
20
340.000000
0
VERTEX
8
0
10
421.000000
20
342.000000
0
SEQEND
0
POLYLINE
8
0
6
CONTINUOUS
66
1
62
7
10
0.0
20
0.0
30
0.000000
0
VERTEX
8
0
10
465.000000
20
340.000000
0
VERTEX
8
0
10
465.430769
20
347.946154
0
VERTEX
8
0
10
467.517241
20
356.793103
0
VERTEX
8
0
10
469.000000
20
359.000000
0
SEQEND
0
POLYLINE
8
0
6
CONTINUOUS
66
1
62
7
10
0.0
20
0.0
30
0.000000
0
VERTEX
8
0
10
407.000000
20
339.000000
0
VERTEX
8
0
10
405.900000
20
339.800000
0
VERTEX
8
0
10
399.000000
20
341.000000
0
SEQEND
0
POLYLINE
8
0
6
CONTINUOUS
66
1
62
7
10
0.0
20
0.0
30
0.000000
0
VERTEX
8
0
10
410.000000
20
339.000000
0
VERTEX
8
0
10
407.000000
20
339.000000
0
SEQEND
0
POLYLINE
8
0
6
CONTINUOUS
66
1
62
7
10
0.0
20
0.0
30
0.000000
0
VERTEX
8
0
10
410.000000
20
339.000000
0
VERTEX
8
0
10
411.100000
20
339.700000
0
VERTEX
8
0
10
420.100000
20
341.800000
0
VERTEX
8
0
10
421.000000
20
342.000000
0
SEQEND
0
POLYLINE
8
0
6
CONTINUOUS
66
1
62
7
10
0.0
20
0.0
30
0.000000
0
VERTEX
8
0
10
394.000000
20
331.000000
0
VERTEX
8
0
10
393.000000
20
340.000000
0
SEQEND
0
POLYLINE
8
0
6
CONTINUOUS
66
1
62
7
10
0.0
20
0.0
30
0.000000
0
VERTEX
8
0
10
408.000000
20
331.000000
0
VERTEX
8
0
10
406.800000
20
332.900000
0
VERTEX
8
0
10
406.000000
20
334.000000
0
VERTEX
8
0
10
407.000000
20
339.000000
0
SEQEND
0
POLYLINE
8
0
6
CONTINUOUS
66
1
62
7
10
0.0
20
0.0
30
0.000000
0
VERTEX
8
0
10
411.000000
20
331.000000
0
VERTEX
8
0
10
408.000000
20
331.000000
0
SEQEND
0
POLYLINE
8
0
6
CONTINUOUS
66
1
62
7
10
0.0
20
0.0
30
0.000000
0
VERTEX
8
0
10
411.000000
20
331.000000
0
VERTEX
8
0
10
410.000000
20
339.000000
0
SEQEND
0
POLYLINE
8
0
6
CONTINUOUS
66
1
62
7
10
0.0
20
0.0
30
0.000000
0
VERTEX
8
0
10
417.000000
20
323.000000
0
VERTEX
8
0
10
415.700000
20
325.900000
0
VERTEX
8
0
10
413.100000
20
329.200000
0
VERTEX
8
0
10
411.000000
20
331.000000
0
SEQEND
0
POLYLINE
8
0
6
CONTINUOUS
66
1
62
7
10
0.0
20
0.0
30
0.000000
0
VERTEX
8
0
10
405.000000
20
315.000000
0
VERTEX
8
0
10
405.000000
20
316.000000
0
VERTEX
8
0
10
406.000000
20
323.000000
0
VERTEX
8
0
10
405.200000
20
324.100000
0
VERTEX
8
0
10
405.250000
20
325.750000
0
VERTEX
8
0
10
408.000000
20
331.000000
0
SEQEND
0
POLYLINE
8
0
6
CONTINUOUS
66
1
62
7
10
0.0
20
0.0
30
0.000000
0
VERTEX
8
0
10
407.000000
20
314.000000
0
VERTEX
8
0
10
405.000000
20
315.000000
0
SEQEND
0
POLYLINE
8
0
6
CONTINUOUS
66
1
62
7
10
0.0
20
0.0
30
0.000000
0
VERTEX
8
0
10
407.000000
20
314.000000
0
VERTEX
8
0
10
412.000000
20
315.000000
0
VERTEX
8
0
10
415.200000
20
317.900000
0
VERTEX
8
0
10
417.000000
20
323.000000
0
SEQEND
0
POLYLINE
8
0
6
CONTINUOUS
66
1
62
7
10
0.0
20
0.0
30
0.000000
0
VERTEX
8
0
10
399.000000
20
313.000000
0
VERTEX
8
0
10
396.000000
20
319.000000
0
VERTEX
8
0
10
396.000000
20
326.000000
0
VERTEX
8
0
10
397.000000
20
329.000000
0
VERTEX
8
0
10
396.100000
20
330.200000
0
VERTEX
8
0
10
394.000000
20
331.000000
0
SEQEND
0
POLYLINE
8
0
6
CONTINUOUS
66
1
62
7
10
0.0
20
0.0
30
0.000000
0
VERTEX
8
0
10
399.000000
20
313.000000
0
VERTEX
8
0
10
405.000000
20
315.000000
0
SEQEND
0
POLYLINE
8
0
6
CONTINUOUS
66
1
62
7
10
0.0
20
0.0
30
0.000000
0
VERTEX
8
0
10
392.000000
20
312.000000
0
VERTEX
8
0
10
392.000000
20
313.000000
0
VERTEX
8
0
10
390.800000
20
317.900000
0
VERTEX
8
0
10
390.000000
20
319.000000
0
VERTEX
8
0
10
391.250000
20
322.750000
0
VERTEX
8
0
10
394.000000
20
331.000000
0
SEQEND
0
POLYLINE
8
0
6
CONTINUOUS
66
1
62
7
10
0.0
20
0.0
30
0.000000
0
VERTEX
8
0
10
392.000000
20
312.000000
0
VERTEX
8
0
10
399.000000
20
313.000000
0
SEQEND
0
POLYLINE
8
0
6
CONTINUOUS
66
1
62
7
10
0.0
20
0.0
30
0.000000
0
VERTEX
8
0
10
463.000000
20
273.000000
0
VERTEX
8
0
10
450.795082
20
282.754098
0
VERTEX
8
0
10
446.250000
20
287.250000
0
VERTEX
8
0
10
446.000000
20
288.000000
0
VERTEX
8
0
10
443.000000
20
290.000000
0
VERTEX
8
0
10
430.760000
20
304.820000
0
VERTEX
8
0
10
427.769231
20
308.846154
0
VERTEX
8
0
10
419.000000
20
322.000000
0
VERTEX
8
0
10
417.000000
20
323.000000
0
SEQEND
0
POLYLINE
8
0
6
CONTINUOUS
66
1
62
250
10
0.0
20
0.0
30
0.000000
0
VERTEX
8
0
10
463.000000
20
273.000000
0
VERTEX
8
0
10
463.800000
20
274.100000
0
VERTEX
8
0
10
465.000000
20
277.000000
0
VERTEX
8
0
10
464.000000
20
278.000000
0
VERTEX
8
0
10
464.000000
20
280.000000
0
VERTEX
8
0
10
467.000000
20
299.000000
0
VERTEX
8
0
10
467.000000
20
320.000000
0
VERTEX
8
0
10
465.439024
20
331.048780
0
VERTEX
8
0
10
465.000000
20
340.000000
0
SEQEND
0
POLYLINE
8
0
6
CONTINUOUS
66
1
62
7
10
0.0
20
0.0
30
0.000000
0
VERTEX
8
0
10
413.000000
20
268.000000
0
VERTEX
8
0
10
411.300000
20
276.100000
0
VERTEX
8
0
10
408.455172
20
290.037931
0
VERTEX
8
0
10
407.000000
20
314.000000
0
SEQEND
0
POLYLINE
8
0
6
CONTINUOUS
66
1
62
7
10
0.0
20
0.0
30
0.000000
0
VERTEX
8
0
10
464.000000
20
265.000000
0
VERTEX
8
0
10
463.000000
20
273.000000
0
SEQEND
0
POLYLINE
8
0
6
CONTINUOUS
66
1
62
250
10
0.0
20
0.0
30
0.000000
0
VERTEX
8
0
10
320.000000
20
262.000000
0
VERTEX
8
0
10
320.800000
20
265.100000
0
VERTEX
8
0
10
339.300000
20
302.900000
0
VERTEX
8
0
10
340.000000
20
304.000000
0
SEQEND
0
POLYLINE
8
0
6
CONTINUOUS
66
1
62
250
10
0.0
20
0.0
30
0.000000
0
VERTEX
8
0
10
356.000000
20
255.000000
0
VERTEX
8
0
10
354.600000
20
258.200000
0
VERTEX
8
0
10
351.000000
20
288.000000
0
VERTEX
8
0
10
351.000000
20
304.000000
0
VERTEX
8
0
10
352.000000
20
305.000000
0
VERTEX
8
0
10
351.000000
20
313.000000
0
VERTEX
8
0
10
352.455172
20
324.962069
0
VERTEX
8
0
10
356.000000
20
341.000000
0
VERTEX
8
0
10
356.000000
20
342.000000
0
SEQEND
0
POLYLINE
8
0
6
CONTINUOUS
66
1
62
7
10
0.0
20
0.0
30
0.000000
0
VERTEX
8
0
10
356.000000
20
255.000000
0
VERTEX
8
0
10
359.000000
20
256.000000
0
VERTEX
8
0
10
374.240000
20
275.820000
0
VERTEX
8
0
10
379.760000
20
283.180000
0
VERTEX
8
0
10
387.800000
20
298.100000
0
VERTEX
8
0
10
392.000000
20
312.000000
0
SEQEND
0
POLYLINE
8
0
6
CONTINUOUS
66
1
62
250
10
0.0
20
0.0
30
0.000000
0
VERTEX
8
0
10
356.000000
20
248.000000
0
VERTEX
8
0
10
355.000000
20
249.000000
0
VERTEX
8
0
10
356.000000
20
255.000000
0
SEQEND
0
POLYLINE
8
0
6
CONTINUOUS
66
1
62
7
10
0.0
20
0.0
30
0.000000
0
VERTEX
8
0
10
490.000000
20
231.000000
0
VERTEX
8
0
10
478.000000
20
241.000000
0
VERTEX
8
0
10
471.400000
20
253.200000
0
VERTEX
8
0
10
470.300000
20
256.100000
0
VERTEX
8
0
10
467.000000
20
264.000000
0
VERTEX
8
0
10
466.000000
20
265.000000
0
VERTEX
8
0
10
464.000000
20
265.000000
0
SEQEND
0
POLYLINE
8
0
6
CONTINUOUS
66
1
62
250
10
0.0
20
0.0
30
0.000000
0
VERTEX
8
0
10
490.000000
20
231.000000
0
VERTEX
8
0
10
490.900000
20
230.800000
0
VERTEX
8
0
10
499.035294
20
227.458824
0
VERTEX
8
0
10
510.964706
20
226.541176
0
VERTEX
8
0
10
515.750000
20
226.250000
0
VERTEX
8
0
10
515.554455
20
235.955446
0
VERTEX
8
0
10
511.800000
20
242.900000
0
VERTEX
8
0
10
511.200000
20
244.100000
0
VERTEX
8
0
10
498.250000
20
260.250000
0
VERTEX
8
0
10
494.750000
20
262.750000
0
VERTEX
8
0
10
477.846154
20
269.769231
0
VERTEX
8
0
10
470.000000
20
276.000000
0
SEQEND
0
POLYLINE
8
0
6
CONTINUOUS
66
1
62
251
10
0.0
20
0.0
30
0.000000
0
VERTEX
8
0
10
325.000000
20
222.000000
0
VERTEX
8
0
10
323.750000
20
223.750000
0
VERTEX
8
0
10
320.384615
20
234.076923
0
VERTEX
8
0
10
319.000000
20
245.000000
0
SEQEND
0
POLYLINE
8
0
6
CONTINUOUS
66
1
62
250
10
0.0
20
0.0
30
0.000000
0
VERTEX
8
0
10
325.000000
20
222.000000
0
VERTEX
8
0
10
330.752941
20
228.211765
0
VERTEX
8
0
10
337.800000
20
238.100000
0
VERTEX
8
0
10
338.250000
20
238.750000
0
VERTEX
8
0
10
340.647059
20
243.088235
0
VERTEX
8
0
10
343.000000
20
250.000000
0
VERTEX
8
0
10
342.405405
20
256.067568
0
VERTEX
8
0
10
341.000000
20
264.000000
0
SEQEND
0
POLYLINE
8
0
6
CONTINUOUS
66
1
62
250
10
0.0
20
0.0
30
0.000000
0
VERTEX
8
0
10
506.000000
20
218.000000
0
VERTEX
8
0
10
512.946154
20
217.569231
0
VERTEX
8
0
10
517.750000
20
215.750000
0
VERTEX
8
0
10
518.250000
20
215.250000
0
VERTEX
8
0
10
522.000000
20
215.000000
0
VERTEX
8
0
10
523.000000
20
216.000000
0
VERTEX
8
0
10
523.000000
20
227.000000
0
VERTEX
8
0
10
522.000000
20
229.000000
0
VERTEX
8
0
10
520.000000
20
230.000000
0
SEQEND
0
POLYLINE
8
0
6
CONTINUOUS
66
1
62
250
10
0.0
20
0.0
30
0.000000
0
VERTEX
8
0
10
310.000000
20
204.000000
0
VERTEX
8
0
10
318.200000
20
212.900000
0
VERTEX
8
0
10
320.250000
20
217.750000
0
VERTEX
8
0
10
325.000000
20
222.000000
0
SEQEND
0
POLYLINE
8
0
6
CONTINUOUS
66
1
62
250
10
0.0
20
0.0
30
0.000000
0
VERTEX
8
0
10
387.000000
20
202.000000
0
VERTEX
8
0
10
393.000000
20
202.000000
0
VERTEX
8
0
10
397.000000
20
206.000000
0
VERTEX
8
0
10
397.000000
20
210.000000
0
VERTEX
8
0
10
396.000000
20
211.000000
0
VERTEX
8
0
10
396.000000
20
219.000000
0
VERTEX
8
0
10
397.750000
20
223.250000
0
VERTEX
8
0
10
398.000000
20
224.000000
0
VERTEX
8
0
10
398.405405
20
231.067568
0
VERTEX
8
0
10
397.594595
20
235.932432
0
VERTEX
8
0
10
391.250000
20
248.250000
0
VERTEX
8
0
10
389.750000
20
249.750000
0
VERTEX
8
0
10
384.800000
20
257.900000
0
VERTEX
8
0
10
384.000000
20
260.000000
0
SEQEND
0
POLYLINE
8
0
6
CONTINUOUS
66
1
62
7
10
0.0
20
0.0
30
0.000000
0
VERTEX
8
0
10
82.000000
20
192.000000
0
VERTEX
8
0
10
79.250000
20
194.250000
0
VERTEX
8
0
10
56.250000
20
228.250000
0
VERTEX
8
0
10
53.300000
20
234.100000
0
VERTEX
8
0
10
36.352941
20
273.088235
0
VERTEX
8
0
10
31.700000
20
288.900000
0
VERTEX
8
0
10
18.420000
20
343.060000
0
VERTEX
8
0
10
13.700000
20
367.900000
0
VERTEX
8
0
10
11.000000
20
414.000000
0
VERTEX
8
0
10
14.458824
20
457.964706
0
VERTEX
8
0
10
20.420000
20
490.940000
0
VERTEX
8
0
10
23.000000
20
503.000000
0
VERTEX
8
0
10
28.250000
20
520.750000
0
VERTEX
8
0
10
28.750000
20
521.250000
0
VERTEX
8
0
10
39.352941
20
554.911765
0
VERTEX
8
0
10
43.200000
20
562.900000
0
VERTEX
8
0
10
53.000000
20
585.000000
0
VERTEX
8
0
10
67.200000
20
611.900000
0
VERTEX
8
0
10
68.240000
20
613.820000
0
VERTEX
8
0
10
78.000000
20
629.000000
0
VERTEX
8
0
10
81.000000
20
630.000000
0
SEQEND
0
POLYLINE
8
0
6
CONTINUOUS
66
1
62
7
10
0.0
20
0.0
30
0.000000
0
VERTEX
8
0
10
82.000000
20
192.000000
0
VERTEX
8
0
10
83.000000
20
193.000000
0
VERTEX
8
0
10
83.000000
20
320.000000
0
VERTEX
8
0
10
82.000000
20
391.000000
0
VERTEX
8
0
10
83.000000
20
392.000000
0
VERTEX
8
0
10
83.000000
20
423.000000
0
VERTEX
8
0
10
82.000000
20
424.000000
0
VERTEX
8
0
10
82.000000
20
429.000000
0
VERTEX
8
0
10
83.000000
20
430.000000
0
VERTEX
8
0
10
82.000000
20
541.000000
0
VERTEX
8
0
10
83.000000
20
543.000000
0
SEQEND
0
POLYLINE
8
0
6
CONTINUOUS
66
1
62
7
10
0.0
20
0.0
30
0.000000
0
VERTEX
8
0
10
411.000000
20
192.000000
0
VERTEX
8
0
10
410.461929
20
217.032995
0
VERTEX
8
0
10
409.538071
20
229.967005
0
VERTEX
8
0
10
409.000000
20
243.000000
0
VERTEX
8
0
10
413.000000
20
268.000000
0
SEQEND
0
POLYLINE
8
0
6
CONTINUOUS
66
1
62
7
10
0.0
20
0.0
30
0.000000
0
VERTEX
8
0
10
727.000000
20
189.000000
0
VERTEX
8
0
10
725.800000
20
190.900000
0
VERTEX
8
0
10
725.000000
20
199.000000
0
VERTEX
8
0
10
726.000000
20
200.000000
0
VERTEX
8
0
10
726.000000
20
206.000000
0
VERTEX
8
0
10
725.000000
20
207.000000
0
VERTEX
8
0
10
725.000000
20
222.000000
0
VERTEX
8
0
10
726.000000
20
223.000000
0
VERTEX
8
0
10
726.000000
20
277.000000
0
VERTEX
8
0
10
722.200000
20
541.100000
0
VERTEX
8
0
10
721.000000
20
542.000000
0
SEQEND
0
POLYLINE
8
0
6
CONTINUOUS
66
1
62
7
10
0.0
20
0.0
30
0.000000
0
VERTEX
8
0
10
727.000000
20
189.000000
0
VERTEX
8
0
10
730.153846
20
190.769231
0
VERTEX
8
0
10
735.750000
20
198.250000
0
VERTEX
8
0
10
736.750000
20
199.250000
0
VERTEX
8
0
10
755.800000
20
234.100000
0
VERTEX
8
0
10
760.700000
20
245.100000
0
VERTEX
8
0
10
773.300000
20
277.900000
0
VERTEX
8
0
10
782.352941
20
308.911765
0
VERTEX
8
0
10
788.000000
20
338.000000
0
VERTEX
8
0
10
788.430769
20
344.946154
0
VERTEX
8
0
10
790.352941
20
353.911765
0
VERTEX
8
0
10
794.000000
20
390.000000
0
VERTEX
8
0
10
794.000000
20
403.000000
0
VERTEX
8
0
10
793.000000
20
404.000000
0
VERTEX
8
0
10
793.000000
20
407.000000
0
VERTEX
8
0
10
794.000000
20
408.000000
0
VERTEX
8
0
10
794.000000
20
440.000000
0
VERTEX
8
0
10
786.615385
20
483.923077
0
VERTEX
8
0
10
786.000000
20
489.000000
0
VERTEX
8
0
10
771.647059
20
535.911765
0
VERTEX
8
0
10
771.000000
20
538.000000
0
VERTEX
8
0
10
748.800000
20
589.900000
0
VERTEX
8
0
10
748.200000
20
591.100000
0
VERTEX
8
0
10
728.000000
20
626.000000
0
VERTEX
8
0
10
726.000000
20
627.000000
0
SEQEND
0
POLYLINE
8
0
6
CONTINUOUS
66
1
62
7
10
0.0
20
0.0
30
0.000000
0
VERTEX
8
0
10
84.000000
20
185.000000
0
VERTEX
8
0
10
82.000000
20
192.000000
0
SEQEND
0
POLYLINE
8
0
6
CONTINUOUS
66
1
62
7
10
0.0
20
0.0
30
0.000000
0
VERTEX
8
0
10
725.000000
20
182.000000
0
VERTEX
8
0
10
727.000000
20
189.000000
0
SEQEND
0
POLYLINE
8
0
6
CONTINUOUS
66
1
62
250
10
0.0
20
0.0
30
0.000000
0
VERTEX
8
0
10
443.000000
20
174.000000
0
VERTEX
8
0
10
443.352941
20
176.911765
0
VERTEX
8
0
10
446.300000
20
182.900000
0
VERTEX
8
0
10
447.000000
20
184.000000
0
VERTEX
8
0
10
447.000000
20
189.000000
0
VERTEX
8
0
10
444.000000
20
194.000000
0
VERTEX
8
0
10
444.750000
20
195.250000
0
VERTEX
8
0
10
447.000000
20
199.000000
0
VERTEX
8
0
10
444.384615
20
222.076923
0
VERTEX
8
0
10
442.750000
20
228.750000
0
VERTEX
8
0
10
436.900000
20
232.700000
0
VERTEX
8
0
10
435.000000
20
233.000000
0
VERTEX
8
0
10
431.000000
20
237.000000
0
VERTEX
8
0
10
430.300000
20
239.100000
0
VERTEX
8
0
10
430.000000
20
241.000000
0
SEQEND
0
POLYLINE
8
0
6
CONTINUOUS
66
1
62
250
10
0.0
20
0.0
30
0.000000
0
VERTEX
8
0
10
278.000000
20
111.000000
0
VERTEX
8
0
10
288.750000
20
126.250000
0
VERTEX
8
0
10
296.230769
20
135.846154
0
VERTEX
8
0
10
297.600000
20
138.200000
0
VERTEX
8
0
10
301.800000
20
154.100000
0
VERTEX
8
0
10
302.000000
20
155.000000
0
SEQEND
0
POLYLINE
8
0
6
CONTINUOUS
66
1
62
250
10
0.0
20
0.0
30
0.000000
0
VERTEX
8
0
10
455.000000
20
91.000000
0
VERTEX
8
0
10
455.549180
20
97.040984
0
VERTEX
8
0
10
457.420000
20
113.940000
0
VERTEX
8
0
10
458.000000
20
115.000000
0
VERTEX
8
0
10
458.000000
20
136.000000
0
VERTEX
8
0
10
455.000000
20
149.000000
0
VERTEX
8
0
10
455.000000
20
160.000000
0
VERTEX
8
0
10
457.549180
20
169.040984
0
VERTEX
8
0
10
458.000000
20
179.000000
0
SEQEND
0
POLYLINE
8
0
6
CONTINUOUS
66
1
62
250
10
0.0
20
0.0
30
0.000000
0
VERTEX
8
0
10
265.000000
20
89.000000
0
VERTEX
8
0
10
266.700000
20
98.100000
0
VERTEX
8
0
10
276.200000
20
128.900000
0
VERTEX
8
0
10
278.800000
20
134.100000
0
VERTEX
8
0
10
294.441176
20
166.735294
0
VERTEX
8
0
10
309.756098
20
187.195122
0
VERTEX
8
0
10
315.750000
20
192.250000
0
VERTEX
8
0
10
327.000000
20
201.000000
0
SEQEND
0
POLYLINE
8
0
6
CONTINUOUS
66
1
62
7
10
0.0
20
0.0
30
0.000000
0
VERTEX
8
0
10
607.000000
20
88.000000
0
VERTEX
8
0
10
604.900000
20
88.800000
0
VERTEX
8
0
10
599.250000
20
92.250000
0
VERTEX
8
0
10
595.461538
20
97.307692
0
VERTEX
8
0
10
586.700000
20
111.900000
0
VERTEX
8
0
10
586.300000
20
113.100000
0
VERTEX
8
0
10
585.000000
20
118.000000
0
VERTEX
8
0
10
586.000000
20
119.000000
0
VERTEX
8
0
10
585.000000
20
121.000000
0
VERTEX
8
0
10
586.000000
20
123.000000
0
VERTEX
8
0
10
585.445545
20
125.044554
0
VERTEX
8
0
10
584.554455
20
133.955446
0
VERTEX
8
0
10
573.700000
20
167.900000
0
VERTEX
8
0
10
568.700000
20
180.900000
0
VERTEX
8
0
10
558.750000
20
199.750000
0
VERTEX
8
0
10
549.250000
20
212.250000
0
VERTEX
8
0
10
542.000000
20
222.000000
0
VERTEX
8
0
10
532.000000
20
231.000000
0
VERTEX
8
0
10
526.230769
20
239.153846
0
VERTEX
8
0
10
525.000000
20
241.000000
0
VERTEX
8
0
10
508.800000
20
261.900000
0
VERTEX
8
0
10
502.647059
20
286.911765
0
VERTEX
8
0
10
494.750000
20
309.750000
0
VERTEX
8
0
10
494.250000
20
310.250000
0
VERTEX
8
0
10
493.000000
20
320.000000
0
VERTEX
8
0
10
490.800000
20
324.900000
0
VERTEX
8
0
10
488.200000
20
331.100000
0
VERTEX
8
0
10
480.250000
20
344.250000
0
VERTEX
8
0
10
479.760000
20
344.820000
0
VERTEX
8
0
10
470.100000
20
358.200000
0
VERTEX
8
0
10
469.000000
20
359.000000
0
SEQEND
0
POLYLINE
8
0
6
CONTINUOUS
66
1
62
7
10
0.0
20
0.0
30
0.000000
0
VERTEX
8
0
10
218.000000
20
86.000000
0
VERTEX
8
0
10
224.900000
20
87.300000
0
VERTEX
8
0
10
237.000000
20
88.000000
0
VERTEX
8
0
10
248.000000
20
99.000000
0
VERTEX
8
0
10
257.700000
20
129.100000
0
VERTEX
8
0
10
262.700000
20
143.100000
0
VERTEX
8
0
10
268.250000
20
158.750000
0
VERTEX
8
0
10
272.800000
20
167.100000
0
VERTEX
8
0
10
287.250000
20
190.750000
0
VERTEX
8
0
10
290.800000
20
195.100000
0
VERTEX
8
0
10
296.800000
20
209.100000
0
VERTEX
8
0
10
298.000000
20
212.000000
0
VERTEX
8
0
10
303.400000
20
234.800000
0
VERTEX
8
0
10
307.300000
20
242.900000
0
VERTEX
8
0
10
311.000000
20
252.000000
0
VERTEX
8
0
10
311.000000
20
264.000000
0
VERTEX
8
0
10
310.000000
20
265.000000
0
VERTEX
8
0
10
310.594595
20
270.067568
0
VERTEX
8
0
10
311.405405
20
274.932432
0
VERTEX
8
0
10
315.800000
20
289.100000
0
VERTEX
8
0
10
316.200000
20
289.900000
0
VERTEX
8
0
10
318.420000
20
300.940000
0
VERTEX
8
0
10
320.200000
20
307.900000
0
VERTEX
8
0
10
321.700000
20
311.100000
0
VERTEX
8
0
10
341.700000
20
349.100000
0
VERTEX
8
0
10
344.000000
20
356.000000
0
SEQEND
0
POLYLINE
8
0
6
CONTINUOUS
66
1
62
7
10
0.0
20
0.0
30
0.000000
0
VERTEX
8
0
10
607.000000
20
86.000000
0
VERTEX
8
0
10
607.000000
20
88.000000
0
SEQEND
0
POLYLINE
8
0
6
CONTINUOUS
66
1
62
250
10
0.0
20
0.0
30
0.000000
0
VERTEX
8
0
10
193.000000
20
83.000000
0
VERTEX
8
0
10
191.100000
20
83.200000
0
VERTEX
8
0
10
155.846154
20
108.769231
0
VERTEX
8
0
10
151.820000
20
111.760000
0
VERTEX
8
0
10
128.000000
20
133.000000
0
VERTEX
8
0
10
121.000000
20
140.000000
0
VERTEX
8
0
10
84.000000
20
185.000000
0
SEQEND
0
POLYLINE
8
0
6
CONTINUOUS
66
1
62
7
10
0.0
20
0.0
30
0.000000
0
VERTEX
8
0
10
193.000000
20
83.000000
0
VERTEX
8
0
10
196.000000
20
87.000000
0
VERTEX
8
0
10
199.100000
20
87.700000
0
VERTEX
8
0
10
203.000000
20
90.000000
0
VERTEX
8
0
10
211.000000
20
90.000000
0
VERTEX
8
0
10
218.000000
20
86.000000
0
SEQEND
0
POLYLINE
8
0
6
CONTINUOUS
66
1
62
7
10
0.0
20
0.0
30
0.000000
0
VERTEX
8
0
10
616.000000
20
82.000000
0
VERTEX
8
0
10
614.800000
20
83.900000
0
VERTEX
8
0
10
612.750000
20
88.750000
0
VERTEX
8
0
10
612.000000
20
89.000000
0
VERTEX
8
0
10
607.000000
20
88.000000
0
SEQEND
0
POLYLINE
8
0
6
CONTINUOUS
66
1
62
7
10
0.0
20
0.0
30
0.000000
0
VERTEX
8
0
10
616.000000
20
82.000000
0
VERTEX
8
0
10
620.820000
20
83.240000
0
VERTEX
8
0
10
649.750000
20
104.250000
0
VERTEX
8
0
10
651.900000
20
106.200000
0
VERTEX
8
0
10
691.000000
20
143.000000
0
VERTEX
8
0
10
703.000000
20
155.000000
0
VERTEX
8
0
10
724.000000
20
182.000000
0
VERTEX
8
0
10
725.000000
20
182.000000
0
SEQEND
0
POLYLINE
8
0
6
CONTINUOUS
66
1
62
7
10
0.0
20
0.0
30
0.000000
0
VERTEX
8
0
10
265.000000
20
81.000000
0
VERTEX
8
0
10
264.000000
20
82.000000
0
SEQEND
0
POLYLINE
8
0
6
CONTINUOUS
66
1
62
7
10
0.0
20
0.0
30
0.000000
0
VERTEX
8
0
10
265.000000
20
81.000000
0
VERTEX
8
0
10
266.100000
20
81.800000
0
VERTEX
8
0
10
270.230769
20
89.846154
0
VERTEX
8
0
10
280.230769
20
99.846154
0
VERTEX
8
0
10
291.240000
20
113.820000
0
VERTEX
8
0
10
296.700000
20
122.100000
0
VERTEX
8
0
10
301.200000
20
134.900000
0
VERTEX
8
0
10
310.250000
20
142.750000
0
VERTEX
8
0
10
315.200000
20
148.900000
0
VERTEX
8
0
10
321.000000
20
160.000000
0
VERTEX
8
0
10
331.000000
20
197.000000
0
VERTEX
8
0
10
339.250000
20
215.750000
0
VERTEX
8
0
10
341.647059
20
220.088235
0
VERTEX
8
0
10
342.352941
20
222.911765
0
VERTEX
8
0
10
350.300000
20
240.900000
0
VERTEX
8
0
10
354.900000
20
247.200000
0
VERTEX
8
0
10
356.000000
20
248.000000
0
SEQEND
0
POLYLINE
8
0
6
CONTINUOUS
66
1
62
250
10
0.0
20
0.0
30
0.000000
0
VERTEX
8
0
10
613.000000
20
79.000000
0
VERTEX
8
0
10
607.000000
20
86.000000
0
SEQEND
0
POLYLINE
8
0
6
CONTINUOUS
66
1
62
7
10
0.0
20
0.0
30
0.000000
0
VERTEX
8
0
10
613.000000
20
79.000000
0
VERTEX
8
0
10
615.750000
20
81.250000
0
VERTEX
8
0
10
616.000000
20
82.000000
0
SEQEND
0
POLYLINE
8
0
6
CONTINUOUS
66
1
62
250
10
0.0
20
0.0
30
0.000000
0
VERTEX
8
0
10
609.000000
20
78.000000
0
VERTEX
8
0
10
604.000000
20
83.000000
0
VERTEX
8
0
10
607.000000
20
86.000000
0
SEQEND
0
POLYLINE
8
0
6
CONTINUOUS
66
1
62
251
10
0.0
20
0.0
30
0.000000
0
VERTEX
8
0
10
609.000000
20
78.000000
0
VERTEX
8
0
10
613.000000
20
79.000000
0
SEQEND
0
POLYLINE
8
0
6
CONTINUOUS
66
1
62
7
10
0.0
20
0.0
30
0.000000
0
VERTEX
8
0
10
202.000000
20
77.000000
0
VERTEX
8
0
10
201.000000
20
77.000000
0
VERTEX
8
0
10
198.000000
20
77.000000
0
VERTEX
8
0
10
193.000000
20
82.000000
0
VERTEX
8
0
10
193.000000
20
83.000000
0
SEQEND
0
POLYLINE
8
0
6
CONTINUOUS
66
1
62
7
10
0.0
20
0.0
30
0.000000
0
VERTEX
8
0
10
202.000000
20
77.000000
0
VERTEX
8
0
10
202.000000
20
80.000000
0
VERTEX
8
0
10
204.750000
20
83.250000
0
VERTEX
8
0
10
205.250000
20
83.750000
0
VERTEX
8
0
10
212.923077
20
82.615385
0
VERTEX
8
0
10
215.250000
20
81.250000
0
VERTEX
8
0
10
217.750000
20
81.250000
0
VERTEX
8
0
10
218.000000
20
86.000000
0
SEQEND
0
POLYLINE
8
0
6
CONTINUOUS
66
1
62
7
10
0.0
20
0.0
30
0.000000
0
VERTEX
8
0
10
262.000000
20
75.000000
0
VERTEX
8
0
10
265.000000
20
81.000000
0
SEQEND
0
POLYLINE
8
0
6
CONTINUOUS
66
1
62
250
10
0.0
20
0.0
30
0.000000
0
VERTEX
8
0
10
602.000000
20
72.000000
0
VERTEX
8
0
10
601.800000
20
72.900000
0
VERTEX
8
0
10
598.000000
20
78.000000
0
VERTEX
8
0
10
597.000000
20
78.000000
0
SEQEND
0
POLYLINE
8
0
6
CONTINUOUS
66
1
62
250
10
0.0
20
0.0
30
0.000000
0
VERTEX
8
0
10
602.000000
20
72.000000
0
VERTEX
8
0
10
603.846154
20
72.230769
0
VERTEX
8
0
10
609.000000
20
76.000000
0
VERTEX
8
0
10
609.000000
20
78.000000
0
SEQEND
0
POLYLINE
8
0
6
CONTINUOUS
66
1
62
250
10
0.0
20
0.0
30
0.000000
0
VERTEX
8
0
10
250.000000
20
81.000000
0
VERTEX
8
0
10
248.000000
20
76.000000
0
VERTEX
8
0
10
248.000000
20
73.000000
0
VERTEX
8
0
10
249.250000
20
70.250000
0
VERTEX
8
0
10
253.100000
20
69.800000
0
VERTEX
8
0
10
262.000000
20
75.000000
0
SEQEND
0
POLYLINE
8
0
6
CONTINUOUS
66
1
62
250
10
0.0
20
0.0
30
0.000000
0
VERTEX
8
0
10
595.000000
20
69.000000
0
VERTEX
8
0
10
595.000000
20
70.000000
0
VERTEX
8
0
10
593.000000
20
72.000000
0
VERTEX
8
0
10
590.900000
20
72.700000
0
VERTEX
8
0
10
589.000000
20
73.000000
0
SEQEND
0
POLYLINE
8
0
6
CONTINUOUS
66
1
62
250
10
0.0
20
0.0
30
0.000000
0
VERTEX
8
0
10
595.000000
20
69.000000
0
VERTEX
8
0
10
596.000000
20
69.000000
0
VERTEX
8
0
10
601.750000
20
71.250000
0
VERTEX
8
0
10
602.000000
20
72.000000
0
SEQEND
0
POLYLINE
8
0
6
CONTINUOUS
66
1
62
251
10
0.0
20
0.0
30
0.000000
0
VERTEX
8
0
10
402.000000
20
64.000000
0
VERTEX
8
0
10
403.000000
20
72.000000
0
VERTEX
8
0
10
403.000000
20
74.000000
0
VERTEX
8
0
10
402.000000
20
76.000000
0
VERTEX
8
0
10
405.000000
20
86.000000
0
VERTEX
8
0
10
405.000000
20
110.000000
0
VERTEX
8
0
10
403.000000
20
115.000000
0
SEQEND
0
POLYLINE
8
0
6
CONTINUOUS
66
1
62
7
10
0.0
20
0.0
30
0.000000
0
VERTEX
8
0
10
229.000000
20
62.000000
0
VERTEX
8
0
10
220.250000
20
65.250000
0
VERTEX
8
0
10
212.923077
20
70.615385
0
VERTEX
8
0
10
207.900000
20
71.800000
0
VERTEX
8
0
10
202.000000
20
76.000000
0
VERTEX
8
0
10
202.000000
20
77.000000
0
SEQEND
0
POLYLINE
8
0
6
CONTINUOUS
66
1
62
7
10
0.0
20
0.0
30
0.000000
0
VERTEX
8
0
10
580.000000
20
61.000000
0
VERTEX
8
0
10
578.769231
20
62.846154
0
VERTEX
8
0
10
576.000000
20
67.000000
0
VERTEX
8
0
10
577.000000
20
76.000000
0
VERTEX
8
0
10
570.000000
20
91.000000
0
VERTEX
8
0
10
569.569231
20
97.946154
0
VERTEX
8
0
10
565.647059
20
109.911765
0
VERTEX
8
0
10
560.750000
20
119.750000
0
VERTEX
8
0
10
557.800000
20
123.900000
0
VERTEX
8
0
10
544.750000
20
144.750000
0
VERTEX
8
0
10
542.750000
20
146.750000
0
VERTEX
8
0
10
535.800000
20
155.900000
0
VERTEX
8
0
10
533.230769
20
160.153846
0
VERTEX
8
0
10
522.200000
20
183.100000
0
VERTEX
8
0
10
521.000000
20
186.000000
0
VERTEX
8
0
10
510.000000
20
209.000000
0
VERTEX
8
0
10
506.000000
20
213.000000
0
VERTEX
8
0
10
501.846154
20
215.769231
0
VERTEX
8
0
10
494.756098
20
221.804878
0
VERTEX
8
0
10
491.243902
20
226.195122
0
VERTEX
8
0
10
490.000000
20
231.000000
0
SEQEND
0
POLYLINE
8
0
6
CONTINUOUS
66
1
62
250
10
0.0
20
0.0
30
0.000000
0
VERTEX
8
0
10
580.000000
20
61.000000
0
VERTEX
8
0
10
582.750000
20
61.250000
0
VERTEX
8
0
10
595.000000
20
68.000000
0
VERTEX
8
0
10
595.000000
20
69.000000
0
SEQEND
0
POLYLINE
8
0
6
CONTINUOUS
66
1
62
250
10
0.0
20
0.0
30
0.000000
0
VERTEX
8
0
10
398.000000
20
56.000000
0
VERTEX
8
0
10
392.580000
20
82.940000
0
VERTEX
8
0
10
388.000000
20
115.000000
0
VERTEX
8
0
10
388.000000
20
128.000000
0
VERTEX
8
0
10
389.000000
20
129.000000
0
VERTEX
8
0
10
389.000000
20
131.000000
0
VERTEX
8
0
10
388.000000
20
132.000000
0
VERTEX
8
0
10
389.615385
20
143.076923
0
VERTEX
8
0
10
391.384615
20
151.923077
0
VERTEX
8
0
10
394.750000
20
160.250000
0
VERTEX
8
0
10
397.750000
20
167.250000
0
VERTEX
8
0
10
404.615385
20
181.076923
0
VERTEX
8
0
10
405.647059
20
186.088235
0
VERTEX
8
0
10
407.000000
20
191.000000
0
VERTEX
8
0
10
408.000000
20
192.000000
0
VERTEX
8
0
10
411.000000
20
192.000000
0
SEQEND
0
POLYLINE
8
0
6
CONTINUOUS
66
1
62
7
10
0.0
20
0.0
30
0.000000
0
VERTEX
8
0
10
242.000000
20
55.000000
0
VERTEX
8
0
10
240.100000
20
55.200000
0
VERTEX
8
0
10
230.250000
20
60.250000
0
VERTEX
8
0
10
229.000000
20
62.000000
0
SEQEND
0
POLYLINE
8
0
6
CONTINUOUS
66
1
62
7
10
0.0
20
0.0
30
0.000000
0
VERTEX
8
0
10
242.000000
20
55.000000
0
VERTEX
8
0
10
241.800000
20
56.900000
0
VERTEX
8
0
10
238.100000
20
62.200000
0
VERTEX
8
0
10
237.000000
20
63.000000
0
VERTEX
8
0
10
230.000000
20
63.000000
0
VERTEX
8
0
10
229.000000
20
62.000000
0
SEQEND
0
POLYLINE
8
0
6
CONTINUOUS
66
1
62
7
10
0.0
20
0.0
30
0.000000
0
VERTEX
8
0
10
254.000000
20
50.000000
0
VERTEX
8
0
10
253.000000
20
50.000000
0
VERTEX
8
0
10
245.153846
20
53.230769
0
VERTEX
8
0
10
242.000000
20
55.000000
0
SEQEND
0
POLYLINE
8
0
6
CONTINUOUS
66
1
62
7
10
0.0
20
0.0
30
0.000000
0
VERTEX
8
0
10
254.000000
20
50.000000
0
VERTEX
8
0
10
258.000000
20
54.000000
0
VERTEX
8
0
10
261.615385
20
70.076923
0
VERTEX
8
0
10
262.000000
20
75.000000
0
SEQEND
0
POLYLINE
8
0
6
CONTINUOUS
66
1
62
7
10
0.0
20
0.0
30
0.000000
0
VERTEX
8
0
10
398.000000
20
41.000000
0
VERTEX
8
0
10
399.100000
20
41.800000
0
VERTEX
8
0
10
403.647059
20
55.088235
0
VERTEX
8
0
10
404.352941
20
57.911765
0
VERTEX
8
0
10
409.569231
20
73.053846
0
VERTEX
8
0
10
410.250000
20
80.750000
0
VERTEX
8
0
10
410.554455
20
98.044554
0
VERTEX
8
0
10
411.445545
20
106.955446
0
VERTEX
8
0
10
415.300000
20
113.900000
0
VERTEX
8
0
10
418.250000
20
120.750000
0
VERTEX
8
0
10
419.569231
20
129.053846
0
VERTEX
8
0
10
420.430769
20
135.946154
0
VERTEX
8
0
10
419.439024
20
152.048780
0
VERTEX
8
0
10
418.560976
20
159.951220
0
VERTEX
8
0
10
416.700000
20
169.900000
0
VERTEX
8
0
10
411.000000
20
192.000000
0
SEQEND
0
POLYLINE
8
0
6
CONTINUOUS
66
1
62
250
10
0.0
20
0.0
30
0.000000
0
VERTEX
8
0
10
384.000000
20
36.000000
0
VERTEX
8
0
10
384.200000
20
35.100000
0
VERTEX
8
0
10
387.250000
20
30.250000
0
VERTEX
8
0
10
388.000000
20
30.000000
0
VERTEX
8
0
10
391.250000
20
31.750000
0
VERTEX
8
0
10
398.000000
20
41.000000
0
SEQEND
0
POLYLINE
8
0
6
CONTINUOUS
66
1
62
7
10
0.0
20
0.0
30
0.000000
0
VERTEX
8
0
10
314.000000
20
27.000000
0
VERTEX
8
0
10
313.100000
20
28.200000
0
VERTEX
8
0
10
255.250000
20
48.250000
0
VERTEX
8
0
10
254.000000
20
50.000000
0
SEQEND
0
POLYLINE
8
0
6
CONTINUOUS
66
1
62
7
10
0.0
20
0.0
30
0.000000
0
VERTEX
8
0
10
314.000000
20
27.000000
0
VERTEX
8
0
10
321.750000
20
26.250000
0
VERTEX
8
0
10
330.035294
20
31.541176
0
VERTEX
8
0
10
342.000000
20
32.000000
0
VERTEX
8
0
10
344.900000
20
33.200000
0
VERTEX
8
0
10
368.000000
20
45.000000
0
VERTEX
8
0
10
371.000000
20
48.000000
0
VERTEX
8
0
10
372.800000
20
52.100000
0
VERTEX
8
0
10
379.000000
20
72.000000
0
VERTEX
8
0
10
376.538071
20
102.967005
0
VERTEX
8
0
10
376.000000
20
104.000000
0
VERTEX
8
0
10
377.750000
20
124.250000
0
VERTEX
8
0
10
378.000000
20
125.000000
0
VERTEX
8
0
10
377.000000
20
127.000000
0
VERTEX
8
0
10
378.420000
20
142.940000
0
VERTEX
8
0
10
379.000000
20
144.000000
0
VERTEX
8
0
10
379.000000
20
159.000000
0
VERTEX
8
0
10
375.000000
20
179.000000
0
VERTEX
8
0
10
371.300000
20
189.100000
0
VERTEX
8
0
10
369.000000
20
199.000000
0
VERTEX
8
0
10
370.000000
20
200.000000
0
VERTEX
8
0
10
370.000000
20
216.000000
0
VERTEX
8
0
10
369.200000
20
217.100000
0
VERTEX
8
0
10
357.800000
20
244.900000
0
VERTEX
8
0
10
356.000000
20
248.000000
0
SEQEND
0
POLYLINE
8
0
6
CONTINUOUS
66
1
62
7
10
0.0
20
0.0
30
0.000000
0
VERTEX
8
0
10
416.000000
20
23.000000
0
VERTEX
8
0
10
409.000000
20
23.000000
0
VERTEX
8
0
10
407.800000
20
23.900000
0
VERTEX
8
0
10
407.000000
20
27.000000
0
VERTEX
8
0
10
412.250000
20
33.750000
0
VERTEX
8
0
10
415.250000
20
37.750000
0
VERTEX
8
0
10
420.230769
20
56.846154
0
VERTEX
8
0
10
423.769231
20
62.153846
0
VERTEX
8
0
10
426.700000
20
69.100000
0
VERTEX
8
0
10
427.300000
20
70.900000
0
VERTEX
8
0
10
428.482185
20
99.983373
0
VERTEX
8
0
10
429.300000
20
102.900000
0
VERTEX
8
0
10
431.000000
20
108.000000
0
VERTEX
8
0
10
429.420000
20
118.060000
0
VERTEX
8
0
10
428.000000
20
130.000000
0
VERTEX
8
0
10
431.300000
20
146.900000
0
VERTEX
8
0
10
433.524887
20
153.022624
0
VERTEX
8
0
10
434.000000
20
173.000000
0
VERTEX
8
0
10
428.800000
20
185.900000
0
VERTEX
8
0
10
426.405405
20
196.067568
0
VERTEX
8
0
10
426.000000
20
201.000000
0
VERTEX
8
0
10
423.000000
20
206.000000
0
VERTEX
8
0
10
419.647059
20
217.911765
0
VERTEX
8
0
10
419.384615
20
256.076923
0
VERTEX
8
0
10
418.615385
20
259.923077
0
VERTEX
8
0
10
415.000000
20
268.000000
0
VERTEX
8
0
10
413.000000
20
268.000000
0
SEQEND
0
POLYLINE
8
0
6
CONTINUOUS
66
1
62
7
10
0.0
20
0.0
30
0.000000
0
VERTEX
8
0
10
416.000000
20
23.000000
0
VERTEX
8
0
10
418.000000
20
23.000000
0
VERTEX
8
0
10
421.200000
20
26.900000
0
VERTEX
8
0
10
422.000000
20
28.000000
0
SEQEND
0
POLYLINE
8
0
6
CONTINUOUS
66
1
62
250
10
0.0
20
0.0
30
0.000000
0
VERTEX
8
0
10
476.000000
20
22.000000
0
VERTEX
8
0
10
477.100000
20
22.800000
0
VERTEX
8
0
10
507.088235
20
31.647059
0
VERTEX
8
0
10
509.911765
20
32.352941
0
VERTEX
8
0
10
556.900000
20
49.300000
0
VERTEX
8
0
10
558.100000
20
49.800000
0
VERTEX
8
0
10
577.846154
20
59.230769
0
VERTEX
8
0
10
580.000000
20
61.000000
0
SEQEND
0
POLYLINE
8
0
6
CONTINUOUS
66
1
62
7
10
0.0
20
0.0
30
0.000000
0
VERTEX
8
0
10
426.000000
20
20.000000
0
VERTEX
8
0
10
426.000000
20
26.000000
0
VERTEX
8
0
10
427.000000
20
27.000000
0
SEQEND
0
POLYLINE
8
0
6
CONTINUOUS
66
1
62
7
10
0.0
20
0.0
30
0.000000
0
VERTEX
8
0
10
434.000000
20
20.000000
0
VERTEX
8
0
10
434.000000
20
21.000000
0
VERTEX
8
0
10
433.000000
20
26.000000
0
VERTEX
8
0
10
434.000000
20
27.000000
0
SEQEND
0
POLYLINE
8
0
6
CONTINUOUS
66
1
62
7
10
0.0
20
0.0
30
0.000000
0
VERTEX
8
0
10
439.000000
20
20.000000
0
VERTEX
8
0
10
434.000000
20
20.000000
0
SEQEND
0
POLYLINE
8
0
6
CONTINUOUS
66
1
62
7
10
0.0
20
0.0
30
0.000000
0
VERTEX
8
0
10
439.000000
20
20.000000
0
VERTEX
8
0
10
440.000000
20
26.000000
0
SEQEND
0
POLYLINE
8
0
6
CONTINUOUS
66
1
62
7
10
0.0
20
0.0
30
0.000000
0
VERTEX
8
0
10
447.000000
20
20.000000
0
VERTEX
8
0
10
449.000000
20
33.000000
0
VERTEX
8
0
10
446.250000
20
38.250000
0
VERTEX
8
0
10
445.800000
20
38.900000
0
VERTEX
8
0
10
444.000000
20
55.000000
0
VERTEX
8
0
10
453.800000
20
72.100000
0
VERTEX
8
0
10
455.800000
20
77.100000
0
VERTEX
8
0
10
460.500000
20
90.000000
0
VERTEX
8
0
10
460.000000
20
91.000000
0
VERTEX
8
0
10
460.647059
20
93.088235
0
VERTEX
8
0
10
461.352941
20
95.911765
0
VERTEX
8
0
10
469.594595
20
120.067568
0
VERTEX
8
0
10
472.000000
20
136.000000
0
VERTEX
8
0
10
463.405405
20
191.067568
0
VERTEX
8
0
10
461.569231
20
203.946154
0
VERTEX
8
0
10
459.352941
20
218.088235
0
VERTEX
8
0
10
457.000000
20
223.000000
0
VERTEX
8
0
10
457.000000
20
227.000000
0
VERTEX
8
0
10
458.250000
20
230.750000
0
VERTEX
8
0
10
464.000000
20
255.000000
0
VERTEX
8
0
10
464.000000
20
260.000000
0
VERTEX
8
0
10
463.000000
20
261.000000
0
VERTEX
8
0
10
463.800000
20
264.100000
0
VERTEX
8
0
10
464.000000
20
265.000000
0
SEQEND
0
POLYLINE
8
0
6
CONTINUOUS
66
1
62
7
10
0.0
20
0.0
30
0.000000
0
VERTEX
8
0
10
311.000000
20
19.000000
0
VERTEX
8
0
10
311.000000
20
20.000000
0
VERTEX
8
0
10
312.230769
20
23.846154
0
VERTEX
8
0
10
314.000000
20
27.000000
0
SEQEND
0
POLYLINE
8
0
6
CONTINUOUS
66
1
62
7
10
0.0
20
0.0
30
0.000000
0
VERTEX
8
0
10
426.000000
20
20.000000
0
VERTEX
8
0
10
427.000000
20
19.000000
0
VERTEX
8
0
10
432.000000
20
19.000000
0
VERTEX
8
0
10
434.000000
20
20.000000
0
SEQEND
0
POLYLINE
8
0
6
CONTINUOUS
66
1
62
7
10
0.0
20
0.0
30
0.000000
0
VERTEX
8
0
10
439.000000
20
20.000000
0
VERTEX
8
0
10
440.000000
20
19.000000
0
VERTEX
8
0
10
446.000000
20
19.000000
0
VERTEX
8
0
10
447.000000
20
20.000000
0
SEQEND
0
POLYLINE
8
0
6
CONTINUOUS
66
1
62
7
10
0.0
20
0.0
30
0.000000
0
VERTEX
8
0
10
447.000000
20
20.000000
0
VERTEX
8
0
10
458.000000
20
19.000000
0
VERTEX
8
0
10
470.900000
20
21.300000
0
VERTEX
8
0
10
476.000000
20
22.000000
0
SEQEND
0
POLYLINE
8
0
6
CONTINUOUS
66
1
62
7
10
0.0
20
0.0
30
0.000000
0
VERTEX
8
0
10
84.000000
20
185.000000
0
VERTEX
8
0
10
83.000000
20
184.000000
0
VERTEX
8
0
10
84.000000
20
104.000000
0
VERTEX
8
0
10
83.000000
20
103.000000
0
VERTEX
8
0
10
83.000000
20
20.000000
0
VERTEX
8
0
10
84.250000
20
18.250000
0
VERTEX
8
0
10
310.100000
20
18.800000
0
VERTEX
8
0
10
311.000000
20
19.000000
0
SEQEND
0
POLYLINE
8
0
6
CONTINUOUS
66
1
62
7
10
0.0
20
0.0
30
0.000000
0
VERTEX
8
0
10
400.000000
20
18.000000
0
VERTEX
8
0
10
311.000000
20
19.000000
0
SEQEND
0
POLYLINE
8
0
6
CONTINUOUS
66
1
62
7
10
0.0
20
0.0
30
0.000000
0
VERTEX
8
0
10
400.000000
20
18.000000
0
VERTEX
8
0
10
403.000000
20
30.000000
0
VERTEX
8
0
10
402.352941
20
32.088235
0
VERTEX
8
0
10
401.647059
20
34.911765
0
VERTEX
8
0
10
398.800000
20
39.900000
0
VERTEX
8
0
10
398.000000
20
41.000000
0
SEQEND
0
POLYLINE
8
0
6
CONTINUOUS
66
1
62
7
10
0.0
20
0.0
30
0.000000
0
VERTEX
8
0
10
416.000000
20
18.000000
0
VERTEX
8
0
10
416.000000
20
23.000000
0
SEQEND
0
POLYLINE
8
0
6
CONTINUOUS
66
1
62
7
10
0.0
20
0.0
30
0.000000
0
VERTEX
8
0
10
416.000000
20
18.000000
0
VERTEX
8
0
10
417.000000
20
18.000000
0
VERTEX
8
0
10
424.900000
20
19.200000
0
VERTEX
8
0
10
426.000000
20
20.000000
0
SEQEND
0
POLYLINE
8
0
6
CONTINUOUS
66
1
62
7
10
0.0
20
0.0
30
0.000000
0
VERTEX
8
0
10
476.000000
20
22.000000
0
VERTEX
8
0
10
476.000000
20
21.000000
0
VERTEX
8
0
10
478.000000
20
19.000000
0
VERTEX
8
0
10
602.000000
20
18.000000
0
VERTEX
8
0
10
728.000000
20
18.000000
0
VERTEX
8
0
10
729.000000
20
19.000000
0
VERTEX
8
0
10
727.483368
20
142.015593
0
VERTEX
8
0
10
726.516632
20
171.984407
0
VERTEX
8
0
10
725.750000
20
181.750000
0
VERTEX
8
0
10
725.000000
20
182.000000
0
SEQEND
0
POLYLINE
8
0
6
CONTINUOUS
66
1
62
7
10
0.0
20
0.0
30
0.000000
0
VERTEX
8
0
10
400.000000
20
18.000000
0
VERTEX
8
0
10
416.000000
20
18.000000
0
SEQEND
0
ENDSEC
0
EOF
