  0
SECTION
  2
HEADER
  9
$ACADVER
  1
AC1006
  0
ENDSEC
  0
SECTION
  2
TABLES
  0
TABLE
  2
LTYPE
 70
    25
  0
LTYPE
  2
CONTINUOUS
 70
    64
  3
Solid line
 72
    64
 73
     0
 40
0.000000
  0
LTYPE
  2
DASHDOT
 70
    64
  3
__ . __ . __ . __ . __ . __ . __ . __ . __ . __
 72
    65
 73
     4
 40
1.000000
 49
0.500000
 49
-0.250000
 49
0.000000
 49
-0.250000
  0
LTYPE
  2
DASHED
 70
    64
  3
__ __ __ __ __ __ __ __ __ __ __ __ __ __ __ __
 72
    65
 73
     2
 40
0.750000
 49
0.500000
 49
-0.250000
  0
LTYPE
  2
DIVIDE
 70
    64
  3
____ . . ____ . . ____ . . ____ . . ____ . . __
 72
    65
 73
     6
 40
1.250000
 49
0.500000
 49
-0.250000
 49
0.000000
 49
-0.250000
 49
0.000000
 49
-0.250000
  0
LTYPE
  2
DOT
 70
    64
  3
. . . . . . . . . . . . . . . . . . . . . . . . 
 72
    65
 73
     2
 40
0.250000
 49
0.000000
 49
-0.250000
  0
ENDTAB
  0
ENDSEC
  0
SECTION
  2
ENTITIES
  0
LINE
  8
Layer 1
 62
     7
  6
CONTINUOUS
 10
21.720058
 20
36.047871
 30
0.000000
 11
22.109767
 21
34.927288
 31
0.000000
  0
LINE
  8
Layer 1
 62
     7
  6
CONTINUOUS
 10
22.109767
 20
34.927288
 30
0.000000
 11
22.225482
 21
34.564594
 31
0.000000
  0
LINE
  8
Layer 1
 62
     7
  6
CONTINUOUS
 10
22.225482
 20
34.564594
 30
0.000000
 11
22.287775
 21
34.384494
 31
0.000000
  0
LINE
  8
Layer 1
 62
     7
  6
CONTINUOUS
 10
22.287775
 20
34.384494
 30
0.000000
 11
22.295907
 21
34.362094
 31
0.000000
  0
LINE
  8
Layer 1
 62
     7
  6
CONTINUOUS
 10
22.295907
 20
34.362094
 30
0.000000
 11
22.296930
 21
34.359296
 31
0.000000
  0
LINE
  8
Layer 1
 62
     7
  6
CONTINUOUS
 10
22.296930
 20
34.359296
 30
0.000000
 11
22.297215
 21
34.358477
 31
0.000000
  0
LINE
  8
Layer 1
 62
     7
  6
CONTINUOUS
 10
22.297215
 20
34.358477
 30
0.000000
 11
26.224156
 21
22.587734
 31
0.000000
  0
LINE
  8
Layer 1
 62
     7
  6
CONTINUOUS
 10
26.224156
 20
22.587734
 30
0.000000
 11
26.280227
 21
22.427289
 31
0.000000
  0
LINE
  8
Layer 1
 62
     7
  6
CONTINUOUS
 10
26.280227
 20
22.427289
 30
0.000000
 11
26.297850
 21
22.389630
 31
0.000000
  0
LINE
  8
Layer 1
 62
     7
  6
CONTINUOUS
 10
26.297850
 20
22.389630
 30
0.000000
 11
26.317974
 21
22.355128
 31
0.000000
  0
LINE
  8
Layer 1
 62
     7
  6
CONTINUOUS
 10
26.317974
 20
22.355128
 30
0.000000
 11
26.341128
 21
22.324871
 31
0.000000
  0
LINE
  8
Layer 1
 62
     7
  6
CONTINUOUS
 10
26.341128
 20
22.324871
 30
0.000000
 11
26.354007
 21
22.311675
 31
0.000000
  0
LINE
  8
Layer 1
 62
     7
  6
CONTINUOUS
 10
26.354007
 20
22.311675
 30
0.000000
 11
26.367842
 21
22.299949
 31
0.000000
  0
LINE
  8
Layer 1
 62
     7
  6
CONTINUOUS
 10
26.367842
 20
22.299949
 30
0.000000
 11
26.382699
 21
22.289829
 31
0.000000
  0
LINE
  8
Layer 1
 62
     7
  6
CONTINUOUS
 10
26.382699
 20
22.289829
 30
0.000000
 11
26.398645
 21
22.281450
 31
0.000000
  0
LINE
  8
Layer 1
 62
     7
  6
CONTINUOUS
 10
26.398645
 20
22.281450
 30
0.000000
 11
26.415746
 21
22.274949
 31
0.000000
  0
LINE
  8
Layer 1
 62
     7
  6
CONTINUOUS
 10
26.415746
 20
22.274949
 30
0.000000
 11
26.434067
 21
22.270461
 31
0.000000
  0
LINE
  8
Layer 1
 62
     7
  6
CONTINUOUS
 10
26.434067
 20
22.270461
 30
0.000000
 11
26.453676
 21
22.268123
 31
0.000000
  0
LINE
  8
Layer 1
 62
     7
  6
CONTINUOUS
 10
26.453676
 20
22.268123
 30
0.000000
 11
26.474637
 21
22.268072
 31
0.000000
  0
LINE
  8
Layer 1
 62
     7
  6
CONTINUOUS
 10
26.474637
 20
22.268072
 30
0.000000
 11
26.497018
 21
22.270442
 31
0.000000
  0
LINE
  8
Layer 1
 62
     7
  6
CONTINUOUS
 10
26.497018
 20
22.270442
 30
0.000000
 11
26.508762
 21
22.272577
 31
0.000000
  0
LINE
  8
Layer 1
 62
     7
  6
CONTINUOUS
 10
26.508762
 20
22.272577
 30
0.000000
 11
26.514776
 21
22.273890
 31
0.000000
  0
LINE
  8
Layer 1
 62
     7
  6
CONTINUOUS
 10
26.514776
 20
22.273890
 30
0.000000
 11
26.515534
 21
22.274066
 31
0.000000
  0
LINE
  8
Layer 1
 62
     7
  6
CONTINUOUS
 10
26.515534
 20
22.274066
 30
0.000000
 11
26.515914
 21
22.274155
 31
0.000000
  0
LINE
  8
Layer 1
 62
     7
  6
CONTINUOUS
 10
26.515914
 20
22.274155
 30
0.000000
 11
26.517173
 21
22.274188
 31
0.000000
  0
LINE
  8
Layer 1
 62
     7
  6
CONTINUOUS
 10
26.517173
 20
22.274188
 30
0.000000
 11
34.996787
 21
22.274197
 31
0.000000
  0
LINE
  8
Layer 1
 62
     7
  6
CONTINUOUS
 10
34.996787
 20
22.274197
 30
0.000000
 11
39.237007
 21
22.274189
 31
0.000000
  0
LINE
  8
Layer 1
 62
     7
  6
CONTINUOUS
 10
39.237007
 20
22.274189
 30
0.000000
 11
40.296465
 21
22.274188
 31
0.000000
  0
LINE
  8
Layer 1
 62
     7
  6
CONTINUOUS
 10
40.296465
 20
22.274188
 30
0.000000
 11
40.826064
 21
22.274188
 31
0.000000
  0
LINE
  8
Layer 1
 62
     7
  6
CONTINUOUS
 10
41.302451
 20
22.274188
 30
0.000000
 11
37.935428
 21
19.900161
 31
0.000000
  0
LINE
  8
Layer 1
 62
     7
  6
CONTINUOUS
 10
40.826064
 20
22.274188
 30
0.000000
 11
41.302451
 21
22.274188
 31
0.000000
  0
LINE
  8
Layer 1
 62
     7
  6
CONTINUOUS
 10
37.935428
 20
19.900161
 30
0.000000
 11
36.252580
 21
18.714066
 31
0.000000
  0
LINE
  8
Layer 1
 62
     7
  6
CONTINUOUS
 10
36.252580
 20
18.714066
 30
0.000000
 11
35.831868
 21
18.416954
 31
0.000000
  0
LINE
  8
Layer 1
 62
     7
  6
CONTINUOUS
 10
35.831868
 20
18.416954
 30
0.000000
 11
35.433081
 21
18.135081
 31
0.000000
  0
LINE
  8
Layer 1
 62
     7
  6
CONTINUOUS
 10
35.433081
 20
18.135081
 30
0.000000
 11
39.626452
 21
18.133990
 31
0.000000
  0
LINE
  8
Layer 1
 62
     7
  6
CONTINUOUS
 10
39.626452
 20
18.133990
 30
0.000000
 11
41.727358
 21
18.130050
 31
0.000000
  0
LINE
  8
Layer 1
 62
     7
  6
CONTINUOUS
 10
41.727358
 20
18.130050
 30
0.000000
 11
42.253396
 21
18.126482
 31
0.000000
  0
LINE
  8
Layer 1
 62
     7
  6
CONTINUOUS
 10
42.253396
 20
18.126482
 30
0.000000
 11
42.516558
 21
18.124170
 31
0.000000
  0
LINE
  8
Layer 1
 62
     7
  6
CONTINUOUS
 10
42.516558
 20
18.124170
 30
0.000000
 11
42.648176
 21
18.122870
 31
0.000000
  0
LINE
  8
Layer 1
 62
     7
  6
CONTINUOUS
 10
42.648176
 20
18.122870
 30
0.000000
 11
42.713994
 21
18.122183
 31
0.000000
  0
LINE
  8
Layer 1
 62
     7
  6
CONTINUOUS
 10
42.713994
 20
18.122183
 30
0.000000
 11
42.746906
 21
18.121830
 31
0.000000
  0
LINE
  8
Layer 1
 62
     7
  6
CONTINUOUS
 10
42.746906
 20
18.121830
 30
0.000000
 11
42.751020
 21
18.121785
 31
0.000000
  0
LINE
  8
Layer 1
 62
     7
  6
CONTINUOUS
 10
42.751020
 20
18.121785
 30
0.000000
 11
42.753077
 21
18.121763
 31
0.000000
  0
LINE
  8
Layer 1
 62
     7
  6
CONTINUOUS
 10
42.753077
 20
18.121763
 30
0.000000
 11
42.753108
 21
18.121762
 31
0.000000
  0
LINE
  8
Layer 1
 62
     7
  6
CONTINUOUS
 10
42.753108
 20
18.121762
 30
0.000000
 11
42.753108
 21
18.121762
 31
0.000000
  0
LINE
  8
Layer 1
 62
     7
  6
CONTINUOUS
 10
42.753108
 20
18.121762
 30
0.000000
 11
42.753108
 21
18.121762
 31
0.000000
  0
LINE
  8
Layer 1
 62
     7
  6
CONTINUOUS
 10
42.753108
 20
18.121762
 30
0.000000
 11
42.753109
 21
18.121761
 31
0.000000
  0
LINE
  8
Layer 1
 62
     7
  6
CONTINUOUS
 10
42.753109
 20
18.121761
 30
0.000000
 11
42.753118
 21
18.121752
 31
0.000000
  0
LINE
  8
Layer 1
 62
     7
  6
CONTINUOUS
 10
42.753118
 20
18.121752
 30
0.000000
 11
42.753166
 21
18.121704
 31
0.000000
  0
LINE
  8
Layer 1
 62
     7
  6
CONTINUOUS
 10
42.753166
 20
18.121704
 30
0.000000
 11
42.753372
 21
18.121498
 31
0.000000
  0
LINE
  8
Layer 1
 62
     7
  6
CONTINUOUS
 10
42.753372
 20
18.121498
 30
0.000000
 11
42.755577
 21
18.119294
 31
0.000000
  0
LINE
  8
Layer 1
 62
     7
  6
CONTINUOUS
 10
42.755577
 20
18.119294
 30
0.000000
 11
42.780306
 21
18.094570
 31
0.000000
  0
LINE
  8
Layer 1
 62
     7
  6
CONTINUOUS
 10
42.780306
 20
18.094570
 30
0.000000
 11
42.832702
 21
18.042184
 31
0.000000
  0
LINE
  8
Layer 1
 62
     7
  6
CONTINUOUS
 10
42.832702
 20
18.042184
 30
0.000000
 11
42.832916
 21
18.041970
 31
0.000000
  0
LINE
  8
Layer 1
 62
     7
  6
CONTINUOUS
 10
42.832916
 20
18.041970
 30
0.000000
 11
42.832968
 21
18.041918
 31
0.000000
  0
LINE
  8
Layer 1
 62
     7
  6
CONTINUOUS
 10
42.832968
 20
18.041918
 30
0.000000
 11
42.832979
 21
18.041907
 31
0.000000
  0
LINE
  8
Layer 1
 62
     7
  6
CONTINUOUS
 10
42.832979
 20
18.041907
 30
0.000000
 11
42.832981
 21
18.041904
 31
0.000000
  0
LINE
  8
Layer 1
 62
     7
  6
CONTINUOUS
 10
42.832981
 20
18.041904
 30
0.000000
 11
42.832982
 21
18.041904
 31
0.000000
  0
LINE
  8
Layer 1
 62
     7
  6
CONTINUOUS
 10
42.832982
 20
18.041904
 30
0.000000
 11
42.832982
 21
18.041904
 31
0.000000
  0
LINE
  8
Layer 1
 62
     7
  6
CONTINUOUS
 10
42.832982
 20
18.041904
 30
0.000000
 11
42.833056
 21
18.041525
 31
0.000000
  0
LINE
  8
Layer 1
 62
     7
  6
CONTINUOUS
 10
42.833056
 20
18.041525
 30
0.000000
 11
43.064738
 21
16.636755
 31
0.000000
  0
LINE
  8
Layer 1
 62
     7
  6
CONTINUOUS
 10
43.064738
 20
16.636755
 30
0.000000
 11
43.334906
 21
14.893986
 31
0.000000
  0
LINE
  8
Layer 1
 62
     7
  6
CONTINUOUS
 10
43.334906
 20
14.893986
 30
0.000000
 11
43.090167
 21
13.514692
 31
0.000000
  0
LINE
  8
Layer 1
 62
     7
  6
CONTINUOUS
 10
43.090167
 20
13.514692
 30
0.000000
 11
42.949762
 21
12.701878
 31
0.000000
  0
LINE
  8
Layer 1
 62
     7
  6
CONTINUOUS
 10
42.949762
 20
12.701878
 30
0.000000
 11
42.916652
 21
12.498676
 31
0.000000
  0
LINE
  8
Layer 1
 62
     7
  6
CONTINUOUS
 10
42.916652
 20
12.498676
 30
0.000000
 11
42.900496
 21
12.397075
 31
0.000000
  0
LINE
  8
Layer 1
 62
     7
  6
CONTINUOUS
 10
42.900496
 20
12.397075
 30
0.000000
 11
42.892527
 21
12.346275
 31
0.000000
  0
LINE
  8
Layer 1
 62
     7
  6
CONTINUOUS
 10
42.892527
 20
12.346275
 30
0.000000
 11
42.888570
 21
12.320874
 31
0.000000
  0
LINE
  8
Layer 1
 62
     7
  6
CONTINUOUS
 10
42.888570
 20
12.320874
 30
0.000000
 11
42.886598
 21
12.308174
 31
0.000000
  0
LINE
  8
Layer 1
 62
     7
  6
CONTINUOUS
 10
42.886598
 20
12.308174
 30
0.000000
 11
42.886352
 21
12.306587
 31
0.000000
  0
LINE
  8
Layer 1
 62
     7
  6
CONTINUOUS
 10
42.886352
 20
12.306587
 30
0.000000
 11
42.886229
 21
12.305793
 31
0.000000
  0
LINE
  8
Layer 1
 62
     7
  6
CONTINUOUS
 10
42.886229
 20
12.305793
 30
0.000000
 11
42.884214
 21
12.305640
 31
0.000000
  0
LINE
  8
Layer 1
 62
     7
  6
CONTINUOUS
 10
42.884214
 20
12.305640
 30
0.000000
 11
38.040957
 21
12.302455
 31
0.000000
  0
LINE
  8
Layer 1
 62
     7
  6
CONTINUOUS
 10
35.167829
 20
10.708934
 30
0.000000
 11
34.081389
 21
10.248852
 31
0.000000
  0
ARC
  8
Default
 62
   202
  6
CONTINUOUS
 10
13.203872
 20
10.132169
 30
0.000000
 40
0.297465
 50
281.440621
 51
308.951698
  0
LINE
  8
Default
 62
     7
  6
CONTINUOUS
 10
13.146971
 20
9.688566
 30
0.000000
 11
13.180028
 21
9.835593
 31
0.000000
  0
LINE
  8
Default
 62
     7
  6
CONTINUOUS
 10
13.053712
 20
9.866416
 30
0.000000
 11
13.019117
 21
9.712544
 31
0.000000
  0
ARC
  8
Default
 62
   202
  6
CONTINUOUS
 10
13.177449
 20
10.139781
 30
0.000000
 40
0.299976
 50
209.447040
 51
238.192146
  0
ARC
  8
Default
 62
   202
  6
CONTINUOUS
 10
13.279630
 20
10.197468
 30
0.000000
 40
0.417317
 50
194.892959
 51
209.447040
  0
ARC
  8
Default
 62
   202
  6
CONTINUOUS
 10
13.441351
 20
10.240477
 30
0.000000
 40
0.584658
 50
178.791436
 51
194.892959
  0
ARC
  8
Default
 62
   202
  6
CONTINUOUS
 10
13.862187
 20
10.231599
 30
0.000000
 40
1.005589
 50
170.369603
 51
178.791436
  0
ARC
  8
Default
 62
   202
  6
CONTINUOUS
 10
13.993358
 20
10.209342
 30
0.000000
 40
1.138634
 50
161.157589
 51
170.369603
  0
ARC
  8
Default
 62
   202
  6
CONTINUOUS
 10
13.602681
 20
10.342662
 30
0.000000
 40
0.725835
 50
151.951222
 51
161.157589
  0
ARC
  8
Default
 62
   202
  6
CONTINUOUS
 10
13.404319
 20
10.448349
 30
0.000000
 40
0.501074
 50
140.526278
 51
151.951222
  0
LINE
  8
Layer 1
 62
     7
  6
CONTINUOUS
 10
8.986355
 20
10.705098
 30
0.000000
 11
9.693322
 21
12.265784
 31
0.000000
  0
LINE
  8
Layer 1
 62
     7
  6
CONTINUOUS
 10
4.781991
 20
12.298271
 30
0.000000
 11
2.321663
 21
12.295191
 31
0.000000
  0
LINE
  8
Layer 1
 62
     7
  6
CONTINUOUS
 10
2.321663
 20
12.295191
 30
0.000000
 11
1.706361
 21
12.299097
 31
0.000000
  0
LINE
  8
Layer 1
 62
     7
  6
CONTINUOUS
 10
1.706361
 20
12.299097
 30
0.000000
 11
1.121821
 21
12.304946
 31
0.000000
  0
LINE
  8
Layer 1
 62
     7
  6
CONTINUOUS
 10
1.121821
 20
12.304946
 30
0.000000
 11
1.521798
 21
13.024979
 31
0.000000
  0
LINE
  8
Layer 1
 62
     7
  6
CONTINUOUS
 10
1.521798
 20
13.024979
 30
0.000000
 11
1.787000
 21
13.538286
 31
0.000000
  0
LINE
  8
Layer 1
 62
     7
  6
CONTINUOUS
 10
1.787000
 20
13.538286
 30
0.000000
 11
1.816635
 21
14.829661
 31
0.000000
  0
LINE
  8
Layer 1
 62
     7
  6
CONTINUOUS
 10
1.816635
 20
14.829661
 30
0.000000
 11
1.797382
 21
15.763752
 31
0.000000
  0
LINE
  8
Layer 1
 62
     7
  6
CONTINUOUS
 10
1.797382
 20
15.763752
 30
0.000000
 11
0.913621
 21
15.205307
 31
0.000000
  0
LINE
  8
Layer 1
 62
     7
  6
CONTINUOUS
 10
0.913621
 20
15.205307
 30
0.000000
 11
0.242404
 21
14.798003
 31
0.000000
  0
LINE
  8
Layer 1
 62
     7
  6
CONTINUOUS
 10
0.242404
 20
14.798003
 30
0.000000
 11
0.524305
 21
16.708797
 31
0.000000
  0
LINE
  8
Layer 1
 62
     7
  6
CONTINUOUS
 10
0.524305
 20
16.708797
 30
0.000000
 11
0.660207
 21
17.658980
 31
0.000000
  0
LINE
  8
Layer 1
 62
     7
  6
CONTINUOUS
 10
0.660207
 20
17.658980
 30
0.000000
 11
0.723663
 21
18.121766
 31
0.000000
  0
LINE
  8
Layer 1
 62
     7
  6
CONTINUOUS
 10
0.723663
 20
18.121766
 30
0.000000
 11
5.005091
 21
18.128445
 31
0.000000
  0
LINE
  8
Layer 1
 62
     7
  6
CONTINUOUS
 10
5.005091
 20
18.128445
 30
0.000000
 11
7.145856
 21
18.130915
 31
0.000000
  0
LINE
  8
Layer 1
 62
     7
  6
CONTINUOUS
 10
7.145856
 20
18.130915
 30
0.000000
 11
7.681047
 21
18.132718
 31
0.000000
  0
LINE
  8
Layer 1
 62
     7
  6
CONTINUOUS
 10
7.681047
 20
18.132718
 30
0.000000
 11
8.189655
 21
18.134923
 31
0.000000
  0
LINE
  8
Layer 1
 62
     7
  6
CONTINUOUS
 10
8.189655
 20
18.134923
 30
0.000000
 11
4.939569
 21
20.499557
 31
0.000000
  0
LINE
  8
Layer 1
 62
     7
  6
CONTINUOUS
 10
4.939569
 20
20.499557
 30
0.000000
 11
3.308436
 21
21.679160
 31
0.000000
  0
LINE
  8
Layer 1
 62
     7
  6
CONTINUOUS
 10
3.308436
 20
21.679160
 30
0.000000
 11
2.516207
 21
22.260911
 31
0.000000
  0
LINE
  8
Layer 1
 62
     7
  6
CONTINUOUS
 10
2.516207
 20
22.260911
 30
0.000000
 11
10.878429
 21
22.270663
 31
0.000000
  0
LINE
  8
Layer 1
 62
     7
  6
CONTINUOUS
 10
10.878429
 20
22.270663
 30
0.000000
 11
15.056945
 21
22.265701
 31
0.000000
  0
LINE
  8
Layer 1
 62
     7
  6
CONTINUOUS
 10
15.056945
 20
22.265701
 30
0.000000
 11
16.101575
 21
22.263438
 31
0.000000
  0
LINE
  8
Layer 1
 62
     7
  6
CONTINUOUS
 10
16.101575
 20
22.263438
 30
0.000000
 11
16.623890
 21
22.262153
 31
0.000000
  0
LINE
  8
Layer 1
 62
     7
  6
CONTINUOUS
 10
16.623890
 20
22.262153
 30
0.000000
 11
17.093230
 21
22.260930
 31
0.000000
  0
LINE
  8
Layer 1
 62
     7
  6
CONTINUOUS
 10
17.093230
 20
22.260930
 30
0.000000
 11
21.720058
 21
36.047871
 31
0.000000
  0
LINE
  8
Layer 1
 62
     7
  6
CONTINUOUS
 10
18.380364
 20
22.688216
 30
0.000000
 11
20.790233
 21
29.914480
 31
0.000000
  0
LINE
  8
Layer 1
 62
     7
  6
CONTINUOUS
 10
20.790233
 20
29.914480
 30
0.000000
 11
21.479864
 21
31.930658
 31
0.000000
  0
LINE
  8
Layer 1
 62
     7
  6
CONTINUOUS
 10
21.479864
 20
31.930658
 30
0.000000
 11
21.711417
 21
32.602269
 31
0.000000
  0
LINE
  8
Layer 1
 62
     7
  6
CONTINUOUS
 10
21.711417
 20
32.602269
 30
0.000000
 11
23.516862
 21
27.327038
 31
0.000000
  0
LINE
  8
Layer 1
 62
     7
  6
CONTINUOUS
 10
23.516862
 20
27.327038
 30
0.000000
 11
25.038007
 21
22.788363
 31
0.000000
  0
LINE
  8
Layer 1
 62
     7
  6
CONTINUOUS
 10
25.345671
 20
21.861557
 30
0.000000
 11
24.579595
 21
21.906227
 31
0.000000
  0
LINE
  8
Layer 1
 62
     7
  6
CONTINUOUS
 10
21.035395
 20
28.104531
 30
0.000000
 11
19.774183
 21
24.043343
 31
0.000000
  0
LINE
  8
Layer 1
 62
     7
  6
CONTINUOUS
 10
19.774183
 20
24.043343
 30
0.000000
 11
19.349465
 21
22.773742
 31
0.000000
  0
LINE
  8
Layer 1
 62
     7
  6
CONTINUOUS
 10
21.024177
 20
28.070134
 30
0.000000
 11
21.549830
 21
29.605513
 31
0.000000
  0
LINE
  8
Layer 1
 62
     7
  6
CONTINUOUS
 10
21.737570
 20
30.114807
 30
0.000000
 11
23.100660
 21
26.093330
 31
0.000000
  0
LINE
  8
Layer 1
 62
     7
  6
CONTINUOUS
 10
21.549830
 20
29.605513
 30
0.000000
 11
21.737570
 21
30.114807
 31
0.000000
  0
LINE
  8
Layer 1
 62
     7
  6
CONTINUOUS
 10
23.100660
 20
26.093330
 30
0.000000
 11
24.159005
 21
22.798247
 31
0.000000
  0
LINE
  8
Layer 1
 62
     7
  6
CONTINUOUS
 10
13.952241
 20
21.249416
 30
0.000000
 11
16.794150
 21
21.675559
 31
0.000000
  0
LINE
  8
Layer 1
 62
     7
  6
CONTINUOUS
 10
16.794150
 20
21.675559
 30
0.000000
 11
18.450738
 21
21.847434
 31
0.000000
  0
LINE
  8
Default
 62
     7
  6
CONTINUOUS
 10
18.780130
 20
21.868347
 30
0.000000
 11
18.450738
 21
21.847434
 31
0.000000
  0
LINE
  8
Layer 1
 62
     7
  6
CONTINUOUS
 10
19.386529
 20
21.907117
 30
0.000000
 11
21.239407
 21
21.970986
 31
0.000000
  0
LINE
  8
Layer 1
 62
     7
  6
CONTINUOUS
 10
21.239407
 20
21.970986
 30
0.000000
 11
23.092286
 21
21.964974
 31
0.000000
  0
LINE
  8
Layer 1
 62
     7
  6
CONTINUOUS
 10
23.092286
 20
21.964974
 30
0.000000
 11
24.522523
 21
21.907707
 31
0.000000
  0
LINE
  8
Layer 1
 62
     7
  6
CONTINUOUS
 10
25.345671
 20
21.861557
 30
0.000000
 11
27.015194
 21
21.721258
 31
0.000000
  0
LINE
  8
Layer 1
 62
     7
  6
CONTINUOUS
 10
27.015194
 20
21.721258
 30
0.000000
 11
28.675488
 21
21.497489
 31
0.000000
  0
LINE
  8
Layer 1
 62
     7
  6
CONTINUOUS
 10
28.675488
 20
21.497489
 30
0.000000
 11
29.502094
 21
21.369519
 31
0.000000
  0
LINE
  8
Layer 1
 62
     7
  6
CONTINUOUS
 10
29.502094
 20
21.369519
 30
0.000000
 11
30.288472
 21
21.232349
 31
0.000000
  0
LINE
  8
Layer 1
 62
     7
  6
CONTINUOUS
 10
34.714531
 20
19.878541
 30
0.000000
 11
35.185876
 21
19.460018
 31
0.000000
  0
LINE
  8
Layer 1
 62
     7
  6
CONTINUOUS
 10
35.233625
 20
19.412837
 30
0.000000
 11
35.018541
 21
19.144071
 31
0.000000
  0
LINE
  8
Layer 1
 62
     7
  6
CONTINUOUS
 10
35.185876
 20
19.460018
 30
0.000000
 11
35.233625
 21
19.412837
 31
0.000000
  0
LINE
  8
Layer 1
 62
     7
  6
CONTINUOUS
 10
35.018541
 20
19.144071
 30
0.000000
 11
34.828330
 21
18.848153
 31
0.000000
  0
LINE
  8
Layer 1
 62
     7
  6
CONTINUOUS
 10
34.828330
 20
18.848153
 30
0.000000
 11
34.761611
 21
18.692792
 31
0.000000
  0
LINE
  8
Layer 1
 62
     7
  6
CONTINUOUS
 10
34.761611
 20
18.692792
 30
0.000000
 11
34.738692
 21
18.613760
 31
0.000000
  0
LINE
  8
Layer 1
 62
     7
  6
CONTINUOUS
 10
34.738692
 20
18.613760
 30
0.000000
 11
34.724010
 21
18.534018
 31
0.000000
  0
LINE
  8
Layer 1
 62
     7
  6
CONTINUOUS
 10
34.724010
 20
18.534018
 30
0.000000
 11
34.718518
 21
18.453709
 31
0.000000
  0
LINE
  8
Layer 1
 62
     7
  6
CONTINUOUS
 10
34.718518
 20
18.453709
 30
0.000000
 11
34.723174
 21
18.372974
 31
0.000000
  0
LINE
  8
Layer 1
 62
     7
  6
CONTINUOUS
 10
34.723174
 20
18.372974
 30
0.000000
 11
34.738933
 21
18.291957
 31
0.000000
  0
LINE
  8
Layer 1
 62
     7
  6
CONTINUOUS
 10
34.738933
 20
18.291957
 30
0.000000
 11
34.766751
 21
18.210800
 31
0.000000
  0
LINE
  8
Layer 1
 62
     7
  6
CONTINUOUS
 10
34.766751
 20
18.210800
 30
0.000000
 11
34.807583
 21
18.129646
 31
0.000000
  0
LINE
  8
Layer 1
 62
     7
  6
CONTINUOUS
 10
34.807583
 20
18.129646
 30
0.000000
 11
34.833178
 21
18.089115
 31
0.000000
  0
LINE
  8
Layer 1
 62
     7
  6
CONTINUOUS
 10
34.833178
 20
18.089115
 30
0.000000
 11
34.847323
 21
18.068868
 31
0.000000
  0
LINE
  8
Layer 1
 62
     7
  6
CONTINUOUS
 10
34.847323
 20
18.068868
 30
0.000000
 11
34.847551
 21
18.068552
 31
0.000000
  0
LINE
  8
Layer 1
 62
     7
  6
CONTINUOUS
 10
34.847551
 20
18.068552
 30
0.000000
 11
34.847432
 21
18.068559
 31
0.000000
  0
LINE
  8
Layer 1
 62
     7
  6
CONTINUOUS
 10
34.847432
 20
18.068559
 30
0.000000
 11
34.284721
 21
18.199168
 31
0.000000
  0
LINE
  8
Layer 1
 62
     7
  6
CONTINUOUS
 10
34.284721
 20
18.199168
 30
0.000000
 11
34.249037
 21
18.208150
 31
0.000000
  0
LINE
  8
Layer 1
 62
     7
  6
CONTINUOUS
 10
34.249037
 20
18.208150
 30
0.000000
 11
34.231111
 21
18.212646
 31
0.000000
  0
LINE
  8
Layer 1
 62
     7
  6
CONTINUOUS
 10
34.231111
 20
18.212646
 30
0.000000
 11
34.222124
 21
18.214894
 31
0.000000
  0
LINE
  8
Layer 1
 62
     7
  6
CONTINUOUS
 10
34.222124
 20
18.214894
 30
0.000000
 11
34.222117
 21
18.215049
 31
0.000000
  0
LINE
  8
Layer 1
 62
     7
  6
CONTINUOUS
 10
9.919581
 20
18.214904
 30
0.000000
 11
9.265686
 21
18.065062
 31
0.000000
  0
LINE
  8
Layer 1
 62
     7
  6
CONTINUOUS
 10
9.265686
 20
18.065062
 30
0.000000
 11
9.447368
 21
18.428379
 31
0.000000
  0
LINE
  8
Layer 1
 62
     7
  6
CONTINUOUS
 10
9.447368
 20
18.428379
 30
0.000000
 11
9.458612
 21
18.450866
 31
0.000000
  0
LINE
  8
Layer 1
 62
     7
  6
CONTINUOUS
 10
9.458612
 20
18.450866
 30
0.000000
 11
9.464234
 21
18.462111
 31
0.000000
  0
LINE
  8
Layer 1
 62
     7
  6
CONTINUOUS
 10
9.464234
 20
18.462111
 30
0.000000
 11
9.467046
 21
18.467733
 31
0.000000
  0
LINE
  8
Layer 1
 62
     7
  6
CONTINUOUS
 10
9.467046
 20
18.467733
 30
0.000000
 11
9.467071
 21
18.467807
 31
0.000000
  0
LINE
  8
Layer 1
 62
     7
  6
CONTINUOUS
 10
9.025183
 20
19.528543
 30
0.000000
 11
9.230838
 21
19.833347
 31
0.000000
  0
LINE
  8
Layer 1
 62
     7
  6
CONTINUOUS
 10
9.467071
 20
18.467807
 30
0.000000
 11
9.025183
 21
19.528543
 31
0.000000
  0
LINE
  8
Layer 1
 62
     7
  6
CONTINUOUS
 10
9.230838
 20
19.833347
 30
0.000000
 11
9.244040
 21
19.851634
 31
0.000000
  0
LINE
  8
Layer 1
 62
     7
  6
CONTINUOUS
 10
9.244040
 20
19.851634
 30
0.000000
 11
9.254091
 21
19.865254
 31
0.000000
  0
LINE
  8
Layer 1
 62
     7
  6
CONTINUOUS
 10
10.053956
 20
20.121673
 30
0.000000
 11
10.720241
 21
20.384330
 31
0.000000
  0
LINE
  8
Layer 1
 62
     7
  6
CONTINUOUS
 10
10.720241
 20
20.384330
 30
0.000000
 11
11.959701
 21
20.716850
 31
0.000000
  0
LINE
  8
Layer 1
 62
     7
  6
CONTINUOUS
 10
5.873612
 20
21.276014
 30
0.000000
 11
9.407603
 21
21.290980
 31
0.000000
  0
LINE
  8
Layer 1
 62
     7
  6
CONTINUOUS
 10
9.407603
 20
21.290980
 30
0.000000
 11
12.943504
 21
21.273478
 31
0.000000
  0
LINE
  8
Layer 1
 62
     7
  6
CONTINUOUS
 10
13.950272
 20
21.249474
 30
0.000000
 11
13.951995
 21
21.249423
 31
0.000000
  0
LINE
  8
Layer 1
 62
     7
  6
CONTINUOUS
 10
13.951995
 20
21.249423
 30
0.000000
 11
13.952120
 21
21.249383
 31
0.000000
  0
LINE
  8
Layer 1
 62
     7
  6
CONTINUOUS
 10
13.952120
 20
21.249383
 30
0.000000
 11
12.189137
 21
20.776088
 31
0.000000
  0
LINE
  8
Layer 1
 62
     7
  6
CONTINUOUS
 10
8.441322
 20
19.394337
 30
0.000000
 11
5.873612
 21
21.276014
 31
0.000000
  0
LINE
  8
Layer 1
 62
     7
  6
CONTINUOUS
 10
32.586373
 20
21.304694
 30
0.000000
 11
34.024080
 21
21.301699
 31
0.000000
  0
LINE
  8
Layer 1
 62
     7
  6
CONTINUOUS
 10
34.024080
 20
21.301699
 30
0.000000
 11
37.949641
 21
21.309107
 31
0.000000
  0
LINE
  8
Layer 1
 62
     7
  6
CONTINUOUS
 10
37.949641
 20
21.309107
 30
0.000000
 11
36.389598
 21
20.193673
 31
0.000000
  0
LINE
  8
Layer 1
 62
     7
  6
CONTINUOUS
 10
36.389598
 20
20.193673
 30
0.000000
 11
35.850029
 21
19.826674
 31
0.000000
  0
LINE
  8
Layer 1
 62
     7
  6
CONTINUOUS
 10
35.021622
 20
20.109296
 30
0.000000
 11
35.180553
 21
20.228706
 31
0.000000
  0
LINE
  8
Layer 1
 62
     7
  6
CONTINUOUS
 10
35.180553
 20
20.228706
 30
0.000000
 11
35.531738
 21
20.490727
 31
0.000000
  0
LINE
  8
Layer 1
 62
     7
  6
CONTINUOUS
 10
35.531738
 20
20.490727
 30
0.000000
 11
34.031917
 21
20.503888
 31
0.000000
  0
LINE
  8
Layer 1
 62
     7
  6
CONTINUOUS
 10
33.263967
 20
20.477426
 30
0.000000
 11
32.367950
 21
20.669979
 31
0.000000
  0
LINE
  8
Layer 1
 62
     7
  6
CONTINUOUS
 10
32.367950
 20
20.669979
 30
0.000000
 11
30.288472
 21
21.232349
 31
0.000000
  0
LINE
  8
Layer 1
 62
     7
  6
CONTINUOUS
 10
8.941969
 20
20.115007
 30
0.000000
 11
8.522131
 21
20.450865
 31
0.000000
  0
LINE
  8
Layer 1
 62
     7
  6
CONTINUOUS
 10
10.053956
 20
20.121673
 30
0.000000
 11
9.282539
 21
19.872773
 31
0.000000
  0
LINE
  8
Layer 1
 62
     7
  6
CONTINUOUS
 10
9.282539
 20
19.872773
 30
0.000000
 11
9.254091
 21
19.865254
 31
0.000000
  0
LINE
  8
Layer 1
 62
     7
  6
CONTINUOUS
 10
8.522131
 20
20.450865
 30
0.000000
 11
10.288930
 21
20.452736
 31
0.000000
  0
LINE
  8
Layer 1
 62
     7
  6
CONTINUOUS
 10
34.714531
 20
19.878541
 30
0.000000
 11
33.263967
 21
20.477426
 31
0.000000
  0
LINE
  8
Default
 62
     7
  6
CONTINUOUS
 10
12.197829
 20
20.201788
 30
0.000000
 11
12.196584
 21
20.131292
 31
0.000000
  0
LINE
  8
Default
 62
     7
  6
CONTINUOUS
 10
12.196584
 20
20.131292
 30
0.000000
 11
12.197826
 21
20.031121
 31
0.000000
  0
LINE
  8
Default
 62
     7
  6
CONTINUOUS
 10
12.197826
 20
20.031121
 30
0.000000
 11
12.204745
 21
19.972439
 31
0.000000
  0
LINE
  8
Default
 62
     7
  6
CONTINUOUS
 10
12.204745
 20
19.972439
 30
0.000000
 11
12.173394
 21
19.961860
 31
0.000000
  0
ARC
  8
Default
 62
     7
  6
CONTINUOUS
 10
12.015356
 20
19.737680
 30
0.000000
 40
0.274286
 50
54.817644
 51
66.600142
  0
ARC
  8
Default
 62
     7
  6
CONTINUOUS
 10
12.056372
 20
19.832463
 30
0.000000
 40
0.171009
 50
66.600142
 51
85.198158
  0
ARC
  8
Default
 62
     7
  6
CONTINUOUS
 10
12.046512
 20
19.549378
 30
0.000000
 40
0.454138
 50
86.948548
 51
97.215548
  0
ARC
  8
Default
 62
     7
  6
CONTINUOUS
 10
12.087462
 20
19.225936
 30
0.000000
 40
0.780162
 50
97.215548
 51
104.931893
  0
ARC
  8
Default
 62
     7
  6
CONTINUOUS
 10
12.289569
 20
18.468057
 30
0.000000
 40
1.564527
 50
104.931893
 51
108.401710
  0
LINE
  8
Layer 1
 62
     7
  6
CONTINUOUS
 10
33.476536
 20
18.148356
 30
0.000000
 11
32.392268
 21
18.126794
 31
0.000000
  0
LINE
  8
Layer 1
 62
     7
  6
CONTINUOUS
 10
32.392268
 20
18.126794
 30
0.000000
 11
32.121189
 21
18.140901
 31
0.000000
  0
LINE
  8
Layer 1
 62
     7
  6
CONTINUOUS
 10
32.121189
 20
18.140901
 30
0.000000
 11
31.985648
 21
18.153776
 31
0.000000
  0
LINE
  8
Layer 1
 62
     7
  6
CONTINUOUS
 10
31.985648
 20
18.153776
 30
0.000000
 11
31.951762
 21
18.157691
 31
0.000000
  0
LINE
  8
Layer 1
 62
     7
  6
CONTINUOUS
 10
31.951762
 20
18.157691
 30
0.000000
 11
31.912161
 21
18.163890
 31
0.000000
  0
LINE
  8
Layer 1
 62
     7
  6
CONTINUOUS
 10
31.912161
 20
18.163890
 30
0.000000
 11
30.716697
 21
18.485216
 31
0.000000
  0
LINE
  8
Layer 1
 62
     7
  6
CONTINUOUS
 10
30.716697
 20
18.485216
 30
0.000000
 11
28.292371
 21
18.951682
 31
0.000000
  0
LINE
  8
Layer 1
 62
     7
  6
CONTINUOUS
 10
28.292371
 20
18.951682
 30
0.000000
 11
25.840359
 21
19.228156
 31
0.000000
  0
LINE
  8
Layer 1
 62
     7
  6
CONTINUOUS
 10
19.536703
 20
19.260391
 30
0.000000
 11
20.976978
 21
19.336249
 31
0.000000
  0
LINE
  8
Layer 1
 62
     7
  6
CONTINUOUS
 10
18.231910
 20
19.152829
 30
0.000000
 11
16.671586
 21
18.951908
 31
0.000000
  0
LINE
  8
Layer 1
 62
     7
  6
CONTINUOUS
 10
16.671586
 20
18.951908
 30
0.000000
 11
15.695206
 21
18.784490
 31
0.000000
  0
LINE
  8
Layer 1
 62
     7
  6
CONTINUOUS
 10
15.695206
 20
18.784490
 30
0.000000
 11
14.816541
 21
18.613488
 31
0.000000
  0
LINE
  8
Layer 1
 62
     7
  6
CONTINUOUS
 10
13.516406
 20
18.240153
 30
0.000000
 11
13.463261
 21
18.219166
 31
0.000000
  0
LINE
  8
Layer 1
 62
     7
  6
CONTINUOUS
 10
13.463261
 20
18.219166
 30
0.000000
 11
13.436729
 21
18.208464
 31
0.000000
  0
LINE
  8
Layer 1
 62
     7
  6
CONTINUOUS
 10
13.436729
 20
18.208464
 30
0.000000
 11
13.423474
 21
18.203061
 31
0.000000
  0
LINE
  8
Layer 1
 62
     7
  6
CONTINUOUS
 10
13.423474
 20
18.203061
 30
0.000000
 11
13.420161
 21
18.201705
 31
0.000000
  0
LINE
  8
Layer 1
 62
     7
  6
CONTINUOUS
 10
13.420161
 20
18.201705
 30
0.000000
 11
13.420089
 21
18.201559
 31
0.000000
  0
LINE
  8
Layer 1
 62
     7
  6
CONTINUOUS
 10
29.497351
 20
18.161677
 30
0.000000
 11
26.994747
 21
18.125986
 31
0.000000
  0
LINE
  8
Layer 1
 62
     7
  6
CONTINUOUS
 10
26.994747
 20
18.125986
 30
0.000000
 11
24.450859
 21
18.259526
 31
0.000000
  0
LINE
  8
Layer 1
 62
     7
  6
CONTINUOUS
 10
24.450859
 20
18.259526
 30
0.000000
 11
23.169201
 21
18.310437
 31
0.000000
  0
LINE
  8
Layer 1
 62
     7
  6
CONTINUOUS
 10
20.985679
 20
18.302118
 30
0.000000
 11
19.964235
 21
18.274111
 31
0.000000
  0
LINE
  8
Layer 1
 62
     7
  6
CONTINUOUS
 10
19.964235
 20
18.274111
 30
0.000000
 11
18.887795
 21
18.195131
 31
0.000000
  0
LINE
  8
Layer 1
 62
     7
  6
CONTINUOUS
 10
18.887795
 20
18.195131
 30
0.000000
 11
17.408996
 21
18.124927
 31
0.000000
  0
LINE
  8
Layer 1
 62
     7
  6
CONTINUOUS
 10
17.408996
 20
18.124927
 30
0.000000
 11
14.447813
 21
18.107611
 31
0.000000
  0
LINE
  8
Layer 1
 62
     7
  6
CONTINUOUS
 10
14.447813
 20
18.107611
 30
0.000000
 11
11.556364
 21
18.137983
 31
0.000000
  0
LINE
  8
Layer 1
 62
     7
  6
CONTINUOUS
 10
11.556364
 20
18.137983
 30
0.000000
 11
10.925870
 21
18.147320
 31
0.000000
  0
LINE
  8
Layer 1
 62
     7
  6
CONTINUOUS
 10
10.925870
 20
18.147320
 30
0.000000
 11
10.768247
 21
18.148192
 31
0.000000
  0
LINE
  8
Layer 1
 62
     7
  6
CONTINUOUS
 10
10.768247
 20
18.148192
 30
0.000000
 11
10.689435
 21
18.148351
 31
0.000000
  0
LINE
  8
Layer 1
 62
     7
  6
CONTINUOUS
 10
10.689435
 20
18.148351
 30
0.000000
 11
10.669732
 21
18.148360
 31
0.000000
  0
LINE
  8
Layer 1
 62
     7
  6
CONTINUOUS
 10
10.669732
 20
18.148360
 30
0.000000
 11
10.667269
 21
18.148361
 31
0.000000
  0
LINE
  8
Layer 1
 62
     7
  6
CONTINUOUS
 10
10.667269
 20
18.148361
 30
0.000000
 11
10.666038
 21
18.148361
 31
0.000000
  0
LINE
  8
Layer 1
 62
     7
  6
CONTINUOUS
 10
10.666038
 20
18.148361
 30
0.000000
 11
10.665332
 21
18.148361
 31
0.000000
  0
LINE
  8
Layer 1
 62
     7
  6
CONTINUOUS
 10
10.665332
 20
18.148361
 30
0.000000
 11
10.665050
 21
18.148434
 31
0.000000
  0
LINE
  8
Default
 62
     7
  6
CONTINUOUS
 10
11.838860
 20
19.776834
 30
0.000000
 11
11.795684
 21
19.952584
 31
0.000000
  0
LINE
  8
Default
 62
     7
  6
CONTINUOUS
 10
11.838860
 20
19.776834
 30
0.000000
 11
12.007787
 21
19.170308
 31
0.000000
  0
LINE
  8
Layer 1
 62
     7
  6
CONTINUOUS
 10
19.536703
 20
19.260391
 30
0.000000
 11
18.231910
 21
19.152829
 31
0.000000
  0
LINE
  8
Layer 1
 62
     7
  6
CONTINUOUS
 10
20.976978
 20
19.336249
 30
0.000000
 11
22.672851
 21
19.356806
 31
0.000000
  0
LINE
  8
Layer 1
 62
     7
  6
CONTINUOUS
 10
22.672851
 20
19.356806
 30
0.000000
 11
25.815526
 21
19.230164
 31
0.000000
  0
LINE
  8
Layer 1
 62
     7
  6
CONTINUOUS
 10
31.919492
 20
18.161680
 30
0.000000
 11
30.723949
 21
18.126847
 31
0.000000
  0
LINE
  8
Layer 1
 62
     7
  6
CONTINUOUS
 10
30.723949
 20
18.126847
 30
0.000000
 11
29.537898
 21
18.159037
 31
0.000000
  0
LINE
  8
Layer 1
 62
     7
  6
CONTINUOUS
 10
29.537898
 20
18.159037
 30
0.000000
 11
29.497351
 21
18.161677
 31
0.000000
  0
LINE
  8
Layer 1
 62
     7
  6
CONTINUOUS
 10
13.430918
 20
18.200013
 30
0.000000
 11
13.423483
 21
18.201071
 31
0.000000
  0
LINE
  8
Layer 1
 62
     7
  6
CONTINUOUS
 10
13.423483
 20
18.201071
 30
0.000000
 11
13.421624
 21
18.201338
 31
0.000000
  0
LINE
  8
Layer 1
 62
     7
  6
CONTINUOUS
 10
13.421624
 20
18.201338
 30
0.000000
 11
13.420695
 21
18.201472
 31
0.000000
  0
LINE
  8
Layer 1
 62
     7
  6
CONTINUOUS
 10
13.420695
 20
18.201472
 30
0.000000
 11
13.420230
 21
18.201539
 31
0.000000
  0
LINE
  8
Layer 1
 62
     7
  6
CONTINUOUS
 10
13.420230
 20
18.201539
 30
0.000000
 11
13.419997
 21
18.201572
 31
0.000000
  0
LINE
  8
Layer 1
 62
     7
  6
CONTINUOUS
 10
13.419997
 20
18.201572
 30
0.000000
 11
13.419951
 21
18.201619
 31
0.000000
  0
LINE
  8
Layer 1
 62
     7
  6
CONTINUOUS
 10
13.419951
 20
18.201619
 30
0.000000
 11
14.024969
 21
18.414128
 31
0.000000
  0
LINE
  8
Layer 1
 62
     7
  6
CONTINUOUS
 10
14.024969
 20
18.414128
 30
0.000000
 11
14.639706
 21
18.574437
 31
0.000000
  0
LINE
  8
Layer 1
 62
     7
  6
CONTINUOUS
 10
26.152136
 20
16.164341
 30
0.000000
 11
24.837576
 21
15.242808
 31
0.000000
  0
LINE
  8
Layer 1
 62
     7
  6
CONTINUOUS
 10
24.629852
 20
16.168456
 30
0.000000
 11
25.405653
 21
16.168843
 31
0.000000
  0
LINE
  8
Layer 1
 62
     7
  6
CONTINUOUS
 10
23.077411
 20
16.162847
 30
0.000000
 11
24.629852
 21
16.168456
 31
0.000000
  0
LINE
  8
Layer 1
 62
     7
  6
CONTINUOUS
 10
22.899420
 20
16.717293
 30
0.000000
 11
23.077411
 21
16.162847
 31
0.000000
  0
LINE
  8
Layer 1
 62
     7
  6
CONTINUOUS
 10
22.258745
 20
18.678513
 30
0.000000
 11
22.899420
 21
16.717293
 31
0.000000
  0
LINE
  8
Layer 1
 62
     7
  6
CONTINUOUS
 10
22.254800
 20
18.688122
 30
0.000000
 11
22.258745
 21
18.678513
 31
0.000000
  0
LINE
  8
Layer 1
 62
     7
  6
CONTINUOUS
 10
22.229069
 20
18.748179
 30
0.000000
 11
22.254800
 21
18.688122
 31
0.000000
  0
LINE
  8
Layer 1
 62
     7
  6
CONTINUOUS
 10
22.126113
 20
18.988378
 30
0.000000
 11
22.229069
 21
18.748179
 31
0.000000
  0
LINE
  8
Layer 1
 62
     7
  6
CONTINUOUS
 10
20.879052
 20
16.156393
 30
0.000000
 11
21.189282
 21
16.148563
 31
0.000000
  0
LINE
  8
Layer 1
 62
     7
  6
CONTINUOUS
 10
21.307070
 20
16.505614
 30
0.000000
 11
22.126113
 21
18.988378
 31
0.000000
  0
LINE
  8
Layer 1
 62
     7
  6
CONTINUOUS
 10
20.496779
 20
16.164024
 30
0.000000
 11
20.879052
 21
16.156393
 31
0.000000
  0
LINE
  8
Layer 1
 62
     7
  6
CONTINUOUS
 10
19.732226
 20
16.171849
 30
0.000000
 11
20.496779
 21
16.164024
 31
0.000000
  0
LINE
  8
Layer 1
 62
     7
  6
CONTINUOUS
 10
18.441512
 20
15.974393
 30
0.000000
 11
18.200494
 21
16.162842
 31
0.000000
  0
LINE
  8
Layer 1
 62
     7
  6
CONTINUOUS
 10
18.200494
 20
16.162842
 30
0.000000
 11
19.732226
 21
16.171849
 31
0.000000
  0
LINE
  8
Layer 1
 62
     7
  6
CONTINUOUS
 10
18.740059
 20
15.749162
 30
0.000000
 11
18.441512
 21
15.974393
 31
0.000000
  0
LINE
  8
Layer 1
 62
     7
  6
CONTINUOUS
 10
19.344950
 20
15.312332
 30
0.000000
 11
18.740059
 21
15.749162
 31
0.000000
  0
LINE
  8
Layer 1
 62
     7
  6
CONTINUOUS
 10
20.501338
 20
14.026794
 30
0.000000
 11
20.606502
 21
14.374995
 31
0.000000
  0
LINE
  8
Layer 1
 62
     7
  6
CONTINUOUS
 10
25.395856
 20
11.700431
 30
0.000000
 11
29.083866
 21
12.268415
 31
0.000000
  0
LINE
  8
Layer 1
 62
     7
  6
CONTINUOUS
 10
15.728609
 20
12.235167
 30
0.000000
 11
17.850989
 21
11.923273
 31
0.000000
  0
LINE
  8
Layer 1
 62
     7
  6
CONTINUOUS
 10
17.850989
 20
11.923273
 30
0.000000
 11
18.917261
 21
11.816418
 31
0.000000
  0
LINE
  8
Layer 1
 62
     7
  6
CONTINUOUS
 10
20.606502
 20
14.374995
 30
0.000000
 11
19.344950
 21
15.312332
 31
0.000000
  0
LINE
  8
Layer 1
 62
     7
  6
CONTINUOUS
 10
20.390749
 20
13.668719
 30
0.000000
 11
20.501338
 21
14.026794
 31
0.000000
  0
LINE
  8
Layer 1
 62
     7
  6
CONTINUOUS
 10
20.160939
 20
12.955703
 30
0.000000
 11
20.390749
 21
13.668719
 31
0.000000
  0
LINE
  8
Layer 1
 62
     7
  6
CONTINUOUS
 10
19.619913
 20
11.402495
 30
0.000000
 11
20.160939
 21
12.955703
 31
0.000000
  0
LINE
  8
Layer 1
 62
     7
  6
CONTINUOUS
 10
25.405653
 20
16.168843
 30
0.000000
 11
26.152136
 21
16.164341
 31
0.000000
  0
LINE
  8
Layer 1
 62
     7
  6
CONTINUOUS
 10
24.837576
 20
15.242808
 30
0.000000
 11
24.211080
 21
14.785245
 31
0.000000
  0
LINE
  8
Layer 1
 62
     7
  6
CONTINUOUS
 10
24.211080
 20
14.785245
 30
0.000000
 11
23.899990
 21
14.552736
 31
0.000000
  0
LINE
  8
Layer 1
 62
     7
  6
CONTINUOUS
 10
23.648579
 20
14.362535
 30
0.000000
 11
24.131821
 21
12.896061
 31
0.000000
  0
LINE
  8
Layer 1
 62
     7
  6
CONTINUOUS
 10
23.899990
 20
14.552736
 30
0.000000
 11
23.648579
 21
14.362535
 31
0.000000
  0
LINE
  8
Layer 1
 62
     7
  6
CONTINUOUS
 10
24.131821
 20
12.896061
 30
0.000000
 11
24.380237
 21
12.165581
 31
0.000000
  0
LINE
  8
Layer 1
 62
     7
  6
CONTINUOUS
 10
24.380237
 20
12.165581
 30
0.000000
 11
24.525525
 21
11.807368
 31
0.000000
  0
LINE
  8
Layer 1
 62
     7
  6
CONTINUOUS
 10
24.525525
 20
11.807368
 30
0.000000
 11
24.711537
 21
11.398574
 31
0.000000
  0
LINE
  8
Layer 1
 62
     7
  6
CONTINUOUS
 10
24.406434
 20
11.626994
 30
0.000000
 11
24.711537
 21
11.398574
 31
0.000000
  0
LINE
  8
Layer 1
 62
     7
  6
CONTINUOUS
 10
24.289051
 20
11.714475
 30
0.000000
 11
24.406434
 21
11.626994
 31
0.000000
  0
LINE
  8
Layer 1
 62
     7
  6
CONTINUOUS
 10
24.053167
 20
11.888874
 30
0.000000
 11
24.289051
 21
11.714475
 31
0.000000
  0
LINE
  8
Layer 1
 62
     7
  6
CONTINUOUS
 10
22.100748
 20
13.237656
 30
0.000000
 11
22.155443
 21
13.278721
 31
0.000000
  0
LINE
  8
Layer 1
 62
     7
  6
CONTINUOUS
 10
22.426188
 20
13.080434
 30
0.000000
 11
24.053167
 21
11.888874
 31
0.000000
  0
LINE
  8
Layer 1
 62
     7
  6
CONTINUOUS
 10
22.009126
 20
13.169584
 30
0.000000
 11
22.100748
 21
13.237656
 31
0.000000
  0
LINE
  8
Layer 1
 62
     7
  6
CONTINUOUS
 10
21.261666
 20
12.636163
 30
0.000000
 11
22.009126
 21
13.169584
 31
0.000000
  0
LINE
  8
Layer 1
 62
     7
  6
CONTINUOUS
 10
19.619913
 20
11.402495
 30
0.000000
 11
21.261666
 21
12.636163
 31
0.000000
  0
LINE
  8
Layer 1
 62
     7
  6
CONTINUOUS
 10
20.615349
 20
12.754185
 30
0.000000
 11
21.067677
 21
14.185969
 31
0.000000
  0
LINE
  8
Layer 1
 62
     7
  6
CONTINUOUS
 10
21.176450
 20
14.530274
 30
0.000000
 11
19.650216
 21
15.656201
 31
0.000000
  0
LINE
  8
Default
 62
     7
  6
CONTINUOUS
 10
21.532887
 20
15.656201
 30
0.000000
 11
19.650216
 21
15.656201
 31
0.000000
  0
LINE
  8
Layer 1
 62
     7
  6
CONTINUOUS
 10
21.532887
 20
15.656201
 30
0.000000
 11
22.097423
 21
17.349841
 31
0.000000
  0
LINE
  8
Layer 1
 62
     7
  6
CONTINUOUS
 10
22.097423
 20
17.349841
 30
0.000000
 11
22.571613
 21
16.036185
 31
0.000000
  0
LINE
  8
Layer 1
 62
     7
  6
CONTINUOUS
 10
22.683276
 20
15.659569
 30
0.000000
 11
24.563521
 21
15.635752
 31
0.000000
  0
LINE
  8
Layer 1
 62
     7
  6
CONTINUOUS
 10
24.563521
 20
15.635752
 30
0.000000
 11
23.843987
 21
15.113034
 31
0.000000
  0
LINE
  8
Layer 1
 62
     7
  6
CONTINUOUS
 10
23.843987
 20
15.113034
 30
0.000000
 11
23.065118
 21
14.513839
 31
0.000000
  0
LINE
  8
Layer 1
 62
     7
  6
CONTINUOUS
 10
23.065118
 20
14.513839
 30
0.000000
 11
23.619664
 21
12.767866
 31
0.000000
  0
LINE
  8
Layer 1
 62
     7
  6
CONTINUOUS
 10
23.619664
 20
12.767866
 30
0.000000
 11
22.123571
 21
13.849166
 31
0.000000
  0
LINE
  8
Layer 1
 62
     7
  6
CONTINUOUS
 10
23.631553
 20
11.704042
 30
0.000000
 11
22.540144
 21
11.675297
 31
0.000000
  0
LINE
  8
Layer 1
 62
     7
  6
CONTINUOUS
 10
22.540144
 20
11.675297
 30
0.000000
 11
20.845715
 21
11.700434
 31
0.000000
  0
LINE
  8
Layer 1
 62
     7
  6
CONTINUOUS
 10
10.931092
 20
12.292361
 30
0.000000
 11
14.165858
 21
12.329791
 31
0.000000
  0
LINE
  8
Layer 1
 62
     7
  6
CONTINUOUS
 10
14.165858
 20
12.329791
 30
0.000000
 11
14.971506
 21
12.303666
 31
0.000000
  0
LINE
  8
Layer 1
 62
     7
  6
CONTINUOUS
 10
14.971506
 20
12.303666
 30
0.000000
 11
15.373597
 21
12.276086
 31
0.000000
  0
LINE
  8
Layer 1
 62
     7
  6
CONTINUOUS
 10
15.373597
 20
12.276086
 30
0.000000
 11
15.574437
 21
12.257934
 31
0.000000
  0
LINE
  8
Layer 1
 62
     7
  6
CONTINUOUS
 10
15.574437
 20
12.257934
 30
0.000000
 11
15.624624
 21
12.252907
 31
0.000000
  0
LINE
  8
Layer 1
 62
     7
  6
CONTINUOUS
 10
15.624624
 20
12.252907
 30
0.000000
 11
15.627761
 21
12.252586
 31
0.000000
  0
LINE
  8
Layer 1
 62
     7
  6
CONTINUOUS
 10
15.627761
 20
12.252586
 30
0.000000
 11
15.628545
 21
12.252505
 31
0.000000
  0
LINE
  8
Layer 1
 62
     7
  6
CONTINUOUS
 10
15.628545
 20
12.252505
 30
0.000000
 11
15.629059
 21
12.252453
 31
0.000000
  0
LINE
  8
Layer 1
 62
     7
  6
CONTINUOUS
 10
15.629059
 20
12.252453
 30
0.000000
 11
15.628985
 21
12.252453
 31
0.000000
  0
LINE
  8
Layer 1
 62
     7
  6
CONTINUOUS
 10
29.083866
 20
12.268415
 30
0.000000
 11
29.982078
 21
12.329278
 31
0.000000
  0
LINE
  8
Layer 1
 62
     7
  6
CONTINUOUS
 10
29.982078
 20
12.329278
 30
0.000000
 11
31.861313
 21
12.302077
 31
0.000000
  0
LINE
  8
Layer 1
 62
     7
  6
CONTINUOUS
 10
31.861313
 20
12.302077
 30
0.000000
 11
32.799705
 21
12.286237
 31
0.000000
  0
LINE
  8
Layer 1
 62
     7
  6
CONTINUOUS
 10
33.204356
 20
12.289941
 30
0.000000
 11
32.247474
 21
11.918379
 31
0.000000
  0
LINE
  8
Layer 1
 62
     7
  6
CONTINUOUS
 10
32.799705
 20
12.286237
 30
0.000000
 11
33.204356
 21
12.289941
 31
0.000000
  0
LINE
  8
Layer 1
 62
     7
  6
CONTINUOUS
 10
32.247474
 20
11.918379
 30
0.000000
 11
31.248819
 21
11.642375
 31
0.000000
  0
LINE
  8
Layer 1
 62
     7
  6
CONTINUOUS
 10
31.248819
 20
11.642375
 30
0.000000
 11
30.916561
 21
11.559667
 31
0.000000
  0
LINE
  8
Layer 1
 62
     7
  6
CONTINUOUS
 10
30.916561
 20
11.559667
 30
0.000000
 11
29.087054
 21
11.175797
 31
0.000000
  0
LINE
  8
Layer 1
 62
     7
  6
CONTINUOUS
 10
29.087054
 20
11.175797
 30
0.000000
 11
27.239038
 21
10.900908
 31
0.000000
  0
LINE
  8
Layer 1
 62
     7
  6
CONTINUOUS
 10
27.239038
 20
10.900908
 30
0.000000
 11
25.377993
 21
10.723134
 31
0.000000
  0
LINE
  8
Layer 1
 62
     7
  6
CONTINUOUS
 10
25.377993
 20
10.723134
 30
0.000000
 11
23.509401
 21
10.630612
 31
0.000000
  0
LINE
  8
Layer 1
 62
     7
  6
CONTINUOUS
 10
23.509401
 20
10.630612
 30
0.000000
 11
21.435818
 21
10.610974
 31
0.000000
  0
LINE
  8
Layer 1
 62
     7
  6
CONTINUOUS
 10
21.435818
 20
10.610974
 30
0.000000
 11
19.238115
 21
10.686712
 31
0.000000
  0
LINE
  8
Layer 1
 62
     7
  6
CONTINUOUS
 10
19.238115
 20
10.686712
 30
0.000000
 11
17.047112
 21
10.879750
 31
0.000000
  0
LINE
  8
Layer 1
 62
     7
  6
CONTINUOUS
 10
17.047112
 20
10.879750
 30
0.000000
 11
14.871943
 21
11.207433
 31
0.000000
  0
LINE
  8
Layer 1
 62
     7
  6
CONTINUOUS
 10
14.871943
 20
11.207433
 30
0.000000
 11
13.021403
 21
11.610081
 31
0.000000
  0
LINE
  8
Layer 1
 62
     7
  6
CONTINUOUS
 10
13.021403
 20
11.610081
 30
0.000000
 11
12.020323
 21
11.879361
 31
0.000000
  0
LINE
  8
Layer 1
 62
     7
  6
CONTINUOUS
 10
12.020323
 20
11.879361
 30
0.000000
 11
10.931092
 21
12.292361
 31
0.000000
  0
ARC
  8
Default
 62
   202
  6
CONTINUOUS
 10
13.308989
 20
10.526860
 30
0.000000
 40
0.377577
 50
125.448308
 51
140.526278
  0
ARC
  8
Default
 62
   202
  6
CONTINUOUS
 10
13.261857
 20
10.593062
 30
0.000000
 40
0.296311
 50
96.074898
 51
125.448308
  0
LINE
  8
Layer 1
 62
     7
  6
CONTINUOUS
 10
38.040957
 20
12.302455
 30
0.000000
 11
34.448169
 21
12.266106
 31
0.000000
  0
LINE
  8
Layer 1
 62
     7
  6
CONTINUOUS
 10
34.448169
 20
12.266106
 30
0.000000
 11
35.167829
 21
10.708934
 31
0.000000
  0
LINE
  8
Layer 1
 62
     7
  6
CONTINUOUS
 10
34.081389
 20
10.248852
 30
0.000000
 11
32.969470
 21
9.860666
 31
0.000000
  0
LINE
  8
Layer 1
 62
     7
  6
CONTINUOUS
 10
30.616096
 20
9.215472
 30
0.000000
 11
33.543597
 21
0.313919
 31
0.000000
  0
LINE
  8
Layer 1
 62
     7
  6
CONTINUOUS
 10
21.564712
 20
8.325984
 30
0.000000
 11
16.705941
 21
4.912922
 31
0.000000
  0
LINE
  8
Layer 1
 62
     7
  6
CONTINUOUS
 10
12.300782
 20
7.337597
 30
0.000000
 11
12.992560
 21
9.351867
 31
0.000000
  0
LINE
  8
Layer 1
 62
     7
  6
CONTINUOUS
 10
10.894396
 20
9.945934
 30
0.000000
 11
8.986355
 21
10.705098
 31
0.000000
  0
LINE
  8
Layer 1
 62
     7
  6
CONTINUOUS
 10
9.693322
 20
12.265784
 30
0.000000
 11
4.781991
 21
12.298271
 31
0.000000
  0
LINE
  8
Layer 1
 62
     7
  6
CONTINUOUS
 10
12.102264
 20
3.069120
 30
0.000000
 11
17.810375
 21
7.009705
 31
0.000000
  0
LINE
  8
Layer 1
 62
     7
  6
CONTINUOUS
 10
17.810375
 20
7.009705
 30
0.000000
 11
18.971086
 21
7.824917
 31
0.000000
  0
LINE
  8
Layer 1
 62
     7
  6
CONTINUOUS
 10
22.277593
 20
8.188968
 30
0.000000
 11
22.084110
 21
8.326233
 31
0.000000
  0
LINE
  8
Layer 1
 62
     7
  6
CONTINUOUS
 10
16.705941
 20
4.912922
 30
0.000000
 11
12.625372
 21
2.030452
 31
0.000000
  0
LINE
  8
Layer 1
 62
     7
  6
CONTINUOUS
 10
12.625372
 20
2.030452
 30
0.000000
 11
10.797804
 21
0.744184
 31
0.000000
  0
LINE
  8
Layer 1
 62
     7
  6
CONTINUOUS
 10
10.797804
 20
0.744184
 30
0.000000
 11
10.011612
 21
0.204155
 31
0.000000
  0
LINE
  8
Layer 1
 62
     7
  6
CONTINUOUS
 10
10.011612
 20
0.204155
 30
0.000000
 11
11.337104
 21
4.342136
 31
0.000000
  0
LINE
  8
Layer 1
 62
     7
  6
CONTINUOUS
 10
11.337104
 20
4.342136
 30
0.000000
 11
12.300782
 21
7.337597
 31
0.000000
  0
LINE
  8
Layer 1
 62
     7
  6
CONTINUOUS
 10
12.992560
 20
9.351867
 30
0.000000
 11
10.894396
 21
9.945934
 31
0.000000
  0
LINE
  8
Layer 1
 62
     7
  6
CONTINUOUS
 10
33.543597
 20
0.313919
 30
0.000000
 11
22.277593
 21
8.188968
 31
0.000000
  0
LINE
  8
Layer 1
 62
     7
  6
CONTINUOUS
 10
32.969470
 20
9.860666
 30
0.000000
 11
30.616096
 21
9.215472
 31
0.000000
  0
LINE
  8
Layer 1
 62
     7
  6
CONTINUOUS
 10
22.084110
 20
8.326233
 30
0.000000
 11
21.564712
 21
8.325984
 31
0.000000
  0
LINE
  8
Layer 1
 62
     7
  6
CONTINUOUS
 10
24.757995
 20
7.812939
 30
0.000000
 11
31.467784
 21
3.133521
 31
0.000000
  0
LINE
  8
Layer 1
 62
     7
  6
CONTINUOUS
 10
31.467784
 20
3.133521
 30
0.000000
 11
29.830371
 21
8.171710
 31
0.000000
  0
LINE
  8
Layer 1
 62
     7
  6
CONTINUOUS
 10
13.552977
 20
5.105427
 30
0.000000
 11
17.704253
 21
7.989869
 31
0.000000
  0
LINE
  8
Layer 1
 62
     7
  6
CONTINUOUS
 10
12.102264
 20
3.069120
 30
0.000000
 11
13.909755
 21
8.677249
 31
0.000000
  0
LINE
  8
Layer 1
 62
     7
  6
CONTINUOUS
 10
27.656066
 20
6.724612
 30
0.000000
 11
29.963856
 21
5.118808
 31
0.000000
  0
LINE
  8
Layer 1
 62
     7
  6
CONTINUOUS
 10
13.552977
 20
5.105427
 30
0.000000
 11
14.151080
 21
6.981502
 31
0.000000
  0
LINE
  8
Layer 1
 62
     7
  6
CONTINUOUS
 10
14.151080
 20
6.981502
 30
0.000000
 11
14.658513
 21
8.512887
 31
0.000000
  0
LINE
  8
Layer 1
 62
     7
  6
CONTINUOUS
 10
29.045612
 20
7.983984
 30
0.000000
 11
29.963856
 21
5.118808
 31
0.000000
  0
LINE
  8
Layer 1
 62
     7
  6
CONTINUOUS
 10
27.551588
 20
6.799633
 30
0.000000
 11
26.216027
 21
7.769053
 31
0.000000
  0
LINE
  8
Layer 1
 62
     7
  6
CONTINUOUS
 10
18.780130
 20
21.868347
 30
0.000000
 11
19.386529
 21
21.907117
 31
0.000000
  0
LINE
  8
Default
 62
     7
  6
CONTINUOUS
 10
24.579595
 20
21.906227
 30
0.000000
 11
24.522523
 21
21.907707
 31
0.000000
  0
ARC
  8
Default
 62
   202
  6
CONTINUOUS
 10
13.254440
 20
10.615072
 30
0.000000
 40
0.932718
 50
263.383626
 51
266.988385
  0
LINE
  8
Default
 62
     7
  6
CONTINUOUS
 10
12.189137
 20
20.776088
 30
0.000000
 11
11.959701
 21
20.716850
 31
0.000000
  0
LINE
  8
Default
 62
     7
  6
CONTINUOUS
 10
14.816541
 20
18.613488
 30
0.000000
 11
14.639706
 21
18.574437
 31
0.000000
  0
ARC
  8
Default
 62
     7
  6
CONTINUOUS
 10
13.885628
 20
19.693315
 30
0.000000
 40
1.949314
 50
195.563319
 51
201.080842
  0
ARC
  8
Default
 62
     7
  6
CONTINUOUS
 10
12.734101
 20
19.249420
 30
0.000000
 40
0.715192
 50
201.080842
 51
213.074363
  0
LINE
  8
Default
 62
     7
  6
CONTINUOUS
 10
12.057925
 20
18.837731
 30
0.000000
 11
12.134797
 21
18.859121
 31
0.000000
  0
LINE
  8
Default
 62
     7
  6
CONTINUOUS
 10
12.057925
 20
18.837731
 30
0.000000
 11
11.876111
 21
18.787066
 31
0.000000
  0
LINE
  8
Default
 62
     7
  6
CONTINUOUS
 10
11.876111
 20
18.787066
 30
0.000000
 11
11.802694
 21
18.766613
 31
0.000000
  0
LINE
  8
Default
 62
     7
  6
CONTINUOUS
 10
11.802694
 20
18.766613
 30
0.000000
 11
11.792563
 21
18.829838
 31
0.000000
  0
ARC
  8
Default
 62
     7
  6
CONTINUOUS
 10
10.342556
 20
18.597497
 30
0.000000
 40
1.468503
 50
9.103369
 51
13.388924
  0
ARC
  8
Default
 62
     7
  6
CONTINUOUS
 10
7.682813
 20
17.964400
 30
0.000000
 40
4.202556
 50
13.388924
 51
15.565770
  0
LINE
  8
Default
 62
     7
  6
CONTINUOUS
 10
11.731232
 20
19.092133
 30
0.000000
 11
11.565485
 21
19.687146
 31
0.000000
  0
ARC
  8
Default
 62
     7
  6
CONTINUOUS
 10
8.668493
 20
18.880157
 30
0.000000
 40
3.007289
 50
15.565770
 51
17.556543
  0
ARC
  8
Default
 62
     7
  6
CONTINUOUS
 10
9.867722
 20
19.296060
 30
0.000000
 40
1.738813
 50
16.410216
 51
19.363860
  0
ARC
  8
Default
 62
     7
  6
CONTINUOUS
 10
12.289319
 20
17.045829
 30
0.000000
 40
2.932708
 50
105.447546
 51
107.959448
  0
ARC
  8
Default
 62
     7
  6
CONTINUOUS
 10
11.698498
 20
18.868578
 30
0.000000
 40
1.016596
 50
107.959448
 51
113.274952
  0
ARC
  8
Default
 62
     7
  6
CONTINUOUS
 10
11.436057
 20
19.502034
 30
0.000000
 40
0.331118
 50
114.871210
 51
119.089083
  0
ARC
  8
Default
 62
     7
  6
CONTINUOUS
 10
11.441727
 20
19.491843
 30
0.000000
 40
0.342780
 50
119.089083
 51
149.405088
  0
LINE
  8
Default
 62
     7
  6
CONTINUOUS
 10
11.113775
 20
19.670452
 30
0.000000
 11
11.146666
 21
19.666306
 31
0.000000
  0
LINE
  8
Default
 62
     7
  6
CONTINUOUS
 10
11.113775
 20
19.670452
 30
0.000000
 11
11.106856
 21
19.729134
 31
0.000000
  0
LINE
  8
Default
 62
     7
  6
CONTINUOUS
 10
11.106856
 20
19.729134
 30
0.000000
 11
11.096854
 21
19.819182
 31
0.000000
  0
LINE
  8
Default
 62
     7
  6
CONTINUOUS
 10
11.096854
 20
19.819182
 30
0.000000
 11
11.085952
 21
19.891943
 31
0.000000
  0
LINE
  8
Default
 62
     7
  6
CONTINUOUS
 10
11.085952
 20
19.891943
 30
0.000000
 11
11.279223
 21
19.940723
 31
0.000000
  0
ARC
  8
Default
 62
     7
  6
CONTINUOUS
 10
7.524797
 20
34.816072
 30
0.000000
 40
15.341829
 50
284.165186
 51
286.606590
  0
ARC
  8
Default
 62
     7
  6
CONTINUOUS
 10
5.418041
 20
41.880074
 30
0.000000
 40
22.713297
 50
286.606590
 51
287.146954
  0
LINE
  8
Default
 62
     7
  6
CONTINUOUS
 10
12.114455
 20
20.176344
 30
0.000000
 11
12.197829
 21
20.201788
 31
0.000000
  0
LINE
  8
Default
 62
     7
  6
CONTINUOUS
 10
13.752231
 20
19.307774
 30
0.000000
 11
13.829189
 21
19.329243
 31
0.000000
  0
LINE
  8
Default
 62
     7
  6
CONTINUOUS
 10
13.752231
 20
19.307774
 30
0.000000
 11
13.570416
 21
19.257109
 31
0.000000
  0
LINE
  8
Default
 62
     7
  6
CONTINUOUS
 10
13.570416
 20
19.257109
 30
0.000000
 11
13.497000
 21
19.236656
 31
0.000000
  0
LINE
  8
Default
 62
     7
  6
CONTINUOUS
 10
13.497000
 20
19.236656
 30
0.000000
 11
13.486961
 21
19.319959
 31
0.000000
  0
ARC
  8
Default
 62
     7
  6
CONTINUOUS
 10
12.086898
 20
19.094101
 30
0.000000
 40
1.418164
 50
9.163969
 51
13.033809
  0
ARC
  8
Default
 62
     7
  6
CONTINUOUS
 10
9.967076
 20
18.603384
 30
0.000000
 40
3.594043
 50
13.033809
 51
15.567019
  0
LINE
  8
Default
 62
     7
  6
CONTINUOUS
 10
13.355342
 20
19.833303
 30
0.000000
 11
13.429279
 21
19.567901
 31
0.000000
  0
LINE
  8
Default
 62
     7
  6
CONTINUOUS
 10
13.355342
 20
19.833303
 30
0.000000
 11
13.259672
 21
19.806632
 31
0.000000
  0
LINE
  8
Default
 62
     7
  6
CONTINUOUS
 10
13.259672
 20
19.806632
 30
0.000000
 11
13.133912
 21
19.773576
 31
0.000000
  0
LINE
  8
Default
 62
     7
  6
CONTINUOUS
 10
13.133912
 20
19.773576
 30
0.000000
 11
12.996517
 21
19.735267
 31
0.000000
  0
LINE
  8
Default
 62
     7
  6
CONTINUOUS
 10
12.996517
 20
19.735267
 30
0.000000
 11
12.809734
 21
19.679399
 31
0.000000
  0
LINE
  8
Default
 62
     7
  6
CONTINUOUS
 10
12.809734
 20
19.679399
 30
0.000000
 11
12.883678
 21
19.413970
 31
0.000000
  0
ARC
  8
Default
 62
     7
  6
CONTINUOUS
 10
15.100979
 20
20.031676
 30
0.000000
 40
2.301735
 50
195.567019
 51
200.258048
  0
ARC
  8
Default
 62
     7
  6
CONTINUOUS
 10
13.721902
 20
19.522687
 30
0.000000
 40
0.831727
 50
200.258048
 51
210.556007
  0
LINE
  8
Default
 62
     7
  6
CONTINUOUS
 10
12.928883
 20
19.078378
 30
0.000000
 11
13.005675
 21
19.099854
 31
0.000000
  0
LINE
  8
Default
 62
     7
  6
CONTINUOUS
 10
12.928883
 20
19.078378
 30
0.000000
 11
12.747068
 21
19.027713
 31
0.000000
  0
LINE
  8
Default
 62
     7
  6
CONTINUOUS
 10
12.747068
 20
19.027713
 30
0.000000
 11
12.673651
 21
19.007260
 31
0.000000
  0
LINE
  8
Default
 62
     7
  6
CONTINUOUS
 10
12.673651
 20
19.007260
 30
0.000000
 11
12.664091
 21
19.090042
 31
0.000000
  0
ARC
  8
Default
 62
     7
  6
CONTINUOUS
 10
11.390123
 20
18.891045
 30
0.000000
 40
1.289416
 50
8.878003
 51
13.000121
  0
ARC
  8
Default
 62
     7
  6
CONTINUOUS
 10
9.194578
 20
18.384159
 30
0.000000
 40
3.542714
 50
13.000121
 51
15.565770
  0
LINE
  8
Default
 62
     7
  6
CONTINUOUS
 10
12.607356
 20
19.334826
 30
0.000000
 11
12.444534
 21
19.919337
 31
0.000000
  0
ARC
  8
Default
 62
     7
  6
CONTINUOUS
 10
10.916030
 20
19.493555
 30
0.000000
 40
1.586699
 50
15.565770
 51
19.297668
  0
ARC
  8
Default
 62
     7
  6
CONTINUOUS
 10
11.866824
 20
19.826475
 30
0.000000
 40
0.579305
 50
19.297668
 51
27.442074
  0
ARC
  8
Default
 62
     7
  6
CONTINUOUS
 10
12.324789
 20
20.064288
 30
0.000000
 40
0.063274
 50
27.442074
 51
68.655538
  0
ARC
  8
Default
 62
     7
  6
CONTINUOUS
 10
12.321269
 20
20.050504
 30
0.000000
 40
0.077414
 50
69.942355
 51
91.098631
  0
ARC
  8
Default
 62
     7
  6
CONTINUOUS
 10
12.322516
 20
19.985452
 30
0.000000
 40
0.142478
 50
91.098631
 51
105.628069
  0
LINE
  8
Default
 62
     7
  6
CONTINUOUS
 10
12.266376
 20
20.117695
 30
0.000000
 11
12.284134
 21
20.122662
 31
0.000000
  0
LINE
  8
Default
 62
     7
  6
CONTINUOUS
 10
12.266376
 20
20.117695
 30
0.000000
 11
12.275194
 21
20.221353
 31
0.000000
  0
LINE
  8
Default
 62
     7
  6
CONTINUOUS
 10
12.275194
 20
20.221353
 30
0.000000
 11
12.352065
 21
20.242742
 31
0.000000
  0
LINE
  8
Default
 62
     7
  6
CONTINUOUS
 10
12.352065
 20
20.242742
 30
0.000000
 11
12.561865
 21
20.301214
 31
0.000000
  0
LINE
  8
Default
 62
     7
  6
CONTINUOUS
 10
12.561865
 20
20.301214
 30
0.000000
 11
12.645733
 21
20.324555
 31
0.000000
  0
ARC
  8
Default
 62
     7
  6
CONTINUOUS
 10
16.433319
 20
21.025502
 30
0.000000
 40
3.851901
 50
190.484774
 51
195.559112
  0
LINE
  8
Default
 62
     7
  6
CONTINUOUS
 10
12.768320
 20
19.828003
 30
0.000000
 11
12.722574
 21
19.992297
 31
0.000000
  0
LINE
  8
Default
 62
     7
  6
CONTINUOUS
 10
12.768320
 20
19.828003
 30
0.000000
 11
12.864671
 21
19.853063
 31
0.000000
  0
LINE
  8
Default
 62
     7
  6
CONTINUOUS
 10
12.864671
 20
19.853063
 30
0.000000
 11
12.960006
 21
19.875750
 31
0.000000
  0
LINE
  8
Default
 62
     7
  6
CONTINUOUS
 10
12.960006
 20
19.875750
 30
0.000000
 11
13.095969
 21
19.913703
 31
0.000000
  0
LINE
  8
Default
 62
     7
  6
CONTINUOUS
 10
13.095969
 20
19.913703
 30
0.000000
 11
13.316127
 21
19.980731
 31
0.000000
  0
LINE
  8
Default
 62
     7
  6
CONTINUOUS
 10
13.316127
 20
19.980731
 30
0.000000
 11
13.268155
 21
20.152914
 31
0.000000
  0
ARC
  8
Default
 62
     7
  6
CONTINUOUS
 10
11.261362
 20
19.593801
 30
0.000000
 40
2.083225
 50
15.568358
 51
20.728612
  0
ARC
  8
Default
 62
     7
  6
CONTINUOUS
 10
12.515431
 20
20.068390
 30
0.000000
 40
0.742358
 50
20.728612
 51
32.147147
  0
LINE
  8
Default
 62
     7
  6
CONTINUOUS
 10
13.220846
 20
20.484785
 30
0.000000
 11
13.143974
 21
20.463396
 31
0.000000
  0
LINE
  8
Default
 62
     7
  6
CONTINUOUS
 10
13.220846
 20
20.484785
 30
0.000000
 11
13.385213
 21
20.530610
 31
0.000000
  0
LINE
  8
Default
 62
     7
  6
CONTINUOUS
 10
13.385213
 20
20.530610
 30
0.000000
 11
13.469081
 21
20.553951
 31
0.000000
  0
ARC
  8
Default
 62
     7
  6
CONTINUOUS
 10
17.004034
 20
21.183968
 30
0.000000
 40
3.590657
 50
190.105437
 51
195.399661
  0
LINE
  8
Default
 62
     7
  6
CONTINUOUS
 10
13.542293
 20
20.230468
 30
0.000000
 11
13.702767
 21
19.647856
 31
0.000000
  0
ARC
  8
Default
 62
     7
  6
CONTINUOUS
 10
15.730762
 20
20.206446
 30
0.000000
 40
2.103517
 50
195.399661
 51
200.692759
  0
ARC
  8
Default
 62
     7
  6
CONTINUOUS
 10
14.475485
 20
19.732297
 30
0.000000
 40
0.761676
 50
200.692759
 51
211.949231
  0
LINE
  8
Default
 62
     7
  6
CONTINUOUS
 10
14.939229
 20
19.771076
 30
0.000000
 11
14.936377
 21
19.688237
 31
0.000000
  0
LINE
  8
Default
 62
     7
  6
CONTINUOUS
 10
14.936377
 20
19.688237
 30
0.000000
 11
14.938504
 21
19.599107
 31
0.000000
  0
LINE
  8
Default
 62
     7
  6
CONTINUOUS
 10
14.938504
 20
19.599107
 30
0.000000
 11
14.944039
 21
19.529405
 31
0.000000
  0
LINE
  8
Default
 62
     7
  6
CONTINUOUS
 10
14.944039
 20
19.529405
 30
0.000000
 11
14.872900
 21
19.523348
 31
0.000000
  0
LINE
  8
Default
 62
     7
  6
CONTINUOUS
 10
14.872900
 20
19.523348
 30
0.000000
 11
14.349221
 21
19.403330
 31
0.000000
  0
LINE
  8
Default
 62
     7
  6
CONTINUOUS
 10
14.349221
 20
19.403330
 30
0.000000
 11
14.143216
 21
19.359689
 31
0.000000
  0
LINE
  8
Default
 62
     7
  6
CONTINUOUS
 10
14.143216
 20
19.359689
 30
0.000000
 11
14.136317
 21
19.442359
 31
0.000000
  0
ARC
  8
Default
 62
     7
  6
CONTINUOUS
 10
12.530812
 20
19.258497
 30
0.000000
 40
1.615998
 50
6.533046
 51
9.858801
  0
ARC
  8
Default
 62
     7
  6
CONTINUOUS
 10
9.932365
 20
18.806920
 30
0.000000
 40
4.253392
 50
9.858801
 51
11.966342
  0
LINE
  8
Default
 62
     7
  6
CONTINUOUS
 10
14.093329
 20
19.688806
 30
0.000000
 11
13.967368
 21
20.283125
 31
0.000000
  0
ARC
  8
Default
 62
     7
  6
CONTINUOUS
 10
12.349047
 20
19.940134
 30
0.000000
 40
1.654268
 50
11.966342
 51
15.567057
  0
ARC
  8
Default
 62
     7
  6
CONTINUOUS
 10
13.362887
 20
20.222575
 30
0.000000
 40
0.601822
 50
15.567057
 51
23.339003
  0
ARC
  8
Default
 62
     7
  6
CONTINUOUS
 10
13.856904
 20
20.436946
 30
0.000000
 40
0.063310
 50
22.329202
 51
63.633159
  0
ARC
  8
Default
 62
     7
  6
CONTINUOUS
 10
13.854366
 20
20.427483
 30
0.000000
 40
0.072941
 50
65.148408
 51
87.047867
  0
ARC
  8
Default
 62
     7
  6
CONTINUOUS
 10
13.851272
 20
20.367496
 30
0.000000
 40
0.133008
 50
87.047867
 51
102.913434
  0
LINE
  8
Default
 62
     7
  6
CONTINUOUS
 10
13.821548
 20
20.497140
 30
0.000000
 11
13.806419
 21
20.493951
 31
0.000000
  0
LINE
  8
Default
 62
     7
  6
CONTINUOUS
 10
13.806419
 20
20.493951
 30
0.000000
 11
13.821477
 21
20.597427
 31
0.000000
  0
LINE
  8
Default
 62
     7
  6
CONTINUOUS
 10
13.821477
 20
20.597427
 30
0.000000
 11
14.023954
 21
20.640385
 31
0.000000
  0
LINE
  8
Default
 62
     7
  6
CONTINUOUS
 10
14.023954
 20
20.640385
 30
0.000000
 11
14.565401
 21
20.755151
 31
0.000000
  0
LINE
  8
Default
 62
     7
  6
CONTINUOUS
 10
14.565401
 20
20.755151
 30
0.000000
 11
14.602719
 21
20.763061
 31
0.000000
  0
LINE
  8
Default
 62
     7
  6
CONTINUOUS
 10
14.602719
 20
20.763061
 30
0.000000
 11
14.654240
 21
20.773949
 31
0.000000
  0
LINE
  8
Default
 62
     7
  6
CONTINUOUS
 10
14.654240
 20
20.773949
 30
0.000000
 11
14.645057
 21
20.702874
 31
0.000000
  0
LINE
  8
Default
 62
     7
  6
CONTINUOUS
 10
14.645057
 20
20.702874
 30
0.000000
 11
14.639871
 21
20.604309
 31
0.000000
  0
LINE
  8
Default
 62
     7
  6
CONTINUOUS
 10
14.639871
 20
20.604309
 30
0.000000
 11
14.640998
 21
20.546539
 31
0.000000
  0
LINE
  8
Default
 62
     7
  6
CONTINUOUS
 10
14.640998
 20
20.546539
 30
0.000000
 11
14.609996
 21
20.534363
 31
0.000000
  0
ARC
  8
Default
 62
     7
  6
CONTINUOUS
 10
14.477091
 20
20.395641
 30
0.000000
 40
0.192113
 50
46.226895
 51
80.754053
  0
ARC
  8
Default
 62
     7
  6
CONTINUOUS
 10
14.464111
 20
20.202551
 30
0.000000
 40
0.385211
 50
83.464067
 51
94.080593
  0
ARC
  8
Default
 62
     7
  6
CONTINUOUS
 10
14.490794
 20
19.828526
 30
0.000000
 40
0.760186
 50
94.080593
 51
103.057499
  0
ARC
  8
Default
 62
     7
  6
CONTINUOUS
 10
14.721741
 20
18.832746
 30
0.000000
 40
1.782397
 50
103.057499
 51
106.511713
  0
LINE
  8
Default
 62
     7
  6
CONTINUOUS
 10
14.247580
 20
20.353770
 30
0.000000
 11
14.215164
 21
20.541640
 31
0.000000
  0
LINE
  8
Default
 62
     7
  6
CONTINUOUS
 10
14.247580
 20
20.353770
 30
0.000000
 11
14.285606
 21
20.174408
 31
0.000000
  0
LINE
  8
Default
 62
     7
  6
CONTINUOUS
 10
14.285606
 20
20.174408
 30
0.000000
 11
14.458969
 21
20.211137
 31
0.000000
  0
ARC
  8
Default
 62
     7
  6
CONTINUOUS
 10
13.961188
 20
22.560676
 30
0.000000
 40
2.401691
 50
281.961969
 51
287.405169
  0
LINE
  8
Default
 62
     7
  6
CONTINUOUS
 10
14.682981
 20
20.226994
 30
0.000000
 11
14.679599
 21
20.268951
 31
0.000000
  0
LINE
  8
Default
 62
     7
  6
CONTINUOUS
 10
14.682981
 20
20.226994
 30
0.000000
 11
14.695933
 21
20.157394
 31
0.000000
  0
LINE
  8
Default
 62
     7
  6
CONTINUOUS
 10
14.695933
 20
20.157394
 30
0.000000
 11
14.712541
 21
20.105214
 31
0.000000
  0
ARC
  8
Default
 62
     7
  6
CONTINUOUS
 10
15.188921
 20
16.462692
 30
0.000000
 40
3.673541
 50
97.451039
 51
100.185084
  0
ARC
  8
Default
 62
     7
  6
CONTINUOUS
 10
15.034742
 20
17.320865
 30
0.000000
 40
2.801628
 50
100.185084
 51
104.856576
  0
LINE
  8
Default
 62
     7
  6
CONTINUOUS
 10
14.316404
 20
20.028837
 30
0.000000
 11
14.364253
 21
19.803223
 31
0.000000
  0
ARC
  8
Default
 62
     7
  6
CONTINUOUS
 10
15.780038
 20
20.103489
 30
0.000000
 40
1.447275
 50
191.974091
 51
195.120568
  0
ARC
  8
Default
 62
     7
  6
CONTINUOUS
 10
14.718976
 20
19.809882
 30
0.000000
 40
0.346425
 50
194.018467
 51
205.026770
  0
ARC
  8
Default
 62
     7
  6
CONTINUOUS
 10
14.512443
 20
19.724921
 30
0.000000
 40
0.123778
 50
209.841437
 51
233.713283
  0
ARC
  8
Default
 62
     7
  6
CONTINUOUS
 10
14.499625
 20
19.729655
 30
0.000000
 40
0.120724
 50
239.958982
 51
270.189825
  0
ARC
  8
Default
 62
     7
  6
CONTINUOUS
 10
14.508435
 20
20.101453
 30
0.000000
 40
0.492594
 50
269.021666
 51
283.506662
  0
ARC
  8
Default
 62
     7
  6
CONTINUOUS
 10
14.449143
 20
20.466241
 30
0.000000
 40
0.861581
 50
281.674447
 51
289.434108
  0
ARC
  8
Default
 62
     7
  6
CONTINUOUS
 10
14.579865
 20
20.095740
 30
0.000000
 40
0.468695
 50
289.434108
 51
302.264827
  0
ARC
  8
Default
 62
     7
  6
CONTINUOUS
 10
14.718311
 20
19.867239
 30
0.000000
 40
0.201630
 50
303.661052
 51
315.289108
  0
ARC
  8
Default
 62
     7
  6
CONTINUOUS
 10
14.568799
 20
20.015250
 30
0.000000
 40
0.412013
 50
315.289108
 51
324.262388
  0
LINE
  8
Default
 62
     7
  6
CONTINUOUS
 10
14.939229
 20
19.771076
 30
0.000000
 11
14.903230
 21
19.774604
 31
0.000000
  0
ARC
  8
Default
 62
     7
  6
CONTINUOUS
 10
15.968024
 20
20.414629
 30
0.000000
 40
0.916986
 50
356.844989
 51
369.024612
  0
ARC
  8
Default
 62
     7
  6
CONTINUOUS
 10
16.174747
 20
20.403234
 30
0.000000
 40
0.709949
 50
347.019579
 51
356.844989
  0
ARC
  8
Default
 62
     7
  6
CONTINUOUS
 10
16.246836
 20
20.386617
 30
0.000000
 40
0.635969
 50
326.154169
 51
347.019579
  0
ARC
  8
Default
 62
     7
  6
CONTINUOUS
 10
16.232686
 20
20.396107
 30
0.000000
 40
0.653007
 50
291.484944
 51
326.154169
  0
ARC
  8
Default
 62
     7
  6
CONTINUOUS
 10
16.187360
 20
20.511263
 30
0.000000
 40
0.776763
 50
283.365940
 51
291.484944
  0
LINE
  8
Default
 62
     7
  6
CONTINUOUS
 10
16.275534
 20
19.888532
 30
0.000000
 11
16.290736
 21
19.739552
 31
0.000000
  0
LINE
  8
Default
 62
     7
  6
CONTINUOUS
 10
16.146275
 20
19.874654
 30
0.000000
 11
16.161853
 21
19.721992
 31
0.000000
  0
ARC
  8
Default
 62
     7
  6
CONTINUOUS
 10
16.008875
 20
18.135511
 30
0.000000
 40
1.577247
 50
93.156144
 51
98.565415
  0
LINE
  8
Default
 62
     7
  6
CONTINUOUS
 10
15.773963
 20
19.695166
 30
0.000000
 11
15.711996
 21
19.675642
 31
0.000000
  0
LINE
  8
Default
 62
     7
  6
CONTINUOUS
 10
15.711996
 20
19.675642
 30
0.000000
 11
15.718456
 21
19.759077
 31
0.000000
  0
ARC
  8
Default
 62
     7
  6
CONTINUOUS
 10
13.405348
 20
19.765560
 30
0.000000
 40
2.313117
 50
359.839421
 51
365.867586
  0
LINE
  8
Default
 62
     7
  6
CONTINUOUS
 10
15.706346
 20
20.002029
 30
0.000000
 11
15.643177
 21
20.616704
 31
0.000000
  0
ARC
  8
Default
 62
     7
  6
CONTINUOUS
 10
13.825867
 20
20.429942
 30
0.000000
 40
1.826882
 50
5.867586
 51
9.211455
  0
ARC
  8
Default
 62
     7
  6
CONTINUOUS
 10
15.062980
 20
20.630564
 30
0.000000
 40
0.573607
 50
9.211455
 51
15.736988
  0
ARC
  8
Default
 62
     7
  6
CONTINUOUS
 10
15.528464
 20
20.765104
 30
0.000000
 40
0.089139
 50
13.649299
 51
33.405485
  0
ARC
  8
Default
 62
     7
  6
CONTINUOUS
 10
15.553984
 20
20.779692
 30
0.000000
 40
0.059833
 50
35.198140
 51
64.516601
  0
ARC
  8
Default
 62
     7
  6
CONTINUOUS
 10
15.541932
 20
20.754406
 30
0.000000
 40
0.087845
 50
64.516601
 51
83.650891
  0
ARC
  8
Default
 62
     7
  6
CONTINUOUS
 10
15.533364
 20
20.677406
 30
0.000000
 40
0.165320
 50
83.650891
 51
95.777498
  0
LINE
  8
Default
 62
     7
  6
CONTINUOUS
 10
15.497500
 20
20.839941
 30
0.000000
 11
15.516722
 21
20.841886
 31
0.000000
  0
LINE
  8
Default
 62
     7
  6
CONTINUOUS
 10
15.497500
 20
20.839941
 30
0.000000
 11
15.523599
 21
20.940617
 31
0.000000
  0
LINE
  8
Default
 62
     7
  6
CONTINUOUS
 10
15.523599
 20
20.940617
 30
0.000000
 11
15.576051
 21
20.945968
 31
0.000000
  0
LINE
  8
Default
 62
     7
  6
CONTINUOUS
 10
15.576051
 20
20.945968
 30
0.000000
 11
15.754746
 21
20.964365
 31
0.000000
  0
LINE
  8
Default
 62
     7
  6
CONTINUOUS
 10
15.754746
 20
20.964365
 30
0.000000
 11
16.077458
 21
20.997570
 31
0.000000
  0
ARC
  8
Default
 62
     7
  6
CONTINUOUS
 10
16.927447
 20
12.736888
 30
0.000000
 40
8.304297
 50
94.636271
 51
95.874817
  0
ARC
  8
Default
 62
     7
  6
CONTINUOUS
 10
16.340882
 20
19.969926
 30
0.000000
 40
1.047514
 50
85.441098
 51
94.636271
  0
ARC
  8
Default
 62
     7
  6
CONTINUOUS
 10
16.376442
 20
20.415891
 30
0.000000
 40
0.600134
 50
76.015707
 51
85.441098
  0
ARC
  8
Default
 62
     7
  6
CONTINUOUS
 10
16.425912
 20
20.614537
 30
0.000000
 40
0.395421
 50
66.766369
 51
76.015707
  0
ARC
  8
Default
 62
     7
  6
CONTINUOUS
 10
16.402647
 20
20.560345
 30
0.000000
 40
0.454395
 50
32.566329
 51
66.766369
  0
ARC
  8
Default
 62
     7
  6
CONTINUOUS
 10
16.330625
 20
20.514345
 30
0.000000
 40
0.539854
 50
18.307804
 51
32.566329
  0
ARC
  8
Default
 62
     7
  6
CONTINUOUS
 10
16.085775
 20
20.433331
 30
0.000000
 40
0.797759
 50
9.024612
 51
18.307804
  0
ARC
  8
Default
 62
     7
  6
CONTINUOUS
 10
15.769691
 20
20.340077
 30
0.000000
 40
0.802296
 50
9.082897
 51
19.657516
  0
ARC
  8
Default
 62
     7
  6
CONTINUOUS
 10
16.108687
 20
20.461172
 30
0.000000
 40
0.442321
 50
19.657516
 51
42.528327
  0
ARC
  8
Default
 62
     7
  6
CONTINUOUS
 10
16.204970
 20
20.549486
 30
0.000000
 40
0.311669
 50
42.528327
 51
81.251584
  0
ARC
  8
Default
 62
     7
  6
CONTINUOUS
 10
16.173972
 20
20.348051
 30
0.000000
 40
0.515476
 50
81.251584
 51
88.136658
  0
ARC
  8
Default
 62
     7
  6
CONTINUOUS
 10
16.162766
 20
20.003607
 30
0.000000
 40
0.860102
 50
88.136658
 51
95.908706
  0
ARC
  8
Default
 62
     7
  6
CONTINUOUS
 10
16.231634
 20
19.338172
 30
0.000000
 40
1.529091
 50
95.908706
 51
102.126125
  0
LINE
  8
Default
 62
     7
  6
CONTINUOUS
 10
15.923562
 20
20.652175
 30
0.000000
 11
15.910427
 21
20.833146
 31
0.000000
  0
LINE
  8
Default
 62
     7
  6
CONTINUOUS
 10
15.923562
 20
20.652175
 30
0.000000
 11
15.978573
 21
20.100106
 31
0.000000
  0
ARC
  8
Default
 62
     7
  6
CONTINUOUS
 10
16.384402
 20
20.148856
 30
0.000000
 40
0.408746
 50
186.849752
 51
198.893203
  0
ARC
  8
Default
 62
     7
  6
CONTINUOUS
 10
16.429413
 20
20.089806
 30
0.000000
 40
0.437914
 50
189.636295
 51
198.740799
  0
ARC
  8
Default
 62
     7
  6
CONTINUOUS
 10
16.124250
 20
19.981630
 30
0.000000
 40
0.114260
 50
196.536130
 51
223.821485
  0
ARC
  8
Default
 62
     7
  6
CONTINUOUS
 10
16.111345
 20
19.988996
 30
0.000000
 40
0.110968
 50
231.199422
 51
261.185069
  0
ARC
  8
Default
 62
     7
  6
CONTINUOUS
 10
15.791043
 20
24.891255
 30
0.000000
 40
5.182545
 50
271.448357
 51
274.103003
  0
ARC
  8
Default
 62
     7
  6
CONTINUOUS
 10
16.170182
 20
20.334876
 30
0.000000
 40
0.458609
 50
283.280664
 51
294.129393
  0
ARC
  8
Default
 62
     7
  6
CONTINUOUS
 10
16.221790
 20
20.219663
 30
0.000000
 40
0.332365
 50
294.129393
 51
324.130300
  0
ARC
  8
Default
 62
     7
  6
CONTINUOUS
 10
16.163078
 20
20.262116
 30
0.000000
 40
0.404818
 50
324.130300
 51
346.653827
  0
ARC
  8
Default
 62
     7
  6
CONTINUOUS
 10
15.959641
 20
20.310380
 30
0.000000
 40
0.613902
 50
346.653827
 51
358.457652
  0
ARC
  8
Default
 62
     7
  6
CONTINUOUS
 10
15.638087
 20
20.319038
 30
0.000000
 40
0.935572
 50
358.457652
 51
369.082897
  0
LINE
  8
Default
 62
     7
  6
CONTINUOUS
 10
18.221651
 20
19.932886
 30
0.000000
 11
18.302968
 21
19.941259
 31
0.000000
  0
LINE
  8
Default
 62
     7
  6
CONTINUOUS
 10
18.221651
 20
19.932886
 30
0.000000
 11
18.033920
 21
19.913540
 31
0.000000
  0
LINE
  8
Default
 62
     7
  6
CONTINUOUS
 10
18.033920
 20
19.913540
 30
0.000000
 11
17.921904
 21
19.902057
 31
0.000000
  0
ARC
  8
Default
 62
     7
  6
CONTINUOUS
 10
16.698583
 20
19.663813
 30
0.000000
 40
1.246304
 50
11.020488
 51
23.448395
  0
LINE
  8
Default
 62
     7
  6
CONTINUOUS
 10
17.775900
 20
20.312062
 30
0.000000
 11
17.841966
 21
20.159746
 31
0.000000
  0
LINE
  8
Default
 62
     7
  6
CONTINUOUS
 10
17.775900
 20
20.312062
 30
0.000000
 11
17.633945
 21
20.297414
 31
0.000000
  0
LINE
  8
Default
 62
     7
  6
CONTINUOUS
 10
17.504561
 20
20.284129
 30
0.000000
 11
17.337027
 21
20.266903
 31
0.000000
  0
LINE
  8
Default
 62
     7
  6
CONTINUOUS
 10
17.337027
 20
20.266903
 30
0.000000
 11
17.303095
 21
20.109449
 31
0.000000
  0
ARC
  8
Default
 62
     7
  6
CONTINUOUS
 10
18.238276
 20
19.907911
 30
0.000000
 40
0.956651
 50
167.838325
 51
173.780607
  0
ARC
  8
Default
 62
     7
  6
CONTINUOUS
 10
17.723868
 20
19.963969
 30
0.000000
 40
0.439198
 50
173.780607
 51
184.787811
  0
ARC
  8
Default
 62
     7
  6
CONTINUOUS
 10
17.630496
 20
19.965709
 30
0.000000
 40
0.346428
 50
186.363678
 51
201.467859
  0
LINE
  8
Default
 62
     7
  6
CONTINUOUS
 10
17.308103
 20
19.838924
 30
0.000000
 11
17.248538
 21
19.832791
 31
0.000000
  0
LINE
  8
Default
 62
     7
  6
CONTINUOUS
 10
17.248538
 20
19.832791
 30
0.000000
 11
17.093184
 21
19.816818
 31
0.000000
  0
LINE
  8
Default
 62
     7
  6
CONTINUOUS
 10
17.093184
 20
19.816818
 30
0.000000
 11
17.019147
 21
19.809219
 31
0.000000
  0
LINE
  8
Default
 62
     7
  6
CONTINUOUS
 10
17.019147
 20
19.809219
 30
0.000000
 11
17.010319
 21
19.824919
 31
0.000000
  0
ARC
  8
Default
 62
     7
  6
CONTINUOUS
 10
14.701450
 20
20.797444
 30
0.000000
 40
2.505331
 50
337.158561
 51
342.481891
  0
LINE
  8
Default
 62
     7
  6
CONTINUOUS
 10
17.119047
 20
20.133482
 30
0.000000
 11
17.090588
 21
20.043322
 31
0.000000
  0
LINE
  8
Default
 62
     7
  6
CONTINUOUS
 10
17.119047
 20
20.133482
 30
0.000000
 11
17.334821
 21
20.893035
 31
0.000000
  0
ARC
  8
Default
 62
     7
  6
CONTINUOUS
 10
15.300729
 20
21.470881
 30
0.000000
 40
2.114577
 50
344.141185
 51
350.845697
  0
LINE
  8
Default
 62
     7
  6
CONTINUOUS
 10
17.458292
 20
21.147070
 30
0.000000
 11
17.388374
 21
21.134465
 31
0.000000
  0
LINE
  8
Default
 62
     7
  6
CONTINUOUS
 10
17.458292
 20
21.147070
 30
0.000000
 11
17.613600
 21
21.179621
 31
0.000000
  0
LINE
  8
Default
 62
     7
  6
CONTINUOUS
 10
17.613600
 20
21.179621
 30
0.000000
 11
17.693703
 21
21.200623
 31
0.000000
  0
ARC
  8
Default
 62
     7
  6
CONTINUOUS
 10
18.815534
 20
21.526788
 30
0.000000
 40
1.168284
 50
196.211446
 51
205.239012
  0
LINE
  8
Default
 62
     7
  6
CONTINUOUS
 10
17.758778
 20
21.028637
 30
0.000000
 11
18.113357
 21
20.276448
 31
0.000000
  0
ARC
  8
Default
 62
     7
  6
CONTINUOUS
 10
20.571757
 20
21.435328
 30
0.000000
 40
2.717855
 50
205.239012
 51
211.722248
  0
ARC
  8
Default
 62
     7
  6
CONTINUOUS
 10
19.327452
 20
20.666162
 30
0.000000
 40
1.255012
 50
211.722248
 51
215.282399
  0
LINE
  8
Default
 62
     7
  6
CONTINUOUS
 10
17.719866
 20
20.447877
 30
0.000000
 11
17.503231
 21
20.957919
 31
0.000000
  0
LINE
  8
Default
 62
     7
  6
CONTINUOUS
 10
17.503231
 20
20.957919
 30
0.000000
 11
17.371346
 21
20.412040
 31
0.000000
  0
LINE
  8
Default
 62
     7
  6
CONTINUOUS
 10
17.485753
 20
20.423843
 30
0.000000
 11
17.504561
 21
20.284129
 31
0.000000
  0
LINE
  8
Default
 62
     7
  6
CONTINUOUS
 10
17.615136
 20
20.437141
 30
0.000000
 11
17.633945
 21
20.297414
 31
0.000000
  0
LINE
  8
Default
 62
     7
  6
CONTINUOUS
 10
19.279922
 20
20.287551
 30
0.000000
 11
19.267841
 21
20.209019
 31
0.000000
  0
LINE
  8
Default
 62
     7
  6
CONTINUOUS
 10
19.267841
 20
20.209019
 30
0.000000
 11
19.259149
 21
20.116183
 31
0.000000
  0
LINE
  8
Default
 62
     7
  6
CONTINUOUS
 10
19.259149
 20
20.116183
 30
0.000000
 11
19.256183
 21
20.038514
 31
0.000000
  0
LINE
  8
Default
 62
     7
  6
CONTINUOUS
 10
19.256183
 20
20.038514
 30
0.000000
 11
19.184811
 21
20.040713
 31
0.000000
  0
LINE
  8
Default
 62
     7
  6
CONTINUOUS
 10
19.184811
 20
20.040713
 30
0.000000
 11
18.663967
 21
19.977629
 31
0.000000
  0
LINE
  8
Default
 62
     7
  6
CONTINUOUS
 10
18.663967
 20
19.977629
 30
0.000000
 11
18.454406
 21
19.956129
 31
0.000000
  0
LINE
  8
Default
 62
     7
  6
CONTINUOUS
 10
18.454406
 20
19.956129
 30
0.000000
 11
18.460865
 21
20.039564
 31
0.000000
  0
ARC
  8
Default
 62
     7
  6
CONTINUOUS
 10
17.306648
 20
20.075498
 30
0.000000
 40
1.154776
 50
358.216786
 51
362.891918
  0
ARC
  8
Default
 62
     7
  6
CONTINUOUS
 10
15.446951
 20
19.981553
 30
0.000000
 40
3.016845
 50
2.891918
 51
5.867586
  0
LINE
  8
Default
 62
     7
  6
CONTINUOUS
 10
18.447990
 20
20.289965
 30
0.000000
 11
18.385772
 21
20.895385
 31
0.000000
  0
ARC
  8
Default
 62
     7
  6
CONTINUOUS
 10
16.853960
 20
20.737964
 30
0.000000
 40
1.539879
 50
5.867586
 51
9.701305
  0
ARC
  8
Default
 62
     7
  6
CONTINUOUS
 10
17.816652
 20
20.902542
 30
0.000000
 40
0.563221
 50
9.701305
 51
18.080961
  0
ARC
  8
Default
 62
     7
  6
CONTINUOUS
 10
18.292122
 20
21.057775
 30
0.000000
 40
0.063052
 50
18.080961
 51
59.965231
  0
ARC
  8
Default
 62
     7
  6
CONTINUOUS
 10
18.284493
 20
21.041443
 30
0.000000
 40
0.081024
 50
61.075410
 51
81.769140
  0
ARC
  8
Default
 62
     7
  6
CONTINUOUS
 10
18.274371
 20
20.971467
 30
0.000000
 40
0.151729
 50
81.769140
 51
95.941856
  0
LINE
  8
Default
 62
     7
  6
CONTINUOUS
 10
18.239909
 20
21.120429
 30
0.000000
 11
18.258664
 21
21.122381
 31
0.000000
  0
LINE
  8
Default
 62
     7
  6
CONTINUOUS
 10
18.239909
 20
21.120429
 30
0.000000
 11
18.266008
 21
21.221104
 31
0.000000
  0
LINE
  8
Default
 62
     7
  6
CONTINUOUS
 10
18.266008
 20
21.221104
 30
0.000000
 11
18.345568
 21
21.229302
 31
0.000000
  0
LINE
  8
Default
 62
     7
  6
CONTINUOUS
 10
18.345568
 20
21.229302
 30
0.000000
 11
18.560399
 21
21.251327
 31
0.000000
  0
LINE
  8
Default
 62
     7
  6
CONTINUOUS
 10
18.560399
 20
21.251327
 30
0.000000
 11
18.647072
 21
21.260306
 31
0.000000
  0
ARC
  8
Default
 62
     7
  6
CONTINUOUS
 10
22.487638
 20
21.308837
 30
0.000000
 40
3.840873
 50
180.723976
 51
185.874902
  0
LINE
  8
Default
 62
     7
  6
CONTINUOUS
 10
18.666939
 20
20.915698
 30
0.000000
 11
18.721110
 21
20.389240
 31
0.000000
  0
ARC
  8
Default
 62
     7
  6
CONTINUOUS
 10
19.916177
 20
20.512209
 30
0.000000
 40
1.201377
 50
185.874902
 51
190.755319
  0
ARC
  8
Default
 62
     7
  6
CONTINUOUS
 10
19.161252
 20
20.368810
 30
0.000000
 40
0.432954
 50
190.755319
 51
198.836887
  0
ARC
  8
Default
 62
     7
  6
CONTINUOUS
 10
18.860088
 20
20.261448
 30
0.000000
 40
0.113339
 50
196.625685
 51
224.164049
  0
ARC
  8
Default
 62
     7
  6
CONTINUOUS
 10
18.848643
 20
20.271612
 30
0.000000
 40
0.113244
 50
231.911037
 51
263.371488
  0
ARC
  8
Default
 62
     7
  6
CONTINUOUS
 10
18.896776
 20
20.609481
 30
0.000000
 40
0.454495
 50
262.260608
 51
277.501434
  0
ARC
  8
Default
 62
     7
  6
CONTINUOUS
 10
18.887276
 20
20.878814
 30
0.000000
 40
0.723222
 50
275.461627
 51
284.488670
  0
ARC
  8
Default
 62
     7
  6
CONTINUOUS
 10
18.974165
 20
20.542564
 30
0.000000
 40
0.375928
 50
284.488670
 51
299.883350
  0
ARC
  8
Default
 62
     7
  6
CONTINUOUS
 10
19.051277
 20
20.398232
 30
0.000000
 40
0.212426
 50
301.246044
 51
313.568153
  0
ARC
  8
Default
 62
     7
  6
CONTINUOUS
 10
18.912074
 20
20.544572
 30
0.000000
 40
0.414398
 50
313.568153
 51
323.281785
  0
LINE
  8
Default
 62
     7
  6
CONTINUOUS
 10
19.279922
 20
20.287551
 30
0.000000
 11
19.244250
 21
20.296812
 31
0.000000
  0
LINE
  8
Default
 62
     7
  6
CONTINUOUS
 10
20.343779
 20
20.307958
 30
0.000000
 11
20.326325
 21
20.230404
 31
0.000000
  0
LINE
  8
Default
 62
     7
  6
CONTINUOUS
 10
20.326325
 20
20.230404
 30
0.000000
 11
20.311329
 21
20.138169
 31
0.000000
  0
LINE
  8
Default
 62
     7
  6
CONTINUOUS
 10
20.311329
 20
20.138169
 30
0.000000
 11
20.302795
 21
20.060820
 31
0.000000
  0
LINE
  8
Default
 62
     7
  6
CONTINUOUS
 10
20.302795
 20
20.060820
 30
0.000000
 11
20.231736
 21
20.068419
 31
0.000000
  0
LINE
  8
Default
 62
     7
  6
CONTINUOUS
 10
20.231736
 20
20.068419
 30
0.000000
 11
19.707928
 21
20.041444
 31
0.000000
  0
LINE
  8
Default
 62
     7
  6
CONTINUOUS
 10
19.707928
 20
20.041444
 30
0.000000
 11
19.497571
 21
20.034554
 31
0.000000
  0
LINE
  8
Default
 62
     7
  6
CONTINUOUS
 10
19.497571
 20
20.034554
 30
0.000000
 11
19.508253
 21
20.117393
 31
0.000000
  0
ARC
  8
Default
 62
     7
  6
CONTINUOUS
 10
18.227702
 20
20.229404
 30
0.000000
 40
1.285441
 50
355.001005
 51
359.194291
  0
ARC
  8
Default
 62
     7
  6
CONTINUOUS
 10
16.116407
 20
20.259096
 30
0.000000
 40
3.396944
 50
359.194291
 51
361.874155
  0
LINE
  8
Default
 62
     7
  6
CONTINUOUS
 10
19.511534
 20
20.370191
 30
0.000000
 11
19.491679
 21
20.976974
 31
0.000000
  0
ARC
  8
Default
 62
     7
  6
CONTINUOUS
 10
17.914051
 20
20.925351
 30
0.000000
 40
1.578473
 50
1.874155
 51
5.593373
  0
ARC
  8
Default
 62
     7
  6
CONTINUOUS
 10
18.910456
 20
21.022933
 30
0.000000
 40
0.577301
 50
5.593373
 51
13.755962
  0
ARC
  8
Default
 62
     7
  6
CONTINUOUS
 10
19.409507
 20
21.145106
 30
0.000000
 40
0.063513
 50
13.755962
 51
55.139086
  0
ARC
  8
Default
 62
     7
  6
CONTINUOUS
 10
19.402564
 20
21.132137
 30
0.000000
 40
0.078142
 50
56.397525
 51
77.530997
  0
ARC
  8
Default
 62
     7
  6
CONTINUOUS
 10
19.388136
 20
21.066888
 30
0.000000
 40
0.144967
 50
77.530997
 51
92.793024
  0
LINE
  8
Default
 62
     7
  6
CONTINUOUS
 10
19.381072
 20
21.211682
 30
0.000000
 11
19.364727
 21
21.211211
 31
0.000000
  0
LINE
  8
Default
 62
     7
  6
CONTINUOUS
 10
19.364727
 20
21.211211
 30
0.000000
 11
19.397808
 21
21.313505
 31
0.000000
  0
LINE
  8
Default
 62
     7
  6
CONTINUOUS
 10
19.397808
 20
21.313505
 30
0.000000
 11
19.477547
 21
21.316115
 31
0.000000
  0
LINE
  8
Default
 62
     7
  6
CONTINUOUS
 10
19.477547
 20
21.316115
 30
0.000000
 11
19.693326
 21
21.323191
 31
0.000000
  0
LINE
  8
Default
 62
     7
  6
CONTINUOUS
 10
19.693326
 20
21.323191
 30
0.000000
 11
19.780323
 21
21.326075
 31
0.000000
  0
ARC
  8
Default
 62
     7
  6
CONTINUOUS
 10
24.838639
 20
21.145565
 30
0.000000
 40
5.061536
 50
177.956219
 51
181.870639
  0
LINE
  8
Default
 62
     7
  6
CONTINUOUS
 10
19.779800
 20
20.980341
 30
0.000000
 11
19.797222
 21
20.446934
 31
0.000000
  0
ARC
  8
Default
 62
     7
  6
CONTINUOUS
 10
21.026355
 20
20.487078
 30
0.000000
 40
1.229789
 50
181.870639
 51
186.496443
  0
ARC
  8
Default
 62
     7
  6
CONTINUOUS
 10
20.241312
 20
20.397683
 30
0.000000
 40
0.439673
 50
186.496443
 51
194.812604
  0
ARC
  8
Default
 62
     7
  6
CONTINUOUS
 10
19.928533
 20
20.310419
 30
0.000000
 40
0.115063
 50
192.621206
 51
219.823848
  0
ARC
  8
Default
 62
     7
  6
CONTINUOUS
 10
19.915775
 20
20.319087
 30
0.000000
 40
0.111803
 50
227.445235
 51
259.174101
  0
ARC
  8
Default
 62
     7
  6
CONTINUOUS
 10
19.986793
 20
20.645440
 30
0.000000
 40
0.445767
 50
258.087164
 51
273.525793
  0
ARC
  8
Default
 62
     7
  6
CONTINUOUS
 10
19.996341
 20
20.902528
 30
0.000000
 40
0.702238
 50
271.457758
 51
280.684557
  0
ARC
  8
Default
 62
     7
  6
CONTINUOUS
 10
20.058458
 20
20.573297
 30
0.000000
 40
0.367199
 50
280.684557
 51
296.383785
  0
ARC
  8
Default
 62
     7
  6
CONTINUOUS
 10
20.123371
 20
20.430979
 30
0.000000
 40
0.210921
 50
297.767234
 51
310.179917
  0
ARC
  8
Default
 62
     7
  6
CONTINUOUS
 10
19.991115
 20
20.587595
 30
0.000000
 40
0.415909
 50
310.179917
 51
319.909518
  0
LINE
  8
Default
 62
     7
  6
CONTINUOUS
 10
20.343779
 20
20.307958
 30
0.000000
 11
20.309297
 21
20.319751
 31
0.000000
  0
LINE
  8
Default
 62
     7
  6
CONTINUOUS
 10
21.587753
 20
20.101586
 30
0.000000
 11
21.669328
 21
20.104284
 31
0.000000
  0
LINE
  8
Default
 62
     7
  6
CONTINUOUS
 10
21.587753
 20
20.101586
 30
0.000000
 11
21.399083
 21
20.095440
 31
0.000000
  0
LINE
  8
Default
 62
     7
  6
CONTINUOUS
 10
21.399083
 20
20.095440
 30
0.000000
 11
21.286647
 21
20.091721
 31
0.000000
  0
ARC
  8
Default
 62
     7
  6
CONTINUOUS
 10
20.014175
 20
19.935576
 30
0.000000
 40
1.282016
 50
6.995793
 51
19.341936
  0
LINE
  8
Default
 62
     7
  6
CONTINUOUS
 10
21.169374
 20
20.515332
 30
0.000000
 11
21.223833
 21
20.360186
 31
0.000000
  0
LINE
  8
Default
 62
     7
  6
CONTINUOUS
 10
21.169374
 20
20.515332
 30
0.000000
 11
21.013156
 21
20.510224
 31
0.000000
  0
LINE
  8
Default
 62
     7
  6
CONTINUOUS
 10
20.883210
 20
20.505986
 30
0.000000
 11
20.728562
 21
20.500990
 31
0.000000
  0
LINE
  8
Default
 62
     7
  6
CONTINUOUS
 10
20.728562
 20
20.500990
 30
0.000000
 11
20.683488
 21
20.343182
 31
0.000000
  0
ARC
  8
Default
 62
     7
  6
CONTINUOUS
 10
21.615150
 20
20.077072
 30
0.000000
 40
0.968922
 50
164.059110
 51
169.894834
  0
ARC
  8
Default
 62
     7
  6
CONTINUOUS
 10
21.101765
 20
20.168568
 30
0.000000
 40
0.447447
 50
169.894834
 51
180.822947
  0
ARC
  8
Default
 62
     7
  6
CONTINUOUS
 10
21.005479
 20
20.176496
 30
0.000000
 40
0.351408
 50
182.341180
 51
197.367648
  0
LINE
  8
Default
 62
     7
  6
CONTINUOUS
 10
20.670092
 20
20.071600
 30
0.000000
 11
20.610204
 21
20.069647
 31
0.000000
  0
LINE
  8
Default
 62
     7
  6
CONTINUOUS
 10
20.610204
 20
20.069647
 30
0.000000
 11
20.454233
 21
20.064611
 31
0.000000
  0
LINE
  8
Default
 62
     7
  6
CONTINUOUS
 10
20.454233
 20
20.064611
 30
0.000000
 11
20.379916
 21
20.062187
 31
0.000000
  0
LINE
  8
Default
 62
     7
  6
CONTINUOUS
 10
20.379916
 20
20.062187
 30
0.000000
 11
20.372107
 21
20.078345
 31
0.000000
  0
ARC
  8
Default
 62
     7
  6
CONTINUOUS
 10
18.132651
 20
21.205109
 30
0.000000
 40
2.506942
 50
333.291118
 51
338.548266
  0
LINE
  8
Default
 62
     7
  6
CONTINUOUS
 10
20.502038
 20
20.380176
 30
0.000000
 11
20.465927
 21
20.288276
 31
0.000000
  0
LINE
  8
Default
 62
     7
  6
CONTINUOUS
 10
20.502038
 20
20.380176
 30
0.000000
 11
20.769609
 21
21.124883
 31
0.000000
  0
ARC
  8
Default
 62
     7
  6
CONTINUOUS
 10
18.738182
 20
21.854770
 30
0.000000
 40
2.158572
 50
340.236753
 51
346.864883
  0
LINE
  8
Default
 62
     7
  6
CONTINUOUS
 10
20.910910
 20
21.372066
 30
0.000000
 11
20.840279
 21
21.364238
 31
0.000000
  0
LINE
  8
Default
 62
     7
  6
CONTINUOUS
 10
20.910910
 20
21.372066
 30
0.000000
 11
21.068174
 21
21.393788
 31
0.000000
  0
LINE
  8
Default
 62
     7
  6
CONTINUOUS
 10
21.068174
 20
21.393788
 30
0.000000
 11
21.149374
 21
21.409247
 31
0.000000
  0
ARC
  8
Default
 62
     7
  6
CONTINUOUS
 10
22.309313
 20
21.659195
 30
0.000000
 40
1.186563
 50
192.160372
 51
201.159078
  0
LINE
  8
Default
 62
     7
  6
CONTINUOUS
 10
21.202746
 20
21.230894
 30
0.000000
 11
21.503453
 21
20.453981
 31
0.000000
  0
ARC
  8
Default
 62
     7
  6
CONTINUOUS
 10
24.112989
 20
21.464009
 30
0.000000
 40
2.798185
 50
201.159078
 51
207.272682
  0
ARC
  8
Default
 62
     7
  6
CONTINUOUS
 10
22.754853
 20
20.763843
 30
0.000000
 40
1.270190
 50
207.272682
 51
211.282626
  0
LINE
  8
Default
 62
     7
  6
CONTINUOUS
 10
21.122921
 20
20.662984
 30
0.000000
 11
20.942823
 21
21.174306
 31
0.000000
  0
LINE
  8
Default
 62
     7
  6
CONTINUOUS
 10
20.942823
 20
21.174306
 30
0.000000
 11
20.772772
 21
20.651538
 31
0.000000
  0
LINE
  8
Default
 62
     7
  6
CONTINUOUS
 10
20.876118
 20
20.654922
 30
0.000000
 11
20.883210
 21
20.505986
 31
0.000000
  0
LINE
  8
Default
 62
     7
  6
CONTINUOUS
 10
21.006066
 20
20.659118
 30
0.000000
 11
21.122921
 21
20.662984
 31
0.000000
  0
ARC
  8
Default
 62
     7
  6
CONTINUOUS
 10
22.186381
 20
20.507432
 30
0.000000
 40
0.406571
 50
344.111648
 51
359.185853
  0
ARC
  8
Default
 62
     7
  6
CONTINUOUS
 10
22.210531
 20
20.500558
 30
0.000000
 40
0.381462
 50
314.299193
 51
344.111648
  0
ARC
  8
Default
 62
     7
  6
CONTINUOUS
 10
22.131666
 20
20.581377
 30
0.000000
 40
0.494385
 50
286.279041
 51
314.299193
  0
ARC
  8
Default
 62
     7
  6
CONTINUOUS
 10
22.090141
 20
20.723573
 30
0.000000
 40
0.642520
 50
267.763217
 51
286.279041
  0
ARC
  8
Default
 62
     7
  6
CONTINUOUS
 10
22.079529
 20
20.960989
 30
0.000000
 40
0.879565
 50
262.072425
 51
269.057702
  0
ARC
  8
Default
 62
     7
  6
CONTINUOUS
 10
22.095148
 20
20.921101
 30
0.000000
 40
0.842474
 50
245.618867
 51
260.646037
  0
LINE
  8
Default
 62
     7
  6
CONTINUOUS
 10
21.747371
 20
20.153760
 30
0.000000
 11
21.770883
 21
20.224892
 31
0.000000
  0
LINE
  8
Default
 62
     7
  6
CONTINUOUS
 10
21.770883
 20
20.224892
 30
0.000000
 11
21.795003
 21
20.316240
 31
0.000000
  0
LINE
  8
Default
 62
     7
  6
CONTINUOUS
 10
21.795003
 20
20.316240
 30
0.000000
 11
21.811424
 21
20.393004
 31
0.000000
  0
LINE
  8
Default
 62
     7
  6
CONTINUOUS
 10
21.811424
 20
20.393004
 30
0.000000
 11
21.844357
 21
20.397686
 31
0.000000
  0
ARC
  8
Default
 62
     7
  6
CONTINUOUS
 10
22.429675
 20
20.769419
 30
0.000000
 40
0.693384
 50
212.419490
 51
218.829034
  0
ARC
  8
Default
 62
     7
  6
CONTINUOUS
 10
22.127642
 20
20.526326
 30
0.000000
 40
0.305676
 50
218.829034
 51
230.706652
  0
ARC
  8
Default
 62
     7
  6
CONTINUOUS
 10
22.114832
 20
20.518990
 30
0.000000
 40
0.291934
 50
231.740516
 51
259.113075
  0
ARC
  8
Default
 62
     7
  6
CONTINUOUS
 10
22.117164
 20
20.531113
 30
0.000000
 40
0.304279
 50
259.113075
 51
282.820972
  0
ARC
  8
Default
 62
     7
  6
CONTINUOUS
 10
22.137676
 20
20.440980
 30
0.000000
 40
0.211842
 50
282.820972
 51
303.325180
  0
ARC
  8
Default
 62
     7
  6
CONTINUOUS
 10
22.168750
 20
20.401737
 30
0.000000
 40
0.162040
 50
301.767663
 51
359.978722
  0
ARC
  8
Default
 62
     7
  6
CONTINUOUS
 10
22.165558
 20
20.409766
 30
0.000000
 40
0.165430
 50
357.197534
 51
399.264635
  0
ARC
  8
Default
 62
     7
  6
CONTINUOUS
 10
22.043448
 20
20.293406
 30
0.000000
 40
0.333861
 50
41.462856
 51
55.069121
  0
ARC
  8
Default
 62
     7
  6
CONTINUOUS
 10
21.518149
 20
19.541270
 30
0.000000
 40
1.251274
 50
55.069121
 51
62.034979
  0
ARC
  8
Default
 62
     7
  6
CONTINUOUS
 10
23.161792
 20
22.637072
 30
0.000000
 40
2.253800
 50
237.980511
 51
242.034979
  0
ARC
  8
Default
 62
     7
  6
CONTINUOUS
 10
22.446363
 20
21.493012
 30
0.000000
 40
0.904463
 50
233.170419
 51
237.980511
  0
ARC
  8
Default
 62
     7
  6
CONTINUOUS
 10
22.110858
 20
21.045016
 30
0.000000
 40
0.344763
 50
224.632121
 51
233.170419
  0
ARC
  8
Default
 62
     7
  6
CONTINUOUS
 10
22.071421
 20
21.006082
 30
0.000000
 40
0.289345
 50
198.339162
 51
224.632121
  0
ARC
  8
Default
 62
     7
  6
CONTINUOUS
 10
22.118632
 20
21.021731
 30
0.000000
 40
0.339082
 50
177.596719
 51
198.339162
  0
ARC
  8
Default
 62
     7
  6
CONTINUOUS
 10
22.177950
 20
21.030508
 30
0.000000
 40
0.398139
 50
161.467796
 51
179.216887
  0
ARC
  8
Default
 62
     7
  6
CONTINUOUS
 10
22.133461
 20
21.045422
 30
0.000000
 40
0.351217
 50
133.958580
 51
161.467796
  0
ARC
  8
Default
 62
     7
  6
CONTINUOUS
 10
22.193337
 20
20.983328
 30
0.000000
 40
0.437477
 50
106.326156
 51
133.958580
  0
ARC
  8
Default
 62
     7
  6
CONTINUOUS
 10
22.244323
 20
20.809267
 30
0.000000
 40
0.618853
 50
88.092595
 51
106.326156
  0
ARC
  8
Default
 62
     7
  6
CONTINUOUS
 10
22.236465
 20
20.573305
 30
0.000000
 40
0.854945
 50
80.832721
 51
88.092595
  0
ARC
  8
Default
 62
     7
  6
CONTINUOUS
 10
22.276447
 20
20.821057
 30
0.000000
 40
0.603987
 50
73.914234
 51
80.832721
  0
ARC
  8
Default
 62
     7
  6
CONTINUOUS
 10
22.145325
 20
20.366352
 30
0.000000
 40
1.077221
 50
66.739529
 51
73.914234
  0
LINE
  8
Default
 62
     7
  6
CONTINUOUS
 10
22.543654
 20
21.287199
 30
0.000000
 11
22.570732
 21
21.356015
 31
0.000000
  0
LINE
  8
Default
 62
     7
  6
CONTINUOUS
 10
22.543654
 20
21.287199
 30
0.000000
 11
22.514060
 21
21.196418
 31
0.000000
  0
LINE
  8
Default
 62
     7
  6
CONTINUOUS
 10
22.514060
 20
21.196418
 30
0.000000
 11
22.498255
 21
21.140034
 31
0.000000
  0
LINE
  8
Default
 62
     7
  6
CONTINUOUS
 10
22.498255
 20
21.140034
 30
0.000000
 11
22.469056
 21
21.138942
 31
0.000000
  0
ARC
  8
Default
 62
     7
  6
CONTINUOUS
 10
22.027292
 20
20.843079
 30
0.000000
 40
0.531687
 50
33.811424
 51
41.885197
  0
ARC
  8
Default
 62
     7
  6
CONTINUOUS
 10
22.236752
 20
21.030919
 30
0.000000
 40
0.250337
 50
41.885197
 51
56.377012
  0
ARC
  8
Default
 62
     7
  6
CONTINUOUS
 10
22.231425
 20
21.012250
 30
0.000000
 40
0.268898
 50
57.634598
 51
90.044517
  0
ARC
  8
Default
 62
     7
  6
CONTINUOUS
 10
22.222356
 20
21.029230
 30
0.000000
 40
0.252074
 50
87.985806
 51
103.378586
  0
ARC
  8
Default
 62
     7
  6
CONTINUOUS
 10
22.203796
 20
21.107266
 30
0.000000
 40
0.171861
 50
103.378586
 51
125.745456
  0
ARC
  8
Default
 62
     7
  6
CONTINUOUS
 10
22.186611
 20
21.131141
 30
0.000000
 40
0.142444
 50
125.745456
 51
180.792817
  0
ARC
  8
Default
 62
     7
  6
CONTINUOUS
 10
22.199434
 20
21.122239
 30
0.000000
 40
0.155407
 50
177.443686
 51
229.201409
  0
ARC
  8
Default
 62
     7
  6
CONTINUOUS
 10
22.405631
 20
21.361133
 30
0.000000
 40
0.470982
 50
229.201409
 51
238.002664
  0
ARC
  8
Default
 62
     7
  6
CONTINUOUS
 10
23.119775
 20
22.504120
 30
0.000000
 40
1.818729
 50
238.002664
 51
242.491277
  0
ARC
  8
Default
 62
     7
  6
CONTINUOUS
 10
21.585456
 20
19.557815
 30
0.000000
 40
1.503145
 50
56.492526
 51
62.491277
  0
ARC
  8
Default
 62
     7
  6
CONTINUOUS
 10
22.029822
 20
20.228990
 30
0.000000
 40
0.698200
 50
50.098497
 51
56.492526
  0
ARC
  8
Default
 62
     7
  6
CONTINUOUS
 10
22.261006
 20
20.505468
 30
0.000000
 40
0.337802
 50
40.318838
 51
50.098497
  0
ARC
  8
Default
 62
     7
  6
CONTINUOUS
 10
22.266162
 20
20.516039
 30
0.000000
 40
0.327066
 50
357.479445
 51
399.491345
  0
LINE
  8
Default
 62
     7
  6
CONTINUOUS
 10
24.373122
 20
21.216155
 30
0.000000
 11
24.398636
 21
21.295199
 31
0.000000
  0
LINE
  8
Default
 62
     7
  6
CONTINUOUS
 10
24.373122
 20
21.216155
 30
0.000000
 11
24.344874
 21
21.109990
 31
0.000000
  0
LINE
  8
Default
 62
     7
  6
CONTINUOUS
 10
24.344874
 20
21.109990
 30
0.000000
 11
24.332392
 21
21.041638
 31
0.000000
  0
LINE
  8
Default
 62
     7
  6
CONTINUOUS
 10
24.332392
 20
21.041638
 30
0.000000
 11
24.294137
 21
21.037182
 31
0.000000
  0
ARC
  8
Default
 62
     7
  6
CONTINUOUS
 10
23.850363
 20
20.768940
 30
0.000000
 40
0.518545
 50
31.151134
 51
41.142391
  0
ARC
  8
Default
 62
     7
  6
CONTINUOUS
 10
23.972031
 20
20.875236
 30
0.000000
 40
0.356985
 50
41.142391
 51
66.804677
  0
ARC
  8
Default
 62
     7
  6
CONTINUOUS
 10
23.971726
 20
20.874524
 30
0.000000
 40
0.357760
 50
66.804677
 51
89.635541
  0
ARC
  8
Default
 62
     7
  6
CONTINUOUS
 10
23.959929
 20
20.865465
 30
0.000000
 40
0.367081
 50
87.802932
 51
106.205286
  0
ARC
  8
Default
 62
     7
  6
CONTINUOUS
 10
23.947406
 20
20.908555
 30
0.000000
 40
0.322208
 50
106.205286
 51
137.123241
  0
ARC
  8
Default
 62
     7
  6
CONTINUOUS
 10
24.038671
 20
20.823815
 30
0.000000
 40
0.446748
 50
137.123241
 51
162.130531
  0
ARC
  8
Default
 62
     7
  6
CONTINUOUS
 10
24.299907
 20
20.739592
 30
0.000000
 40
0.721226
 50
162.130531
 51
179.452846
  0
ARC
  8
Default
 62
     7
  6
CONTINUOUS
 10
24.313456
 20
20.720620
 30
0.000000
 40
0.735196
 50
177.984350
 51
193.059047
  0
ARC
  8
Default
 62
     7
  6
CONTINUOUS
 10
24.088355
 20
20.668407
 30
0.000000
 40
0.504119
 50
193.059047
 51
215.032629
  0
ARC
  8
Default
 62
     7
  6
CONTINUOUS
 10
24.006680
 20
20.611149
 30
0.000000
 40
0.404374
 50
215.032629
 51
241.350260
  0
ARC
  8
Default
 62
     7
  6
CONTINUOUS
 10
24.002968
 20
20.621962
 30
0.000000
 40
0.412169
 50
242.523940
 51
263.486981
  0
ARC
  8
Default
 62
     7
  6
CONTINUOUS
 10
24.011468
 20
20.696421
 30
0.000000
 40
0.487112
 50
263.486981
 51
282.418526
  0
ARC
  8
Default
 62
     7
  6
CONTINUOUS
 10
24.003787
 20
20.731304
 30
0.000000
 40
0.522830
 50
282.418526
 51
306.392818
  0
LINE
  8
Default
 62
     7
  6
CONTINUOUS
 10
24.346254
 20
20.291497
 30
0.000000
 11
24.313992
 21
20.310442
 31
0.000000
  0
LINE
  8
Default
 62
     7
  6
CONTINUOUS
 10
24.346254
 20
20.291497
 30
0.000000
 11
24.322973
 21
20.235597
 31
0.000000
  0
LINE
  8
Default
 62
     7
  6
CONTINUOUS
 10
24.322973
 20
20.235597
 30
0.000000
 11
24.295781
 21
20.158207
 31
0.000000
  0
LINE
  8
Default
 62
     7
  6
CONTINUOUS
 10
24.295781
 20
20.158207
 30
0.000000
 11
24.275863
 21
20.093252
 31
0.000000
  0
ARC
  8
Default
 62
     7
  6
CONTINUOUS
 10
23.863512
 20
21.579355
 30
0.000000
 40
1.542250
 50
278.912094
 51
285.507806
  0
ARC
  8
Default
 62
     7
  6
CONTINUOUS
 10
23.929031
 20
21.340083
 30
0.000000
 40
1.296012
 50
268.546475
 51
277.689175
  0
ARC
  8
Default
 62
     7
  6
CONTINUOUS
 10
23.918755
 20
20.935112
 30
0.000000
 40
0.890911
 50
258.534913
 51
268.546475
  0
ARC
  8
Default
 62
     7
  6
CONTINUOUS
 10
23.872604
 20
20.707565
 30
0.000000
 40
0.658731
 50
246.765345
 51
258.534913
  0
ARC
  8
Default
 62
     7
  6
CONTINUOUS
 10
23.832288
 20
20.613658
 30
0.000000
 40
0.556535
 50
214.219137
 51
246.765345
  0
ARC
  8
Default
 62
     7
  6
CONTINUOUS
 10
23.931963
 20
20.681445
 30
0.000000
 40
0.677076
 50
192.933598
 51
214.219137
  0
ARC
  8
Default
 62
     7
  6
CONTINUOUS
 10
24.003703
 20
20.697920
 30
0.000000
 40
0.750684
 50
178.232968
 51
192.933598
  0
ARC
  8
Default
 62
     7
  6
CONTINUOUS
 10
23.936870
 20
20.712510
 30
0.000000
 40
0.683547
 50
162.619106
 51
179.282663
  0
ARC
  8
Default
 62
     7
  6
CONTINUOUS
 10
23.868809
 20
20.733814
 30
0.000000
 40
0.612230
 50
133.383818
 51
162.619106
  0
ARC
  8
Default
 62
     7
  6
CONTINUOUS
 10
23.904917
 20
20.695609
 30
0.000000
 40
0.664798
 50
108.072857
 51
133.383818
  0
ARC
  8
Default
 62
     7
  6
CONTINUOUS
 10
23.961789
 20
20.521331
 30
0.000000
 40
0.848121
 50
97.304265
 51
108.072857
  0
ARC
  8
Default
 62
     7
  6
CONTINUOUS
 10
23.999034
 20
20.230759
 30
0.000000
 40
1.141071
 50
86.719027
 51
97.304265
  0
ARC
  8
Default
 62
     7
  6
CONTINUOUS
 10
24.008515
 20
20.396152
 30
0.000000
 40
0.975406
 50
77.170199
 51
86.719027
  0
ARC
  8
Default
 62
     7
  6
CONTINUOUS
 10
23.925882
 20
20.033316
 30
0.000000
 40
1.347532
 50
69.461975
 51
77.170199
  0
ARC
  8
Default
 62
     7
  6
CONTINUOUS
 10
25.162704
 20
20.671127
 30
0.000000
 40
0.786044
 50
339.282666
 51
356.066069
  0
ARC
  8
Default
 62
     7
  6
CONTINUOUS
 10
25.314978
 20
20.613535
 30
0.000000
 40
0.623243
 50
320.543074
 51
339.282666
  0
ARC
  8
Default
 62
     7
  6
CONTINUOUS
 10
25.286261
 20
20.637172
 30
0.000000
 40
0.660437
 50
286.259454
 51
320.543074
  0
ARC
  8
Default
 62
     7
  6
CONTINUOUS
 10
25.265474
 20
20.708444
 30
0.000000
 40
0.734679
 50
275.078510
 51
286.259454
  0
ARC
  8
Default
 62
     7
  6
CONTINUOUS
 10
25.245609
 20
20.931969
 30
0.000000
 40
0.959084
 50
270.820789
 51
275.078510
  0
LINE
  8
Default
 62
     7
  6
CONTINUOUS
 10
25.138773
 20
20.130899
 30
0.000000
 11
25.129530
 21
19.979936
 31
0.000000
  0
ARC
  8
Default
 62
     7
  6
CONTINUOUS
 10
25.159397
 20
20.579222
 30
0.000000
 40
0.593380
 50
233.306291
 51
249.281581
  0
ARC
  8
Default
 62
     7
  6
CONTINUOUS
 10
25.165159
 20
20.586953
 30
0.000000
 40
0.603022
 50
196.086412
 51
233.306291
  0
ARC
  8
Default
 62
     7
  6
CONTINUOUS
 10
25.222641
 20
20.603530
 30
0.000000
 40
0.662847
 50
185.292771
 51
196.086412
  0
ARC
  8
Default
 62
     7
  6
CONTINUOUS
 10
25.423426
 20
20.622131
 30
0.000000
 40
0.864492
 50
172.114670
 51
185.292771
  0
ARC
  8
Default
 62
     7
  6
CONTINUOUS
 10
25.317198
 20
20.636843
 30
0.000000
 40
0.757250
 50
161.043206
 51
172.114670
  0
ARC
  8
Default
 62
     7
  6
CONTINUOUS
 10
25.203577
 20
20.675870
 30
0.000000
 40
0.637113
 50
140.559238
 51
161.043206
  0
ARC
  8
Default
 62
     7
  6
CONTINUOUS
 10
25.233498
 20
20.651258
 30
0.000000
 40
0.675856
 50
101.357918
 51
140.559238
  0
ARC
  8
Default
 62
     7
  6
CONTINUOUS
 10
25.237675
 20
20.630463
 30
0.000000
 40
0.697066
 50
95.885610
 51
101.357918
  0
ARC
  8
Default
 62
     7
  6
CONTINUOUS
 10
25.222397
 20
20.745785
 30
0.000000
 40
0.771460
 50
249.281581
 51
263.086080
  0
ARC
  8
Default
 62
     7
  6
CONTINUOUS
 10
25.253465
 20
20.477288
 30
0.000000
 40
0.851053
 50
89.958502
 51
95.885610
  0
ARC
  8
Default
 62
     7
  6
CONTINUOUS
 10
25.317116
 20
20.623083
 30
0.000000
 40
0.695595
 50
59.925649
 51
72.013857
  0
ARC
  8
Default
 62
     7
  6
CONTINUOUS
 10
25.409541
 20
20.782688
 30
0.000000
 40
0.511160
 50
44.630849
 51
59.925649
  0
ARC
  8
Default
 62
     7
  6
CONTINUOUS
 10
25.388180
 20
20.761601
 30
0.000000
 40
0.541176
 50
31.819847
 51
44.630849
  0
ARC
  8
Default
 62
     7
  6
CONTINUOUS
 10
25.287900
 20
20.699377
 30
0.000000
 40
0.659192
 50
17.793982
 51
31.819847
  0
ARC
  8
Default
 62
     7
  6
CONTINUOUS
 10
25.233499
 20
20.681917
 30
0.000000
 40
0.716326
 50
354.816501
 51
377.793982
  0
ARC
  8
Default
 62
     7
  6
CONTINUOUS
 10
24.631595
 20
20.690174
 30
0.000000
 40
0.997634
 50
354.926949
 51
367.223799
  0
ARC
  8
Default
 62
     7
  6
CONTINUOUS
 10
25.039374
 20
20.741860
 30
0.000000
 40
0.586593
 50
7.223799
 51
23.392500
  0
ARC
  8
Default
 62
     7
  6
CONTINUOUS
 10
25.187549
 20
20.805958
 30
0.000000
 40
0.425148
 50
23.392500
 51
37.541234
  0
ARC
  8
Default
 62
     7
  6
CONTINUOUS
 10
25.273636
 20
20.872114
 30
0.000000
 40
0.316578
 50
37.541234
 51
54.078317
  0
ARC
  8
Default
 62
     7
  6
CONTINUOUS
 10
25.278767
 20
20.871463
 30
0.000000
 40
0.314128
 50
54.905839
 51
72.224404
  0
LINE
  8
Default
 62
     7
  6
CONTINUOUS
 10
25.268097
 20
20.115877
 30
0.000000
 11
25.259348
 21
19.972983
 31
0.000000
  0
ARC
  8
Default
 62
     7
  6
CONTINUOUS
 10
25.245601
 20
20.879912
 30
0.000000
 40
0.304590
 50
104.366369
 51
133.379376
  0
ARC
  8
Default
 62
     7
  6
CONTINUOUS
 10
25.298906
 20
20.823503
 30
0.000000
 40
0.382200
 50
133.379376
 51
148.416552
  0
ARC
  8
Default
 62
     7
  6
CONTINUOUS
 10
25.400892
 20
20.760802
 30
0.000000
 40
0.501919
 50
148.416552
 51
159.958847
  0
ARC
  8
Default
 62
     7
  6
CONTINUOUS
 10
25.607755
 20
20.685341
 30
0.000000
 40
0.722116
 50
159.958847
 51
169.275130
  0
ARC
  8
Default
 62
     7
  6
CONTINUOUS
 10
25.999833
 20
20.611081
 30
0.000000
 40
1.121164
 50
169.275130
 51
178.717592
  0
ARC
  8
Default
 62
     7
  6
CONTINUOUS
 10
25.879590
 20
20.613773
 30
0.000000
 40
1.000891
 50
178.717592
 51
187.272669
  0
ARC
  8
Default
 62
     7
  6
CONTINUOUS
 10
25.466397
 20
20.561042
 30
0.000000
 40
0.584347
 50
187.272669
 51
203.577334
  0
ARC
  8
Default
 62
     7
  6
CONTINUOUS
 10
25.316520
 20
20.495633
 30
0.000000
 40
0.420818
 50
203.577334
 51
218.193562
  0
ARC
  8
Default
 62
     7
  6
CONTINUOUS
 10
25.227639
 20
20.425707
 30
0.000000
 40
0.307728
 50
218.193562
 51
244.488717
  0
ARC
  8
Default
 62
     7
  6
CONTINUOUS
 10
25.234759
 20
20.440627
 30
0.000000
 40
0.324260
 50
244.488717
 51
252.781542
  0
ARC
  8
Default
 62
     7
  6
CONTINUOUS
 10
25.248924
 20
20.472153
 30
0.000000
 40
0.356792
 50
273.080405
 51
284.169434
  0
ARC
  8
Default
 62
     7
  6
CONTINUOUS
 10
25.262458
 20
20.418545
 30
0.000000
 40
0.301502
 50
284.169434
 51
316.659970
  0
ARC
  8
Default
 62
     7
  6
CONTINUOUS
 10
25.157845
 20
20.517266
 30
0.000000
 40
0.445341
 50
316.659970
 51
340.481798
  0
ARC
  8
Default
 62
     7
  6
CONTINUOUS
 10
24.767132
 20
20.655764
 30
0.000000
 40
0.859875
 50
340.481798
 51
356.412336
  0
LINE
  8
Default
 62
     7
  6
CONTINUOUS
 10
28.028968
 20
20.983574
 30
0.000000
 11
27.989489
 21
20.916951
 31
0.000000
  0
ARC
  8
Default
 62
     7
  6
CONTINUOUS
 10
28.828056
 20
20.440859
 30
0.000000
 40
0.964291
 50
150.414508
 51
157.361269
  0
ARC
  8
Default
 62
     7
  6
CONTINUOUS
 10
32.324040
 20
18.982848
 30
0.000000
 40
4.752127
 50
157.361269
 51
158.742339
  0
LINE
  8
Default
 62
     7
  6
CONTINUOUS
 10
27.895250
 20
20.705792
 30
0.000000
 11
27.611076
 21
19.975328
 31
0.000000
  0
ARC
  8
Default
 62
     7
  6
CONTINUOUS
 10
29.570956
 20
19.212870
 30
0.000000
 40
2.102967
 50
158.742339
 51
164.872894
  0
LINE
  8
Default
 62
     7
  6
CONTINUOUS
 10
27.456830
 20
19.775727
 30
0.000000
 11
27.540858
 21
19.761663
 31
0.000000
  0
LINE
  8
Default
 62
     7
  6
CONTINUOUS
 10
27.456830
 20
19.775727
 30
0.000000
 11
27.338027
 21
19.790769
 31
0.000000
  0
LINE
  8
Default
 62
     7
  6
CONTINUOUS
 10
27.338027
 20
19.790769
 30
0.000000
 11
27.251063
 21
19.798461
 31
0.000000
  0
ARC
  8
Default
 62
     7
  6
CONTINUOUS
 10
26.122175
 20
19.757819
 30
0.000000
 40
1.129619
 50
2.061868
 51
10.612029
  0
LINE
  8
Default
 62
     7
  6
CONTINUOUS
 10
27.077430
 20
20.793356
 30
0.000000
 11
27.232474
 21
19.965847
 31
0.000000
  0
LINE
  8
Default
 62
     7
  6
CONTINUOUS
 10
27.077430
 20
20.793356
 30
0.000000
 11
26.999037
 21
20.651840
 31
0.000000
  0
LINE
  8
Default
 62
     7
  6
CONTINUOUS
 10
26.999037
 20
20.651840
 30
0.000000
 11
26.688655
 21
20.095957
 31
0.000000
  0
ARC
  8
Default
 62
     7
  6
CONTINUOUS
 10
27.883268
 20
19.428935
 30
0.000000
 40
1.368217
 50
150.822806
 51
160.658492
  0
LINE
  8
Default
 62
     7
  6
CONTINUOUS
 10
26.508077
 20
19.896157
 30
0.000000
 11
26.592271
 21
19.882086
 31
0.000000
  0
LINE
  8
Default
 62
     7
  6
CONTINUOUS
 10
26.508077
 20
19.896157
 30
0.000000
 11
26.389274
 21
19.911199
 31
0.000000
  0
LINE
  8
Default
 62
     7
  6
CONTINUOUS
 10
26.389274
 20
19.911199
 30
0.000000
 11
26.302310
 21
19.918891
 31
0.000000
  0
LINE
  8
Default
 62
     7
  6
CONTINUOUS
 10
26.302310
 20
19.918891
 30
0.000000
 11
26.306507
 21
19.980433
 31
0.000000
  0
LINE
  8
Default
 62
     7
  6
CONTINUOUS
 10
26.306507
 20
19.980433
 30
0.000000
 11
26.288698
 21
20.879498
 31
0.000000
  0
ARC
  8
Default
 62
     7
  6
CONTINUOUS
 10
24.542250
 20
20.844905
 30
0.000000
 40
1.746791
 50
1.134737
 51
4.620454
  0
ARC
  8
Default
 62
     7
  6
CONTINUOUS
 10
25.744993
 20
20.942108
 30
0.000000
 40
0.540127
 50
4.620454
 51
13.722490
  0
ARC
  8
Default
 62
     7
  6
CONTINUOUS
 10
26.193994
 20
21.051749
 30
0.000000
 40
0.077933
 50
13.722490
 51
48.872646
  0
ARC
  8
Default
 62
     7
  6
CONTINUOUS
 10
26.179054
 20
21.027373
 30
0.000000
 40
0.106228
 50
51.451379
 51
85.407574
  0
LINE
  8
Default
 62
     7
  6
CONTINUOUS
 10
26.187559
 20
21.133260
 30
0.000000
 11
26.171320
 21
21.135283
 31
0.000000
  0
LINE
  8
Default
 62
     7
  6
CONTINUOUS
 10
26.171320
 20
21.135283
 30
0.000000
 11
26.220218
 21
21.231491
 31
0.000000
  0
LINE
  8
Default
 62
     7
  6
CONTINUOUS
 10
26.220218
 20
21.231491
 30
0.000000
 11
26.299333
 21
21.221384
 31
0.000000
  0
LINE
  8
Default
 62
     7
  6
CONTINUOUS
 10
26.299333
 20
21.221384
 30
0.000000
 11
26.529730
 21
21.192189
 31
0.000000
  0
LINE
  8
Default
 62
     7
  6
CONTINUOUS
 10
26.529730
 20
21.192189
 30
0.000000
 11
26.614399
 21
21.181430
 31
0.000000
  0
ARC
  8
Default
 62
     7
  6
CONTINUOUS
 10
27.618556
 20
20.928496
 30
0.000000
 40
1.035523
 50
165.862097
 51
171.540479
  0
ARC
  8
Default
 62
     7
  6
CONTINUOUS
 10
28.434608
 20
20.850105
 30
0.000000
 40
1.854715
 50
172.853868
 51
178.538395
  0
LINE
  8
Default
 62
     7
  6
CONTINUOUS
 10
26.561681
 20
20.160001
 30
0.000000
 11
26.580496
 21
20.897414
 31
0.000000
  0
LINE
  8
Default
 62
     7
  6
CONTINUOUS
 10
26.561681
 20
20.160001
 30
0.000000
 11
26.647590
 21
20.317689
 31
0.000000
  0
LINE
  8
Default
 62
     7
  6
CONTINUOUS
 10
26.647590
 20
20.317689
 30
0.000000
 11
26.925777
 21
20.856220
 31
0.000000
  0
ARC
  8
Default
 62
     7
  6
CONTINUOUS
 10
22.196031
 20
23.299448
 30
0.000000
 40
5.323519
 50
332.680646
 51
334.291009
  0
ARC
  8
Default
 62
     7
  6
CONTINUOUS
 10
26.033747
 20
21.451739
 30
0.000000
 40
1.064166
 50
334.291009
 51
339.701675
  0
LINE
  8
Default
 62
     7
  6
CONTINUOUS
 10
27.046524
 20
21.126591
 30
0.000000
 11
27.031827
 21
21.082570
 31
0.000000
  0
LINE
  8
Default
 62
     7
  6
CONTINUOUS
 10
27.046524
 20
21.126591
 30
0.000000
 11
27.116695
 21
21.117696
 31
0.000000
  0
LINE
  8
Default
 62
     7
  6
CONTINUOUS
 10
27.116695
 20
21.117696
 30
0.000000
 11
27.253473
 21
21.100309
 31
0.000000
  0
LINE
  8
Default
 62
     7
  6
CONTINUOUS
 10
27.253473
 20
21.100309
 30
0.000000
 11
27.336319
 21
21.089793
 31
0.000000
  0
LINE
  8
Default
 62
     7
  6
CONTINUOUS
 10
27.336319
 20
21.089793
 30
0.000000
 11
27.337502
 21
21.054487
 31
0.000000
  0
ARC
  8
Default
 62
     7
  6
CONTINUOUS
 10
29.396634
 20
21.123468
 30
0.000000
 40
2.060287
 50
181.918675
 51
189.196473
  0
LINE
  8
Default
 62
     7
  6
CONTINUOUS
 10
27.483837
 20
20.046781
 30
0.000000
 11
27.362830
 21
20.794192
 31
0.000000
  0
LINE
  8
Default
 62
     7
  6
CONTINUOUS
 10
27.483837
 20
20.046781
 30
0.000000
 11
27.714637
 21
20.738585
 31
0.000000
  0
ARC
  8
Default
 62
     7
  6
CONTINUOUS
 10
26.910867
 20
21.006740
 30
0.000000
 40
0.847321
 50
341.550209
 51
351.559159
  0
ARC
  8
Default
 62
     7
  6
CONTINUOUS
 10
27.351763
 20
20.941313
 30
0.000000
 40
0.401597
 50
351.559159
 51
373.995009
  0
LINE
  8
Default
 62
     7
  6
CONTINUOUS
 10
27.799015
 20
21.031074
 30
0.000000
 11
27.741439
 21
21.038434
 31
0.000000
  0
LINE
  8
Default
 62
     7
  6
CONTINUOUS
 10
27.799015
 20
21.031074
 30
0.000000
 11
27.950210
 21
21.011907
 31
0.000000
  0
LINE
  8
Default
 62
     7
  6
CONTINUOUS
 10
27.950210
 20
21.011907
 30
0.000000
 11
28.022204
 21
21.002769
 31
0.000000
  0
LINE
  8
Default
 62
     7
  6
CONTINUOUS
 10
28.022204
 20
21.002769
 30
0.000000
 11
28.028968
 21
20.983574
 31
0.000000
  0
ARC
  8
Default
 62
     7
  6
CONTINUOUS
 10
28.739597
 20
20.010838
 30
0.000000
 40
0.424975
 50
331.492034
 51
350.412632
  0
ARC
  8
Default
 62
     7
  6
CONTINUOUS
 10
28.809530
 20
19.972856
 30
0.000000
 40
0.345394
 50
304.272462
 51
331.492034
  0
ARC
  8
Default
 62
     7
  6
CONTINUOUS
 10
28.767916
 20
20.033922
 30
0.000000
 40
0.419291
 50
285.993398
 51
304.272462
  0
ARC
  8
Default
 62
     7
  6
CONTINUOUS
 10
28.753190
 20
20.085300
 30
0.000000
 40
0.472737
 50
272.148152
 51
285.993398
  0
ARC
  8
Default
 62
     7
  6
CONTINUOUS
 10
28.740843
 20
20.414473
 30
0.000000
 40
0.802143
 50
262.565926
 51
272.148152
  0
LINE
  8
Default
 62
     7
  6
CONTINUOUS
 10
28.423078
 20
19.657707
 30
0.000000
 11
28.509037
 21
19.641704
 31
0.000000
  0
LINE
  8
Default
 62
     7
  6
CONTINUOUS
 10
28.423078
 20
19.657707
 30
0.000000
 11
28.223254
 21
19.694848
 31
0.000000
  0
LINE
  8
Default
 62
     7
  6
CONTINUOUS
 10
28.223254
 20
19.694848
 30
0.000000
 11
28.085825
 21
19.720426
 31
0.000000
  0
LINE
  8
Default
 62
     7
  6
CONTINUOUS
 10
28.085825
 20
19.720426
 30
0.000000
 11
28.115713
 21
19.798534
 31
0.000000
  0
ARC
  8
Default
 62
     7
  6
CONTINUOUS
 10
27.069736
 20
20.146270
 30
0.000000
 40
1.102265
 50
341.610572
 51
346.448072
  0
ARC
  8
Default
 62
     7
  6
CONTINUOUS
 10
25.201791
 20
20.596515
 30
0.000000
 40
3.023707
 50
346.448072
 51
349.471934
  0
LINE
  8
Default
 62
     7
  6
CONTINUOUS
 10
28.174595
 20
20.044032
 30
0.000000
 11
28.285556
 21
20.641089
 31
0.000000
  0
ARC
  8
Default
 62
     7
  6
CONTINUOUS
 10
26.783550
 20
20.920230
 30
0.000000
 40
1.527724
 50
349.471934
 51
353.323007
  0
ARC
  8
Default
 62
     7
  6
CONTINUOUS
 10
27.744596
 20
20.807724
 30
0.000000
 40
0.560116
 50
353.323007
 51
361.758255
  0
ARC
  8
Default
 62
     7
  6
CONTINUOUS
 10
28.241536
 20
20.822979
 30
0.000000
 40
0.062942
 50
1.758255
 51
43.686413
  0
ARC
  8
Default
 62
     7
  6
CONTINUOUS
 10
28.229298
 20
20.809152
 30
0.000000
 40
0.081356
 50
44.775466
 51
65.412257
  0
ARC
  8
Default
 62
     7
  6
CONTINUOUS
 10
28.199659
 20
20.744378
 30
0.000000
 40
0.152589
 50
65.412257
 51
79.518535
  0
LINE
  8
Default
 62
     7
  6
CONTINUOUS
 10
28.208723
 20
20.897880
 30
0.000000
 11
28.227418
 21
20.894421
 31
0.000000
  0
LINE
  8
Default
 62
     7
  6
CONTINUOUS
 10
28.208723
 20
20.897880
 30
0.000000
 11
28.262960
 21
20.990363
 31
0.000000
  0
LINE
  8
Default
 62
     7
  6
CONTINUOUS
 10
28.262960
 20
20.990363
 30
0.000000
 11
28.443117
 21
20.956889
 31
0.000000
  0
LINE
  8
Default
 62
     7
  6
CONTINUOUS
 10
28.443117
 20
20.956889
 30
0.000000
 11
28.883916
 21
20.874862
 31
0.000000
  0
ARC
  8
Default
 62
     7
  6
CONTINUOUS
 10
28.799235
 20
20.310251
 30
0.000000
 40
0.570925
 50
67.874186
 51
81.470341
  0
ARC
  8
Default
 62
     7
  6
CONTINUOUS
 10
28.903278
 20
20.566147
 30
0.000000
 40
0.294687
 50
43.899549
 51
67.874186
  0
ARC
  8
Default
 62
     7
  6
CONTINUOUS
 10
28.955297
 20
20.621565
 30
0.000000
 40
0.218813
 50
16.469850
 51
42.888268
  0
ARC
  8
Default
 62
     7
  6
CONTINUOUS
 10
28.892347
 20
20.609338
 30
0.000000
 40
0.282713
 50
347.935001
 51
375.228998
  0
ARC
  8
Default
 62
     7
  6
CONTINUOUS
 10
28.870557
 20
20.602412
 30
0.000000
 40
0.302785
 50
334.278462
 51
350.078967
  0
ARC
  8
Default
 62
     7
  6
CONTINUOUS
 10
28.920176
 20
20.578510
 30
0.000000
 40
0.247709
 50
300.255672
 51
334.278462
  0
ARC
  8
Default
 62
     7
  6
CONTINUOUS
 10
28.839867
 20
20.716186
 30
0.000000
 40
0.407097
 50
290.923875
 51
300.255672
  0
ARC
  8
Default
 62
     7
  6
CONTINUOUS
 10
28.657623
 20
21.192838
 30
0.000000
 40
0.917400
 50
283.715505
 51
290.923875
  0
LINE
  8
Default
 62
     7
  6
CONTINUOUS
 10
28.874833
 20
20.290449
 30
0.000000
 11
28.875140
 21
20.301597
 31
0.000000
  0
LINE
  8
Default
 62
     7
  6
CONTINUOUS
 10
28.874833
 20
20.290449
 30
0.000000
 11
28.919896
 21
20.282046
 31
0.000000
  0
ARC
  8
Default
 62
     7
  6
CONTINUOUS
 10
28.844834
 20
19.879498
 30
0.000000
 40
0.409487
 50
64.058381
 51
79.437494
  0
ARC
  8
Default
 62
     7
  6
CONTINUOUS
 10
28.907661
 20
20.008647
 30
0.000000
 40
0.265867
 50
47.732159
 51
64.058381
  0
ARC
  8
Default
 62
     7
  6
CONTINUOUS
 10
28.926159
 20
20.028999
 30
0.000000
 40
0.238364
 50
9.045253
 51
47.732159
  0
ARC
  8
Default
 62
     7
  6
CONTINUOUS
 10
28.814676
 20
20.011252
 30
0.000000
 40
0.351251
 50
348.305950
 51
369.045253
  0
ARC
  8
Default
 62
     7
  6
CONTINUOUS
 10
28.511821
 20
20.037406
 30
0.000000
 40
0.354218
 50
348.662884
 51
364.624224
  0
ARC
  8
Default
 62
     7
  6
CONTINUOUS
 10
28.663841
 20
20.049702
 30
0.000000
 40
0.201701
 50
4.624224
 51
27.862847
  0
ARC
  8
Default
 62
     7
  6
CONTINUOUS
 10
28.682748
 20
20.056022
 30
0.000000
 40
0.182062
 50
28.885386
 51
60.690131
  0
ARC
  8
Default
 62
     7
  6
CONTINUOUS
 10
28.614882
 20
19.935136
 30
0.000000
 40
0.320695
 50
60.690131
 51
80.705152
  0
ARC
  8
Default
 62
     7
  6
CONTINUOUS
 10
28.435801
 20
18.840937
 30
0.000000
 40
1.429452
 50
80.705152
 51
85.450036
  0
LINE
  8
Default
 62
     7
  6
CONTINUOUS
 10
28.576561
 20
20.323776
 30
0.000000
 11
28.549198
 21
20.265884
 31
0.000000
  0
LINE
  8
Default
 62
     7
  6
CONTINUOUS
 10
28.576561
 20
20.323776
 30
0.000000
 11
28.596479
 21
20.380902
 31
0.000000
  0
LINE
  8
Default
 62
     7
  6
CONTINUOUS
 10
28.596479
 20
20.380902
 30
0.000000
 11
28.636905
 21
20.373418
 31
0.000000
  0
ARC
  8
Default
 62
     7
  6
CONTINUOUS
 10
28.689410
 20
20.657040
 30
0.000000
 40
0.288441
 50
259.511953
 51
275.139440
  0
ARC
  8
Default
 62
     7
  6
CONTINUOUS
 10
28.700119
 20
20.537976
 30
0.000000
 40
0.168896
 50
275.139440
 51
298.935332
  0
ARC
  8
Default
 62
     7
  6
CONTINUOUS
 10
28.701674
 20
20.528778
 30
0.000000
 40
0.160124
 50
300.040829
 51
331.189432
  0
ARC
  8
Default
 62
     7
  6
CONTINUOUS
 10
28.586688
 20
20.592020
 30
0.000000
 40
0.291354
 50
331.189432
 51
350.732811
  0
ARC
  8
Default
 62
     7
  6
CONTINUOUS
 10
28.623317
 20
20.595248
 30
0.000000
 40
0.255884
 50
348.698082
 51
366.065259
  0
ARC
  8
Default
 62
     7
  6
CONTINUOUS
 10
28.710873
 20
20.604552
 30
0.000000
 40
0.167836
 50
6.065259
 51
43.688193
  0
ARC
  8
Default
 62
     7
  6
CONTINUOUS
 10
28.709686
 20
20.603418
 30
0.000000
 40
0.169477
 50
43.688193
 51
60.472927
  0
ARC
  8
Default
 62
     7
  6
CONTINUOUS
 10
28.665490
 20
20.525388
 30
0.000000
 40
0.259153
 50
60.472927
 51
80.724759
  0
ARC
  8
Default
 62
     7
  6
CONTINUOUS
 10
28.549861
 20
19.817364
 30
0.000000
 40
0.976557
 50
80.724759
 51
86.667772
  0
LINE
  8
Default
 62
     7
  6
CONTINUOUS
 10
28.567009
 20
20.608710
 30
0.000000
 11
28.606624
 21
20.792270
 31
0.000000
  0
LINE
  8
Default
 62
     7
  6
CONTINUOUS
 10
28.567009
 20
20.608710
 30
0.000000
 11
28.452762
 21
19.994456
 31
0.000000
  0
ARC
  8
Default
 62
     7
  6
CONTINUOUS
 10
29.171961
 20
19.860690
 30
0.000000
 40
0.731533
 50
169.463828
 51
177.364658
  0
ARC
  8
Default
 62
     7
  6
CONTINUOUS
 10
28.623049
 20
19.880894
 30
0.000000
 40
0.182342
 50
175.775774
 51
197.393149
  0
ARC
  8
Default
 62
     7
  6
CONTINUOUS
 10
28.531961
 20
19.861522
 30
0.000000
 40
0.090053
 50
202.963738
 51
241.503685
  0
LINE
  8
Default
 62
     7
  6
CONTINUOUS
 10
28.529664
 20
19.764756
 30
0.000000
 11
28.509037
 21
19.641704
 31
0.000000
  0
LINE
  8
Default
 62
     7
  6
CONTINUOUS
 10
28.659267
 20
19.751564
 30
0.000000
 11
28.637057
 21
19.619073
 31
0.000000
  0
ARC
  8
Default
 62
     7
  6
CONTINUOUS
 10
28.625172
 20
19.973315
 30
0.000000
 40
0.225880
 50
303.338548
 51
330.746154
  0
ARC
  8
Default
 62
     7
  6
CONTINUOUS
 10
28.539453
 20
20.021328
 30
0.000000
 40
0.324129
 50
330.746154
 51
350.489671
  0
ARC
  8
Default
 62
     7
  6
CONTINUOUS
 10
29.939805
 20
20.045280
 30
0.000000
 40
0.794476
 50
333.144744
 51
350.055794
  0
ARC
  8
Default
 62
     7
  6
CONTINUOUS
 10
30.091166
 20
19.968639
 30
0.000000
 40
0.624817
 50
316.557469
 51
333.144744
  0
ARC
  8
Default
 62
     7
  6
CONTINUOUS
 10
30.064935
 20
19.993481
 30
0.000000
 40
0.660945
 50
280.201880
 51
316.557469
  0
ARC
  8
Default
 62
     7
  6
CONTINUOUS
 10
30.052387
 20
20.063206
 30
0.000000
 40
0.731790
 50
269.143232
 51
280.201880
  0
ARC
  8
Default
 62
     7
  6
CONTINUOUS
 10
30.055699
 20
20.284663
 30
0.000000
 40
0.953272
 50
264.007811
 51
269.143232
  0
LINE
  8
Default
 62
     7
  6
CONTINUOUS
 10
29.827950
 20
19.359017
 30
0.000000
 11
29.859286
 21
19.495643
 31
0.000000
  0
ARC
  8
Default
 62
     7
  6
CONTINUOUS
 10
29.934917
 20
19.947513
 30
0.000000
 40
0.592588
 50
224.934126
 51
243.262671
  0
ARC
  8
Default
 62
     7
  6
CONTINUOUS
 10
29.944619
 20
19.957193
 30
0.000000
 40
0.606293
 50
190.213303
 51
224.934126
  0
ARC
  8
Default
 62
     7
  6
CONTINUOUS
 10
30.007219
 20
19.968471
 30
0.000000
 40
0.669901
 50
179.231208
 51
190.213303
  0
ARC
  8
Default
 62
     7
  6
CONTINUOUS
 10
30.212871
 20
19.965712
 30
0.000000
 40
0.875572
 50
166.130768
 51
179.231208
  0
ARC
  8
Default
 62
     7
  6
CONTINUOUS
 10
30.105056
 20
19.992332
 30
0.000000
 40
0.764518
 50
154.846098
 51
166.130768
  0
ARC
  8
Default
 62
     7
  6
CONTINUOUS
 10
29.993638
 20
20.044651
 30
0.000000
 40
0.641428
 50
135.320260
 51
154.846098
  0
ARC
  8
Default
 62
     7
  6
CONTINUOUS
 10
30.018572
 20
20.019995
 30
0.000000
 40
0.676494
 50
94.466753
 51
135.320260
  0
ARC
  8
Default
 62
     7
  6
CONTINUOUS
 10
30.019862
 20
20.003480
 30
0.000000
 40
0.693060
 50
89.965383
 51
94.466753
  0
ARC
  8
Default
 62
     7
  6
CONTINUOUS
 10
30.013624
 20
20.103751
 30
0.000000
 40
0.767532
 50
243.262671
 51
256.000661
  0
LINE
  8
Default
 62
     7
  6
CONTINUOUS
 10
29.956184
 20
19.336600
 30
0.000000
 11
29.985576
 21
19.464749
 31
0.000000
  0
ARC
  8
Default
 62
     7
  6
CONTINUOUS
 10
30.097748
 20
19.987065
 30
0.000000
 40
0.692452
 50
53.800362
 51
65.953573
  0
ARC
  8
Default
 62
     7
  6
CONTINUOUS
 10
30.205101
 20
20.133745
 30
0.000000
 40
0.510684
 50
38.566661
 51
53.800362
  0
ARC
  8
Default
 62
     7
  6
CONTINUOUS
 10
30.179687
 20
20.113482
 30
0.000000
 40
0.543187
 50
25.666868
 51
38.566661
  0
ARC
  8
Default
 62
     7
  6
CONTINUOUS
 10
30.070580
 20
20.061050
 30
0.000000
 40
0.664238
 50
11.695821
 51
25.666868
  0
ARC
  8
Default
 62
     7
  6
CONTINUOUS
 10
30.010604
 20
20.048634
 30
0.000000
 40
0.725486
 50
348.829197
 51
371.695821
  0
ARC
  8
Default
 62
     7
  6
CONTINUOUS
 10
29.383436
 20
20.117219
 30
0.000000
 40
1.035095
 50
348.963079
 51
361.034346
  0
ARC
  8
Default
 62
     7
  6
CONTINUOUS
 10
29.813939
 20
20.124992
 30
0.000000
 40
0.604523
 50
1.034346
 51
16.967980
  0
ARC
  8
Default
 62
     7
  6
CONTINUOUS
 10
29.978882
 20
20.175319
 30
0.000000
 40
0.432072
 50
16.967980
 51
31.010551
  0
ARC
  8
Default
 62
     7
  6
CONTINUOUS
 10
30.077449
 20
20.234569
 30
0.000000
 40
0.317068
 50
31.010551
 51
34.632506
  0
ARC
  8
Default
 62
     7
  6
CONTINUOUS
 10
30.087223
 20
20.241320
 30
0.000000
 40
0.305189
 50
34.632506
 51
59.326014
  0
ARC
  8
Default
 62
     7
  6
CONTINUOUS
 10
30.064499
 20
20.182816
 30
0.000000
 40
0.366848
 50
81.437206
 51
98.332873
  0
ARC
  8
Default
 62
     7
  6
CONTINUOUS
 10
30.055401
 20
20.244928
 30
0.000000
 40
0.304073
 50
98.332873
 51
127.787619
  0
ARC
  8
Default
 62
     7
  6
CONTINUOUS
 10
30.107462
 20
20.177781
 30
0.000000
 40
0.389038
 50
127.787619
 51
142.811528
  0
ARC
  8
Default
 62
     7
  6
CONTINUOUS
 10
30.208564
 20
20.101073
 30
0.000000
 40
0.515947
 50
142.811528
 51
154.214170
  0
ARC
  8
Default
 62
     7
  6
CONTINUOUS
 10
30.415859
 20
20.000926
 30
0.000000
 40
0.746165
 50
154.214170
 51
163.379900
  0
ARC
  8
Default
 62
     7
  6
CONTINUOUS
 10
30.813254
 20
19.882306
 30
0.000010
 40
1.160886
 50
163.379900
 51
172.590967
  0
ARC
  8
Default
 62
     7
  6
CONTINUOUS
 10
30.689229
 20
19.898290
 30
-0.006856
 40
1.035836
 50
172.583137
 51
181.031586
210
-0.000153
220
-0.000117
230
1.000000
  0
ARC
  8
Default
 62
     7
  6
CONTINUOUS
 10
30.254693
 20
19.890104
 30
-0.023706
 40
0.601230
 50
180.997187
 51
197.264492
210
-0.000754
220
-0.000067
230
1.000000
  0
ARC
  8
Default
 62
     7
  6
CONTINUOUS
 10
30.089432
 20
19.839074
 30
0.000000
 40
0.428262
 50
197.306932
 51
211.619898
  0
ARC
  8
Default
 62
     7
  6
CONTINUOUS
 10
29.986770
 20
19.775565
 30
-0.029012
 40
0.307555
 50
211.573340
 51
245.514236
210
-0.000640
220
-0.000509
230
1.000000
  0
ARC
  8
Default
 62
     7
  6
CONTINUOUS
 10
30.009406
 20
19.814671
 30
0.000039
 40
0.350732
 50
266.104106
 51
282.728489
  0
ARC
  8
Default
 62
     7
  6
CONTINUOUS
 10
30.014063
 20
19.769078
 30
0.000035
 40
0.305283
 50
283.761364
 51
309.609520
  0
ARC
  8
Default
 62
     7
  6
CONTINUOUS
 10
29.914162
 20
19.882170
 30
0.000004
 40
0.456128
 50
310.220380
 51
334.741468
  0
ARC
  8
Default
 62
     7
  6
CONTINUOUS
 10
29.520624
 20
20.067846
 30
0.005423
 40
0.891268
 50
334.741469
 51
350.390172
210
0.000212
220
-0.000051
230
1.000000
  0
ARC
  8
Default
 62
     7
  6
CONTINUOUS
 10
32.480669
 20
19.621526
 30
0.000000
 40
0.670829
 50
125.570413
 51
130.573057
  0
ARC
  8
Default
 62
     7
  6
CONTINUOUS
 10
32.908098
 20
19.054720
 30
0.000000
 40
1.380070
 50
128.746240
 51
139.002967
  0
LINE
  8
Default
 62
     7
  6
CONTINUOUS
 10
31.597042
 20
19.650067
 30
0.000000
 11
31.866499
 21
19.960074
 31
0.000000
  0
LINE
  8
Default
 62
     7
  6
CONTINUOUS
 10
31.597042
 20
19.650067
 30
0.000000
 11
31.501225
 21
19.531697
 31
0.000000
  0
LINE
  8
Default
 62
     7
  6
CONTINUOUS
 10
31.501225
 20
19.531697
 30
0.000000
 11
31.461824
 21
19.369097
 31
0.000000
  0
ARC
  8
Default
 62
     7
  6
CONTINUOUS
 10
33.502162
 20
18.874688
 30
0.000000
 40
2.099386
 50
166.378797
 51
171.493042
  0
ARC
  8
Default
 62
     7
  6
CONTINUOUS
 10
32.184447
 20
19.071786
 30
0.000000
 40
0.767011
 50
171.493042
 51
182.683148
  0
LINE
  8
Default
 62
     7
  6
CONTINUOUS
 10
31.340613
 20
19.054671
 30
0.000000
 11
31.418276
 21
19.035880
 31
0.000000
  0
LINE
  8
Default
 62
     7
  6
CONTINUOUS
 10
31.340613
 20
19.054671
 30
0.000000
 11
31.157178
 21
19.099196
 31
0.000000
  0
LINE
  8
Default
 62
     7
  6
CONTINUOUS
 10
31.157178
 20
19.099196
 30
0.000000
 11
31.083144
 21
19.117167
 31
0.000000
  0
LINE
  8
Default
 62
     7
  6
CONTINUOUS
 10
31.083144
 20
19.117167
 30
0.000000
 11
31.105206
 21
19.174167
 31
0.000000
  0
ARC
  8
Default
 62
     7
  6
CONTINUOUS
 10
29.412010
 20
19.829494
 30
0.000000
 40
1.815589
 50
338.841809
 51
346.357715
  0
LINE
  8
Default
 62
     7
  6
CONTINUOUS
 10
31.224290
 20
19.598684
 30
0.000000
 11
31.176376
 21
19.401270
 31
0.000000
  0
LINE
  8
Default
 62
     7
  6
CONTINUOUS
 10
31.224290
 20
19.598684
 30
0.000000
 11
31.190506
 21
19.736719
 31
0.000000
  0
LINE
  8
Default
 62
     7
  6
CONTINUOUS
 10
31.190506
 20
19.736719
 30
0.000000
 11
31.062762
 21
20.237720
 31
0.000000
  0
ARC
  8
Default
 62
     7
  6
CONTINUOUS
 10
30.653337
 20
20.133325
 30
0.000000
 40
0.422525
 50
14.304342
 51
21.706701
  0
ARC
  8
Default
 62
     7
  6
CONTINUOUS
 10
30.880809
 20
20.223879
 30
0.000000
 40
0.177691
 50
21.706701
 51
37.067403
  0
ARC
  8
Default
 62
     7
  6
CONTINUOUS
 10
30.972402
 20
20.286151
 30
0.000000
 40
0.067299
 50
41.771273
 51
62.923543
  0
ARC
  8
Default
 62
     7
  6
CONTINUOUS
 10
30.928985
 20
20.201221
 30
0.000000
 40
0.162682
 50
62.923543
 51
77.472067
  0
LINE
  8
Default
 62
     7
  6
CONTINUOUS
 10
30.948444
 20
20.363868
 30
0.000000
 11
30.964273
 21
20.360030
 31
0.000000
  0
LINE
  8
Default
 62
     7
  6
CONTINUOUS
 10
30.948444
 20
20.363868
 30
0.000000
 11
31.006859
 21
20.450760
 31
0.000000
  0
LINE
  8
Default
 62
     7
  6
CONTINUOUS
 10
31.006859
 20
20.450760
 30
0.000000
 11
31.086251
 21
20.431478
 31
0.000000
  0
LINE
  8
Default
 62
     7
  6
CONTINUOUS
 10
31.086251
 20
20.431478
 30
0.000000
 11
31.285515
 21
20.383116
 31
0.000000
  0
LINE
  8
Default
 62
     7
  6
CONTINUOUS
 10
31.285515
 20
20.383116
 30
0.000000
 11
31.368537
 21
20.363014
 31
0.000000
  0
ARC
  8
Default
 62
     7
  6
CONTINUOUS
 10
31.016815
 20
20.383554
 30
0.000000
 40
0.352321
 50
348.883723
 51
356.657873
  0
ARC
  8
Default
 62
     7
  6
CONTINUOUS
 10
32.048793
 20
20.324440
 30
0.000000
 40
0.686324
 50
180.735837
 51
187.065519
  0
ARC
  8
Default
 62
     7
  6
CONTINUOUS
 10
32.786379
 20
20.415861
 30
0.000000
 40
1.429554
 50
187.065519
 51
191.969671
  0
LINE
  8
Default
 62
     7
  6
CONTINUOUS
 10
31.469800
 20
19.733101
 30
0.000000
 11
31.387907
 21
20.119380
 31
0.000000
  0
LINE
  8
Default
 62
     7
  6
CONTINUOUS
 10
31.469800
 20
19.733101
 30
0.000000
 11
31.689116
 21
20.007666
 31
0.000000
  0
ARC
  8
Default
 62
     7
  6
CONTINUOUS
 10
31.166957
 20
20.424753
 30
0.000000
 40
0.668289
 50
321.383023
 51
330.992251
  0
ARC
  8
Default
 62
     7
  6
CONTINUOUS
 10
31.357529
 20
20.319083
 30
0.000000
 40
0.450382
 50
330.992251
 51
344.623303
  0
ARC
  8
Default
 62
     7
  6
CONTINUOUS
 10
31.459317
 20
20.291091
 30
0.000000
 40
0.344815
 50
344.623303
 51
354.457649
  0
LINE
  8
Default
 62
     7
  6
CONTINUOUS
 10
31.890734
 20
20.236383
 30
0.000000
 11
31.802520
 21
20.257788
 31
0.000000
  0
LINE
  8
Default
 62
     7
  6
CONTINUOUS
 10
31.890734
 20
20.236383
 30
0.000000
 11
32.012422
 21
20.206892
 31
0.000000
  0
LINE
  8
Default
 62
     7
  6
CONTINUOUS
 10
32.012422
 20
20.206892
 30
0.000000
 11
32.091647
 21
20.187618
 31
0.000000
  0
LINE
  8
Default
 62
     7
  6
CONTINUOUS
 10
32.091647
 20
20.187618
 30
0.000000
 11
32.090446
 21
20.167179
 31
0.000000
  0
ARC
  8
Default
 62
     7
  6
CONTINUOUS
 10
32.395714
 20
19.168582
 30
0.000000
 40
0.402629
 50
329.296380
 51
343.975005
  0
ARC
  8
Default
 62
     7
  6
CONTINUOUS
 10
32.415699
 20
19.156714
 30
0.000000
 40
0.379385
 50
298.910457
 51
329.296380
  0
ARC
  8
Default
 62
     7
  6
CONTINUOUS
 10
32.359830
 20
19.257877
 30
0.000000
 40
0.494950
 50
271.040145
 51
298.910457
  0
ARC
  8
Default
 62
     7
  6
CONTINUOUS
 10
32.357095
 20
19.408535
 30
0.000000
 40
0.645633
 50
252.573595
 51
271.040145
  0
ARC
  8
Default
 62
     7
  6
CONTINUOUS
 10
32.422580
 20
19.683354
 30
0.000000
 40
0.927662
 50
247.164323
 51
253.798069
  0
ARC
  8
Default
 62
     7
  6
CONTINUOUS
 10
32.420045
 20
19.613970
 30
0.000000
 40
0.863082
 50
230.888069
 51
245.531618
  0
LINE
  8
Default
 62
     7
  6
CONTINUOUS
 10
31.875580
 20
18.944291
 30
0.000000
 11
31.916569
 21
19.005269
 31
0.000000
  0
LINE
  8
Default
 62
     7
  6
CONTINUOUS
 10
31.916569
 20
19.005269
 30
0.000000
 11
31.963192
 21
19.085166
 31
0.000000
  0
LINE
  8
Default
 62
     7
  6
CONTINUOUS
 10
31.963192
 20
19.085166
 30
0.000000
 11
31.998656
 21
19.153375
 31
0.000000
  0
LINE
  8
Default
 62
     7
  6
CONTINUOUS
 10
31.998656
 20
19.153375
 30
0.000000
 11
32.031461
 21
19.149150
 31
0.000000
  0
ARC
  8
Default
 62
     7
  6
CONTINUOUS
 10
32.656728
 20
19.362786
 30
0.000000
 40
0.660757
 50
198.863854
 51
205.350036
  0
ARC
  8
Default
 62
     7
  6
CONTINUOUS
 10
32.330726
 20
19.208337
 30
0.000000
 40
0.300019
 50
205.350036
 51
217.170856
  0
ARC
  8
Default
 62
     7
  6
CONTINUOUS
 10
32.329694
 20
19.215390
 30
0.000000
 40
0.303523
 50
218.349535
 51
253.723086
  0
ARC
  8
Default
 62
     7
  6
CONTINUOUS
 10
32.332254
 20
19.207023
 30
0.000000
 40
0.296247
 50
252.794373
 51
267.933679
  0
ARC
  8
Default
 62
     7
  6
CONTINUOUS
 10
32.329243
 20
19.123570
 30
0.000000
 40
0.212740
 50
267.933679
 51
287.884596
  0
ARC
  8
Default
 62
     7
  6
CONTINUOUS
 10
32.349873
 20
19.075043
 30
0.000000
 40
0.160291
 50
286.193552
 51
344.647731
  0
ARC
  8
Default
 62
     7
  6
CONTINUOUS
 10
32.348475
 20
19.083245
 30
0.000000
 40
0.163985
 50
342.012518
 51
384.047323
  0
ARC
  8
Default
 62
     7
  6
CONTINUOUS
 10
32.200339
 20
19.002793
 30
0.000000
 40
0.332305
 50
26.307483
 51
39.811194
  0
ARC
  8
Default
 62
     7
  6
CONTINUOUS
 10
31.498048
 20
18.417434
 30
0.000000
 40
1.246558
 50
39.811194
 51
46.742303
  0
ARC
  8
Default
 62
     7
  6
CONTINUOUS
 10
33.894635
 20
20.964395
 30
0.000000
 40
2.250675
 50
222.739435
 51
226.742303
  0
ARC
  8
Default
 62
     7
  6
CONTINUOUS
 10
32.904361
 20
20.049334
 30
0.000000
 40
0.902351
 50
218.025167
 51
222.739435
  0
ARC
  8
Default
 62
     7
  6
CONTINUOUS
 10
32.474432
 20
19.713133
 30
0.000000
 40
0.356576
 50
211.927923
 51
218.025167
  0
ARC
  8
Default
 62
     7
  6
CONTINUOUS
 10
32.415916
 20
19.676670
 30
0.000000
 40
0.287629
 50
183.001389
 51
211.927923
  0
ARC
  8
Default
 62
     7
  6
CONTINUOUS
 10
32.465524
 20
19.679271
 30
0.000000
 40
0.337305
 50
162.391738
 51
183.001389
  0
ARC
  8
Default
 62
     7
  6
CONTINUOUS
 10
32.522719
 20
19.673195
 30
0.000000
 40
0.393827
 50
146.314989
 51
164.066591
  0
ARC
  8
Default
 62
     7
  6
CONTINUOUS
 10
32.484189
 20
19.698877
 30
0.000000
 40
0.347522
 50
118.766211
 51
146.314989
  0
ARC
  8
Default
 62
     7
  6
CONTINUOUS
 10
32.525398
 20
19.623813
 30
0.000000
 40
0.433154
 50
91.124172
 51
118.766211
  0
ARC
  8
Default
 62
     7
  6
CONTINUOUS
 10
32.528939
 20
19.443366
 30
0.000000
 40
0.613635
 50
72.975169
 51
91.124172
  0
ARC
  8
Default
 62
     7
  6
CONTINUOUS
 10
32.461503
 20
19.223134
 30
0.000000
 40
0.843961
 50
65.770812
 51
72.975169
  0
ARC
  8
Default
 62
     7
  6
CONTINUOUS
 10
32.559847
 20
19.441661
 30
0.000000
 40
0.604324
 50
58.707746
 51
65.770812
  0
ARC
  8
Default
 62
     7
  6
CONTINUOUS
 10
32.313014
 20
19.035569
 30
0.000000
 40
1.079547
 50
51.612841
 51
58.707746
  0
LINE
  8
Default
 62
     7
  6
CONTINUOUS
 10
32.939240
 20
19.822992
 30
0.000000
 11
32.983383
 21
19.881754
 31
0.000000
  0
LINE
  8
Default
 62
     7
  6
CONTINUOUS
 10
32.939240
 20
19.822992
 30
0.000000
 11
32.887318
 21
19.743820
 31
0.000000
  0
LINE
  8
Default
 62
     7
  6
CONTINUOUS
 10
32.887318
 20
19.743820
 30
0.000000
 11
32.857140
 21
19.694210
 31
0.000000
  0
LINE
  8
Default
 62
     7
  6
CONTINUOUS
 10
32.857140
 20
19.694210
 30
0.000000
 11
32.828852
 21
19.700826
 31
0.000000
  0
ARC
  8
Default
 62
     7
  6
CONTINUOUS
 10
32.321926
 20
19.529808
 30
0.000000
 40
0.534996
 50
18.642470
 51
26.666798
  0
ARC
  8
Default
 62
     7
  6
CONTINUOUS
 10
32.574377
 20
19.656594
 30
0.000000
 40
0.252496
 50
26.666798
 51
41.047735
  0
ARC
  8
Default
 62
     7
  6
CONTINUOUS
 10
32.566304
 20
19.640361
 30
0.000000
 40
0.269335
 50
42.524428
 51
74.908521
  0
ARC
  8
Default
 62
     7
  6
CONTINUOUS
 10
32.561070
 20
19.657211
 30
0.000000
 40
0.254603
 50
72.783665
 51
88.071662
  0
ARC
  8
Default
 62
     7
  6
CONTINUOUS
 10
32.563828
 20
19.739112
 30
0.000000
 40
0.172656
 50
88.071662
 51
110.442886
  0
ARC
  8
Default
 62
     7
  6
CONTINUOUS
 10
32.552849
 20
19.768566
 30
0.000000
 40
0.141223
 50
110.442886
 51
165.544985
  0
ARC
  8
Default
 62
     7
  6
CONTINUOUS
 10
32.563020
 20
19.756829
 30
0.000000
 40
0.154254
 50
162.264636
 51
214.211117
  0
ARC
  8
Default
 62
     7
  6
CONTINUOUS
 10
32.826854
 20
19.936205
 30
0.000000
 40
0.473291
 50
214.211117
 51
222.974254
  0
ARC
  8
Default
 62
     7
  6
CONTINUOUS
 10
33.811983
 20
20.854025
 30
0.000000
 40
1.819721
 50
222.974254
 51
227.461737
  0
ARC
  8
Default
 62
     7
  6
CONTINUOUS
 10
31.568393
 20
18.408856
 30
0.000000
 40
1.498795
 50
41.454273
 51
47.461737
  0
ARC
  8
Default
 62
     7
  6
CONTINUOUS
 10
32.169511
 20
18.939826
 30
0.000000
 40
0.696753
 50
35.049445
 51
41.454273
  0
ARC
  8
Default
 62
     7
  6
CONTINUOUS
 10
32.463587
 20
19.146119
 30
0.000000
 40
0.337536
 50
25.260985
 51
35.049445
  0
ARC
  8
Default
 62
     7
  6
CONTINUOUS
 10
32.474547
 20
19.155867
 30
0.000000
 40
0.323490
 50
342.284896
 51
384.527895
  0
ARC
  8
Default
 62
   202
  6
CONTINUOUS
 10
13.183248
 20
10.149132
 30
0.000000
 40
0.310979
 50
238.192146
 51
245.383535
  0
ARC
  8
Default
 62
   202
  6
CONTINUOUS
 10
13.283704
 20
10.581886
 30
0.000000
 40
0.308963
 50
28.752195
 51
45.335019
  0
ARC
  8
Default
 62
   202
  6
CONTINUOUS
 10
13.186151
 20
10.528362
 30
0.000000
 40
0.420234
 50
14.695699
 51
28.752195
  0
ARC
  8
Default
 62
   202
  6
CONTINUOUS
 10
13.024417
 20
10.485945
 30
0.000000
 40
0.587439
 50
358.724497
 51
374.695699
  0
ARC
  8
Default
 62
   202
  6
CONTINUOUS
 10
12.606544
 20
10.495249
 30
0.000000
 40
1.005415
 50
346.625600
 51
358.724497
  0
ARC
  8
Default
 62
   202
  6
CONTINUOUS
 10
12.741086
 20
10.439218
 30
0.000000
 40
0.861879
 50
332.440940
 51
348.180690
  0
ARC
  8
Default
 62
   202
  6
CONTINUOUS
 10
13.112240
 20
10.245521
 30
0.000000
 40
0.443222
 50
308.951698
 51
332.440940
  0
ARC
  8
Default
 62
   202
  6
CONTINUOUS
 10
13.243238
 20
10.402149
 30
0.000000
 40
0.719501
 50
266.988385
 51
277.660763
  0
ARC
  8
Default
 62
   202
  6
CONTINUOUS
 10
13.200886
 20
10.177380
 30
0.000000
 40
0.342422
 50
266.507764
 51
280.429804
  0
ARC
  8
Default
 62
   202
  6
CONTINUOUS
 10
13.207772
 20
10.444597
 30
0.000000
 40
0.755971
 50
240.682641
 51
255.548953
  0
ARC
  8
Default
 62
   202
  6
CONTINUOUS
 10
13.121043
 20
10.290157
 30
0.000000
 40
0.578845
 50
225.784878
 51
240.682641
  0
ARC
  8
Default
 62
   202
  6
CONTINUOUS
 10
13.137886
 20
10.307468
 30
0.000000
 40
0.602998
 50
188.159194
 51
225.784878
  0
ARC
  8
Default
 62
   202
  6
CONTINUOUS
 10
13.206343
 20
10.317283
 30
0.000000
 40
0.672156
 50
176.891551
 51
188.159194
  0
ARC
  8
Default
 62
   202
  6
CONTINUOUS
 10
13.414648
 20
10.305971
 30
0.000000
 40
0.880767
 50
163.912552
 51
176.891551
  0
ARC
  8
Default
 62
   202
  6
CONTINUOUS
 10
13.304934
 20
10.337612
 30
0.000000
 40
0.766582
 50
152.357922
 51
163.912552
  0
ARC
  8
Default
 62
   202
  6
CONTINUOUS
 10
13.193344
 20
10.396055
 30
0.000000
 40
0.640614
 50
134.583333
 51
152.357922
  0
ARC
  8
Default
 62
   202
  6
CONTINUOUS
 10
13.213499
 20
10.375605
 30
0.000000
 40
0.669327
 50
90.277047
 51
134.583333
  0
ARC
  8
Default
 62
   202
  6
CONTINUOUS
 10
13.213581
 20
10.358634
 30
0.000000
 40
0.686297
 50
87.621156
 51
90.277047
  0
ARC
  8
Default
 62
   202
  6
CONTINUOUS
 10
13.268445
 20
10.531162
 30
0.000000
 40
0.358561
 50
86.589991
 51
96.074898
  0
ARC
  8
Default
 62
   202
  6
CONTINUOUS
 10
13.291471
 20
10.583638
 30
0.000000
 40
0.302287
 50
46.148586
 51
65.620823
  0
ARC
  8
Default
 62
   202
  6
CONTINUOUS
 10
13.289237
 20
10.343917
 30
0.000000
 40
0.681292
 50
51.320978
 51
63.597858
  0
ARC
  8
Default
 62
   202
  6
CONTINUOUS
 10
13.398750
 20
10.480714
 30
0.000000
 40
0.506060
 50
36.141485
 51
51.320978
  0
ARC
  8
Default
 62
   202
  6
CONTINUOUS
 10
13.371028
 20
10.460467
 30
0.000000
 40
0.540388
 50
23.183459
 51
36.141485
  0
ARC
  8
Default
 62
   202
  6
CONTINUOUS
 10
13.258450
 20
10.412255
 30
0.000000
 40
0.662856
 50
9.249181
 51
23.183459
  0
ARC
  8
Default
 62
   202
  6
CONTINUOUS
 10
13.195918
 20
10.402072
 30
0.000000
 40
0.726211
 50
346.476846
 51
369.249181
  0
ARC
  8
Default
 62
   202
  6
CONTINUOUS
 10
13.123237
 20
10.400794
 30
0.000000
 40
0.796787
 50
331.168710
 51
347.788434
  0
ARC
  8
Default
 62
   202
  6
CONTINUOUS
 10
13.267359
 20
10.321460
 30
0.000000
 40
0.632273
 50
311.849646
 51
331.168710
  0
ARC
  8
Default
 62
   202
  6
CONTINUOUS
 10
13.251747
 20
10.338890
 30
0.000000
 40
0.655673
 50
277.660763
 51
311.849646
  0
LINE
  8
Default
 62
   202
  6
CONTINUOUS
 10
14.052455
 20
9.548191
 30
0.000000
 11
13.976220
 21
9.560712
 31
0.000000
  0
ARC
  8
Default
 62
   202
  6
CONTINUOUS
 10
12.354815
 20
9.997887
 30
0.000000
 40
1.679308
 50
344.910323
 51
348.421856
  0
ARC
  8
Default
 62
   202
  6
CONTINUOUS
 10
8.331639
 20
10.822128
 30
0.000000
 40
5.786048
 50
348.421856
 51
350.781406
  0
LINE
  8
Default
 62
   202
  6
CONTINUOUS
 10
14.042957
 20
9.895194
 30
0.000000
 11
14.152778
 21
10.452035
 31
0.000000
  0
ARC
  8
Default
 62
   202
  6
CONTINUOUS
 10
13.122931
 20
10.655144
 30
0.000000
 40
1.049685
 50
348.843158
 51
354.846332
  0
ARC
  8
Default
 62
   202
  6
CONTINUOUS
 10
13.615670
 20
10.610703
 30
0.000000
 40
0.554947
 50
354.846332
 51
363.811955
  0
ARC
  8
Default
 62
   202
  6
CONTINUOUS
 10
14.106713
 20
10.645125
 30
0.000000
 40
0.062724
 50
2.258561
 51
44.138803
  0
ARC
  8
Default
 62
   202
  6
CONTINUOUS
 10
14.096704
 20
10.633147
 30
0.000000
 40
0.078266
 50
45.329357
 51
66.259732
  0
ARC
  8
Default
 62
   202
  6
CONTINUOUS
 10
14.069663
 20
10.571664
 30
0.000000
 40
0.145433
 50
66.259732
 51
81.191350
  0
LINE
  8
Default
 62
   202
  6
CONTINUOUS
 10
14.075579
 20
10.717916
 30
0.000000
 11
14.091934
 21
10.715381
 31
0.000000
  0
LINE
  8
Default
 62
   202
  6
CONTINUOUS
 10
14.075579
 20
10.717916
 30
0.000000
 11
14.126886
 21
10.807592
 31
0.000000
  0
LINE
  8
Default
 62
   202
  6
CONTINUOUS
 10
14.126886
 20
10.807592
 30
0.000000
 11
14.326055
 21
10.767934
 31
0.000000
  0
LINE
  8
Default
 62
   202
  6
CONTINUOUS
 10
14.326055
 20
10.767934
 30
0.000000
 11
14.873952
 21
10.681577
 31
0.000000
  0
LINE
  8
Default
 62
   202
  6
CONTINUOUS
 10
14.873952
 20
10.681577
 30
0.000000
 11
14.911336
 21
10.677796
 31
0.000000
  0
LINE
  8
Default
 62
   202
  6
CONTINUOUS
 10
14.911336
 20
10.677796
 30
0.000000
 11
14.962567
 21
10.669112
 31
0.000000
  0
LINE
  8
Default
 62
   202
  6
CONTINUOUS
 10
14.962567
 20
10.669112
 30
0.000000
 11
14.929495
 21
10.606942
 31
0.000000
  0
LINE
  8
Default
 62
   202
  6
CONTINUOUS
 10
14.929495
 20
10.606942
 30
0.000000
 11
14.886617
 21
10.517077
 31
0.000000
  0
LINE
  8
Default
 62
   202
  6
CONTINUOUS
 10
14.886617
 20
10.517077
 30
0.000000
 11
14.866145
 21
10.461674
 31
0.000000
  0
LINE
  8
Default
 62
   202
  6
CONTINUOUS
 10
14.866145
 20
10.461674
 30
0.000000
 11
14.834477
 21
10.463153
 31
0.000000
  0
ARC
  8
Default
 62
   202
  6
CONTINUOUS
 10
14.596211
 20
10.329769
 30
0.000000
 40
0.273060
 50
29.240618
 51
41.317774
  0
ARC
  8
Default
 62
   202
  6
CONTINUOUS
 10
14.675826
 20
10.399755
 30
0.000000
 40
0.167058
 50
41.317774
 51
60.607168
  0
ARC
  8
Default
 62
   202
  6
CONTINUOUS
 10
14.552340
 20
10.163578
 30
0.000000
 40
0.433519
 50
61.707384
 51
72.184075
  0
ARC
  8
Default
 62
   202
  6
CONTINUOUS
 10
14.448958
 20
9.841890
 30
0.000000
 40
0.771412
 50
72.184075
 51
81.639845
  0
ARC
  8
Default
 62
   202
  6
CONTINUOUS
 10
14.308097
 20
8.883369
 30
0.000000
 40
1.740227
 50
81.639845
 51
85.121811
  0
LINE
  8
Default
 62
   202
  6
CONTINUOUS
 10
14.417543
 20
10.432073
 30
0.000000
 11
14.456082
 21
10.617293
 31
0.000000
  0
LINE
  8
Default
 62
   202
  6
CONTINUOUS
 10
14.417543
 20
10.432073
 30
0.000000
 11
14.383334
 21
10.226471
 31
0.000000
  0
LINE
  8
Default
 62
   202
  6
CONTINUOUS
 10
14.383334
 20
10.226471
 30
0.000000
 11
14.504272
 21
10.204973
 31
0.000000
  0
LINE
  8
Default
 62
   202
  6
CONTINUOUS
 10
14.504272
 20
10.204973
 30
0.000000
 11
14.532147
 21
10.200919
 31
0.000000
  0
ARC
  8
Default
 62
   202
  6
CONTINUOUS
 10
15.654267
 20
17.917484
 30
0.000000
 40
7.797726
 50
261.726209
 51
263.707012
  0
LINE
  8
Default
 62
   202
  6
CONTINUOUS
 10
14.789094
 20
10.127002
 30
0.000000
 11
14.799537
 21
10.166744
 31
0.000000
  0
LINE
  8
Default
 62
   202
  6
CONTINUOUS
 10
14.789094
 20
10.127002
 30
0.000000
 11
14.773402
 21
10.054835
 31
0.000000
  0
LINE
  8
Default
 62
   202
  6
CONTINUOUS
 10
14.773402
 20
10.054835
 30
0.000000
 11
14.770237
 21
10.002674
 31
0.000000
  0
ARC
  8
Default
 62
   202
  6
CONTINUOUS
 10
13.525558
 20
4.623617
 30
0.000000
 40
5.521185
 50
76.971419
 51
79.675146
  0
LINE
  8
Default
 62
   202
  6
CONTINUOUS
 10
14.515114
 20
10.055399
 30
0.000000
 11
14.358740
 21
10.077619
 31
0.000000
  0
LINE
  8
Default
 62
   202
  6
CONTINUOUS
 10
14.358740
 20
10.077619
 30
0.000000
 11
14.318590
 21
9.835949
 31
0.000000
  0
ARC
  8
Default
 62
   202
  6
CONTINUOUS
 10
15.813712
 20
9.587554
 30
0.000000
 40
1.515616
 50
170.567217
 51
176.953407
  0
ARC
  8
Default
 62
   202
  6
CONTINUOUS
 10
15.037854
 20
9.628847
 30
0.000000
 40
0.738660
 50
176.953407
 51
184.165501
  0
ARC
  8
Default
 62
   202
  6
CONTINUOUS
 10
14.684227
 20
9.603093
 30
0.000000
 40
0.384096
 50
184.165501
 51
194.819746
  0
LINE
  8
Default
 62
   202
  6
CONTINUOUS
 10
14.312908
 20
9.504849
 30
0.000000
 11
14.236838
 21
9.517718
 31
0.000000
  0
LINE
  8
Default
 62
   202
  6
CONTINUOUS
 10
14.236838
 20
9.517718
 30
0.000000
 11
14.052455
 21
9.548191
 31
0.000000
  0
ARC
  8
Default
 62
   202
  6
CONTINUOUS
 10
13.395435
 20
9.829409
 30
0.000000
 40
1.679308
 50
344.910323
 51
348.421856
  0
ARC
  8
Default
 62
   202
  6
CONTINUOUS
 10
9.372259
 20
10.653649
 30
0.000000
 40
5.786048
 50
348.421856
 51
350.781406
  0
LINE
  8
Default
 62
   202
  6
CONTINUOUS
 10
15.083576
 20
9.726716
 30
0.000000
 11
15.193398
 21
10.283557
 31
0.000000
  0
ARC
  8
Default
 62
   202
  6
CONTINUOUS
 10
14.163551
 20
10.486666
 30
0.000000
 40
1.049685
 50
348.843158
 51
354.846332
  0
ARC
  8
Default
 62
   202
  6
CONTINUOUS
 10
14.656289
 20
10.442225
 30
0.000000
 40
0.554947
 50
354.846332
 51
363.811955
  0
ARC
  8
Default
 62
   202
  6
CONTINUOUS
 10
15.147332
 20
10.476647
 30
0.000000
 40
0.062724
 50
2.258561
 51
44.138803
  0
ARC
  8
Default
 62
   202
  6
CONTINUOUS
 10
15.137324
 20
10.464669
 30
0.000000
 40
0.078266
 50
45.329357
 51
66.259732
  0
ARC
  8
Default
 62
   202
  6
CONTINUOUS
 10
15.110283
 20
10.403186
 30
0.000000
 40
0.145433
 50
66.259732
 51
81.191350
  0
LINE
  8
Default
 62
   202
  6
CONTINUOUS
 10
15.116198
 20
10.549438
 30
0.000000
 11
15.132554
 21
10.546903
 31
0.000000
  0
LINE
  8
Default
 62
   202
  6
CONTINUOUS
 10
15.116198
 20
10.549438
 30
0.000000
 11
15.167506
 21
10.639114
 31
0.000000
  0
LINE
  8
Default
 62
   202
  6
CONTINUOUS
 10
15.167506
 20
10.639114
 30
0.000000
 11
15.366675
 21
10.599456
 31
0.000000
  0
LINE
  8
Default
 62
   202
  6
CONTINUOUS
 10
15.366675
 20
10.599456
 30
0.000000
 11
15.914571
 21
10.513099
 31
0.000000
  0
LINE
  8
Default
 62
   202
  6
CONTINUOUS
 10
15.914571
 20
10.513099
 30
0.000000
 11
15.951955
 21
10.509318
 31
0.000000
  0
LINE
  8
Default
 62
   202
  6
CONTINUOUS
 10
15.951955
 20
10.509318
 30
0.000000
 11
16.003187
 21
10.500634
 31
0.000000
  0
LINE
  8
Default
 62
   202
  6
CONTINUOUS
 10
16.003187
 20
10.500634
 30
0.000000
 11
15.970115
 21
10.438464
 31
0.000000
  0
LINE
  8
Default
 62
   202
  6
CONTINUOUS
 10
15.970115
 20
10.438464
 30
0.000000
 11
15.927236
 21
10.348599
 31
0.000000
  0
LINE
  8
Default
 62
   202
  6
CONTINUOUS
 10
15.927236
 20
10.348599
 30
0.000000
 11
15.906764
 21
10.293196
 31
0.000000
  0
LINE
  8
Default
 62
   202
  6
CONTINUOUS
 10
15.906764
 20
10.293196
 30
0.000000
 11
15.875097
 21
10.294675
 31
0.000000
  0
ARC
  8
Default
 62
   202
  6
CONTINUOUS
 10
15.636831
 20
10.161291
 30
0.000000
 40
0.273060
 50
29.240618
 51
41.317774
  0
ARC
  8
Default
 62
   202
  6
CONTINUOUS
 10
15.716445
 20
10.231277
 30
0.000000
 40
0.167058
 50
41.317774
 51
60.607168
  0
ARC
  8
Default
 62
   202
  6
CONTINUOUS
 10
15.592959
 20
9.995100
 30
0.000000
 40
0.433519
 50
61.707384
 51
72.184075
  0
ARC
  8
Default
 62
   202
  6
CONTINUOUS
 10
15.489578
 20
9.673412
 30
0.000000
 40
0.771412
 50
72.184075
 51
81.639845
  0
ARC
  8
Default
 62
   202
  6
CONTINUOUS
 10
15.348717
 20
8.714891
 30
0.000000
 40
1.740227
 50
81.639845
 51
85.121811
  0
LINE
  8
Default
 62
   202
  6
CONTINUOUS
 10
15.458162
 20
10.263595
 30
0.000000
 11
15.496702
 21
10.448815
 31
0.000000
  0
LINE
  8
Default
 62
   202
  6
CONTINUOUS
 10
15.458162
 20
10.263595
 30
0.000000
 11
15.423954
 21
10.057993
 31
0.000000
  0
LINE
  8
Default
 62
   202
  6
CONTINUOUS
 10
15.423954
 20
10.057993
 30
0.000000
 11
15.544892
 21
10.036495
 31
0.000000
  0
LINE
  8
Default
 62
   202
  6
CONTINUOUS
 10
15.544892
 20
10.036495
 30
0.000000
 11
15.572766
 21
10.032441
 31
0.000000
  0
ARC
  8
Default
 62
   202
  6
CONTINUOUS
 10
16.694887
 20
17.749006
 30
0.000000
 40
7.797726
 50
261.726209
 51
263.707012
  0
LINE
  8
Default
 62
   202
  6
CONTINUOUS
 10
15.829713
 20
9.958524
 30
0.000000
 11
15.840157
 21
9.998266
 31
0.000000
  0
LINE
  8
Default
 62
   202
  6
CONTINUOUS
 10
15.829713
 20
9.958524
 30
0.000000
 11
15.814021
 21
9.886357
 31
0.000000
  0
LINE
  8
Default
 62
   202
  6
CONTINUOUS
 10
15.814021
 20
9.886357
 30
0.000000
 11
15.810857
 21
9.834196
 31
0.000000
  0
ARC
  8
Default
 62
   202
  6
CONTINUOUS
 10
14.566177
 20
4.455138
 30
0.000000
 40
5.521185
 50
76.971419
 51
79.675146
  0
LINE
  8
Default
 62
   202
  6
CONTINUOUS
 10
15.555734
 20
9.886921
 30
0.000000
 11
15.399360
 21
9.909141
 31
0.000000
  0
LINE
  8
Default
 62
   202
  6
CONTINUOUS
 10
15.399360
 20
9.909141
 30
0.000000
 11
15.359209
 21
9.667471
 31
0.000000
  0
ARC
  8
Default
 62
   202
  6
CONTINUOUS
 10
16.854332
 20
9.419076
 30
0.000000
 40
1.515616
 50
170.567217
 51
176.953407
  0
ARC
  8
Default
 62
   202
  6
CONTINUOUS
 10
16.078474
 20
9.460369
 30
0.000000
 40
0.738660
 50
176.953407
 51
184.165501
  0
ARC
  8
Default
 62
   202
  6
CONTINUOUS
 10
15.724847
 20
9.434615
 30
0.000000
 40
0.384096
 50
184.165501
 51
194.819746
  0
LINE
  8
Default
 62
   202
  6
CONTINUOUS
 10
15.353528
 20
9.336371
 30
0.000000
 11
15.277458
 21
9.349240
 31
0.000000
  0
LINE
  8
Default
 62
   202
  6
CONTINUOUS
 10
15.277458
 20
9.349240
 30
0.000000
 11
15.093075
 21
9.379712
 31
0.000000
  0
LINE
  8
Default
 62
   202
  6
CONTINUOUS
 10
15.093075
 20
9.379712
 30
0.000000
 11
15.016839
 21
9.392234
 31
0.000000
  0
LINE
  8
Default
 62
   202
  6
CONTINUOUS
 10
16.180825
 20
9.211257
 30
0.000000
 11
16.105710
 21
9.218985
 31
0.000000
  0
LINE
  8
Default
 62
   202
  6
CONTINUOUS
 10
16.366540
 20
9.192502
 30
0.000000
 11
16.180825
 21
9.211257
 31
0.000000
  0
LINE
  8
Default
 62
   202
  6
CONTINUOUS
 10
16.366540
 20
9.192502
 30
0.000000
 11
16.445274
 21
9.184325
 31
0.000000
  0
ARC
  8
Default
 62
   202
  6
CONTINUOUS
 10
17.182807
 20
9.322109
 30
0.000000
 40
0.750293
 50
179.342083
 51
190.581839
  0
ARC
  8
Default
 62
   202
  6
CONTINUOUS
 10
18.496762
 20
9.307020
 30
0.000000
 40
2.064335
 50
174.067519
 51
179.342083
  0
LINE
  8
Default
 62
   202
  6
CONTINUOUS
 10
16.504185
 20
10.104540
 30
0.000000
 11
16.443484
 21
9.520382
 31
0.000000
  0
ARC
  8
Default
 62
   202
  6
CONTINUOUS
 10
20.008412
 20
9.740405
 30
0.000000
 40
3.523095
 50
168.645193
 51
174.067519
  0
LINE
  8
Default
 62
   202
  6
CONTINUOUS
 10
16.468649
 20
10.442956
 30
0.000000
 11
16.554275
 21
10.434047
 31
0.000000
  0
LINE
  8
Default
 62
   202
  6
CONTINUOUS
 10
16.254161
 20
10.464791
 30
0.000000
 11
16.468649
 21
10.442956
 31
0.000000
  0
LINE
  8
Default
 62
   202
  6
CONTINUOUS
 10
16.175261
 20
10.472621
 30
0.000000
 11
16.254161
 21
10.464791
 31
0.000000
  0
LINE
  8
Default
 62
   202
  6
CONTINUOUS
 10
16.129836
 20
10.380990
 30
0.000000
 11
16.175261
 21
10.472621
 31
0.000000
  0
LINE
  8
Default
 62
   202
  6
CONTINUOUS
 10
16.146032
 20
10.379226
 30
0.000000
 11
16.129836
 21
10.380990
 31
0.000000
  0
ARC
  8
Default
 62
   202
  6
CONTINUOUS
 10
16.133207
 20
10.232883
 30
0.000000
 40
0.146903
 50
69.953332
 51
84.991672
  0
ARC
  8
Default
 62
   202
  6
CONTINUOUS
 10
16.156694
 20
10.297248
 30
0.000000
 40
0.078387
 50
49.064204
 51
69.953332
  0
ARC
  8
Default
 62
   202
  6
CONTINUOUS
 10
16.166494
 20
10.310472
 30
0.000000
 40
0.061989
 50
6.349649
 51
47.898240
  0
ARC
  8
Default
 62
   202
  6
CONTINUOUS
 10
15.674465
 20
10.255720
 30
0.000000
 40
0.557055
 50
358.009380
 51
366.349649
  0
ARC
  8
Default
 62
   202
  6
CONTINUOUS
 10
14.705461
 20
10.289400
 30
0.000000
 40
1.526644
 50
354.050831
 51
358.009380
  0
LINE
  8
Default
 62
   202
  6
CONTINUOUS
 10
16.161156
 20
9.529223
 30
0.000000
 11
16.223883
 21
10.131169
 31
0.000000
  0
ARC
  8
Default
 62
   202
  6
CONTINUOUS
 10
12.966303
 20
9.862150
 30
0.000000
 40
3.212152
 50
351.488939
 51
354.050831
  0
ARC
  8
Default
 62
   202
  6
CONTINUOUS
 10
14.942258
 20
9.566451
 30
0.000000
 40
1.214194
 50
347.232629
 51
351.488939
  0
LINE
  8
Default
 62
   202
  6
CONTINUOUS
 10
16.105710
 20
9.218985
 30
0.000000
 11
16.126432
 21
9.298123
 31
0.000000
  0
ARC
  8
Default
 62
   202
  6
CONTINUOUS
 10
17.273108
 20
9.643086
 30
0.000000
 40
0.547439
 50
210.049121
 51
239.182411
  0
ARC
  8
Default
 62
   202
  6
CONTINUOUS
 10
17.371631
 20
9.700081
 30
0.000000
 40
0.661260
 50
188.563012
 51
210.049121
  0
ARC
  8
Default
 62
   202
  6
CONTINUOUS
 10
17.441347
 20
9.710579
 30
0.000000
 40
0.731762
 50
173.793946
 51
188.563012
  0
ARC
  8
Default
 62
   202
  6
CONTINUOUS
 10
17.376479
 20
9.731352
 30
0.000000
 40
0.665168
 50
158.508654
 51
174.968808
  0
ARC
  8
Default
 62
   202
  6
CONTINUOUS
 10
17.315621
 20
9.755314
 30
0.000000
 40
0.599764
 50
129.330751
 51
158.508654
  0
ARC
  8
Default
 62
   202
  6
CONTINUOUS
 10
17.353592
 20
9.708973
 30
0.000000
 40
0.659674
 50
103.544634
 51
129.330751
  0
ARC
  8
Default
 62
   202
  6
CONTINUOUS
 10
17.396331
 20
9.531562
 30
0.000000
 40
0.842161
 50
92.823773
 51
103.544634
  0
ARC
  8
Default
 62
   202
  6
CONTINUOUS
 10
17.411060
 20
9.232941
 30
0.000000
 40
1.141144
 50
82.119854
 51
92.823773
  0
ARC
  8
Default
 62
   202
  6
CONTINUOUS
 10
17.435241
 20
9.407646
 30
0.000000
 40
0.964773
 50
73.274065
 51
82.119854
  0
ARC
  8
Default
 62
   202
  6
CONTINUOUS
 10
17.324905
 20
9.040482
 30
0.000000
 40
1.348158
 50
65.369800
 51
73.274065
  0
LINE
  8
Default
 62
   202
  6
CONTINUOUS
 10
17.855301
 20
10.191114
 30
0.000000
 11
17.886763
 21
10.265980
 31
0.000000
  0
LINE
  8
Default
 62
   202
  6
CONTINUOUS
 10
17.855301
 20
10.191114
 30
0.000000
 11
17.819687
 21
10.089691
 31
0.000000
  0
LINE
  8
Default
 62
   202
  6
CONTINUOUS
 10
17.819687
 20
10.089691
 30
0.000000
 11
17.801983
 21
10.024021
 31
0.000000
  0
LINE
  8
Default
 62
   202
  6
CONTINUOUS
 10
17.801983
 20
10.024021
 30
0.000000
 11
17.763488
 21
10.022795
 31
0.000000
  0
ARC
  8
Default
 62
   202
  6
CONTINUOUS
 10
17.301553
 20
9.787985
 30
0.000000
 40
0.518189
 50
26.945078
 51
37.084597
  0
ARC
  8
Default
 62
   202
  6
CONTINUOUS
 10
17.436704
 20
9.890142
 30
0.000000
 40
0.348772
 50
37.084597
 51
60.986458
  0
ARC
  8
Default
 62
   202
  6
CONTINUOUS
 10
17.429714
 20
9.877538
 30
0.000000
 40
0.363185
 50
60.986458
 51
85.334611
  0
ARC
  8
Default
 62
   202
  6
CONTINUOUS
 10
17.416815
 20
9.873553
 30
0.000000
 40
0.368420
 50
83.385261
 51
101.902253
  0
ARC
  8
Default
 62
   202
  6
CONTINUOUS
 10
17.407141
 20
9.919448
 30
0.000000
 40
0.321516
 50
101.902253
 51
132.592876
  0
ARC
  8
Default
 62
   202
  6
CONTINUOUS
 10
17.488967
 20
9.830441
 30
0.000000
 40
0.442420
 50
132.592876
 51
157.730048
  0
ARC
  8
Default
 62
   202
  6
CONTINUOUS
 10
17.737053
 20
9.728845
 30
0.000000
 40
0.710503
 50
157.730048
 51
175.159732
  0
ARC
  8
Default
 62
   202
  6
CONTINUOUS
 10
17.751533
 20
9.707426
 30
0.000000
 40
0.727017
 50
173.573813
 51
188.725463
  0
ARC
  8
Default
 62
   202
  6
CONTINUOUS
 10
17.525668
 20
9.672761
 30
0.000000
 40
0.498507
 50
188.725463
 51
210.786406
  0
ARC
  8
Default
 62
   202
  6
CONTINUOUS
 10
17.443852
 20
9.624015
 30
-0.000000
 40
0.403270
 50
210.786406
 51
237.142506
  0
ARC
  8
Default
 62
   202
  6
CONTINUOUS
 10
17.444809
 20
9.641649
 30
0.000000
 40
0.418694
 50
238.341800
 51
259.532011
  0
ARC
  8
Default
 62
   202
  6
CONTINUOUS
 10
17.454181
 20
9.692376
 30
0.000000
 40
0.470279
 50
259.532011
 51
285.521224
  0
ARC
  8
Default
 62
   202
  6
CONTINUOUS
 10
17.459370
 20
9.718374
 30
0.000000
 40
0.494086
 50
284.134560
 51
303.089086
  0
LINE
  8
Default
 62
   202
  6
CONTINUOUS
 10
17.729112
 20
9.304418
 30
0.000000
 11
17.759938
 21
9.283320
 31
0.000000
  0
LINE
  8
Default
 62
   202
  6
CONTINUOUS
 10
17.759938
 20
9.283320
 30
0.000000
 11
17.732873
 21
9.231062
 31
0.000000
  0
LINE
  8
Default
 62
   202
  6
CONTINUOUS
 10
17.732873
 20
9.231062
 30
0.000000
 11
17.700520
 21
9.157900
 31
0.000000
  0
LINE
  8
Default
 62
   202
  6
CONTINUOUS
 10
17.700520
 20
9.157900
 30
0.000000
 11
17.676027
 21
9.096748
 31
0.000000
  0
ARC
  8
Default
 62
   202
  6
CONTINUOUS
 10
17.384166
 20
10.601466
 30
0.000000
 40
1.532762
 50
274.412720
 51
280.976995
  0
ARC
  8
Default
 62
   202
  6
CONTINUOUS
 10
17.429560
 20
10.374378
 30
0.000000
 40
1.303151
 50
264.189076
 51
273.190917
  0
ARC
  8
Default
 62
   202
  6
CONTINUOUS
 10
17.387002
 20
9.956198
 30
0.000000
 40
0.882811
 50
253.968075
 51
264.189076
  0
ARC
  8
Default
 62
   202
  6
CONTINUOUS
 10
17.319263
 20
9.720459
 30
0.000000
 40
0.637533
 50
239.182411
 51
253.968075
  0
LINE
  8
Default
 62
   202
  6
CONTINUOUS
 10
18.018371
 20
9.032210
 30
0.000000
 11
18.039093
 21
9.111348
 31
0.000000
  0
ARC
  8
Default
 62
   202
  6
CONTINUOUS
 10
16.854919
 20
9.379677
 30
0.000000
 40
1.214194
 50
347.232629
 51
351.488939
  0
ARC
  8
Default
 62
   202
  6
CONTINUOUS
 10
14.878964
 20
9.675375
 30
0.000000
 40
3.212152
 50
351.488939
 51
354.050831
  0
LINE
  8
Default
 62
   202
  6
CONTINUOUS
 10
18.073817
 20
9.342448
 30
0.000000
 11
18.136544
 21
9.944395
 31
0.000000
  0
ARC
  8
Default
 62
   202
  6
CONTINUOUS
 10
16.618122
 20
10.102625
 30
0.000000
 40
1.526644
 50
354.050831
 51
358.009380
  0
ARC
  8
Default
 62
   202
  6
CONTINUOUS
 10
17.587126
 20
10.068946
 30
0.000000
 40
0.557055
 50
358.009380
 51
366.349649
  0
ARC
  8
Default
 62
   202
  6
CONTINUOUS
 10
18.079155
 20
10.123698
 30
0.000000
 40
0.061989
 50
6.349649
 51
47.898240
  0
ARC
  8
Default
 62
   202
  6
CONTINUOUS
 10
18.069355
 20
10.110474
 30
0.000000
 40
0.078387
 50
49.064204
 51
69.953332
  0
ARC
  8
Default
 62
   202
  6
CONTINUOUS
 10
18.045869
 20
10.046109
 30
0.000000
 40
0.146903
 50
69.953332
 51
84.991672
  0
LINE
  8
Default
 62
   202
  6
CONTINUOUS
 10
18.058693
 20
10.192451
 30
0.000000
 11
18.042497
 21
10.194216
 31
0.000000
  0
LINE
  8
Default
 62
   202
  6
CONTINUOUS
 10
18.042497
 20
10.194216
 30
0.000000
 11
18.087922
 21
10.285847
 31
0.000000
  0
LINE
  8
Default
 62
   202
  6
CONTINUOUS
 10
18.087922
 20
10.285847
 30
0.000000
 11
18.166822
 21
10.278017
 31
0.000000
  0
LINE
  8
Default
 62
   202
  6
CONTINUOUS
 10
18.166822
 20
10.278017
 30
0.000000
 11
18.381310
 21
10.256182
 31
0.000000
  0
LINE
  8
Default
 62
   202
  6
CONTINUOUS
 10
18.381310
 20
10.256182
 30
0.000000
 11
18.466936
 21
10.247272
 31
0.000000
  0
ARC
  8
Default
 62
   202
  6
CONTINUOUS
 10
21.921073
 20
9.553631
 30
0.000000
 40
3.523095
 50
168.645193
 51
174.067519
  0
LINE
  8
Default
 62
   202
  6
CONTINUOUS
 10
18.416846
 20
9.917766
 30
0.000000
 11
18.356145
 21
9.333608
 31
0.000000
  0
ARC
  8
Default
 62
   202
  6
CONTINUOUS
 10
20.409424
 20
9.120246
 30
0.000000
 40
2.064335
 50
174.067519
 51
179.342083
  0
ARC
  8
Default
 62
   202
  6
CONTINUOUS
 10
19.095468
 20
9.135334
 30
0.000000
 40
0.750293
 50
179.342083
 51
190.581839
  0
LINE
  8
Default
 62
   202
  6
CONTINUOUS
 10
18.279201
 20
9.005727
 30
0.000000
 11
18.357935
 21
8.997551
 31
0.000000
  0
LINE
  8
Default
 62
   202
  6
CONTINUOUS
 10
18.279201
 20
9.005727
 30
0.000000
 11
18.093486
 21
9.024483
 31
0.000000
  0
LINE
  8
Default
 62
   202
  6
CONTINUOUS
 10
18.093486
 20
9.024483
 30
0.000000
 11
18.018371
 21
9.032210
 31
0.000000
  0
LINE
  8
Default
 62
   202
  6
CONTINUOUS
 10
18.558693
 20
8.968260
 30
0.000000
 11
18.552375
 21
8.984479
 31
0.000000
  0
LINE
  8
Default
 62
   202
  6
CONTINUOUS
 10
18.632341
 20
8.965492
 30
0.000000
 11
18.558693
 21
8.968260
 31
0.000000
  0
LINE
  8
Default
 62
   202
  6
CONTINUOUS
 10
18.786694
 20
8.959571
 30
0.000000
 11
18.632341
 21
8.965492
 31
0.000000
  0
LINE
  8
Default
 62
   202
  6
CONTINUOUS
 10
18.846062
 20
8.957227
 30
0.000000
 11
18.786694
 21
8.959571
 31
0.000000
  0
ARC
  8
Default
 62
   202
  6
CONTINUOUS
 10
19.153361
 20
9.033448
 30
0.000000
 40
0.316611
 50
178.202365
 51
193.930227
  0
ARC
  8
Default
 62
   202
  6
CONTINUOUS
 10
19.237386
 20
9.019816
 30
0.000000
 40
0.401172
 50
165.180928
 51
176.632594
  0
ARC
  8
Default
 62
   202
  6
CONTINUOUS
 10
19.705344
 20
8.896009
 30
0.000000
 40
0.885231
 50
159.013739
 51
165.180928
  0
LINE
  8
Default
 62
   202
  6
CONTINUOUS
 10
18.933625
 20
9.355889
 30
0.000000
 11
18.878834
 21
9.213049
 31
0.000000
  0
LINE
  8
Default
 62
     7
  6
CONTINUOUS
 10
19.096054
 20
9.483778
 30
0.000000
 11
19.096054
 21
9.349714
 31
0.000000
  0
LINE
  8
Default
 62
   202
  6
CONTINUOUS
 10
19.369497
 20
9.339170
 30
0.000000
 11
19.226054
 21
9.344896
 31
0.000000
  0
LINE
  8
Default
 62
   202
  6
CONTINUOUS
 10
19.369497
 20
9.339170
 30
0.000000
 11
19.412769
 21
9.188923
 31
0.000000
  0
ARC
  8
Default
 62
   202
  6
CONTINUOUS
 10
18.289418
 20
8.865395
 30
0.000000
 40
1.169012
 50
3.360831
 51
16.066516
  0
LINE
  8
Default
 62
   202
  6
CONTINUOUS
 10
19.567585
 20
8.929444
 30
0.000000
 11
19.456419
 21
8.933927
 31
0.000000
  0
LINE
  8
Default
 62
   202
  6
CONTINUOUS
 10
19.754118
 20
8.922225
 30
0.000000
 11
19.567585
 21
8.929444
 31
0.000000
  0
LINE
  8
Default
 62
   202
  6
CONTINUOUS
 10
19.754118
 20
8.922225
 30
0.000000
 11
19.834824
 21
8.919071
 31
0.000000
  0
ARC
  8
Default
 62
   202
  6
CONTINUOUS
 10
21.018886
 20
9.531813
 30
0.000000
 40
1.333213
 50
203.304319
 51
207.361145
  0
ARC
  8
Default
 62
   202
  6
CONTINUOUS
 10
22.469821
 20
10.156814
 30
0.000000
 40
2.913035
 50
198.373779
 51
203.304319
  0
LINE
  8
Default
 62
   202
  6
CONTINUOUS
 10
19.452137
 20
10.047970
 30
0.000000
 11
19.705292
 21
9.238582
 31
0.000000
  0
ARC
  8
Default
 62
   202
  6
CONTINUOUS
 10
20.550203
 20
10.391415
 30
0.000000
 40
1.150523
 50
188.454414
 51
197.368251
  0
LINE
  8
Default
 62
   202
  6
CONTINUOUS
 10
19.331021
 20
10.212855
 30
0.000000
 11
19.412183
 21
10.222262
 31
0.000000
  0
LINE
  8
Default
 62
   202
  6
CONTINUOUS
 10
19.174209
 20
10.202911
 30
0.000000
 11
19.331021
 21
10.212855
 31
0.000000
  0
LINE
  8
Default
 62
   202
  6
CONTINUOUS
 10
19.174209
 20
10.202911
 30
0.000000
 11
19.104276
 21
10.200073
 31
0.000000
  0
ARC
  8
Default
 62
   202
  6
CONTINUOUS
 10
17.117203
 20
10.823326
 30
0.000000
 40
2.082523
 50
335.794701
 51
342.585749
  0
LINE
  8
Default
 62
   202
  6
CONTINUOUS
 10
18.701549
 20
9.268552
 30
0.000000
 11
19.016635
 21
9.969477
 31
0.000000
  0
ARC
  8
Default
 62
   202
  6
CONTINUOUS
 10
22.126341
 20
7.554042
 30
0.000000
 40
3.829980
 50
153.406665
 51
155.212606
  0
ARC
  8
Default
 62
   202
  6
CONTINUOUS
 10
16.284112
 20
10.352035
 30
0.000000
 40
2.648627
 50
328.913844
 51
333.247023
  0
LINE
  8
Default
 62
     7
  6
CONTINUOUS
 10
19.226054
 20
9.478834
 30
0.000000
 11
19.226054
 21
9.344896
 31
0.000000
  0
LINE
  8
Default
 62
   202
  6
CONTINUOUS
 10
19.333125
 20
9.474516
 30
0.000000
 11
19.192262
 21
10.016672
 31
0.000000
  0
LINE
  8
Default
 62
   202
  6
CONTINUOUS
 10
19.192262
 20
10.016672
 30
0.000000
 11
18.986900
 21
9.488074
 31
0.000000
  0
LINE
  8
Default
 62
   202
  6
CONTINUOUS
 10
19.096054
 20
9.349714
 30
0.000000
 11
18.933625
 21
9.355889
 31
0.000000
  0
ARC
  8
Default
 62
   202
  6
CONTINUOUS
 10
16.278432
 20
9.361455
 30
0.000000
 40
3.840705
 50
354.545574
 51
357.791056
  0
LINE
  8
Default
 62
   202
  6
CONTINUOUS
 10
20.116282
 20
9.213420
 30
0.000000
 11
20.140428
 21
9.839395
 31
0.000000
  0
ARC
  8
Default
 62
   202
  6
CONTINUOUS
 10
18.456392
 20
9.904353
 30
0.000000
 40
1.685288
 50
357.791056
 51
361.192470
  0
ARC
  8
Default
 62
   202
  6
CONTINUOUS
 10
19.522546
 20
9.926545
 30
0.000000
 40
0.618903
 50
1.192470
 51
8.709382
  0
ARC
  8
Default
 62
   202
  6
CONTINUOUS
 10
20.071825
 20
10.010689
 30
0.000000
 40
0.063216
 50
8.709382
 51
48.063482
  0
ARC
  8
Default
 62
   202
  6
CONTINUOUS
 10
20.070105
 20
10.005761
 30
0.000000
 40
0.068061
 50
49.758325
 51
72.157792
  0
ARC
  8
Default
 62
   202
  6
CONTINUOUS
 10
20.054318
 20
9.956715
 30
0.000000
 40
0.119586
 50
72.157792
 51
87.690696
  0
LINE
  8
Default
 62
   202
  6
CONTINUOUS
 10
20.042258
 20
10.076884
 30
0.000000
 11
20.059136
 21
10.076204
 31
0.000000
  0
LINE
  8
Default
 62
   202
  6
CONTINUOUS
 10
20.042258
 20
10.076884
 30
0.000000
 11
20.082383
 21
10.176155
 31
0.000000
  0
LINE
  8
Default
 62
   202
  6
CONTINUOUS
 10
20.082383
 20
10.176155
 30
0.000000
 11
20.161535
 21
10.173317
 31
0.000000
  0
LINE
  8
Default
 62
   202
  6
CONTINUOUS
 10
20.161535
 20
10.173317
 30
0.000000
 11
20.374744
 21
10.164871
 31
0.000000
  0
LINE
  8
Default
 62
   202
  6
CONTINUOUS
 10
20.374744
 20
10.164871
 30
0.000000
 11
20.460953
 21
10.161647
 31
0.000000
  0
ARC
  8
Default
 62
   202
  6
CONTINUOUS
 10
24.766225
 20
9.660926
 30
0.000000
 40
4.334292
 50
173.366074
 51
177.771880
  0
LINE
  8
Default
 62
   202
  6
CONTINUOUS
 10
20.435210
 20
9.829436
 30
0.000000
 11
20.414157
 21
9.288322
 31
0.000000
  0
ARC
  8
Default
 62
   202
  6
CONTINUOUS
 10
21.527257
 20
9.245014
 30
0.000000
 40
1.113942
 50
177.771880
 51
183.055205
  0
ARC
  8
Default
 62
   202
  6
CONTINUOUS
 10
20.858843
 20
9.209338
 30
0.000000
 40
0.444577
 50
183.055205
 51
190.584141
  0
ARC
  8
Default
 62
   202
  6
CONTINUOUS
 10
20.536943
 20
9.144730
 30
0.000000
 40
0.116369
 50
188.425601
 51
215.110225
  0
ARC
  8
Default
 62
   202
  6
CONTINUOUS
 10
20.522255
 20
9.154556
 30
0.000000
 40
0.111234
 50
223.633588
 51
255.228433
  0
ARC
  8
Default
 62
   202
  6
CONTINUOUS
 10
20.615725
 20
9.475427
 30
0.000000
 40
0.445414
 50
254.126089
 51
269.455233
  0
ARC
  8
Default
 62
   202
  6
CONTINUOUS
 10
20.642187
 20
9.704899
 30
0.000000
 40
0.675564
 50
267.395590
 51
276.897484
  0
ARC
  8
Default
 62
   202
  6
CONTINUOUS
 10
20.680320
 20
9.389667
 30
0.000000
 40
0.358033
 50
276.897484
 51
292.968583
  0
ARC
  8
Default
 62
   202
  6
CONTINUOUS
 10
20.738004
 20
9.244032
 30
0.000000
 40
0.201469
 50
294.026549
 51
306.973166
  0
ARC
  8
Default
 62
   202
  6
CONTINUOUS
 10
20.613185
 20
9.409834
 30
0.000000
 40
0.409002
 50
306.973166
 51
316.957266
  0
LINE
  8
Default
 62
   202
  6
CONTINUOUS
 10
20.945364
 20
9.117357
 30
0.000000
 11
20.912103
 21
9.130672
 31
0.000000
  0
LINE
  8
Default
 62
   202
  6
CONTINUOUS
 10
20.945364
 20
9.117357
 30
0.000000
 11
20.922977
 21
9.044551
 31
0.000000
  0
LINE
  8
Default
 62
   202
  6
CONTINUOUS
 10
20.922977
 20
9.044551
 30
0.000000
 11
20.901704
 21
8.958008
 31
0.000000
  0
LINE
  8
Default
 62
   202
  6
CONTINUOUS
 10
20.901704
 20
8.958008
 30
0.000000
 11
20.887913
 21
8.885361
 31
0.000000
  0
LINE
  8
Default
 62
   202
  6
CONTINUOUS
 10
20.887913
 20
8.885361
 30
0.000000
 11
20.818050
 21
8.888026
 31
0.000000
  0
LINE
  8
Default
 62
   202
  6
CONTINUOUS
 10
20.818050
 20
8.888026
 30
0.000000
 11
20.299406
 21
8.908032
 31
0.000000
  0
LINE
  8
Default
 62
   202
  6
CONTINUOUS
 10
20.299406
 20
8.908032
 30
0.000000
 11
20.091535
 21
8.916061
 31
0.000000
  0
LINE
  8
Default
 62
   202
  6
CONTINUOUS
 10
20.091535
 20
8.916061
 30
0.000000
 11
20.101746
 21
8.996381
 31
0.000000
  0
LINE
  8
Default
 62
   202
  6
CONTINUOUS
 10
21.931845
 20
8.857461
 30
0.000000
 11
21.854838
 21
8.855868
 31
0.000000
  0
ARC
  8
Default
 62
   202
  6
CONTINUOUS
 10
22.289905
 20
9.022752
 30
0.000000
 40
0.394371
 50
194.432049
 51
204.779325
  0
ARC
  8
Default
 62
   202
  6
CONTINUOUS
 10
22.646098
 20
9.114419
 30
0.000000
 40
0.762170
 50
187.453353
 51
194.432049
  0
ARC
  8
Default
 62
   202
  6
CONTINUOUS
 10
23.437784
 20
9.217991
 30
0.000000
 40
1.560602
 50
181.310303
 51
187.453353
  0
LINE
  8
Default
 62
   202
  6
CONTINUOUS
 10
21.871944
 20
9.429140
 30
0.000000
 11
21.877590
 21
9.182304
 31
0.000000
  0
LINE
  8
Default
 62
   202
  6
CONTINUOUS
 10
22.029498
 20
9.436175
 30
0.000000
 11
21.871944
 21
9.429140
 31
0.000000
  0
ARC
  8
Default
 62
   202
  6
CONTINUOUS
 10
22.057966
 20
4.185892
 30
0.000000
 40
5.250360
 50
87.477194
 51
90.310668
  0
LINE
  8
Default
 62
   202
  6
CONTINUOUS
 10
22.282269
 20
9.482968
 30
0.000000
 11
22.289071
 21
9.431163
 31
0.000000
  0
LINE
  8
Default
 62
   202
  6
CONTINUOUS
 10
22.284343
 20
9.556947
 30
0.000000
 11
22.282269
 21
9.482968
 31
0.000000
  0
LINE
  8
Default
 62
   202
  6
CONTINUOUS
 10
22.287019
 20
9.598266
 30
0.000000
 11
22.284343
 21
9.556947
 31
0.000000
  0
ARC
  8
Default
 62
   202
  6
CONTINUOUS
 10
21.482721
 20
19.960304
 30
0.000000
 40
10.393206
 50
273.346116
 51
274.438385
  0
LINE
  8
Default
 62
   202
  6
CONTINUOUS
 10
21.991231
 20
9.580943
 30
0.000000
 11
22.089347
 21
9.584817
 31
0.000000
  0
LINE
  8
Default
 62
   202
  6
CONTINUOUS
 10
21.868822
 20
9.579716
 30
0.000000
 11
21.991231
 21
9.580943
 31
0.000000
  0
LINE
  8
Default
 62
   202
  6
CONTINUOUS
 10
21.863943
 20
9.788208
 30
0.000000
 11
21.868822
 21
9.579716
 31
0.000000
  0
LINE
  8
Default
 62
   202
  6
CONTINUOUS
 10
21.863943
 20
9.788208
 30
0.000000
 11
21.866998
 21
9.976728
 31
0.000000
  0
ARC
  8
Default
 62
   202
  6
CONTINUOUS
 10
22.033413
 20
8.410168
 30
0.000000
 40
1.575374
 50
91.991261
 51
96.063768
  0
ARC
  8
Default
 62
   202
  6
CONTINUOUS
 10
22.004934
 20
9.229282
 30
0.000000
 40
0.755765
 50
82.858109
 51
91.991261
  0
ARC
  8
Default
 62
   202
  6
CONTINUOUS
 10
22.046123
 20
9.558003
 30
0.000000
 40
0.424474
 50
72.532387
 51
82.858109
  0
ARC
  8
Default
 62
   202
  6
CONTINUOUS
 10
22.124153
 20
9.805972
 30
0.000000
 40
0.164518
 50
52.084249
 51
72.532387
  0
ARC
  8
Default
 62
   202
  6
CONTINUOUS
 10
22.058997
 20
9.722322
 30
0.000000
 40
0.270549
 50
39.952721
 51
52.084249
  0
LINE
  8
Default
 62
   202
  6
CONTINUOUS
 10
22.297948
 20
9.900594
 30
0.000000
 11
22.266392
 21
9.896057
 31
0.000000
  0
LINE
  8
Default
 62
   202
  6
CONTINUOUS
 10
22.307649
 20
9.961989
 30
0.000000
 11
22.297948
 21
9.900594
 31
0.000000
  0
LINE
  8
Default
 62
   202
  6
CONTINUOUS
 10
22.332934
 20
10.064081
 30
0.000000
 11
22.307649
 21
9.961989
 31
0.000000
  0
LINE
  8
Default
 62
   202
  6
CONTINUOUS
 10
22.353633
 20
10.135137
 30
0.000000
 11
22.332934
 21
10.064081
 31
0.000000
  0
LINE
  8
Default
 62
   202
  6
CONTINUOUS
 10
22.301551
 20
10.134004
 30
0.000000
 11
22.353633
 21
10.135137
 31
0.000000
  0
ARC
  8
Default
 62
   202
  6
CONTINUOUS
 10
22.218884
 20
10.438927
 30
0.000000
 40
0.315930
 50
278.248253
 51
285.168838
  0
LINE
  8
Default
 62
   202
  6
CONTINUOUS
 10
21.709612
 20
10.100383
 30
0.000000
 11
22.264208
 21
10.126265
 31
0.000000
  0
LINE
  8
Default
 62
   202
  6
CONTINUOUS
 10
21.506409
 20
10.116408
 30
0.000000
 11
21.709612
 21
10.100383
 31
0.000000
  0
LINE
  8
Default
 62
   202
  6
CONTINUOUS
 10
21.473200
 20
10.005744
 30
0.000000
 11
21.506409
 21
10.116408
 31
0.000000
  0
LINE
  8
Default
 62
   202
  6
CONTINUOUS
 10
21.489018
 20
10.005864
 30
0.000000
 11
21.473200
 21
10.005744
 31
0.000000
  0
ARC
  8
Default
 62
   202
  6
CONTINUOUS
 10
21.494943
 20
9.859154
 30
0.000000
 40
0.146829
 50
77.272507
 51
92.312781
  0
ARC
  8
Default
 62
   202
  6
CONTINUOUS
 10
21.510002
 20
9.925827
 30
0.000000
 40
0.078477
 50
56.397292
 51
77.272507
  0
ARC
  8
Default
 62
   202
  6
CONTINUOUS
 10
21.517997
 20
9.940138
 30
0.000000
 40
0.062146
 50
13.086383
 51
55.233905
  0
ARC
  8
Default
 62
   202
  6
CONTINUOUS
 10
21.042816
 20
9.814967
 30
0.000000
 40
0.553512
 50
5.497631
 51
14.569953
  0
ARC
  8
Default
 62
   202
  6
CONTINUOUS
 10
20.543227
 20
9.766883
 30
0.000000
 40
1.055410
 50
0.305331
 51
5.497631
  0
LINE
  8
Default
 62
   202
  6
CONTINUOUS
 10
21.601719
 20
9.191326
 30
0.000000
 11
21.598622
 21
9.772507
 31
0.000000
  0
ARC
  8
Default
 62
   202
  6
CONTINUOUS
 10
15.863793
 20
9.086031
 30
0.000000
 40
5.738892
 50
359.283440
 51
361.051302
  0
ARC
  8
Default
 62
   202
  6
CONTINUOUS
 10
20.060229
 20
9.033546
 30
0.000000
 40
1.542128
 50
356.826438
 51
359.283440
  0
ARC
  8
Default
 62
   202
  6
CONTINUOUS
 10
20.284775
 20
9.021096
 30
0.000000
 40
1.317237
 50
352.527684
 51
356.826438
  0
LINE
  8
Default
 62
   202
  6
CONTINUOUS
 10
21.667998
 20
8.851733
 30
0.000000
 11
21.590826
 21
8.849793
 31
0.000000
  0
LINE
  8
Default
 62
   202
  6
CONTINUOUS
 10
21.854838
 20
8.855868
 30
0.000000
 11
21.667998
 21
8.851733
 31
0.000000
  0
LINE
  8
Default
 62
   202
  6
CONTINUOUS
 10
23.468710
 20
8.892923
 30
0.000000
 11
23.357158
 21
8.890349
 31
0.000000
  0
ARC
  8
Default
 62
   202
  6
CONTINUOUS
 10
22.162489
 20
8.753901
 30
0.000000
 40
1.202437
 50
6.515744
 51
19.000730
  0
LINE
  8
Default
 62
   202
  6
CONTINUOUS
 10
23.245713
 20
9.301330
 30
0.000000
 11
23.299410
 21
9.145390
 31
0.000000
  0
LINE
  8
Default
 62
     7
  6
CONTINUOUS
 10
23.091856
 20
9.435720
 30
0.000000
 11
23.091856
 21
9.298064
 31
0.000000
  0
LINE
  8
Default
 62
   202
  6
CONTINUOUS
 10
22.961856
 20
9.294944
 30
0.000000
 11
22.809639
 21
9.291735
 31
0.000000
  0
LINE
  8
Default
 62
   202
  6
CONTINUOUS
 10
22.809639
 20
9.291735
 30
0.000000
 11
22.764283
 21
9.142973
 31
0.000000
  0
ARC
  8
Default
 62
   202
  6
CONTINUOUS
 10
23.673497
 20
8.865761
 30
0.000000
 40
0.950535
 50
163.043936
 51
169.027922
  0
ARC
  8
Default
 62
   202
  6
CONTINUOUS
 10
23.164173
 20
8.964506
 30
0.000000
 40
0.431727
 50
169.027922
 51
179.961103
  0
ARC
  8
Default
 62
   202
  6
CONTINUOUS
 10
23.085595
 20
8.977562
 30
0.000000
 40
0.353381
 50
182.069781
 51
196.616126
  0
LINE
  8
Default
 62
   202
  6
CONTINUOUS
 10
22.746971
 20
8.876510
 30
0.000000
 11
22.687667
 21
8.875415
 31
0.000000
  0
LINE
  8
Default
 62
   202
  6
CONTINUOUS
 10
22.687667
 20
8.875415
 30
0.000000
 11
22.533488
 21
8.871882
 31
0.000000
  0
LINE
  8
Default
 62
   202
  6
CONTINUOUS
 10
22.533488
 20
8.871882
 30
0.000000
 11
22.459919
 21
8.870353
 31
0.000000
  0
LINE
  8
Default
 62
   202
  6
CONTINUOUS
 10
22.459919
 20
8.870353
 30
0.000000
 11
22.452229
 21
8.886375
 31
0.000000
  0
ARC
  8
Default
 62
   202
  6
CONTINUOUS
 10
20.299847
 20
10.007707
 30
0.000000
 40
2.426960
 50
332.481728
 51
337.752266
  0
LINE
  8
Default
 62
   202
  6
CONTINUOUS
 10
22.583676
 20
9.180609
 30
0.000000
 11
22.546133
 21
9.088831
 31
0.000000
  0
LINE
  8
Default
 62
   202
  6
CONTINUOUS
 10
22.583676
 20
9.180609
 30
0.000000
 11
22.857867
 21
9.913097
 31
0.000000
  0
ARC
  8
Default
 62
   202
  6
CONTINUOUS
 10
20.912667
 20
10.641241
 30
0.000000
 40
2.077017
 50
339.477687
 51
346.107229
  0
LINE
  8
Default
 62
   202
  6
CONTINUOUS
 10
22.998613
 20
10.149326
 30
0.000000
 11
22.928924
 21
10.142538
 31
0.000000
  0
LINE
  8
Default
 62
   202
  6
CONTINUOUS
 10
22.998613
 20
10.149326
 30
0.000000
 11
23.154210
 21
10.169221
 31
0.000000
  0
LINE
  8
Default
 62
   202
  6
CONTINUOUS
 10
23.154210
 20
10.169221
 30
0.000000
 11
23.234598
 21
10.183257
 31
0.000000
  0
ARC
  8
Default
 62
   202
  6
CONTINUOUS
 10
24.360270
 20
10.418560
 30
0.000000
 40
1.150002
 50
191.806691
 51
200.731440
  0
LINE
  8
Default
 62
   202
  6
CONTINUOUS
 10
23.284731
 20
10.011473
 30
0.000000
 11
23.576416
 21
9.240829
 31
0.000000
  0
ARC
  8
Default
 62
   202
  6
CONTINUOUS
 10
26.059369
 20
10.180616
 30
0.000000
 40
2.654855
 50
200.731440
 51
207.007279
  0
ARC
  8
Default
 62
   202
  6
CONTINUOUS
 10
24.801349
 20
9.539422
 30
0.000000
 40
1.242855
 50
207.007279
 51
211.013032
  0
LINE
  8
Default
 62
   202
  6
CONTINUOUS
 10
23.655203
 20
8.897224
 30
0.000000
 11
23.736160
 21
8.899062
 31
0.000000
  0
LINE
  8
Default
 62
   202
  6
CONTINUOUS
 10
23.655203
 20
8.897224
 30
0.000000
 11
23.468710
 21
8.892923
 31
0.000000
  0
LINE
  8
Default
 62
     7
  6
CONTINUOUS
 10
22.961856
 20
9.432986
 30
0.000000
 11
22.961856
 21
9.294944
 31
0.000000
  0
LINE
  8
Default
 62
   202
  6
CONTINUOUS
 10
23.028329
 20
9.955393
 30
0.000000
 11
22.854886
 21
9.430307
 31
0.000000
  0
LINE
  8
Default
 62
   202
  6
CONTINUOUS
 10
23.201574
 20
9.438252
 30
0.000000
 11
23.028329
 21
9.955393
 31
0.000000
  0
LINE
  8
Default
 62
   202
  6
CONTINUOUS
 10
23.245713
 20
9.301330
 30
0.000000
 11
23.091856
 21
9.298064
 31
0.000000
  0
LINE
  8
Default
 62
   202
  6
CONTINUOUS
 10
24.251718
 20
8.897275
 30
0.000000
 11
24.172826
 21
8.895303
 31
0.000000
  0
LINE
  8
Default
 62
   202
  6
CONTINUOUS
 10
24.172826
 20
8.895303
 30
0.000000
 11
24.073820
 21
8.893132
 31
0.000000
  0
LINE
  8
Default
 62
   202
  6
CONTINUOUS
 10
24.073820
 20
8.893132
 30
0.000000
 11
23.996813
 21
8.891539
 31
0.000000
  0
ARC
  8
Default
 62
   202
  6
CONTINUOUS
 10
22.662779
 20
9.047842
 30
0.000000
 40
1.343159
 50
353.317377
 51
357.423503
  0
ARC
  8
Default
 62
   202
  6
CONTINUOUS
 10
21.098948
 20
9.118212
 30
0.000000
 40
2.908573
 50
357.423503
 51
361.283621
  0
LINE
  8
Default
 62
   202
  6
CONTINUOUS
 10
24.006791
 20
9.183369
 30
0.000000
 11
23.992608
 21
9.816361
 31
0.000000
  0
ARC
  8
Default
 62
   202
  6
CONTINUOUS
 10
22.038464
 20
9.772575
 30
0.000000
 40
1.954634
 50
1.283621
 51
4.434058
  0
ARC
  8
Default
 62
   202
  6
CONTINUOUS
 10
23.420636
 20
9.879753
 30
0.000000
 40
0.568312
 50
4.434058
 51
10.875349
  0
ARC
  8
Default
 62
   202
  6
CONTINUOUS
 10
23.890815
 20
9.972831
 30
0.000000
 40
0.089058
 50
9.140926
 51
27.962125
  0
ARC
  8
Default
 62
   202
  6
CONTINUOUS
 10
23.919751
 20
9.986491
 30
0.000000
 40
0.057115
 50
29.469411
 51
55.963444
  0
ARC
  8
Default
 62
   202
  6
CONTINUOUS
 10
23.900128
 20
9.946004
 30
0.000000
 40
0.101850
 50
59.566327
 51
94.336524
  0
LINE
  8
Default
 62
   202
  6
CONTINUOUS
 10
23.892427
 20
10.047562
 30
0.000000
 11
23.877303
 21
10.047111
 31
0.000000
  0
LINE
  8
Default
 62
   202
  6
CONTINUOUS
 10
23.877303
 20
10.047111
 30
0.000000
 11
23.910512
 21
10.157776
 31
0.000000
  0
LINE
  8
Default
 62
   202
  6
CONTINUOUS
 10
23.910512
 20
10.157776
 30
0.000000
 11
23.989750
 21
10.159582
 31
0.000000
  0
LINE
  8
Default
 62
   202
  6
CONTINUOUS
 10
23.989750
 20
10.159582
 30
0.000000
 11
24.204952
 21
10.164241
 31
0.000000
  0
LINE
  8
Default
 62
   202
  6
CONTINUOUS
 10
24.204952
 20
10.164241
 30
0.000000
 11
24.309281
 21
10.166854
 31
0.000000
  0
ARC
  8
Default
 62
   202
  6
CONTINUOUS
 10
26.375488
 20
11.380613
 30
0.000000
 40
2.396335
 50
210.431401
 51
216.536489
  0
LINE
  8
Default
 62
   202
  6
CONTINUOUS
 10
24.450086
 20
9.953992
 30
0.000000
 11
24.942150
 21
9.314971
 31
0.000000
  0
LINE
  8
Default
 62
   202
  6
CONTINUOUS
 10
24.942150
 20
9.314971
 30
0.000000
 11
24.923408
 21
9.822456
 31
0.000000
  0
ARC
  8
Default
 62
   202
  6
CONTINUOUS
 10
23.151729
 20
9.757025
 30
0.000000
 40
1.772887
 50
2.115055
 51
10.737965
  0
ARC
  8
Default
 62
   202
  6
CONTINUOUS
 10
24.382062
 20
9.990343
 30
0.000000
 40
0.520626
 50
10.737965
 51
21.270692
  0
LINE
  8
Default
 62
   202
  6
CONTINUOUS
 10
24.944228
 20
10.180806
 30
0.000000
 11
24.867221
 21
10.179213
 31
0.000000
  0
LINE
  8
Default
 62
   202
  6
CONTINUOUS
 10
24.944228
 20
10.180806
 30
0.000000
 11
25.046838
 21
10.183387
 31
0.000000
  0
LINE
  8
Default
 62
   202
  6
CONTINUOUS
 10
25.046838
 20
10.183387
 30
0.000000
 11
25.123845
 21
10.184980
 31
0.000000
  0
ARC
  8
Default
 62
   202
  6
CONTINUOUS
 10
25.792796
 20
10.056654
 30
0.000000
 40
0.681149
 50
169.140730
 51
174.498168
  0
ARC
  8
Default
 62
   202
  6
CONTINUOUS
 10
26.560666
 20
9.982691
 30
0.000000
 40
1.452573
 50
174.498168
 51
179.085189
  0
ARC
  8
Default
 62
   202
  6
CONTINUOUS
 10
29.906206
 20
9.929270
 30
0.000000
 40
4.798539
 50
179.085189
 51
181.128287
  0
LINE
  8
Default
 62
   202
  6
CONTINUOUS
 10
25.120189
 20
9.246207
 30
0.000000
 11
25.108597
 21
9.834782
 31
0.000000
  0
LINE
  8
Default
 62
   202
  6
CONTINUOUS
 10
25.120189
 20
9.246207
 30
0.000000
 11
25.125055
 21
9.150132
 31
0.000000
  0
ARC
  8
Default
 62
   202
  6
CONTINUOUS
 10
27.461529
 20
9.268456
 30
0.000000
 40
2.339468
 50
182.899112
 51
189.313865
  0
LINE
  8
Default
 62
   202
  6
CONTINUOUS
 10
25.032756
 20
8.887098
 30
0.000000
 11
25.152903
 21
8.889830
 31
0.000000
  0
LINE
  8
Default
 62
   202
  6
CONTINUOUS
 10
25.032756
 20
8.887098
 30
0.000000
 11
24.912263
 21
8.884530
 31
0.000000
  0
ARC
  8
Default
 62
   202
  6
CONTINUOUS
 10
22.658063
 20
7.449735
 30
0.000000
 40
2.672088
 50
32.476690
 51
37.590711
  0
LINE
  8
Default
 62
   202
  6
CONTINUOUS
 10
24.775394
 20
9.079754
 30
0.000000
 11
24.174708
 21
9.827681
 31
0.000000
  0
LINE
  8
Default
 62
   202
  6
CONTINUOUS
 10
24.174708
 20
9.827681
 30
0.000000
 11
24.181247
 21
9.734258
 31
0.000000
  0
LINE
  8
Default
 62
   202
  6
CONTINUOUS
 10
24.181247
 20
9.734258
 30
0.000000
 11
24.199197
 21
9.226781
 31
0.000000
  0
ARC
  8
Default
 62
   202
  6
CONTINUOUS
 10
25.959086
 20
9.289031
 30
0.000000
 40
1.760989
 50
182.025785
 51
190.072500
  0
ARC
  8
Default
 62
   202
  6
CONTINUOUS
 10
24.656449
 20
9.071279
 30
0.000000
 40
0.440551
 50
191.819113
 51
203.264107
  0
ARC
  8
Default
 62
   202
  6
CONTINUOUS
 10
26.504875
 20
10.366002
 30
0.000000
 40
1.322217
 50
274.986660
 51
283.744511
  0
ARC
  8
Default
 62
   202
  6
CONTINUOUS
 10
26.543395
 20
9.924533
 30
0.000000
 40
0.879070
 50
264.574214
 51
274.986660
  0
ARC
  8
Default
 62
   202
  6
CONTINUOUS
 10
26.520772
 20
9.686349
 30
0.000000
 40
0.639815
 50
250.347115
 51
264.574214
  0
ARC
  8
Default
 62
   202
  6
CONTINUOUS
 10
26.489446
 20
9.598631
 30
0.000000
 40
0.546670
 50
220.370869
 51
250.347115
  0
ARC
  8
Default
 62
   202
  6
CONTINUOUS
 10
26.580632
 20
9.676156
 30
0.000000
 40
0.666358
 50
199.192007
 51
220.370869
  0
ARC
  8
Default
 62
   202
  6
CONTINUOUS
 10
26.649697
 20
9.700197
 30
0.000000
 40
0.739488
 50
184.446860
 51
199.192007
  0
ARC
  8
Default
 62
   202
  6
CONTINUOUS
 10
26.580954
 20
9.707373
 30
0.000000
 40
0.671623
 50
168.174274
 51
185.512001
  0
ARC
  8
Default
 62
   202
  6
CONTINUOUS
 10
26.508553
 20
9.722532
 30
0.000000
 40
0.597652
 50
142.115049
 51
168.174274
  0
ARC
  8
Default
 62
   202
  6
CONTINUOUS
 10
26.553406
 20
9.687634
 30
0.000000
 40
0.654483
 50
114.371183
 51
142.115049
  0
ARC
  8
Default
 62
   202
  6
CONTINUOUS
 10
26.631971
 20
9.514207
 30
0.000000
 40
0.844876
 50
103.540362
 51
114.371183
  0
ARC
  8
Default
 62
   202
  6
CONTINUOUS
 10
26.699625
 20
9.233281
 30
0.000000
 40
1.133833
 50
94.311375
 51
103.540362
  0
ARC
  8
Default
 62
   202
  6
CONTINUOUS
 10
26.689461
 20
9.368098
 30
0.000000
 40
0.998633
 50
83.398552
 51
94.311375
  0
ARC
  8
Default
 62
   202
  6
CONTINUOUS
 10
26.654050
 20
9.062121
 30
0.000000
 40
1.306653
 50
75.647373
 51
83.398552
  0
LINE
  8
Default
 62
   202
  6
CONTINUOUS
 10
26.960852
 20
10.248404
 30
0.000000
 11
26.977955
 21
10.327991
 31
0.000000
  0
LINE
  8
Default
 62
   202
  6
CONTINUOUS
 10
26.960852
 20
10.248404
 30
0.000000
 11
26.944242
 21
10.142173
 31
0.000000
  0
LINE
  8
Default
 62
   202
  6
CONTINUOUS
 10
26.944242
 20
10.142173
 30
0.000000
 11
26.939313
 21
10.073815
 31
0.000000
  0
LINE
  8
Default
 62
   202
  6
CONTINUOUS
 10
26.939313
 20
10.073815
 30
0.000000
 11
26.901638
 21
10.065382
 31
0.000000
  0
ARC
  8
Default
 62
   202
  6
CONTINUOUS
 10
26.496101
 20
9.751609
 30
0.000000
 40
0.512751
 50
37.729928
 51
47.711328
  0
ARC
  8
Default
 62
   202
  6
CONTINUOUS
 10
26.600994
 20
9.866931
 30
0.000000
 40
0.356861
 50
47.711328
 51
64.107343
  0
ARC
  8
Default
 62
   202
  6
CONTINUOUS
 10
26.599370
 20
9.863585
 30
0.000000
 40
0.360581
 50
64.107343
 51
95.802937
  0
ARC
  8
Default
 62
   202
  6
CONTINUOUS
 10
26.589001
 20
9.857161
 30
0.000000
 40
0.366088
 50
94.086601
 51
112.436430
  0
ARC
  8
Default
 62
   202
  6
CONTINUOUS
 10
26.572347
 20
9.897496
 30
0.000000
 40
0.322450
 50
112.436430
 51
143.623810
  0
ARC
  8
Default
 62
   202
  6
CONTINUOUS
 10
26.675766
 20
9.821315
 30
0.000000
 40
0.450898
 50
143.623810
 51
168.495939
  0
ARC
  8
Default
 62
   202
  6
CONTINUOUS
 10
26.954716
 20
9.764541
 30
0.000000
 40
0.735567
 50
168.495939
 51
185.692821
  0
ARC
  8
Default
 62
   202
  6
CONTINUOUS
 10
26.969861
 20
9.746595
 30
0.000000
 40
0.749108
 50
184.211891
 51
199.168764
  0
ARC
  8
Default
 62
   202
  6
CONTINUOUS
 10
26.744960
 20
9.668413
 30
0.000000
 40
0.511006
 50
199.168764
 51
220.962355
  0
ARC
  8
Default
 62
   202
  6
CONTINUOUS
 10
26.664942
 20
9.598947
 30
0.000000
 40
0.405041
 50
220.962355
 51
247.349966
  0
ARC
  8
Default
 62
   202
  6
CONTINUOUS
 10
26.660252
 20
9.612576
 30
0.000000
 40
0.415923
 50
248.669342
 51
261.013686
  0
ARC
  8
Default
 62
   202
  6
CONTINUOUS
 10
26.661552
 20
9.620794
 30
0.000000
 40
0.424243
 50
261.013686
 51
293.070182
  0
ARC
  8
Default
 62
   202
  6
CONTINUOUS
 10
26.633369
 20
9.686964
 30
0.000000
 40
0.496165
 50
293.070182
 51
317.595950
  0
LINE
  8
Default
 62
   202
  6
CONTINUOUS
 10
27.033728
 20
9.337008
 30
0.000000
 11
26.999741
 21
9.352373
 31
0.000000
  0
LINE
  8
Default
 62
   202
  6
CONTINUOUS
 10
27.033728
 20
9.337008
 30
0.000000
 11
27.016891
 21
9.280296
 31
0.000000
  0
LINE
  8
Default
 62
   202
  6
CONTINUOUS
 10
27.016891
 20
9.280296
 30
0.000000
 11
26.997872
 21
9.202049
 31
0.000000
  0
LINE
  8
Default
 62
   202
  6
CONTINUOUS
 10
26.997872
 20
9.202049
 30
0.000000
 11
26.985838
 21
9.136656
 31
0.000000
  0
ARC
  8
Default
 62
   202
  6
CONTINUOUS
 10
26.422094
 20
10.565769
 30
0.000000
 40
1.536285
 50
284.973382
 51
291.527809
  0
LINE
  8
Default
 62
   202
  6
CONTINUOUS
 10
28.190785
 20
9.277414
 30
-0.000000
 11
27.677553
 21
9.199849
 31
-0.000000
  0
LINE
  8
Default
 62
   202
  6
CONTINUOUS
 10
28.260063
 20
9.287806
 30
-0.000000
 11
28.190785
 21
9.277414
 31
-0.000000
  0
LINE
  8
Default
 62
   202
  6
CONTINUOUS
 10
28.259724
 20
9.362084
 30
-0.000000
 11
28.260063
 21
9.287806
 31
-0.000000
  0
LINE
  8
Default
 62
   202
  6
CONTINUOUS
 10
28.264107
 20
9.450722
 30
-0.000000
 11
28.259724
 21
9.362084
 31
-0.000000
  0
LINE
  8
Default
 62
   202
  6
CONTINUOUS
 10
28.272859
 20
9.526200
 30
-0.000000
 11
28.264107
 21
9.450722
 31
-0.000000
  0
LINE
  8
Default
 62
   202
  6
CONTINUOUS
 10
28.272859
 20
9.526200
 30
-0.000000
 11
28.236618
 21
9.533270
 31
-0.000000
  0
ARC
  8
Default
 62
   202
  6
CONTINUOUS
 10
27.915991
 20
9.776815
 30
-0.000000
 40
0.402636
 50
313.118953
 51
322.780044
  0
ARC
  8
Default
 62
   202
  6
CONTINUOUS
 10
28.043883
 20
9.640238
 30
-0.000000
 40
0.215528
 50
298.869760
 51
313.118953
  0
ARC
  8
Default
 62
   202
  6
CONTINUOUS
 10
27.943004
 20
9.823207
 30
-0.000000
 40
0.424463
 50
286.275280
 51
298.869760
  0
ARC
  8
Default
 62
   202
  6
CONTINUOUS
 10
27.830316
 20
10.209190
 30
-0.000000
 40
0.826561
 50
278.290096
 51
286.275280
  0
ARC
  8
Default
 62
   202
  6
CONTINUOUS
 10
27.865564
 20
9.859409
 30
-0.000000
 40
0.475607
 50
265.408808
 51
280.164062
  0
ARC
  8
Default
 62
   202
  6
CONTINUOUS
 10
27.834284
 20
9.500188
 30
-0.000000
 40
0.115059
 50
235.550207
 51
266.616948
  0
ARC
  8
Default
 62
   202
  6
CONTINUOUS
 10
27.841127
 20
9.486251
 30
-0.000000
 40
0.108286
 50
200.115316
 51
228.374015
  0
ARC
  8
Default
 62
   202
  6
CONTINUOUS
 10
28.114898
 20
9.603116
 30
-0.000000
 40
0.405848
 50
193.093268
 51
202.315936
  0
ARC
  8
Default
 62
   202
  6
CONTINUOUS
 10
28.903848
 20
9.786612
 30
-0.000000
 40
1.215856
 50
188.599181
 51
193.093268
  0
LINE
  8
Default
 62
   202
  6
CONTINUOUS
 10
27.621626
 20
10.134067
 30
-0.000000
 11
27.701660
 21
9.604816
 31
-0.000000
  0
ARC
  8
Default
 62
   202
  6
CONTINUOUS
 10
29.139509
 20
10.363603
 30
-0.000000
 40
1.535140
 50
182.789460
 51
188.599181
  0
ARC
  8
Default
 62
   202
  6
CONTINUOUS
 10
30.361360
 20
10.423136
 30
-0.000000
 40
2.758440
 50
179.428388
 51
182.789460
  0
LINE
  8
Default
 62
   202
  6
CONTINUOUS
 10
27.517661
 20
10.437730
 30
-0.000000
 11
27.603057
 21
10.450655
 31
-0.000000
  0
LINE
  8
Default
 62
   202
  6
CONTINUOUS
 10
27.306570
 20
10.405978
 30
-0.000000
 11
27.517661
 21
10.437730
 31
-0.000000
  0
LINE
  8
Default
 62
   202
  6
CONTINUOUS
 10
27.228035
 20
10.394040
 30
-0.000000
 11
27.306570
 21
10.405978
 31
-0.000000
  0
LINE
  8
Default
 62
   202
  6
CONTINUOUS
 10
27.206210
 20
10.300093
 30
-0.000000
 11
27.228035
 21
10.394040
 31
-0.000000
  0
LINE
  8
Default
 62
   202
  6
CONTINUOUS
 10
27.222162
 20
10.302279
 30
-0.000000
 11
27.206210
 21
10.300093
 31
-0.000000
  0
ARC
  8
Default
 62
   202
  6
CONTINUOUS
 10
27.246828
 20
10.156722
 30
-0.000000
 40
0.147633
 50
84.599995
 51
99.618090
  0
ARC
  8
Default
 62
   202
  6
CONTINUOUS
 10
27.253377
 20
10.226004
 30
-0.000000
 40
0.078041
 50
63.645637
 51
84.599995
  0
ARC
  8
Default
 62
   202
  6
CONTINUOUS
 10
27.259742
 20
10.241680
 30
-0.000000
 40
0.061182
 50
20.836817
 51
62.469476
  0
ARC
  8
Default
 62
   202
  6
CONTINUOUS
 10
26.801208
 20
10.067162
 30
-0.000000
 40
0.551804
 50
12.384231
 51
20.836817
  0
ARC
  8
Default
 62
   202
  6
CONTINUOUS
 10
25.905870
 20
9.870568
 30
-0.000000
 40
1.468471
 50
8.595356
 51
12.384231
  0
LINE
  8
Default
 62
   202
  6
CONTINUOUS
 10
27.448484
 20
9.490411
 30
-0.000000
 11
27.357848
 21
10.090038
 31
-0.000000
  0
ARC
  8
Default
 62
   202
  6
CONTINUOUS
 10
24.393827
 20
9.028691
 30
-0.000000
 40
3.089355
 50
5.830043
 51
8.595356
  0
ARC
  8
Default
 62
   202
  6
CONTINUOUS
 10
26.278095
 20
9.221086
 30
-0.000000
 40
1.195290
 50
1.414141
 51
5.830043
  0
LINE
  8
Default
 62
   202
  6
CONTINUOUS
 10
27.471437
 20
9.168704
 30
-0.000000
 11
27.473021
 21
9.250584
 31
-0.000000
  0
LINE
  8
Default
 62
   202
  6
CONTINUOUS
 10
27.677553
 20
9.199849
 30
-0.000000
 11
27.471437
 21
9.168704
 31
-0.000000
  0
ARC
  8
Default
 62
   202
  6
CONTINUOUS
 10
28.848545
 20
9.731038
 30
-0.000000
 40
0.346918
 50
211.521475
 51
246.437896
  0
ARC
  8
Default
 62
   202
  6
CONTINUOUS
 10
28.932089
 20
9.782277
 30
-0.000000
 40
0.444924
 50
198.125541
 51
211.521475
  0
ARC
  8
Default
 62
   202
  6
CONTINUOUS
 10
29.112880
 20
9.841458
 30
-0.000000
 40
0.635154
 50
187.555255
 51
198.125541
  0
LINE
  8
Default
 62
   202
  6
CONTINUOUS
 10
28.483239
 20
9.757947
 30
-0.000000
 11
28.459544
 21
9.914505
 31
-0.000000
  0
LINE
  8
Default
 62
   202
  6
CONTINUOUS
 10
28.459544
 20
9.914505
 30
-0.000000
 11
28.408111
 21
10.255822
 31
-0.000000
  0
ARC
  8
Default
 62
   202
  6
CONTINUOUS
 10
27.045725
 20
10.050527
 30
-0.000000
 40
1.377768
 50
8.569301
 51
13.529932
  0
ARC
  8
Default
 62
   202
  6
CONTINUOUS
 10
28.011856
 20
10.283008
 30
-0.000000
 40
0.384059
 50
13.529932
 51
20.989638
  0
ARC
  8
Default
 62
   202
  6
CONTINUOUS
 10
28.290242
 20
10.393557
 30
-0.000000
 40
0.084619
 50
18.622458
 51
41.753866
  0
ARC
  8
Default
 62
   202
  6
CONTINUOUS
 10
28.315650
 20
10.407336
 30
-0.000000
 40
0.056877
 50
48.458607
 51
80.303427
  0
ARC
  8
Default
 62
   202
  6
CONTINUOUS
 10
28.300202
 20
10.316926
 30
-0.000000
 40
0.148597
 50
80.303427
 51
100.482355
  0
LINE
  8
Default
 62
   202
  6
CONTINUOUS
 10
28.257050
 20
10.460511
 30
-0.000000
 11
28.273167
 21
10.463043
 31
0.000000
  0
LINE
  8
Default
 62
   202
  6
CONTINUOUS
 10
28.257050
 20
10.460511
 30
-0.000000
 11
28.278874
 21
10.554457
 31
-0.000000
  0
LINE
  8
Default
 62
   202
  6
CONTINUOUS
 10
28.278874
 20
10.554457
 30
-0.000000
 11
28.356897
 21
10.566214
 31
-0.000000
  0
LINE
  8
Default
 62
   202
  6
CONTINUOUS
 10
28.356897
 20
10.566214
 30
-0.000000
 11
28.569873
 21
10.598345
 31
-0.000000
  0
LINE
  8
Default
 62
   202
  6
CONTINUOUS
 10
28.569873
 20
10.598345
 30
-0.000000
 11
28.655269
 21
10.611270
 31
-0.000000
  0
LINE
  8
Default
 62
   202
  6
CONTINUOUS
 10
28.655269
 20
10.611270
 30
-0.000000
 11
28.701129
 21
10.306551
 31
-0.000000
  0
LINE
  8
Default
 62
   202
  6
CONTINUOUS
 10
28.701129
 20
10.306551
 30
-0.000000
 11
28.762163
 21
9.901119
 31
-0.000000
  0
ARC
  8
Default
 62
   202
  6
CONTINUOUS
 10
30.229927
 20
10.122075
 30
-0.000000
 40
1.484302
 50
188.560982
 51
195.601652
  0
ARC
  8
Default
 62
   202
  6
CONTINUOUS
 10
29.158614
 20
9.822926
 30
-0.000000
 40
0.372007
 50
195.601652
 51
204.882129
  0
ARC
  8
Default
 62
   202
  6
CONTINUOUS
 10
29.021012
 20
9.759106
 30
-0.000000
 40
0.220325
 50
204.882129
 51
227.629257
  0
ARC
  8
Default
 62
   202
  6
CONTINUOUS
 10
29.030141
 20
9.769113
 30
-0.000000
 40
0.233871
 50
227.629257
 51
251.193025
  0
ARC
  8
Default
 62
   202
  6
CONTINUOUS
 10
29.048471
 20
9.822935
 30
-0.000000
 40
0.290729
 50
251.193025
 51
279.591480
  0
ARC
  8
Default
 62
   202
  6
CONTINUOUS
 10
29.046732
 20
9.892480
 30
-0.000000
 40
0.359727
 50
278.018777
 51
293.883680
  0
ARC
  8
Default
 62
   202
  6
CONTINUOUS
 10
29.077339
 20
9.823357
 30
-0.000000
 40
0.284130
 50
293.883680
 51
319.992075
  0
ARC
  8
Default
 62
   202
  6
CONTINUOUS
 10
29.126686
 20
9.787654
 30
-0.000000
 40
0.223422
 50
318.869419
 51
350.830979
  0
ARC
  8
Default
 62
   202
  6
CONTINUOUS
 10
28.835233
 20
9.820290
 30
-0.000000
 40
0.516548
 50
352.408847
 51
362.718218
  0
ARC
  8
Default
 62
   202
  6
CONTINUOUS
 10
27.458063
 20
9.754905
 30
-0.000000
 40
1.895269
 50
2.718218
 51
8.257020
  0
LINE
  8
Default
 62
   202
  6
CONTINUOUS
 10
29.333685
 20
10.027092
 30
-0.000000
 11
29.285783
 21
10.357183
 31
-0.000000
  0
ARC
  8
Default
 62
   202
  6
CONTINUOUS
 10
27.837789
 20
10.147053
 30
-0.000000
 40
1.463161
 50
8.257020
 51
18.567332
  0
ARC
  8
Default
 62
   202
  6
CONTINUOUS
 10
28.775297
 20
10.461964
 30
-0.000000
 40
0.474177
 50
18.567332
 51
29.065340
  0
LINE
  8
Default
 62
   202
  6
CONTINUOUS
 10
29.267782
 20
10.704080
 30
-0.000000
 11
29.189759
 21
10.692323
 31
-0.000000
  0
LINE
  8
Default
 62
   202
  6
CONTINUOUS
 10
29.267782
 20
10.704080
 30
-0.000000
 11
29.383361
 21
10.721344
 31
-0.000000
  0
LINE
  8
Default
 62
   202
  6
CONTINUOUS
 10
29.383361
 20
10.721344
 30
-0.000000
 11
29.457781
 21
10.732691
 31
-0.000000
  0
ARC
  8
Default
 62
   202
  6
CONTINUOUS
 10
28.193740
 20
10.705358
 30
-0.000000
 40
1.264336
 50
357.644995
 51
361.238742
  0
ARC
  8
Default
 62
   202
  6
CONTINUOUS
 10
32.137608
 20
10.816308
 30
-0.000000
 40
2.685545
 50
183.477652
 51
188.583730
  0
LINE
  8
Default
 62
   202
  6
CONTINUOUS
 10
29.482144
 20
10.415479
 30
-0.000000
 11
29.538036
 21
10.045201
 31
-0.000000
  0
ARC
  8
Default
 62
   202
  6
CONTINUOUS
 10
22.971385
 20
9.053996
 30
-0.000000
 40
6.641039
 50
7.213278
 51
8.583730
  0
ARC
  8
Default
 62
   202
  6
CONTINUOUS
 10
29.119620
 20
9.821630
 30
-0.000000
 40
0.445198
 50
344.424923
 51
368.556019
  0
ARC
  8
Default
 62
   202
  6
CONTINUOUS
 10
29.210014
 20
9.803806
 30
-0.000000
 40
0.353409
 50
311.141568
 51
343.273608
  0
ARC
  8
Default
 62
   202
  6
CONTINUOUS
 10
29.060439
 20
9.975017
 30
-0.000000
 40
0.580755
 50
292.947083
 51
311.141568
  0
ARC
  8
Default
 62
   202
  6
CONTINUOUS
 10
28.969839
 20
10.189004
 30
-0.000000
 40
0.813131
 50
278.027349
 51
292.947083
  0
ARC
  8
Default
 62
   202
  6
CONTINUOUS
 10
28.935852
 20
10.284201
 30
-0.000000
 40
0.912369
 50
265.354727
 51
279.306079
  0
ARC
  8
Default
 62
   202
  6
CONTINUOUS
 10
28.900606
 20
9.850416
 30
-0.000000
 40
0.477154
 50
246.437896
 51
265.354727
  0
LINE
  8
Default
 62
   202
  6
CONTINUOUS
 10
30.203794
 20
9.589833
 30
0.000000
 11
30.068669
 21
9.560170
 31
0.000000
  0
LINE
  8
Default
 62
   202
  6
CONTINUOUS
 10
30.068669
 20
9.560170
 30
0.000000
 11
30.068171
 21
9.643044
 31
0.000000
  0
ARC
  8
Default
 62
   202
  6
CONTINUOUS
 10
29.117632
 20
9.585398
 30
0.000000
 40
0.952286
 50
3.470473
 51
8.969738
  0
ARC
  8
Default
 62
   202
  6
CONTINUOUS
 10
27.498868
 20
9.329887
 30
0.000000
 40
2.591091
 50
8.969738
 51
12.393903
  0
LINE
  8
Default
 62
   202
  6
CONTINUOUS
 10
30.029574
 20
9.886017
 30
0.000000
 11
29.901540
 21
10.468641
 31
0.000000
  0
ARC
  8
Default
 62
   202
  6
CONTINUOUS
 10
28.464219
 20
10.152786
 30
0.000000
 40
1.471617
 50
12.393903
 51
16.356171
  0
ARC
  8
Default
 62
   202
  6
CONTINUOUS
 10
29.362522
 20
10.416425
 30
0.000000
 40
0.535426
 50
16.356171
 51
24.985346
  0
ARC
  8
Default
 62
   202
  6
CONTINUOUS
 10
29.792068
 20
10.616591
 30
0.000000
 40
0.061532
 50
24.985346
 51
71.813727
  0
ARC
  8
Default
 62
   202
  6
CONTINUOUS
 10
29.784612
 20
10.593895
 30
0.000000
 40
0.085421
 50
71.813727
 51
88.930631
  0
ARC
  8
Default
 62
   202
  6
CONTINUOUS
 10
29.783190
 20
10.517722
 30
0.000000
 40
0.161607
 50
88.930631
 51
103.252552
  0
LINE
  8
Default
 62
   202
  6
CONTINUOUS
 10
29.746142
 20
10.675026
 30
0.000000
 11
29.729528
 21
10.671452
 31
0.000000
  0
LINE
  8
Default
 62
   202
  6
CONTINUOUS
 10
29.729528
 20
10.671452
 30
0.000000
 11
29.745321
 21
10.766147
 31
0.000000
  0
LINE
  8
Default
 62
   202
  6
CONTINUOUS
 10
29.745321
 20
10.766147
 30
0.000000
 11
29.922402
 21
10.805182
 31
0.000000
  0
LINE
  8
Default
 62
   202
  6
CONTINUOUS
 10
29.922402
 20
10.805182
 30
0.000000
 11
30.355353
 21
10.900180
 31
0.000000
  0
ARC
  8
Default
 62
   202
  6
CONTINUOUS
 10
30.498524
 20
10.347428
 30
0.000000
 40
0.570994
 50
91.072548
 51
104.521315
  0
ARC
  8
Default
 62
   202
  6
CONTINUOUS
 10
30.493282
 20
10.627467
 30
0.000000
 40
0.290905
 50
69.037100
 51
91.072548
  0
ARC
  8
Default
 62
   202
  6
CONTINUOUS
 10
30.520805
 20
10.699306
 30
0.000000
 40
0.213974
 50
40.002748
 51
69.037100
  0
ARC
  8
Default
 62
   202
  6
CONTINUOUS
 10
30.475504
 20
10.669180
 30
0.000000
 40
0.268109
 50
10.776500
 51
38.711256
  0
ARC
  8
Default
 62
   202
  6
CONTINUOUS
 10
30.453232
 20
10.653606
 30
0.000000
 40
0.293112
 50
357.752729
 51
372.953473
  0
ARC
  8
Default
 62
   202
  6
CONTINUOUS
 10
30.505444
 20
10.651557
 30
0.000000
 40
0.240860
 50
321.841643
 51
357.752729
  0
ARC
  8
Default
 62
   202
  6
CONTINUOUS
 10
30.373071
 20
10.755569
 30
0.000000
 40
0.409207
 50
313.276479
 51
321.841643
  0
ARC
  8
Default
 62
   202
  6
CONTINUOUS
 10
30.013507
 20
11.137443
 30
0.000000
 40
0.933721
 50
306.282522
 51
313.276479
  0
LINE
  8
Default
 62
   202
  6
CONTINUOUS
 10
30.570193
 20
10.374693
 30
0.000000
 11
30.566052
 21
10.384762
 31
0.000000
  0
LINE
  8
Default
 62
   202
  6
CONTINUOUS
 10
30.570193
 20
10.374693
 30
0.000000
 11
30.614805
 21
10.384475
 31
0.000000
  0
ARC
  8
Default
 62
   202
  6
CONTINUOUS
 10
30.702794
 20
9.983177
 30
0.000000
 40
0.410831
 50
87.104705
 51
102.367089
  0
ARC
  8
Default
 62
   202
  6
CONTINUOUS
 10
30.710310
 20
10.131779
 30
0.000000
 40
0.262039
 50
69.039428
 51
87.104705
  0
ARC
  8
Default
 62
   202
  6
CONTINUOUS
 10
30.720840
 20
10.159269
 30
0.000000
 40
0.232602
 50
32.112702
 51
69.039428
  0
ARC
  8
Default
 62
   202
  6
CONTINUOUS
 10
30.631617
 20
10.103271
 30
0.000000
 40
0.337942
 50
11.196540
 51
32.112702
  0
ARC
  8
Default
 62
   202
  6
CONTINUOUS
 10
30.561530
 20
10.074113
 30
0.000000
 40
0.412629
 50
355.072609
 51
373.278972
  0
ARC
  8
Default
 62
   202
  6
CONTINUOUS
 10
30.636546
 20
10.067646
 30
0.000000
 40
0.337335
 50
326.748004
 51
355.072609
  0
ARC
  8
Default
 62
   202
  6
CONTINUOUS
 10
30.570538
 20
10.110926
 30
0.000000
 40
0.416267
 50
309.589841
 51
326.748004
  0
ARC
  8
Default
 62
   202
  6
CONTINUOUS
 10
30.535562
 20
10.153220
 30
0.000000
 40
0.471149
 50
294.980282
 51
309.589841
  0
ARC
  8
Default
 62
   202
  6
CONTINUOUS
 10
30.396547
 20
10.451606
 30
0.000000
 40
0.800329
 50
283.267515
 51
294.980282
  0
LINE
  8
Default
 62
   202
  6
CONTINUOUS
 10
30.453053
 20
9.644792
 30
0.000000
 11
30.203794
 21
9.589833
 31
0.000000
  0
ARC
  8
Default
 62
   202
  6
CONTINUOUS
 10
30.459899
 20
9.908512
 30
0.000000
 40
0.169595
 50
199.309314
 51
222.256788
  0
ARC
  8
Default
 62
   202
  6
CONTINUOUS
 10
30.919265
 20
10.089153
 30
0.000000
 40
0.663113
 50
192.389620
 51
200.915088
  0
LINE
  8
Default
 62
   202
  6
CONTINUOUS
 10
30.140637
 20
10.543021
 30
0.000000
 11
30.271595
 21
9.946877
 31
0.000000
  0
LINE
  8
Default
 62
   202
  6
CONTINUOUS
 10
30.140637
 20
10.543021
 30
0.000000
 11
30.107224
 21
10.722958
 31
0.000000
  0
ARC
  8
Default
 62
   202
  6
CONTINUOUS
 10
30.471334
 20
9.666024
 30
0.000000
 40
1.117894
 50
103.349916
 51
109.008618
  0
ARC
  8
Default
 62
   202
  6
CONTINUOUS
 10
30.281743
 20
10.464940
 30
0.000000
 40
0.296790
 50
84.507974
 51
103.349916
  0
ARC
  8
Default
 62
   202
  6
CONTINUOUS
 10
30.292609
 20
10.577953
 30
0.000000
 40
0.183255
 50
59.559894
 51
84.507974
  0
ARC
  8
Default
 62
   202
  6
CONTINUOUS
 10
30.302087
 20
10.594081
 30
0.000000
 40
0.164549
 50
29.905420
 51
59.559894
  0
ARC
  8
Default
 62
   202
  6
CONTINUOUS
 10
30.241191
 20
10.559057
 30
0.000000
 40
0.234798
 50
11.627939
 51
29.905420
  0
ARC
  8
Default
 62
   202
  6
CONTINUOUS
 10
30.190788
 20
10.538092
 30
0.000000
 40
0.288579
 50
354.154189
 51
373.688371
  0
ARC
  8
Default
 62
   202
  6
CONTINUOUS
 10
30.320220
 20
10.524840
 30
0.000000
 40
0.158470
 50
323.014093
 51
354.154189
  0
ARC
  8
Default
 62
   202
  6
CONTINUOUS
 10
30.315383
 20
10.532525
 30
0.000000
 40
0.166988
 50
298.039376
 51
321.906472
  0
ARC
  8
Default
 62
   202
  6
CONTINUOUS
 10
30.259117
 20
10.638170
 30
0.000000
 40
0.286683
 50
281.984759
 51
298.039376
  0
LINE
  8
Default
 62
   202
  6
CONTINUOUS
 10
30.281936
 20
10.349943
 30
0.000000
 11
30.318647
 21
10.357736
 31
0.000000
  0
LINE
  8
Default
 62
   202
  6
CONTINUOUS
 10
30.285625
 20
10.289827
 30
0.000000
 11
30.281936
 21
10.349943
 31
0.000000
  0
LINE
  8
Default
 62
   202
  6
CONTINUOUS
 10
30.285625
 20
10.289827
 30
0.000000
 11
30.282832
 21
10.226839
 31
0.000000
  0
ARC
  8
Default
 62
   202
  6
CONTINUOUS
 10
30.732289
 20
8.872265
 30
0.000000
 40
1.427194
 50
103.669462
 51
108.356174
  0
ARC
  8
Default
 62
   202
  6
CONTINUOUS
 10
30.471867
 20
9.943037
 30
0.000000
 40
0.325208
 50
84.022193
 51
103.669462
  0
ARC
  8
Default
 62
   202
  6
CONTINUOUS
 10
30.486956
 20
10.087133
 30
0.000000
 40
0.180325
 50
52.719159
 51
84.022193
  0
ARC
  8
Default
 62
   202
  6
CONTINUOUS
 10
30.476617
 20
10.079563
 30
0.000000
 40
0.192645
 50
27.946328
 51
51.636021
  0
ARC
  8
Default
 62
   202
  6
CONTINUOUS
 10
30.352660
 20
10.013803
 30
0.000000
 40
0.332965
 50
11.631350
 51
27.946328
  0
ARC
  8
Default
 62
   202
  6
CONTINUOUS
 10
30.397258
 20
10.013346
 30
0.000000
 40
0.289529
 50
352.892580
 51
373.499677
  0
ARC
  8
Default
 62
   202
  6
CONTINUOUS
 10
30.469308
 20
10.004362
 30
0.000000
 40
0.216921
 50
320.842199
 51
352.892580
  0
ARC
  8
Default
 62
   202
  6
CONTINUOUS
 10
30.460730
 20
10.011347
 30
0.000000
 40
0.227983
 50
298.605098
 51
320.842199
  0
LINE
  8
Default
 62
     7
  6
CONTINUOUS
 10
30.580221
 20
9.672639
 30
0.000000
 11
30.545429
 21
9.799154
 31
0.000000
  0
LINE
  8
Default
 62
     7
  6
CONTINUOUS
 10
30.418624
 20
9.769987
 30
0.000000
 11
30.453053
 21
9.644792
 31
0.000000
  0
ARC
  8
Default
 62
   202
  6
CONTINUOUS
 10
30.397545
 20
9.865571
 30
0.000000
 40
0.095112
 50
228.381307
 51
267.293057
  0
LINE
  8
Layer 1
 62
     7
  6
CONTINUOUS
 10
22.123571
 20
13.849166
 30
0.000000
 11
21.659056
 21
13.511927
 31
0.000000
  0
LINE
  8
Default
 62
     5
  6
CONTINUOUS
 10
5.420214
 20
17.081968
 30
0.000000
 11
1.687785
 21
17.081968
 31
0.000000
  0
LINE
  8
Default
 62
     5
  6
CONTINUOUS
 10
1.687785
 20
17.081968
 30
0.000000
 11
1.687785
 21
16.665428
 31
0.000000
  0
LINE
  8
Default
 62
     5
  6
CONTINUOUS
 10
1.687785
 20
16.665428
 30
0.000000
 11
2.931537
 21
16.665428
 31
0.000000
  0
LINE
  8
Default
 62
     5
  6
CONTINUOUS
 10
2.931537
 20
16.665428
 30
0.000000
 11
2.931537
 21
13.343672
 31
0.000000
  0
LINE
  8
Default
 62
     5
  6
CONTINUOUS
 10
2.931537
 20
13.343672
 30
0.000000
 11
4.176462
 21
13.343672
 31
0.000000
  0
LINE
  8
Default
 62
     5
  6
CONTINUOUS
 10
4.176462
 20
13.343672
 30
0.000000
 11
4.176462
 21
16.665428
 31
0.000000
  0
LINE
  8
Default
 62
     5
  6
CONTINUOUS
 10
4.176462
 20
16.665428
 30
0.000000
 11
5.420214
 21
16.665428
 31
0.000000
  0
LINE
  8
Default
 62
     5
  6
CONTINUOUS
 10
5.420214
 20
16.665428
 30
0.000000
 11
5.420214
 21
17.081968
 31
0.000000
  0
ARC
  8
Default
 62
     5
  6
CONTINUOUS
 10
8.560446
 20
15.962607
 30
0.000000
 40
0.917643
 50
305.459895
 51
333.811603
  0
ARC
  8
Default
 62
     5
  6
CONTINUOUS
 10
8.636597
 20
15.925155
 30
0.000000
 40
0.832781
 50
333.811603
 51
347.050334
  0
ARC
  8
Default
 62
     5
  6
CONTINUOUS
 10
8.181546
 20
16.029791
 30
0.000000
 40
1.299707
 50
347.050334
 51
353.560153
  0
ARC
  8
Default
 62
     5
  6
CONTINUOUS
 10
8.100834
 20
16.038901
 30
0.000000
 40
1.380932
 50
353.560153
 51
369.351853
  0
ARC
  8
Default
 62
     5
  6
CONTINUOUS
 10
8.466682
 20
16.099151
 30
0.000000
 40
1.010156
 50
9.351853
 51
21.711552
  0
ARC
  8
Default
 62
     5
  6
CONTINUOUS
 10
8.584326
 20
16.145995
 30
0.000000
 40
0.883529
 50
21.711552
 51
41.119685
  0
ARC
  8
Default
 62
     5
  6
CONTINUOUS
 10
8.533526
 20
16.101649
 30
0.000000
 40
0.950961
 50
41.119685
 51
53.976619
  0
ARC
  8
Default
 62
     5
  6
CONTINUOUS
 10
8.477152
 20
16.062568
 30
0.000000
 40
1.015975
 50
52.701407
 51
73.791652
  0
ARC
  8
Default
 62
     5
  6
CONTINUOUS
 10
8.453104
 20
15.979839
 30
0.000000
 40
1.102128
 50
73.791652
 51
90.000000
  0
LINE
  8
Default
 62
     5
  6
CONTINUOUS
 10
5.742885
 20
17.081968
 30
0.000000
 11
8.453104
 21
17.081968
 31
0.000000
  0
LINE
  8
Default
 62
     5
  6
CONTINUOUS
 10
5.742885
 20
17.081968
 30
0.000000
 11
5.742885
 21
13.343672
 31
0.000000
  0
LINE
  8
Default
 62
     5
  6
CONTINUOUS
 10
5.742885
 20
13.343672
 30
0.000000
 11
6.992504
 21
13.343672
 31
0.000000
  0
LINE
  8
Default
 62
     5
  6
CONTINUOUS
 10
6.992504
 20
13.343672
 30
0.000000
 11
6.992504
 21
16.665428
 31
0.000000
  0
LINE
  8
Default
 62
     5
  6
CONTINUOUS
 10
6.992504
 20
16.665428
 30
0.000000
 11
7.623075
 21
16.665428
 31
0.000000
  0
ARC
  8
Default
 62
     5
  6
CONTINUOUS
 10
7.623075
 20
15.915835
 30
0.000000
 40
0.749593
 50
73.974941
 51
90.000000
  0
ARC
  8
Default
 62
     5
  6
CONTINUOUS
 10
7.674824
 20
16.096008
 30
0.000000
 40
0.562135
 50
47.744445
 51
73.974941
  0
ARC
  8
Default
 62
     5
  6
CONTINUOUS
 10
7.697697
 20
16.121186
 30
0.000000
 40
0.528119
 50
21.980479
 51
47.744445
  0
ARC
  8
Default
 62
     5
  6
CONTINUOUS
 10
7.604225
 20
16.083457
 30
0.000000
 40
0.628918
 50
9.930791
 51
21.980479
  0
ARC
  8
Default
 62
     5
  6
CONTINUOUS
 10
7.399026
 20
16.047531
 30
0.000000
 40
0.837239
 50
4.382832
 51
9.930791
  0
ARC
  8
Default
 62
     5
  6
CONTINUOUS
 10
7.328690
 20
16.042140
 30
0.000000
 40
0.907781
 50
350.011213
 51
364.382832
  0
ARC
  8
Default
 62
     5
  6
CONTINUOUS
 10
7.610778
 20
15.992457
 30
0.000000
 40
0.621351
 50
336.820938
 51
350.011213
  0
ARC
  8
Default
 62
     5
  6
CONTINUOUS
 10
7.721607
 20
15.945004
 30
0.000000
 40
0.500791
 50
298.800001
 51
336.820938
  0
ARC
  8
Default
 62
     5
  6
CONTINUOUS
 10
7.664063
 20
16.025543
 30
0.000000
 40
0.599203
 50
284.031075
 51
299.911743
  0
ARC
  8
Default
 62
     5
  6
CONTINUOUS
 10
7.616626
 20
16.215362
 30
0.000000
 40
0.794859
 50
270.000000
 51
284.031075
  0
LINE
  8
Default
 62
     5
  6
CONTINUOUS
 10
7.403176
 20
15.420503
 30
0.000000
 11
7.616626
 21
15.420503
 31
0.000000
  0
LINE
  8
Default
 62
     5
  6
CONTINUOUS
 10
7.403176
 20
15.420503
 30
0.000000
 11
7.403176
 21
15.003963
 31
0.000000
  0
LINE
  8
Default
 62
     5
  6
CONTINUOUS
 10
7.403176
 20
15.003963
 30
0.000000
 11
7.618776
 21
15.003963
 31
0.000000
  0
ARC
  8
Default
 62
     5
  6
CONTINUOUS
 10
7.618776
 20
14.214804
 30
0.000000
 40
0.789159
 50
73.919772
 51
90.000000
  0
ARC
  8
Default
 62
     5
  6
CONTINUOUS
 10
7.684912
 20
14.444234
 30
0.000000
 40
0.550387
 50
54.391132
 51
73.919772
  0
ARC
  8
Default
 62
     5
  6
CONTINUOUS
 10
7.699212
 20
14.464202
 30
0.000000
 40
0.525827
 50
21.994195
 51
54.391132
  0
ARC
  8
Default
 62
     5
  6
CONTINUOUS
 10
7.595783
 20
14.422426
 30
0.000000
 40
0.637375
 50
9.788799
 51
21.994195
  0
ARC
  8
Default
 62
     5
  6
CONTINUOUS
 10
7.386080
 20
14.386246
 30
0.000000
 40
0.850176
 50
0.000000
 51
9.788799
  0
LINE
  8
Default
 62
     5
  6
CONTINUOUS
 10
8.236255
 20
13.343672
 30
0.000000
 11
8.236255
 21
14.386246
 31
0.000000
  0
LINE
  8
Default
 62
     5
  6
CONTINUOUS
 10
8.236255
 20
13.343672
 30
0.000000
 11
9.481180
 21
13.343672
 31
0.000000
  0
LINE
  8
Default
 62
     5
  6
CONTINUOUS
 10
9.481180
 20
13.343672
 30
0.000000
 11
9.481180
 21
14.380324
 31
0.000000
  0
ARC
  8
Default
 62
     5
  6
CONTINUOUS
 10
8.443912
 20
14.380324
 30
0.000000
 40
1.037268
 50
0.000000
 51
11.051576
  0
ARC
  8
Default
 62
     5
  6
CONTINUOUS
 10
8.230519
 20
14.338645
 30
0.000000
 40
1.254694
 50
11.051576
 51
18.797981
  0
ARC
  8
Default
 62
     5
  6
CONTINUOUS
 10
8.420005
 20
14.403144
 30
0.000000
 40
1.054531
 50
18.797981
 51
50.356762
  0
LINE
  8
Default
 62
     5
  6
CONTINUOUS
 10
13.530413
 20
17.081968
 30
0.000000
 11
12.286662
 21
17.081968
 31
0.000000
  0
LINE
  8
Default
 62
     5
  6
CONTINUOUS
 10
12.286662
 20
17.081968
 30
0.000000
 11
12.286662
 21
14.373582
 31
0.000000
  0
ARC
  8
Default
 62
     5
  6
CONTINUOUS
 10
11.540328
 20
14.373582
 30
0.000000
 40
0.746334
 50
344.023212
 51
360.000000
  0
ARC
  8
Default
 62
     5
  6
CONTINUOUS
 10
11.714650
 20
14.323672
 30
0.000000
 40
0.565008
 50
317.540388
 51
344.023212
  0
ARC
  8
Default
 62
     5
  6
CONTINUOUS
 10
11.742190
 20
14.298472
 30
0.000000
 40
0.527678
 50
292.003029
 51
317.540388
  0
ARC
  8
Default
 62
     5
  6
CONTINUOUS
 10
11.703936
 20
14.393140
 30
0.000000
 40
0.629783
 50
279.553704
 51
292.003029
  0
ARC
  8
Default
 62
     5
  6
CONTINUOUS
 10
11.663111
 20
14.635701
 30
0.000000
 40
0.875755
 50
266.604050
 51
279.553704
  0
ARC
  8
Default
 62
     5
  6
CONTINUOUS
 10
11.655583
 20
14.508824
 30
0.000000
 40
0.748655
 50
254.076602
 51
266.604050
  0
ARC
  8
Default
 62
     5
  6
CONTINUOUS
 10
11.605203
 20
14.332238
 30
0.000000
 40
0.565024
 50
227.484072
 51
254.076602
  0
ARC
  8
Default
 62
     5
  6
CONTINUOUS
 10
11.580496
 20
14.305290
 30
0.000000
 40
0.528464
 50
201.979452
 51
227.484072
  0
ARC
  8
Default
 62
     5
  6
CONTINUOUS
 10
11.672118
 20
14.342270
 30
0.000000
 40
0.627267
 50
189.978223
 51
201.979452
  0
ARC
  8
Default
 62
     5
  6
CONTINUOUS
 10
11.874894
 20
14.377945
 30
0.000000
 40
0.833157
 50
180.000000
 51
189.978223
  0
LINE
  8
Default
 62
     5
  6
CONTINUOUS
 10
11.041737
 20
17.081968
 30
0.000000
 11
11.041737
 21
14.377945
 31
0.000000
  0
LINE
  8
Default
 62
     5
  6
CONTINUOUS
 10
11.041737
 20
17.081968
 30
0.000000
 11
9.797985
 21
17.081968
 31
0.000000
  0
LINE
  8
Default
 62
     5
  6
CONTINUOUS
 10
9.797985
 20
17.081968
 30
0.000000
 11
9.797985
 21
14.374845
 31
0.000000
  0
ARC
  8
Default
 62
     5
  6
CONTINUOUS
 10
10.961547
 20
14.374845
 30
0.000000
 40
1.163562
 50
180.000000
 51
193.159249
  0
ARC
  8
Default
 62
     5
  6
CONTINUOUS
 10
10.817864
 20
14.341252
 30
0.000000
 40
1.016004
 50
193.159249
 51
217.256107
  0
ARC
  8
Default
 62
     5
  6
CONTINUOUS
 10
10.726891
 20
14.240575
 30
0.000000
 40
0.883003
 50
215.629842
 51
246.095474
  0
ARC
  8
Default
 62
     5
  6
CONTINUOUS
 10
10.756840
 20
14.308145
 30
0.000000
 40
0.956913
 50
246.095474
 51
257.626016
  0
ARC
  8
Default
 62
     5
  6
CONTINUOUS
 10
10.826574
 20
14.626002
 30
0.000000
 40
1.282329
 50
257.626016
 51
270.000000
  0
LINE
  8
Default
 62
     5
  6
CONTINUOUS
 10
10.826574
 20
13.343672
 30
0.000000
 11
12.504066
 21
13.343672
 31
0.000000
  0
ARC
  8
Default
 62
     5
  6
CONTINUOUS
 10
12.504066
 20
14.488207
 30
0.000000
 40
1.144535
 50
270.000000
 51
282.145426
  0
ARC
  8
Default
 62
     5
  6
CONTINUOUS
 10
12.530549
 20
14.365151
 30
0.000000
 40
1.018661
 50
282.145426
 51
307.303942
  0
ARC
  8
Default
 62
     5
  6
CONTINUOUS
 10
12.633511
 20
14.272578
 30
0.000000
 40
0.883003
 50
305.629842
 51
336.095474
  0
ARC
  8
Default
 62
     5
  6
CONTINUOUS
 10
12.565940
 20
14.302528
 30
0.000000
 40
0.956913
 50
336.095474
 51
347.626016
  0
ARC
  8
Default
 62
     5
  6
CONTINUOUS
 10
12.248084
 20
14.372262
 30
0.000000
 40
1.282329
 50
347.626016
 51
360.000000
  0
LINE
  8
Default
 62
     5
  6
CONTINUOUS
 10
13.530413
 20
17.081968
 30
0.000000
 11
13.530413
 21
14.372262
 31
0.000000
  0
LINE
  8
Default
 62
     5
  6
CONTINUOUS
 10
17.585513
 20
17.081968
 30
0.000000
 11
13.853085
 21
17.081968
 31
0.000000
  0
LINE
  8
Default
 62
     5
  6
CONTINUOUS
 10
13.853085
 20
17.081968
 30
0.000000
 11
13.853085
 21
13.343672
 31
0.000000
  0
LINE
  8
Default
 62
     5
  6
CONTINUOUS
 10
13.853085
 20
13.343672
 30
0.000000
 11
17.585513
 21
13.343672
 31
0.000000
  0
LINE
  8
Default
 62
     5
  6
CONTINUOUS
 10
17.585513
 20
13.343672
 30
0.000000
 11
17.585513
 21
13.760212
 31
0.000000
  0
LINE
  8
Default
 62
     5
  6
CONTINUOUS
 10
17.585513
 20
13.760212
 30
0.000000
 11
15.096837
 21
13.760212
 31
0.000000
  0
LINE
  8
Default
 62
     5
  6
CONTINUOUS
 10
15.096837
 20
13.760212
 30
0.000000
 11
15.096837
 21
15.003963
 31
0.000000
  0
LINE
  8
Default
 62
     5
  6
CONTINUOUS
 10
15.096837
 20
15.003963
 30
0.000000
 11
15.925222
 21
15.003963
 31
0.000000
  0
LINE
  8
Default
 62
     5
  6
CONTINUOUS
 10
15.925222
 20
15.003963
 30
0.000000
 11
15.925222
 21
15.420503
 31
0.000000
  0
LINE
  8
Default
 62
     5
  6
CONTINUOUS
 10
15.925222
 20
15.420503
 30
0.000000
 11
15.096837
 21
15.420503
 31
0.000000
  0
LINE
  8
Default
 62
     5
  6
CONTINUOUS
 10
15.096837
 20
15.420503
 30
0.000000
 11
15.096837
 21
16.665428
 31
0.000000
  0
LINE
  8
Default
 62
     5
  6
CONTINUOUS
 10
15.096837
 20
16.665428
 30
0.000000
 11
17.585513
 21
16.665428
 31
0.000000
  0
LINE
  8
Default
 62
     5
  6
CONTINUOUS
 10
17.585513
 20
16.665428
 30
0.000000
 11
17.585513
 21
17.081968
 31
0.000000
  0
ARC
  8
Default
 62
     5
  6
CONTINUOUS
 10
29.355801
 20
15.822594
 30
0.000000
 40
0.933131
 50
305.220584
 51
328.582574
  0
ARC
  8
Default
 62
     5
  6
CONTINUOUS
 10
29.474225
 20
15.750259
 30
0.000000
 40
0.794363
 50
328.582574
 51
347.796635
  0
ARC
  8
Default
 62
     5
  6
CONTINUOUS
 10
28.849376
 20
15.885394
 30
0.000000
 40
1.433658
 50
347.796635
 51
365.811830
  0
ARC
  8
Default
 62
     5
  6
CONTINUOUS
 10
28.981199
 20
15.898812
 30
0.000000
 40
1.301154
 50
5.811830
 51
9.923839
  0
ARC
  8
Default
 62
     5
  6
CONTINUOUS
 10
29.267842
 20
15.948962
 30
0.000000
 40
1.010156
 50
9.923839
 51
21.711552
  0
ARC
  8
Default
 62
     5
  6
CONTINUOUS
 10
29.385486
 20
15.995806
 30
0.000000
 40
0.883529
 50
21.711552
 51
41.119685
  0
ARC
  8
Default
 62
     5
  6
CONTINUOUS
 10
29.334687
 20
15.951460
 30
0.000000
 40
0.950961
 50
41.119685
 51
53.976619
  0
ARC
  8
Default
 62
     5
  6
CONTINUOUS
 10
29.278312
 20
15.912379
 30
0.000000
 40
1.015975
 50
52.701407
 51
73.791652
  0
ARC
  8
Default
 62
     5
  6
CONTINUOUS
 10
29.254264
 20
15.829650
 30
0.000000
 40
1.102128
 50
73.791652
 51
90.000000
  0
LINE
  8
Default
 62
     5
  6
CONTINUOUS
 10
26.544046
 20
16.931779
 30
0.000000
 11
29.254264
 21
16.931779
 31
0.000000
  0
LINE
  8
Default
 62
     5
  6
CONTINUOUS
 10
26.544046
 20
16.931779
 30
0.000000
 11
26.544046
 21
13.193483
 31
0.000000
  0
LINE
  8
Default
 62
     5
  6
CONTINUOUS
 10
26.544046
 20
13.193483
 30
0.000000
 11
27.793664
 21
13.193483
 31
0.000000
  0
LINE
  8
Default
 62
     5
  6
CONTINUOUS
 10
27.793664
 20
13.193483
 30
0.000000
 11
27.793664
 21
16.515239
 31
0.000000
  0
LINE
  8
Default
 62
     5
  6
CONTINUOUS
 10
27.793664
 20
16.515239
 30
0.000000
 11
28.424235
 21
16.515239
 31
0.000000
  0
ARC
  8
Default
 62
     5
  6
CONTINUOUS
 10
28.424235
 20
15.765646
 30
0.000000
 40
0.749593
 50
73.974941
 51
90.000000
  0
ARC
  8
Default
 62
     5
  6
CONTINUOUS
 10
28.475984
 20
15.945820
 30
0.000000
 40
0.562135
 50
47.744445
 51
73.974941
  0
ARC
  8
Default
 62
     5
  6
CONTINUOUS
 10
28.498858
 20
15.970997
 30
0.000000
 40
0.528119
 50
21.980479
 51
47.744445
  0
ARC
  8
Default
 62
     5
  6
CONTINUOUS
 10
28.405386
 20
15.933268
 30
0.000000
 40
0.628918
 50
9.930791
 51
21.980479
  0
ARC
  8
Default
 62
     5
  6
CONTINUOUS
 10
28.200187
 20
15.897342
 30
0.000000
 40
0.837239
 50
4.382832
 51
9.930791
  0
ARC
  8
Default
 62
     5
  6
CONTINUOUS
 10
28.129851
 20
15.891951
 30
0.000000
 40
0.907781
 50
350.011213
 51
364.382832
  0
ARC
  8
Default
 62
     5
  6
CONTINUOUS
 10
28.411938
 20
15.842268
 30
0.000000
 40
0.621351
 50
336.820938
 51
350.011213
  0
ARC
  8
Default
 62
     5
  6
CONTINUOUS
 10
28.522767
 20
15.794815
 30
0.000000
 40
0.500791
 50
298.800001
 51
336.820938
  0
ARC
  8
Default
 62
     5
  6
CONTINUOUS
 10
28.465223
 20
15.875354
 30
0.000000
 40
0.599203
 50
284.031075
 51
299.911743
  0
ARC
  8
Default
 62
     5
  6
CONTINUOUS
 10
28.417787
 20
16.065173
 30
0.000000
 40
0.794859
 50
270.000000
 51
284.031075
  0
LINE
  8
Default
 62
     5
  6
CONTINUOUS
 10
28.204337
 20
15.270314
 30
0.000000
 11
28.417787
 21
15.270314
 31
0.000000
  0
LINE
  8
Default
 62
     5
  6
CONTINUOUS
 10
28.204337
 20
15.270314
 30
0.000000
 11
28.204337
 21
14.853775
 31
0.000000
  0
LINE
  8
Default
 62
     5
  6
CONTINUOUS
 10
28.204337
 20
14.853775
 30
0.000000
 11
28.424235
 21
14.853775
 31
0.000000
  0
ARC
  8
Default
 62
     5
  6
CONTINUOUS
 10
28.424235
 20
14.104182
 30
0.000000
 40
0.749593
 50
73.974941
 51
90.000000
  0
ARC
  8
Default
 62
     5
  6
CONTINUOUS
 10
28.475984
 20
14.284355
 30
0.000000
 40
0.562135
 50
47.744445
 51
73.974941
  0
ARC
  8
Default
 62
     5
  6
CONTINUOUS
 10
28.498858
 20
14.309532
 30
0.000000
 40
0.528119
 50
21.980479
 51
47.744445
  0
ARC
  8
Default
 62
     5
  6
CONTINUOUS
 10
28.405386
 20
14.271804
 30
0.000000
 40
0.628918
 50
9.930791
 51
21.980479
  0
ARC
  8
Default
 62
     5
  6
CONTINUOUS
 10
28.200187
 20
14.235877
 30
0.000000
 40
0.837239
 50
4.428562
 51
9.930791
  0
ARC
  8
Default
 62
     5
  6
CONTINUOUS
 10
28.130624
 20
14.230490
 30
0.000000
 40
0.907009
 50
350.003487
 51
364.428562
  0
ARC
  8
Default
 62
     5
  6
CONTINUOUS
 10
28.414161
 20
14.180513
 30
0.000000
 40
0.619102
 50
336.762746
 51
350.003487
  0
ARC
  8
Default
 62
     5
  6
CONTINUOUS
 10
28.525711
 20
14.132616
 30
0.000000
 40
0.497704
 50
298.608861
 51
336.762746
  0
ARC
  8
Default
 62
     5
  6
CONTINUOUS
 10
28.465223
 20
14.215063
 30
0.000000
 40
0.599203
 50
284.031075
 51
299.911743
  0
ARC
  8
Default
 62
     5
  6
CONTINUOUS
 10
28.417787
 20
14.404882
 30
0.000000
 40
0.794859
 50
270.000000
 51
284.031075
  0
LINE
  8
Default
 62
     5
  6
CONTINUOUS
 10
28.204337
 20
13.610023
 30
0.000000
 11
28.417787
 21
13.610023
 31
0.000000
  0
LINE
  8
Default
 62
     5
  6
CONTINUOUS
 10
28.204337
 20
13.610023
 30
0.000000
 11
28.204337
 21
13.193483
 31
0.000000
  0
LINE
  8
Default
 62
     5
  6
CONTINUOUS
 10
28.204337
 20
13.193483
 30
0.000000
 11
29.251168
 21
13.193483
 31
0.000000
  0
ARC
  8
Default
 62
     5
  6
CONTINUOUS
 10
29.251168
 20
14.357045
 30
0.000000
 40
1.163562
 50
270.000000
 51
283.159249
  0
ARC
  8
Default
 62
     5
  6
CONTINUOUS
 10
29.284761
 20
14.213363
 30
0.000000
 40
1.016004
 50
283.159249
 51
307.256107
  0
ARC
  8
Default
 62
     5
  6
CONTINUOUS
 10
29.385438
 20
14.122389
 30
0.000000
 40
0.883003
 50
305.629842
 51
336.095474
  0
ARC
  8
Default
 62
     5
  6
CONTINUOUS
 10
29.317868
 20
14.152339
 30
0.000000
 40
0.956913
 50
336.095474
 51
347.655692
  0
ARC
  8
Default
 62
     5
  6
CONTINUOUS
 10
28.997016
 20
14.222556
 30
0.000000
 40
1.285358
 50
347.655692
 51
354.532399
  0
ARC
  8
Default
 62
     5
  6
CONTINUOUS
 10
28.901538
 20
14.231695
 30
0.000000
 40
1.381273
 50
354.532399
 51
370.213899
  0
ARC
  8
Default
 62
     5
  6
CONTINUOUS
 10
29.352337
 20
14.312919
 30
0.000000
 40
0.923215
 50
10.213899
 51
31.098694
  0
ARC
  8
Default
 62
     5
  6
CONTINUOUS
 10
29.308774
 20
14.286642
 30
0.000000
 40
0.974090
 50
31.098694
 51
37.705799
  0
ARC
  8
Default
 62
     5
  6
CONTINUOUS
 10
29.390956
 20
14.350172
 30
0.000000
 40
0.870215
 50
37.705799
 51
54.688255
  0
LINE
  8
Default
 62
     5
  6
CONTINUOUS
 10
34.331574
 20
13.610023
 30
0.000000
 11
31.842897
 21
13.610023
 31
0.000000
  0
LINE
  8
Default
 62
     5
  6
CONTINUOUS
 10
31.842897
 20
13.610023
 30
0.000000
 11
31.842897
 21
16.931779
 31
0.000000
  0
LINE
  8
Default
 62
     5
  6
CONTINUOUS
 10
31.842897
 20
16.931779
 30
0.000000
 11
30.599146
 21
16.931779
 31
0.000000
  0
LINE
  8
Default
 62
     5
  6
CONTINUOUS
 10
30.599146
 20
16.931779
 30
0.000000
 11
30.599146
 21
13.193483
 31
0.000000
  0
LINE
  8
Default
 62
     5
  6
CONTINUOUS
 10
30.599146
 20
13.193483
 30
0.000000
 11
34.331574
 21
13.193483
 31
0.000000
  0
LINE
  8
Default
 62
     5
  6
CONTINUOUS
 10
34.331574
 20
13.193483
 30
0.000000
 11
34.331574
 21
13.610023
 31
0.000000
  0
LINE
  8
Default
 62
     5
  6
CONTINUOUS
 10
38.386674
 20
16.931779
 30
0.000000
 11
37.142922
 21
16.931779
 31
0.000000
  0
LINE
  8
Default
 62
     5
  6
CONTINUOUS
 10
37.142922
 20
16.931779
 30
0.000000
 11
37.142922
 21
14.223393
 31
0.000000
  0
ARC
  8
Default
 62
     5
  6
CONTINUOUS
 10
36.396588
 20
14.223393
 30
0.000000
 40
0.746334
 50
344.023212
 51
360.000000
  0
ARC
  8
Default
 62
     5
  6
CONTINUOUS
 10
36.570910
 20
14.173483
 30
0.000000
 40
0.565008
 50
317.540388
 51
344.023212
  0
ARC
  8
Default
 62
     5
  6
CONTINUOUS
 10
36.598451
 20
14.148283
 30
0.000000
 40
0.527678
 50
292.003029
 51
317.540388
  0
ARC
  8
Default
 62
     5
  6
CONTINUOUS
 10
36.560196
 20
14.242951
 30
0.000000
 40
0.629783
 50
279.553704
 51
292.003029
  0
ARC
  8
Default
 62
     5
  6
CONTINUOUS
 10
36.519372
 20
14.485512
 30
0.000000
 40
0.875755
 50
266.604050
 51
279.553704
  0
ARC
  8
Default
 62
     5
  6
CONTINUOUS
 10
36.511843
 20
14.358635
 30
0.000000
 40
0.748655
 50
254.076602
 51
266.604050
  0
ARC
  8
Default
 62
     5
  6
CONTINUOUS
 10
36.461463
 20
14.182050
 30
0.000000
 40
0.565024
 50
227.484072
 51
254.076602
  0
ARC
  8
Default
 62
     5
  6
CONTINUOUS
 10
36.436756
 20
14.155102
 30
0.000000
 40
0.528464
 50
201.979452
 51
227.484072
  0
ARC
  8
Default
 62
     5
  6
CONTINUOUS
 10
36.528378
 20
14.192081
 30
0.000000
 40
0.627267
 50
189.978223
 51
201.979452
  0
ARC
  8
Default
 62
     5
  6
CONTINUOUS
 10
36.731154
 20
14.227756
 30
0.000000
 40
0.833157
 50
180.000000
 51
189.978223
  0
LINE
  8
Default
 62
     5
  6
CONTINUOUS
 10
35.897997
 20
16.931779
 30
0.000000
 11
35.897997
 21
14.227756
 31
0.000000
  0
LINE
  8
Default
 62
     5
  6
CONTINUOUS
 10
35.897997
 20
16.931779
 30
0.000000
 11
34.654245
 21
16.931779
 31
0.000000
  0
LINE
  8
Default
 62
     5
  6
CONTINUOUS
 10
34.654245
 20
16.931779
 30
0.000000
 11
34.654245
 21
14.224656
 31
0.000000
  0
ARC
  8
Default
 62
     5
  6
CONTINUOUS
 10
35.817807
 20
14.224656
 30
0.000000
 40
1.163562
 50
180.000000
 51
193.159249
  0
ARC
  8
Default
 62
     5
  6
CONTINUOUS
 10
35.674125
 20
14.191063
 30
0.000000
 40
1.016004
 50
193.159249
 51
217.256107
  0
ARC
  8
Default
 62
     5
  6
CONTINUOUS
 10
35.583151
 20
14.090386
 30
0.000000
 40
0.883003
 50
215.629842
 51
246.095474
  0
ARC
  8
Default
 62
     5
  6
CONTINUOUS
 10
35.613101
 20
14.157956
 30
0.000000
 40
0.956913
 50
246.095474
 51
257.626016
  0
ARC
  8
Default
 62
     5
  6
CONTINUOUS
 10
35.682835
 20
14.475813
 30
0.000000
 40
1.282329
 50
257.626016
 51
270.000000
  0
LINE
  8
Default
 62
     5
  6
CONTINUOUS
 10
35.682835
 20
13.193483
 30
0.000000
 11
37.360326
 21
13.193483
 31
0.000000
  0
ARC
  8
Default
 62
     5
  6
CONTINUOUS
 10
37.360326
 20
14.338018
 30
0.000000
 40
1.144535
 50
270.000000
 51
282.145426
  0
ARC
  8
Default
 62
     5
  6
CONTINUOUS
 10
37.386809
 20
14.214962
 30
0.000000
 40
1.018661
 50
282.145426
 51
307.303942
  0
ARC
  8
Default
 62
     5
  6
CONTINUOUS
 10
37.489771
 20
14.122389
 30
0.000000
 40
0.883003
 50
305.629842
 51
336.095474
  0
ARC
  8
Default
 62
     5
  6
CONTINUOUS
 10
37.422201
 20
14.152339
 30
0.000000
 40
0.956913
 50
336.095474
 51
347.626016
  0
ARC
  8
Default
 62
     5
  6
CONTINUOUS
 10
37.104345
 20
14.222073
 30
0.000000
 40
1.282329
 50
347.626016
 51
360.000000
  0
LINE
  8
Default
 62
     5
  6
CONTINUOUS
 10
38.386674
 20
16.931779
 30
0.000000
 11
38.386674
 21
14.222073
 31
0.000000
  0
LINE
  8
Default
 62
     5
  6
CONTINUOUS
 10
42.441774
 20
16.931779
 30
0.000000
 11
38.709345
 21
16.931779
 31
0.000000
  0
LINE
  8
Default
 62
     5
  6
CONTINUOUS
 10
38.709345
 20
16.931779
 30
0.000000
 11
38.709345
 21
13.193483
 31
0.000000
  0
LINE
  8
Default
 62
     5
  6
CONTINUOUS
 10
38.709345
 20
13.193483
 30
0.000000
 11
42.441774
 21
13.193483
 31
0.000000
  0
LINE
  8
Default
 62
     5
  6
CONTINUOUS
 10
42.441774
 20
13.193483
 30
0.000000
 11
42.441774
 21
13.610023
 31
0.000000
  0
LINE
  8
Default
 62
     5
  6
CONTINUOUS
 10
42.441774
 20
13.610023
 30
0.000000
 11
39.953097
 21
13.610023
 31
0.000000
  0
LINE
  8
Default
 62
     5
  6
CONTINUOUS
 10
39.953097
 20
13.610023
 30
0.000000
 11
39.953097
 21
14.853775
 31
0.000000
  0
LINE
  8
Default
 62
     5
  6
CONTINUOUS
 10
39.953097
 20
14.853775
 30
0.000000
 11
40.781483
 21
14.853775
 31
0.000000
  0
LINE
  8
Default
 62
     5
  6
CONTINUOUS
 10
40.781483
 20
14.853775
 30
0.000000
 11
40.781483
 21
15.270314
 31
0.000000
  0
LINE
  8
Default
 62
     5
  6
CONTINUOUS
 10
40.781483
 20
15.270314
 30
0.000000
 11
39.953097
 21
15.270314
 31
0.000000
  0
LINE
  8
Default
 62
     5
  6
CONTINUOUS
 10
39.953097
 20
15.270314
 30
0.000000
 11
39.953097
 21
16.515239
 31
0.000000
  0
LINE
  8
Default
 62
     5
  6
CONTINUOUS
 10
39.953097
 20
16.515239
 30
0.000000
 11
42.441774
 21
16.515239
 31
0.000000
  0
LINE
  8
Default
 62
     5
  6
CONTINUOUS
 10
42.441774
 20
16.515239
 30
0.000000
 11
42.441774
 21
16.931779
 31
0.000000
  0
LINE
  8
Default
 62
   202
  6
CONTINUOUS
 10
22.854886
 20
9.430307
 30
0.000000
 11
22.961856
 21
9.432986
 31
0.000000
  0
LINE
  8
Default
 62
   202
  6
CONTINUOUS
 10
23.091856
 20
9.435720
 30
0.000000
 11
23.201574
 21
9.438252
 31
0.000000
  0
LINE
  8
Default
 62
   202
  6
CONTINUOUS
 10
19.226054
 20
9.478834
 30
0.000000
 11
19.333125
 21
9.474516
 31
0.000000
  0
LINE
  8
Default
 62
   202
  6
CONTINUOUS
 10
18.986900
 20
9.488074
 30
0.000000
 11
19.096054
 21
9.483778
 31
0.000000
  0
ARC
  8
Default
 62
   202
  6
CONTINUOUS
 10
13.207502
 20
10.212306
 30
0.000000
 40
0.832752
 50
82.025653
 51
87.621156
  0
ARC
  8
Default
 62
   202
  6
CONTINUOUS
 10
13.203951
 20
10.172124
 30
0.000000
 40
0.873090
 50
63.597858
 51
73.620970
  0
ARC
  8
Default
 62
   202
  6
CONTINUOUS
 10
30.412213
 20
10.052202
 30
0.000000
 40
0.282288
 50
266.108194
 51
271.301420
  0
ARC
  8
Default
 62
   202
  6
CONTINUOUS
 10
30.413724
 20
10.097544
 30
0.000000
 40
0.326163
 50
293.816011
 51
298.605098
  0
LINE
  8
Default
 62
     7
  6
CONTINUOUS
 10
17.615136
 20
20.437141
 30
0.000000
 11
17.719866
 21
20.447877
 31
0.000000
  0
LINE
  8
Default
 62
     7
  6
CONTINUOUS
 10
17.371346
 20
20.412040
 30
0.000000
 11
17.485753
 21
20.423843
 31
0.000000
  0
LINE
  8
Default
 62
     7
  6
CONTINUOUS
 10
20.772772
 20
20.651538
 30
0.000000
 11
20.876118
 21
20.654922
 31
0.000000
  0
LINE
  8
Default
 62
     7
  6
CONTINUOUS
 10
21.006066
 20
20.659118
 30
0.000000
 11
21.013156
 21
20.510224
 31
0.000000
  0
ARC
  8
Default
 62
     7
  6
CONTINUOUS
 10
25.262770
 20
20.812881
 30
0.000000
 40
0.373784
 50
92.666220
 51
104.366369
  0
ARC
  8
Default
 62
     7
  6
CONTINUOUS
 10
25.255694
 20
20.433888
 30
0.000000
 40
0.894510
 50
72.013857
 51
81.768465
  0
LINE
  8
Default
 62
     7
  6
CONTINUOUS
 10
25.254081
 20
21.328341
 30
0.000000
 11
25.245382
 21
21.186261
 31
0.000000
  0
LINE
  8
Default
 62
     7
  6
CONTINUOUS
 10
25.383764
 20
21.319183
 30
0.000000
 11
25.374667
 21
21.170594
 31
0.000000
  0
ARC
  8
Default
 62
     7
  6
CONTINUOUS
 10
28.608685
 20
20.002852
 30
0.000000
 40
0.250867
 50
241.503685
 51
251.639608
  0
ARC
  8
Default
 62
     7
  6
CONTINUOUS
 10
28.633782
 20
19.960228
 30
0.000000
 40
0.210214
 50
276.963305
 51
303.338548
  0
ARC
  8
Default
 62
     7
  6
CONTINUOUS
 10
30.019769
 20
19.849846
 30
0.000000
 40
0.846693
 50
81.057330
 51
89.965383
  0
ARC
  8
Default
 62
     7
  6
CONTINUOUS
 10
30.017551
 20
19.807332
 30
0.000000
 40
0.889265
 50
65.953573
 51
72.957551
  0
LINE
  8
Default
 62
     7
  6
CONTINUOUS
 10
30.151384
 20
20.686248
 30
0.000000
 11
30.119120
 21
20.545575
 31
0.000000
  0
LINE
  8
Default
 62
     7
  6
CONTINUOUS
 10
30.278177
 20
20.657548
 30
0.000000
 11
30.242916
 21
20.503808
 31
0.000000
  0
ARC
  8
Default
 62
     7
  6
CONTINUOUS
 10
16.156904
 20
20.282780
 30
0.000000
 40
0.408264
 50
261.185069
 51
268.508187
  0
ARC
  8
Default
 62
     7
  6
CONTINUOUS
 10
16.026343
 20
21.188926
 30
0.000000
 40
1.473292
 50
280.338139
 51
283.365940
  0
LINE
  8
Default
 62
     7
  6
CONTINUOUS
 10
27.656066
 20
6.724612
 30
0.000000
 11
27.551588
 21
6.799633
 31
0.000000
  0
LINE
  8
Default
 62
     7
  6
CONTINUOUS
 10
13.450154
 20
11.009782
 30
0.000000
 11
13.416247
 21
10.858972
 31
0.000000
  0
LINE
  8
Default
 62
     7
  6
CONTINUOUS
 10
13.323029
 20
11.037005
 30
0.000000
 11
13.289773
 21
10.889088
 31
0.000000
  0
LINE
  8
Default
 62
     7
  6
CONTINUOUS
 10
21.659056
 20
13.511927
 30
0.000000
 11
20.615349
 21
12.754185
 31
0.000000
  0
LINE
  8
Layer 1
 62
     7
  6
CONTINUOUS
 10
22.337920
 20
15.520280
 30
0.000000
 11
22.415470
 21
15.270125
 31
0.000000
  0
LINE
  8
Layer 1
 62
     7
  6
CONTINUOUS
 10
22.107897
 20
16.157518
 30
0.000000
 11
22.337920
 21
15.520280
 31
0.000000
  0
LINE
  8
Layer 1
 62
     7
  6
CONTINUOUS
 10
21.811516
 20
15.268356
 30
0.000000
 11
22.107897
 21
16.157518
 31
0.000000
  0
LINE
  8
Default
 62
     7
  6
CONTINUOUS
 10
21.811516
 20
15.268356
 30
0.000000
 11
20.823114
 21
15.268356
 31
0.000000
  0
LINE
  8
Layer 1
 62
     7
  6
CONTINUOUS
 10
21.338353
 20
14.888257
 30
0.000000
 11
20.823114
 21
15.268356
 31
0.000000
  0
LINE
  8
Layer 1
 62
     7
  6
CONTINUOUS
 10
21.329808
 20
13.744798
 30
0.000000
 11
21.624386
 21
14.677245
 31
0.000000
  0
LINE
  8
Default
 62
     7
  6
CONTINUOUS
 10
21.877754
 20
14.142613
 30
0.000000
 11
21.329808
 21
13.744798
 31
0.000000
  0
LINE
  8
Layer 1
 62
     7
  6
CONTINUOUS
 10
22.121625
 20
14.319663
 30
0.000000
 11
21.877754
 21
14.142613
 31
0.000000
  0
LINE
  8
Layer 1
 62
     7
  6
CONTINUOUS
 10
22.907074
 20
13.751981
 30
0.000000
 11
22.121625
 21
14.319663
 31
0.000000
  0
LINE
  8
Layer 1
 62
     7
  6
CONTINUOUS
 10
22.615937
 20
14.668616
 30
0.000000
 11
22.907074
 21
13.751981
 31
0.000000
  0
LINE
  8
Layer 1
 62
     7
  6
CONTINUOUS
 10
23.024843
 20
14.983194
 30
0.000000
 11
22.911151
 21
14.895729
 31
0.000000
  0
LINE
  8
Layer 1
 62
     7
  6
CONTINUOUS
 10
23.402598
 20
15.257621
 30
0.000000
 11
23.024843
 21
14.983194
 31
0.000000
  0
LINE
  8
Layer 1
 62
     7
  6
CONTINUOUS
 10
22.415470
 20
15.270125
 30
0.000000
 11
23.402598
 21
15.257621
 31
0.000000
  0
ENDSEC
  0
EOF
