  0
SECTION
  2
HEADER
  9
$ACADVER
  1
AC1024
  9
$ACADMAINTVER
 70
     6
  9
$DWGCODEPAGE
  3
ANSI_1252
  9
$INSBASE
 10
0.0
 20
0.0
 30
0.0
  9
$EXTMIN
 10
0.465594
 20
0.4931640179192536
 30
0.0
  9
$EXTMAX
 10
37.95925970808923
 20
77.85807194073007
 30
0.0
  9
$LIMMIN
 10
0.0
 20
0.0
  9
$LIMMAX
 10
12.0
 20
9.0
  9
$ORTHOMODE
 70
     0
  9
$REGENMODE
 70
     1
  9
$FILLMODE
 70
     1
  9
$QTEXTMODE
 70
     0
  9
$MIRRTEXT
 70
     1
  9
$LTSCALE
 40
1.0
  9
$ATTMODE
 70
     1
  9
$TEXTSIZE
 40
2.5
  9
$TRACEWID
 40
0.05
  9
$TEXTSTYLE
  7
STANDARD
  9
$CLAYER
  8
0
  9
$CELTYPE
  6
BYBLOCK
  9
$CECOLOR
 62
   256
  9
$CELTSCALE
 40
1.0
  9
$DISPSILH
 70
     0
  9
$DIMSCALE
 40
1.0
  9
$DIMASZ
 40
0.18
  9
$DIMEXO
 40
0.0625
  9
$DIMDLI
 40
0.38
  9
$DIMRND
 40
0.0
  9
$DIMDLE
 40
0.0
  9
$DIMEXE
 40
0.18
  9
$DIMTP
 40
0.0
  9
$DIMTM
 40
0.0
  9
$DIMTXT
 40
0.18
  9
$DIMCEN
 40
0.09
  9
$DIMTSZ
 40
0.0
  9
$DIMTOL
 70
     0
  9
$DIMLIM
 70
     0
  9
$DIMTIH
 70
     1
  9
$DIMTOH
 70
     1
  9
$DIMSE1
 70
     0
  9
$DIMSE2
 70
     0
  9
$DIMTAD
 70
     0
  9
$DIMZIN
 70
     0
  9
$DIMBLK
  1

  9
$DIMASO
 70
     1
  9
$DIMSHO
 70
     1
  9
$DIMPOST
  1

  9
$DIMAPOST
  1

  9
$DIMALT
 70
     0
  9
$DIMALTD
 70
     2
  9
$DIMALTF
 40
25.4
  9
$DIMLFAC
 40
1.0
  9
$DIMTOFL
 70
     0
  9
$DIMTVP
 40
0.0
  9
$DIMTIX
 70
     0
  9
$DIMSOXD
 70
     0
  9
$DIMSAH
 70
     0
  9
$DIMBLK1
  1

  9
$DIMBLK2
  1

  9
$DIMSTYLE
  2
ISO-25
  9
$DIMCLRD
 70
     0
  9
$DIMCLRE
 70
     0
  9
$DIMCLRT
 70
     0
  9
$DIMTFAC
 40
1.0
  9
$DIMGAP
 40
0.09
  9
$DIMJUST
 70
     0
  9
$DIMSD1
 70
     0
  9
$DIMSD2
 70
     0
  9
$DIMTOLJ
 70
     1
  9
$DIMTZIN
 70
     0
  9
$DIMALTZ
 70
     0
  9
$DIMALTTZ
 70
     0
  9
$DIMUPT
 70
     0
  9
$DIMDEC
 70
     4
  9
$DIMTDEC
 70
     4
  9
$DIMALTU
 70
     2
  9
$DIMALTTD
 70
     2
  9
$DIMTXSTY
  7
STANDARD
  9
$DIMAUNIT
 70
     0
  9
$DIMADEC
 70
     0
  9
$DIMALTRND
 40
0.0
  9
$DIMAZIN
 70
     0
  9
$DIMDSEP
 70
    46
  9
$DIMATFIT
 70
     3
  9
$DIMFRAC
 70
     0
  9
$DIMLDRBLK
  1

  9
$DIMLUNIT
 70
     2
  9
$DIMLWD
 70
    -2
  9
$DIMLWE
 70
    -2
  9
$DIMTMOVE
 70
     2
  9
$DIMFXL
 40
1.0
  9
$DIMFXLON
 70
     0
  9
$DIMJOGANG
 40
0.7853981633974483
  9
$DIMTFILL
 70
     0
  9
$DIMTFILLCLR
 70
     0
  9
$DIMARCSYM
 70
     0
  9
$DIMLTYPE
  6

  9
$DIMLTEX1
  6

  9
$DIMLTEX2
  6

  9
$DIMTXTDIRECTION
 70
     0
  9
$LUNITS
 70
     2
  9
$LUPREC
 70
     4
  9
$SKETCHINC
 40
0.1
  9
$FILLETRAD
 40
0.5
  9
$AUNITS
 70
     0
  9
$AUPREC
 70
     0
  9
$MENU
  1
.
  9
$ELEVATION
 40
0.0
  9
$PELEVATION
 40
0.0
  9
$THICKNESS
 40
0.0
  9
$LIMCHECK
 70
     0
  9
$CHAMFERA
 40
0.5
  9
$CHAMFERB
 40
0.5
  9
$CHAMFERC
 40
1.0
  9
$CHAMFERD
 40
0.0
  9
$SKPOLY
 70
     0
  9
$TDCREATE
 40
0.0
  9
$TDUCREATE
 40
0.0
  9
$TDUPDATE
 40
2456521.949895822
  9
$TDUUPDATE
 40
2456522.158229167
  9
$TDINDWG
 40
0.0000115625
  9
$TDUSRTIMER
 40
2456522.157314815
  9
$USRTIMER
 70
     1
  9
$ANGBASE
 50
0.0
  9
$ANGDIR
 70
     0
  9
$PDMODE
 70
     0
  9
$PDSIZE
 40
0.0
  9
$PLINEWID
 40
0.0
  9
$SPLFRAME
 70
     0
  9
$SPLINETYPE
 70
     6
  9
$SPLINESEGS
 70
     8
  9
$HANDSEED
  5
10083
  9
$SURFTAB1
 70
     6
  9
$SURFTAB2
 70
     6
  9
$SURFTYPE
 70
     6
  9
$SURFU
 70
     6
  9
$SURFV
 70
     6
  9
$UCSBASE
  2

  9
$UCSNAME
  2

  9
$UCSORG
 10
0.0
 20
0.0
 30
0.0
  9
$UCSXDIR
 10
1.0
 20
0.0
 30
0.0
  9
$UCSYDIR
 10
0.0
 20
1.0
 30
0.0
  9
$UCSORTHOREF
  2

  9
$UCSORTHOVIEW
 70
     0
  9
$UCSORGTOP
 10
0.0
 20
0.0
 30
0.0
  9
$UCSORGBOTTOM
 10
0.0
 20
0.0
 30
0.0
  9
$UCSORGLEFT
 10
0.0
 20
0.0
 30
0.0
  9
$UCSORGRIGHT
 10
0.0
 20
0.0
 30
0.0
  9
$UCSORGFRONT
 10
0.0
 20
0.0
 30
0.0
  9
$UCSORGBACK
 10
0.0
 20
0.0
 30
0.0
  9
$PUCSBASE
  2

  9
$PUCSNAME
  2

  9
$PUCSORG
 10
0.0
 20
0.0
 30
0.0
  9
$PUCSXDIR
 10
1.0
 20
0.0
 30
0.0
  9
$PUCSYDIR
 10
0.0
 20
1.0
 30
0.0
  9
$PUCSORTHOREF
  2

  9
$PUCSORTHOVIEW
 70
     0
  9
$PUCSORGTOP
 10
0.0
 20
0.0
 30
0.0
  9
$PUCSORGBOTTOM
 10
0.0
 20
0.0
 30
0.0
  9
$PUCSORGLEFT
 10
0.0
 20
0.0
 30
0.0
  9
$PUCSORGRIGHT
 10
0.0
 20
0.0
 30
0.0
  9
$PUCSORGFRONT
 10
0.0
 20
0.0
 30
0.0
  9
$PUCSORGBACK
 10
0.0
 20
0.0
 30
0.0
  9
$USERI1
 70
     0
  9
$USERI2
 70
     0
  9
$USERI3
 70
     0
  9
$USERI4
 70
     0
  9
$USERI5
 70
     0
  9
$USERR1
 40
0.0
  9
$USERR2
 40
0.0
  9
$USERR3
 40
0.0
  9
$USERR4
 40
0.0
  9
$USERR5
 40
0.0
  9
$WORLDVIEW
 70
     1
  9
$SHADEDGE
 70
     3
  9
$SHADEDIF
 70
    70
  9
$TILEMODE
 70
     1
  9
$MAXACTVP
 70
    64
  9
$PINSBASE
 10
0.0
 20
0.0
 30
0.0
  9
$PLIMCHECK
 70
     0
  9
$PEXTMIN
 10
1.000000000000000E+20
 20
1.000000000000000E+20
 30
1.000000000000000E+20
  9
$PEXTMAX
 10
-1.000000000000000E+20
 20
-1.000000000000000E+20
 30
-1.000000000000000E+20
  9
$PLIMMIN
 10
0.0
 20
0.0
  9
$PLIMMAX
 10
0.0
 20
0.0
  9
$UNITMODE
 70
     0
  9
$VISRETAIN
 70
     1
  9
$PLINEGEN
 70
     0
  9
$PSLTSCALE
 70
     1
  9
$TREEDEPTH
 70
  3020
  9
$CMLSTYLE
  2

  9
$CMLJUST
 70
     0
  9
$CMLSCALE
 40
1.0
  9
$PROXYGRAPHICS
 70
     1
  9
$MEASUREMENT
 70
     1
  9
$CELWEIGHT
370
    -1
  9
$ENDCAPS
280
     0
  9
$JOINSTYLE
280
     0
  9
$LWDISPLAY
290
     0
  9
$INSUNITS
 70
     0
  9
$HYPERLINKBASE
  1

  9
$STYLESHEET
  1

  9
$XEDIT
290
     1
  9
$CEPSNTYPE
380
     0
  9
$PSTYLEMODE
290
     1
  9
$FINGERPRINTGUID
  2
{9BCC7E00-7B2E-91A5-5D9C-74540966DC2C}
  9
$VERSIONGUID
  2
{FAEB1C32-E019-11D5-929B-00C0DF256EC4}
  9
$EXTNAMES
290
     1
  9
$PSVPSCALE
 40
0.0
  9
$OLESTARTUP
290
     0
  9
$SORTENTS
280
   127
  9
$INDEXCTL
280
     0
  9
$HIDETEXT
280
     1
  9
$XCLIPFRAME
280
     2
  9
$HALOGAP
280
     0
  9
$OBSCOLOR
 70
   257
  9
$OBSLTYPE
280
     0
  9
$INTERSECTIONDISPLAY
280
     0
  9
$INTERSECTIONCOLOR
 70
   257
  9
$DIMASSOC
280
     2
  9
$PROJECTNAME
  1

  9
$CAMERADISPLAY
290
     0
  9
$LENSLENGTH
 40
50.0
  9
$CAMERAHEIGHT
 40
0.0
  9
$STEPSPERSEC
 40
2.0
  9
$STEPSIZE
 40
6.0
  9
$3DDWFPREC
 40
2.0
  9
$PSOLWIDTH
 40
0.25
  9
$PSOLHEIGHT
 40
4.0
  9
$LOFTANG1
 40
1.570796326794897
  9
$LOFTANG2
 40
1.570796326794897
  9
$LOFTMAG1
 40
0.0
  9
$LOFTMAG2
 40
0.0
  9
$LOFTPARAM
 70
     7
  9
$LOFTNORMALS
280
     1
  9
$LATITUDE
 40
37.795
  9
$LONGITUDE
 40
-122.394
  9
$NORTHDIRECTION
 40
0.0
  9
$TIMEZONE
 70
 -8000
  9
$LIGHTGLYPHDISPLAY
280
     1
  9
$TILEMODELIGHTSYNCH
280
     1
  9
$SOLIDHIST
280
     1
  9
$SHOWHIST
280
     1
  9
$DWFFRAME
280
     2
  9
$DGNFRAME
280
     2
  9
$REALWORLDSCALE
290
     1
  9
$INTERFERECOLOR
 62
   256
  9
$CSHADOW
280
     0
  9
$SHADOWPLANELOCATION
 40
0.0
  0
ENDSEC
  0
SECTION
  2
CLASSES
  0
CLASS
  1
SCALE
  2
AcDbScale
  3
ObjectDBX Classes
 90
     1153
 91
        4
280
     0
281
     0
  0
CLASS
  1
MATERIAL
  2
AcDbMaterial
  3
ObjectDBX Classes
 90
     1153
 91
        4
280
     0
281
     0
  0
CLASS
  1
VISUALSTYLE
  2
AcDbVisualStyle
  3
ObjectDBX Classes
 90
     4095
 91
        4
280
     0
281
     0
  0
CLASS
  1
TABLESTYLE
  2
AcDbTableStyle
  3
ObjectDBX Classes
 90
     4095
 91
        4
280
     0
281
     0
  0
CLASS
  1
RASTERVARIABLES
  2
AcDbRasterVariables
  3
ISM
 90
        0
 91
        4
280
     0
281
     0
  0
CLASS
  1
DICTIONARYVAR
  2
AcDbDictionaryVar
  3
ObjectDBX Classes
 90
        0
 91
        4
280
     0
281
     0
  0
CLASS
  1
XRECORD
  2
AcDbXrecord
  3
AutoCAD 2000
 90
        0
 91
        1
280
     0
281
     0
  0
CLASS
  1
LWPOLYLINE
  2
AcDbPolyline
  3
AutoCAD 2000
 90
        0
 91
        1
280
     0
281
     1
  0
CLASS
  1
HATCH
  2
AcDbHatch
  3
AutoCAD 2000
 90
        0
 91
        1
280
     0
281
     1
  0
CLASS
  1
CELLSTYLEMAP
  2
AcDbCellStyleMap
  3
ObjectDBX Classes
 90
     1152
 91
        4
280
     0
281
     0
  0
ENDSEC
  0
SECTION
  2
TABLES
  0
TABLE
  2
VPORT
  5
8
330
0
100
AcDbSymbolTable
 70
     1
  0
VPORT
  5
2E
330
8
100
AcDbSymbolTableRecord
100
AcDbViewportTableRecord
  2
*ACTIVE
 70
     0
 10
0.0
 20
0.0
 11
1.0
 21
1.0
 12
46.96161255179646
 22
26.02848233415527
 13
0.0
 23
0.0
 14
10.0
 24
10.0
 15
10.0
 25
10.0
 16
0.0
 26
0.0
 36
1.0
 17
0.0
 27
0.0
 37
0.0
 40
123.3003220019797
 41
1.867699642431466
 42
50.0
 43
0.0
 44
0.0
 50
0.0
 51
0.0
 71
    16
 72
 20000
 73
     1
 74
     3
 75
     0
 76
     0
 77
     0
 78
     0
281
     0
 65
     1
110
0.0
120
0.0
130
0.0
111
1.0
121
0.0
131
0.0
112
0.0
122
1.0
132
0.0
 79
     0
146
0.0
 60
     3
 61
     5
292
     1
282
     1
141
0.0
142
0.0
 63
   256
  0
ENDTAB
  0
TABLE
  2
LTYPE
  5
5
330
0
100
AcDbSymbolTable
 70
     1
  0
LTYPE
  5
14
330
5
100
AcDbSymbolTableRecord
100
AcDbLinetypeTableRecord
  2
BYBLOCK
 70
     0
  3

 72
    65
 73
     0
 40
0.0
  0
LTYPE
  5
15
330
5
100
AcDbSymbolTableRecord
100
AcDbLinetypeTableRecord
  2
BYLAYER
 70
     0
  3

 72
    65
 73
     0
 40
0.0
  0
LTYPE
  5
16
330
5
100
AcDbSymbolTableRecord
100
AcDbLinetypeTableRecord
  2
CONTINUOUS
 70
     0
  3
Solid line
 72
    65
 73
     0
 40
0.0
  0
ENDTAB
  0
TABLE
  2
LAYER
  5
2
330
0
100
AcDbSymbolTable
 70
     1
  0
LAYER
  5
50
330
2
100
AcDbSymbolTableRecord
100
AcDbLayerTableRecord
  2
0
 70
     0
 62
     7
  6
CONTINUOUS
370
    -3
390
0
347
10069
  0
ENDTAB
  0
TABLE
  2
STYLE
  5
3
330
0
100
AcDbSymbolTable
 70
     1
  0
STYLE
  5
11
330
3
100
AcDbSymbolTableRecord
100
AcDbTextStyleTableRecord
  2
STANDARD
 70
     0
 40
0.0
 41
1.0
 50
0.0
 71
     0
 42
2.5
  3
txt
  4

  0
ENDTAB
  0
TABLE
  2
VIEW
  5
6
330
0
100
AcDbSymbolTable
 70
     0
  0
ENDTAB
  0
TABLE
  2
UCS
  5
7
330
0
100
AcDbSymbolTable
 70
     0
  0
ENDTAB
  0
TABLE
  2
APPID
  5
9
330
0
100
AcDbSymbolTable
 70
     1
  0
APPID
  5
12
330
9
100
AcDbSymbolTableRecord
100
AcDbRegAppTableRecord
  2
ACAD
 70
     0
  0
ENDTAB
  0
TABLE
  2
DIMSTYLE
  5
A
330
0
100
AcDbSymbolTable
 70
     1
100
AcDbDimStyleTable
  0
DIMSTYLE
105
27
330
A
100
AcDbSymbolTableRecord
100
AcDbDimStyleTableRecord
  2
ISO-25
 70
     0
 41
2.5
 42
0.625
 43
3.75
 44
1.25
 73
     0
 74
     0
 77
     1
 78
     8
140
2.5
141
2.5
143
0.03937007874016
147
0.625
171
     3
172
     1
178
     0
271
     2
272
     2
274
     3
283
     0
284
     8
340
11
  0
ENDTAB
  0
TABLE
  2
BLOCK_RECORD
  5
1
330
0
100
AcDbSymbolTable
 70
     0
  0
BLOCK_RECORD
  5
1F
330
1
100
AcDbSymbolTableRecord
100
AcDbBlockTableRecord
  2
*MODEL_SPACE
340
10064
 70
     0
280
     1
281
     0
  0
BLOCK_RECORD
  5
1B
330
1
100
AcDbSymbolTableRecord
100
AcDbBlockTableRecord
  2
*PAPER_SPACE
340
10065
 70
     0
280
     1
281
     0
  0
ENDTAB
  0
ENDSEC
  0
SECTION
  2
BLOCKS
  0
BLOCK
  5
20
330
1F
100
AcDbEntity
  8
0
100
AcDbBlockBegin
  2
*MODEL_SPACE
 70
     0
 10
0.0
 20
0.0
 30
0.0
  3
*MODEL_SPACE
  1

  0
ENDBLK
  5
21
330
1F
100
AcDbEntity
  8
0
100
AcDbBlockEnd
  0
BLOCK
  5
1C
330
1B
100
AcDbEntity
 67
     1
  8
0
100
AcDbBlockBegin
  2
*PAPER_SPACE
 70
     0
 10
0.0
 20
0.0
 30
0.0
  3
*PAPER_SPACE
  1

  0
ENDBLK
  5
1D
330
1B
100
AcDbEntity
 67
     1
  8
0
100
AcDbBlockEnd
  0
ENDSEC
  0
SECTION
  2
ENTITIES
  0
SPLINE
  5
100
330
1F
100
AcDbEntity
  8
0
 62
     7
100
AcDbSpline
210
0.0
220
0.0
230
1.0
 70
     8
 71
     3
 72
     8
 73
     4
 74
     0
 42
0.0000001
 43
0.0000001
 40
0.0
 40
0.0
 40
0.0
 40
0.0
 40
1.0
 40
1.0
 40
1.0
 40
1.0
 10
19.514536
 20
0.667052
 30
0.0
 10
18.020513
 20
1.209709
 30
0.0
 10
15.876209
 20
3.29053
 30
0.0
 10
15.206326
 20
4.847714
 30
0.0
  0
SPLINE
  5
101
330
1F
100
AcDbEntity
  8
0
 62
     7
100
AcDbSpline
210
0.0
220
0.0
230
1.0
 70
     8
 71
     3
 72
     8
 73
     4
 74
     0
 42
0.0000001
 43
0.0000001
 40
0.0
 40
0.0
 40
0.0
 40
0.0
 40
1.0
 40
1.0
 40
1.0
 40
1.0
 10
15.206326
 20
4.847714
 30
0.0
 10
13.908919
 20
7.863623
 30
0.0
 10
13.500346
 20
10.265842
 30
0.0
 10
13.610944
 20
14.227895
 30
0.0
  0
SPLINE
  5
102
330
1F
100
AcDbEntity
  8
0
 62
     7
100
AcDbSpline
210
0.0
220
0.0
230
1.0
 70
     8
 71
     3
 72
     8
 73
     4
 74
     0
 42
0.0000001
 43
0.0000001
 40
0.0
 40
0.0
 40
0.0
 40
0.0
 40
1.0
 40
1.0
 40
1.0
 40
1.0
 10
13.610944
 20
14.227895
 30
0.0
 10
13.667761
 20
16.263391
 30
0.0
 10
13.811279
 20
18.246296
 30
0.0
 10
13.929872
 20
18.634352
 30
0.0
  0
SPLINE
  5
103
330
1F
100
AcDbEntity
  8
0
 62
     7
100
AcDbSpline
210
0.0
220
0.0
230
1.0
 70
     8
 71
     3
 72
     8
 73
     4
 74
     0
 42
0.0000001
 43
0.0000001
 40
0.0
 40
0.0
 40
0.0
 40
0.0
 40
1.0
 40
1.0
 40
1.0
 40
1.0
 10
13.929872
 20
18.634352
 30
0.0
 10
14.107556
 20
19.215766
 30
0.0
 10
14.07915
 20
19.277835
 30
0.0
 10
13.768432
 20
18.987129
 30
0.0
  0
SPLINE
  5
104
330
1F
100
AcDbEntity
  8
0
 62
     7
100
AcDbSpline
210
0.0
220
0.0
230
1.0
 70
     8
 71
     3
 72
     8
 73
     4
 74
     0
 42
0.0000001
 43
0.0000001
 40
0.0
 40
0.0
 40
0.0
 40
0.0
 40
1.0
 40
1.0
 40
1.0
 40
1.0
 10
13.768432
 20
18.987129
 30
0.0
 10
13.56105
 20
18.793102
 30
0.0
 10
13.162772
 20
18.634352
 30
0.0
 10
12.883372
 20
18.634352
 30
0.0
  0
SPLINE
  5
105
330
1F
100
AcDbEntity
  8
0
 62
     7
100
AcDbSpline
210
0.0
220
0.0
230
1.0
 70
     8
 71
     3
 72
     8
 73
     4
 74
     0
 42
0.0000001
 43
0.0000001
 40
0.0
 40
0.0
 40
0.0
 40
0.0
 40
1.0
 40
1.0
 40
1.0
 40
1.0
 10
12.883372
 20
18.634352
 30
0.0
 10
12.603972
 20
18.634352
 30
0.0
 10
12.375372
 20
18.525233
 30
0.0
 10
12.375372
 20
18.391863
 30
0.0
  0
SPLINE
  5
106
330
1F
100
AcDbEntity
  8
0
 62
     7
100
AcDbSpline
210
0.0
220
0.0
230
1.0
 70
     8
 71
     3
 72
     8
 73
     4
 74
     0
 42
0.0000001
 43
0.0000001
 40
0.0
 40
0.0
 40
0.0
 40
0.0
 40
1.0
 40
1.0
 40
1.0
 40
1.0
 10
12.375372
 20
18.391863
 30
0.0
 10
12.375372
 20
17.999369
 30
0.0
 10
8.034156
 20
18.004491
 30
0.0
 10
7.126922
 20
18.398072
 30
0.0
  0
SPLINE
  5
107
330
1F
100
AcDbEntity
  8
0
 62
     7
100
AcDbSpline
210
0.0
220
0.0
230
1.0
 70
     8
 71
     3
 72
     8
 73
     4
 74
     0
 42
0.0000001
 43
0.0000001
 40
0.0
 40
0.0
 40
0.0
 40
0.0
 40
1.0
 40
1.0
 40
1.0
 40
1.0
 10
7.126922
 20
18.398072
 30
0.0
 10
6.676292
 20
18.593559
 30
0.0
 10
5.948599
 20
19.044198
 30
0.0
 10
5.509831
 20
19.39949
 30
0.0
  0
SPLINE
  5
108
330
1F
100
AcDbEntity
  8
0
 62
     7
100
AcDbSpline
210
0.0
220
0.0
230
1.0
 70
     8
 71
     3
 72
     8
 73
     4
 74
     0
 42
0.0000001
 43
0.0000001
 40
0.0
 40
0.0
 40
0.0
 40
0.0
 40
1.0
 40
1.0
 40
1.0
 40
1.0
 10
5.509831
 20
19.39949
 30
0.0
 10
4.656778
 20
20.090246
 30
0.0
 10
3.510284
 20
20.215569
 30
0.0
 10
2.001843
 20
19.782957
 30
0.0
  0
SPLINE
  5
109
330
1F
100
AcDbEntity
  8
0
 62
     7
100
AcDbSpline
210
0.0
220
0.0
230
1.0
 70
     8
 71
     3
 72
     8
 73
     4
 74
     0
 42
0.0000001
 43
0.0000001
 40
0.0
 40
0.0
 40
0.0
 40
0.0
 40
1.0
 40
1.0
 40
1.0
 40
1.0
 10
2.001843
 20
19.782957
 30
0.0
 10
0.824773
 20
19.445376
 30
0.0
 10
0.832094
 20
19.663706
 30
0.0
 10
2.080442
 20
22.127357
 30
0.0
  0
SPLINE
  5
10A
330
1F
100
AcDbEntity
  8
0
 62
     7
100
AcDbSpline
210
0.0
220
0.0
230
1.0
 70
     8
 71
     3
 72
     8
 73
     4
 74
     0
 42
0.0000001
 43
0.0000001
 40
0.0
 40
0.0
 40
0.0
 40
0.0
 40
1.0
 40
1.0
 40
1.0
 40
1.0
 10
2.080442
 20
22.127357
 30
0.0
 10
3.535506
 20
24.998971
 30
0.0
 10
6.22398
 20
27.163054
 30
0.0
 10
9.782229
 20
28.326898
 30
0.0
  0
SPLINE
  5
10B
330
1F
100
AcDbEntity
  8
0
 62
     7
100
AcDbSpline
210
0.0
220
0.0
230
1.0
 70
     8
 71
     3
 72
     8
 73
     4
 74
     0
 42
0.0000001
 43
0.0000001
 40
0.0
 40
0.0
 40
0.0
 40
0.0
 40
1.0
 40
1.0
 40
1.0
 40
1.0
 10
9.782229
 20
28.326898
 30
0.0
 10
11.559013
 20
28.908053
 30
0.0
 10
12.347915
 20
28.913703
 30
0.0
 10
13.743582
 20
28.355267
 30
0.0
  0
SPLINE
  5
10C
330
1F
100
AcDbEntity
  8
0
 62
     7
100
AcDbSpline
210
0.0
220
0.0
230
1.0
 70
     8
 71
     3
 72
     8
 73
     4
 74
     0
 42
0.0000001
 43
0.0000001
 40
0.0
 40
0.0
 40
0.0
 40
0.0
 40
1.0
 40
1.0
 40
1.0
 40
1.0
 10
13.743582
 20
28.355267
 30
0.0
 10
14.87209
 20
27.903729
 30
0.0
 10
15.785141
 20
27.054474
 30
0.0
 10
16.142051
 20
26.12438
 30
0.0
  0
SPLINE
  5
10D
330
1F
100
AcDbEntity
  8
0
 62
     7
100
AcDbSpline
210
0.0
220
0.0
230
1.0
 70
     8
 71
     3
 72
     8
 73
     4
 74
     0
 42
0.0000001
 43
0.0000001
 40
0.0
 40
0.0
 40
0.0
 40
0.0
 40
1.0
 40
1.0
 40
1.0
 40
1.0
 10
16.142051
 20
26.12438
 30
0.0
 10
16.380737
 20
25.502373
 30
0.0
 10
16.137112
 20
25.256211
 30
0.0
 10
19.343213
 20
29.35881
 30
0.0
  0
SPLINE
  5
10E
330
1F
100
AcDbEntity
  8
0
 62
     7
100
AcDbSpline
210
0.0
220
0.0
230
1.0
 70
     8
 71
     3
 72
     8
 73
     4
 74
     0
 42
0.0000001
 43
0.0000001
 40
0.0
 40
0.0
 40
0.0
 40
0.0
 40
1.0
 40
1.0
 40
1.0
 40
1.0
 10
19.343213
 20
29.35881
 30
0.0
 10
22.65631
 20
33.598318
 30
0.0
 10
24.206822
 20
36.876564
 30
0.0
 10
24.181961
 20
39.589366
 30
0.0
  0
SPLINE
  5
10F
330
1F
100
AcDbEntity
  8
0
 62
     7
100
AcDbSpline
210
0.0
220
0.0
230
1.0
 70
     8
 71
     3
 72
     8
 73
     4
 74
     0
 42
0.0000001
 43
0.0000001
 40
0.0
 40
0.0
 40
0.0
 40
0.0
 40
1.0
 40
1.0
 40
1.0
 40
1.0
 10
24.181961
 20
39.589366
 30
0.0
 10
24.173099
 20
40.557399
 30
0.0
 10
24.105004
 20
40.647699
 30
0.0
 10
23.384011
 20
40.647699
 30
0.0
  0
SPLINE
  5
110
330
1F
100
AcDbEntity
  8
0
 62
     7
100
AcDbSpline
210
0.0
220
0.0
230
1.0
 70
     8
 71
     3
 72
     8
 73
     4
 74
     0
 42
0.0000001
 43
0.0000001
 40
0.0
 40
0.0
 40
0.0
 40
0.0
 40
1.0
 40
1.0
 40
1.0
 40
1.0
 10
23.384011
 20
40.647699
 30
0.0
 10
22.950473
 20
40.647699
 30
0.0
 10
22.52736
 20
40.825951
 30
0.0
 10
22.44376
 20
41.043812
 30
0.0
  0
SPLINE
  5
111
330
1F
100
AcDbEntity
  8
0
 62
     7
100
AcDbSpline
210
0.0
220
0.0
230
1.0
 70
     8
 71
     3
 72
     8
 73
     4
 74
     0
 42
0.0000001
 43
0.0000001
 40
0.0
 40
0.0
 40
0.0
 40
0.0
 40
1.0
 40
1.0
 40
1.0
 40
1.0
 10
22.44376
 20
41.043812
 30
0.0
 10
22.248914
 20
41.551555
 30
0.0
 10
22.524904
 20
42.62324
 30
0.0
 10
22.85051
 20
42.62324
 30
0.0
  0
SPLINE
  5
112
330
1F
100
AcDbEntity
  8
0
 62
     7
100
AcDbSpline
210
0.0
220
0.0
230
1.0
 70
     8
 71
     3
 72
     8
 73
     4
 74
     0
 42
0.0000001
 43
0.0000001
 40
0.0
 40
0.0
 40
0.0
 40
0.0
 40
1.0
 40
1.0
 40
1.0
 40
1.0
 10
22.85051
 20
42.62324
 30
0.0
 10
22.987627
 20
42.62324
 30
0.0
 10
23.099816
 20
42.87724
 30
0.0
 10
23.099816
 20
43.187685
 30
0.0
  0
SPLINE
  5
113
330
1F
100
AcDbEntity
  8
0
 62
     7
100
AcDbSpline
210
0.0
220
0.0
230
1.0
 70
     8
 71
     3
 72
     8
 73
     4
 74
     0
 42
0.0000001
 43
0.0000001
 40
0.0
 40
0.0
 40
0.0
 40
0.0
 40
1.0
 40
1.0
 40
1.0
 40
1.0
 10
23.099816
 20
43.187685
 30
0.0
 10
23.099816
 20
43.760658
 30
0.0
 10
22.653335
 20
43.912753
 30
0.0
 10
22.076905
 20
43.536142
 30
0.0
  0
SPLINE
  5
114
330
1F
100
AcDbEntity
  8
0
 62
     7
100
AcDbSpline
210
0.0
220
0.0
230
1.0
 70
     8
 71
     3
 72
     8
 73
     4
 74
     0
 42
0.0000001
 43
0.0000001
 40
0.0
 40
0.0
 40
0.0
 40
0.0
 40
1.0
 40
1.0
 40
1.0
 40
1.0
 10
22.076905
 20
43.536142
 30
0.0
 10
21.902359
 20
43.422102
 30
0.0
 10
21.472709
 20
42.659114
 30
0.0
 10
21.122127
 20
41.840616
 30
0.0
  0
SPLINE
  5
115
330
1F
100
AcDbEntity
  8
0
 62
     7
100
AcDbSpline
210
0.0
220
0.0
230
1.0
 70
     8
 71
     3
 72
     8
 73
     4
 74
     0
 42
0.0000001
 43
0.0000001
 40
0.0
 40
0.0
 40
0.0
 40
0.0
 40
1.0
 40
1.0
 40
1.0
 40
1.0
 10
21.122127
 20
41.840616
 30
0.0
 10
20.376682
 20
40.100236
 30
0.0
 10
19.305209
 20
39.099473
 30
0.0
 10
17.906329
 20
38.837043
 30
0.0
  0
SPLINE
  5
116
330
1F
100
AcDbEntity
  8
0
 62
     7
100
AcDbSpline
210
0.0
220
0.0
230
1.0
 70
     8
 71
     3
 72
     8
 73
     4
 74
     0
 42
0.0000001
 43
0.0000001
 40
0.0
 40
0.0
 40
0.0
 40
0.0
 40
1.0
 40
1.0
 40
1.0
 40
1.0
 10
17.906329
 20
38.837043
 30
0.0
 10
16.538195
 20
38.580379
 30
0.0
 10
15.629547
 20
39.222694
 30
0.0
 10
15.172894
 20
40.76928
 30
0.0
  0
SPLINE
  5
117
330
1F
100
AcDbEntity
  8
0
 62
     7
100
AcDbSpline
210
0.0
220
0.0
230
1.0
 70
     8
 71
     3
 72
     8
 73
     4
 74
     0
 42
0.0000001
 43
0.0000001
 40
0.0
 40
0.0
 40
0.0
 40
0.0
 40
1.0
 40
1.0
 40
1.0
 40
1.0
 10
15.172894
 20
40.76928
 30
0.0
 10
14.826613
 20
41.94206
 30
0.0
 10
14.780027
 20
41.980578
 30
0.0
 10
13.983931
 20
41.75226
 30
0.0
  0
SPLINE
  5
118
330
1F
100
AcDbEntity
  8
0
 62
     7
100
AcDbSpline
210
0.0
220
0.0
230
1.0
 70
     8
 71
     3
 72
     8
 73
     4
 74
     0
 42
0.0000001
 43
0.0000001
 40
0.0
 40
0.0
 40
0.0
 40
0.0
 40
1.0
 40
1.0
 40
1.0
 40
1.0
 10
13.983931
 20
41.75226
 30
0.0
 10
12.982689
 20
41.465108
 30
0.0
 10
11.515684
 20
42.002377
 30
0.0
 10
10.899702
 20
42.88181
 30
0.0
  0
SPLINE
  5
119
330
1F
100
AcDbEntity
  8
0
 62
     7
100
AcDbSpline
210
0.0
220
0.0
230
1.0
 70
     8
 71
     3
 72
     8
 73
     4
 74
     0
 42
0.0000001
 43
0.0000001
 40
0.0
 40
0.0
 40
0.0
 40
0.0
 40
1.0
 40
1.0
 40
1.0
 40
1.0
 10
10.899702
 20
42.88181
 30
0.0
 10
10.540115
 20
43.395197
 30
0.0
 10
10.430141
 20
43.423168
 30
0.0
 10
10.141016
 20
43.074796
 30
0.0
  0
SPLINE
  5
11A
330
1F
100
AcDbEntity
  8
0
 62
     7
100
AcDbSpline
210
0.0
220
0.0
230
1.0
 70
     8
 71
     3
 72
     8
 73
     4
 74
     0
 42
0.0000001
 43
0.0000001
 40
0.0
 40
0.0
 40
0.0
 40
0.0
 40
1.0
 40
1.0
 40
1.0
 40
1.0
 10
10.141016
 20
43.074796
 30
0.0
 10
9.675386
 20
42.513744
 30
0.0
 10
7.754734
 20
42.226357
 30
0.0
 10
7.037198
 20
42.610368
 30
0.0
  0
SPLINE
  5
11B
330
1F
100
AcDbEntity
  8
0
 62
     7
100
AcDbSpline
210
0.0
220
0.0
230
1.0
 70
     8
 71
     3
 72
     8
 73
     4
 74
     0
 42
0.0000001
 43
0.0000001
 40
0.0
 40
0.0
 40
0.0
 40
0.0
 40
1.0
 40
1.0
 40
1.0
 40
1.0
 10
7.037198
 20
42.610368
 30
0.0
 10
6.060988
 20
43.132821
 30
0.0
 10
5.601804
 20
44.33874
 30
0.0
 10
5.896021
 20
45.607351
 30
0.0
  0
SPLINE
  5
11C
330
1F
100
AcDbEntity
  8
0
 62
     7
100
AcDbSpline
210
0.0
220
0.0
230
1.0
 70
     8
 71
     3
 72
     8
 73
     4
 74
     0
 42
0.0000001
 43
0.0000001
 40
0.0
 40
0.0
 40
0.0
 40
0.0
 40
1.0
 40
1.0
 40
1.0
 40
1.0
 10
5.896021
 20
45.607351
 30
0.0
 10
6.254446
 20
47.152806
 30
0.0
 10
6.25945
 20
47.138796
 30
0.0
 10
5.349052
 20
47.138796
 30
0.0
  0
SPLINE
  5
11D
330
1F
100
AcDbEntity
  8
0
 62
     7
100
AcDbSpline
210
0.0
220
0.0
230
1.0
 70
     8
 71
     3
 72
     8
 73
     4
 74
     0
 42
0.0000001
 43
0.0000001
 40
0.0
 40
0.0
 40
0.0
 40
0.0
 40
1.0
 40
1.0
 40
1.0
 40
1.0
 10
5.349052
 20
47.138796
 30
0.0
 10
4.340965
 20
47.138796
 30
0.0
 10
2.655616
 20
48.891153
 30
0.0
 10
2.871124
 20
49.715248
 30
0.0
  0
SPLINE
  5
11E
330
1F
100
AcDbEntity
  8
0
 62
     7
100
AcDbSpline
210
0.0
220
0.0
230
1.0
 70
     8
 71
     3
 72
     8
 73
     4
 74
     0
 42
0.0000001
 43
0.0000001
 40
0.0
 40
0.0
 40
0.0
 40
0.0
 40
1.0
 40
1.0
 40
1.0
 40
1.0
 10
2.871124
 20
49.715248
 30
0.0
 10
2.947064
 20
50.005643
 30
0.0
 10
2.882921
 20
50.24324
 30
0.0
 10
2.728587
 20
50.24324
 30
0.0
  0
SPLINE
  5
11F
330
1F
100
AcDbEntity
  8
0
 62
     7
100
AcDbSpline
210
0.0
220
0.0
230
1.0
 70
     8
 71
     3
 72
     8
 73
     4
 74
     0
 42
0.0000001
 43
0.0000001
 40
0.0
 40
0.0
 40
0.0
 40
0.0
 40
1.0
 40
1.0
 40
1.0
 40
1.0
 10
2.728587
 20
50.24324
 30
0.0
 10
2.55749
 20
50.24324
 30
0.0
 10
2.522546
 20
50.684588
 30
0.0
 10
2.639047
 20
51.374156
 30
0.0
  0
SPLINE
  5
120
330
1F
100
AcDbEntity
  8
0
 62
     7
100
AcDbSpline
210
0.0
220
0.0
230
1.0
 70
     8
 71
     3
 72
     8
 73
     4
 74
     0
 42
0.0000001
 43
0.0000001
 40
0.0
 40
0.0
 40
0.0
 40
0.0
 40
1.0
 40
1.0
 40
1.0
 40
1.0
 10
2.639047
 20
51.374156
 30
0.0
 10
2.823516
 20
52.466009
 30
0.0
 10
2.800221
 20
52.511048
 30
0.0
 10
1.964629
 20
52.678166
 30
0.0
  0
SPLINE
  5
121
330
1F
100
AcDbEntity
  8
0
 62
     7
100
AcDbSpline
210
0.0
220
0.0
230
1.0
 70
     8
 71
     3
 72
     8
 73
     4
 74
     0
 42
0.0000001
 43
0.0000001
 40
0.0
 40
0.0
 40
0.0
 40
0.0
 40
1.0
 40
1.0
 40
1.0
 40
1.0
 10
1.964629
 20
52.678166
 30
0.0
 10
0.848776
 20
52.901336
 30
0.0
 10
0.465594
 20
53.38581
 30
0.0
 10
0.465594
 20
54.573458
 30
0.0
  0
SPLINE
  5
122
330
1F
100
AcDbEntity
  8
0
 62
     7
100
AcDbSpline
210
0.0
220
0.0
230
1.0
 70
     8
 71
     3
 72
     8
 73
     4
 74
     0
 42
0.0000001
 43
0.0000001
 40
0.0
 40
0.0
 40
0.0
 40
0.0
 40
1.0
 40
1.0
 40
1.0
 40
1.0
 10
0.465594
 20
54.573458
 30
0.0
 10
0.465594
 20
55.659522
 30
0.0
 10
1.615799
 20
57.590388
 30
0.0
 10
2.676941
 20
58.285673
 30
0.0
  0
SPLINE
  5
123
330
1F
100
AcDbEntity
  8
0
 62
     7
100
AcDbSpline
210
0.0
220
0.0
230
1.0
 70
     8
 71
     3
 72
     8
 73
     4
 74
     0
 42
0.0000001
 43
0.0000001
 40
0.0
 40
0.0
 40
0.0
 40
0.0
 40
1.0
 40
1.0
 40
1.0
 40
1.0
 10
2.789762
 20
59.542606
 30
0.0
 10
2.179741
 20
60.399303
 30
0.0
 10
2.106855
 20
60.918994
 30
0.0
 10
2.394809
 20
62.358754
 30
0.0
  0
SPLINE
  5
124
330
1F
100
AcDbEntity
  8
0
 62
     7
100
AcDbSpline
210
0.0
220
0.0
230
1.0
 70
     8
 71
     3
 72
     8
 73
     4
 74
     0
 42
0.0000001
 43
0.0000001
 40
0.0
 40
0.0
 40
0.0
 40
0.0
 40
1.0
 40
1.0
 40
1.0
 40
1.0
 10
2.394809
 20
62.358754
 30
0.0
 10
2.56515
 20
63.210464
 30
0.0
 10
4.012145
 20
65.000313
 30
0.0
 10
4.721528
 20
65.236774
 30
0.0
  0
SPLINE
  5
125
330
1F
100
AcDbEntity
  8
0
 62
     7
100
AcDbSpline
210
0.0
220
0.0
230
1.0
 70
     8
 71
     3
 72
     8
 73
     4
 74
     0
 42
0.0000001
 43
0.0000001
 40
0.0
 40
0.0
 40
0.0
 40
0.0
 40
1.0
 40
1.0
 40
1.0
 40
1.0
 10
4.721528
 20
65.236774
 30
0.0
 10
4.95326
 20
65.314019
 30
0.0
 10
4.886611
 20
65.689723
 30
0.0
 10
4.498761
 20
66.492476
 30
0.0
  0
SPLINE
  5
126
330
1F
100
AcDbEntity
  8
0
 62
     7
100
AcDbSpline
210
0.0
220
0.0
230
1.0
 70
     8
 71
     3
 72
     8
 73
     4
 74
     0
 42
0.0000001
 43
0.0000001
 40
0.0
 40
0.0
 40
0.0
 40
0.0
 40
1.0
 40
1.0
 40
1.0
 40
1.0
 10
4.498761
 20
66.492476
 30
0.0
 10
3.702596
 20
68.140351
 30
0.0
 10
3.556148
 20
68.930387
 30
0.0
 10
3.88602
 20
69.798016
 30
0.0
  0
SPLINE
  5
127
330
1F
100
AcDbEntity
  8
0
 62
     7
100
AcDbSpline
210
0.0
220
0.0
230
1.0
 70
     8
 71
     3
 72
     8
 73
     4
 74
     0
 42
0.0000001
 43
0.0000001
 40
0.0
 40
0.0
 40
0.0
 40
0.0
 40
1.0
 40
1.0
 40
1.0
 40
1.0
 10
3.88602
 20
69.798016
 30
0.0
 10
4.492629
 20
71.393519
 30
0.0
 10
7.298891
 20
72.217282
 30
0.0
 10
8.971546
 20
71.290845
 30
0.0
  0
SPLINE
  5
128
330
1F
100
AcDbEntity
  8
0
 62
     7
100
AcDbSpline
210
0.0
220
0.0
230
1.0
 70
     8
 71
     3
 72
     8
 73
     4
 74
     0
 42
0.0000001
 43
0.0000001
 40
0.0
 40
0.0
 40
0.0
 40
0.0
 40
1.0
 40
1.0
 40
1.0
 40
1.0
 10
8.971546
 20
71.290845
 30
0.0
 10
9.600168
 20
70.942668
 30
0.0
 10
9.780578
 20
70.992545
 30
0.0
 10
11.049325
 20
71.86529
 30
0.0
  0
SPLINE
  5
129
330
1F
100
AcDbEntity
  8
0
 62
     7
100
AcDbSpline
210
0.0
220
0.0
230
1.0
 70
     8
 71
     3
 72
     8
 73
     4
 74
     0
 42
0.0000001
 43
0.0000001
 40
0.0
 40
0.0
 40
0.0
 40
0.0
 40
1.0
 40
1.0
 40
1.0
 40
1.0
 10
11.049325
 20
71.86529
 30
0.0
 10
12.189613
 20
72.649671
 30
0.0
 10
12.700845
 20
72.821018
 30
0.0
 10
13.90082
 20
72.821018
 30
0.0
  0
LWPOLYLINE
  5
12A
330
1F
100
AcDbEntity
  8
0
 62
     7
100
AcDbPolyline
 90
        3
 70
     0
 43
0.0
 10
2.676941
 20
58.285673
 10
3.364152
 20
58.73595
 10
2.789762
 20
59.542606
  0
SPLINE
  5
12B
330
1F
100
AcDbEntity
  8
0
 62
     7
100
AcDbSpline
210
0.0
220
0.0
230
1.0
 70
     8
 71
     3
 72
     8
 73
     4
 74
     0
 42
0.0000001
 43
0.0000001
 40
0.0
 40
0.0
 40
0.0
 40
0.0
 40
1.0
 40
1.0
 40
1.0
 40
1.0
 10
15.886067
 20
74.360065
 30
0.0
 10
16.964463
 20
77.532657
 30
0.0
 10
20.387935
 20
79.014663
 30
0.0
 10
21.531205
 20
76.803822
 30
0.0
  0
SPLINE
  5
12C
330
1F
100
AcDbEntity
  8
0
 62
     7
100
AcDbSpline
210
0.0
220
0.0
230
1.0
 70
     8
 71
     3
 72
     8
 73
     4
 74
     0
 42
0.0000001
 43
0.0000001
 40
0.0
 40
0.0
 40
0.0
 40
0.0
 40
1.0
 40
1.0
 40
1.0
 40
1.0
 10
21.531205
 20
76.803822
 30
0.0
 10
21.760672
 20
76.360084
 30
0.0
 10
21.876592
 20
75.925202
 30
0.0
 10
21.788809
 20
75.837418
 30
0.0
  0
SPLINE
  5
12D
330
1F
100
AcDbEntity
  8
0
 62
     7
100
AcDbSpline
210
0.0
220
0.0
230
1.0
 70
     8
 71
     3
 72
     8
 73
     4
 74
     0
 42
0.0000001
 43
0.0000001
 40
0.0
 40
0.0
 40
0.0
 40
0.0
 40
1.0
 40
1.0
 40
1.0
 40
1.0
 10
21.788809
 20
75.837418
 30
0.0
 10
21.701024
 20
75.749634
 30
0.0
 10
22.08709
 20
75.81834
 30
0.0
 10
22.646731
 20
75.990099
 30
0.0
  0
SPLINE
  5
12E
330
1F
100
AcDbEntity
  8
0
 62
     7
100
AcDbSpline
210
0.0
220
0.0
230
1.0
 70
     8
 71
     3
 72
     8
 73
     4
 74
     0
 42
0.0000001
 43
0.0000001
 40
0.0
 40
0.0
 40
0.0
 40
0.0
 40
1.0
 40
1.0
 40
1.0
 40
1.0
 10
22.646731
 20
75.990099
 30
0.0
 10
23.396658
 20
76.220259
 30
0.0
 10
23.939992
 20
76.217763
 30
0.0
 10
24.712705
 20
75.980611
 30
0.0
  0
SPLINE
  5
12F
330
1F
100
AcDbEntity
  8
0
 62
     7
100
AcDbSpline
210
0.0
220
0.0
230
1.0
 70
     8
 71
     3
 72
     8
 73
     4
 74
     0
 42
0.0000001
 43
0.0000001
 40
0.0
 40
0.0
 40
0.0
 40
0.0
 40
1.0
 40
1.0
 40
1.0
 40
1.0
 10
24.712705
 20
75.980611
 30
0.0
 10
25.618382
 20
75.702651
 30
0.0
 10
25.839356
 20
75.72959
 30
0.0
 10
26.335483
 20
76.178443
 30
0.0
  0
SPLINE
  5
130
330
1F
100
AcDbEntity
  8
0
 62
     7
100
AcDbSpline
210
0.0
220
0.0
230
1.0
 70
     8
 71
     3
 72
     8
 73
     4
 74
     0
 42
0.0000001
 43
0.0000001
 40
0.0
 40
0.0
 40
0.0
 40
0.0
 40
1.0
 40
1.0
 40
1.0
 40
1.0
 10
26.335483
 20
76.178443
 30
0.0
 10
28.469556
 20
78.109173
 30
0.0
 10
30.982818
 20
76.297488
 30
0.0
 10
30.64957
 20
73.068632
 30
0.0
  0
LWPOLYLINE
  5
131
330
1F
100
AcDbEntity
  8
0
 62
     7
100
AcDbPolyline
 90
        3
 70
     0
 43
0.0
 10
13.90082
 20
72.821018
 10
15.362928
 20
72.821018
 10
15.886067
 20
74.360065
  0
SPLINE
  5
132
330
1F
100
AcDbEntity
  8
0
 62
     7
100
AcDbSpline
210
0.0
220
0.0
230
1.0
 70
     8
 71
     3
 72
     8
 73
     4
 74
     0
 42
0.0000001
 43
0.0000001
 40
0.0
 40
0.0
 40
0.0
 40
0.0
 40
1.0
 40
1.0
 40
1.0
 40
1.0
 10
31.595348
 20
71.074933
 30
0.0
 10
32.223721
 20
70.80658
 30
0.0
 10
32.910159
 20
70.231636
 30
0.0
 10
33.190713
 20
69.738695
 30
0.0
  0
SPLINE
  5
133
330
1F
100
AcDbEntity
  8
0
 62
     7
100
AcDbSpline
210
0.0
220
0.0
230
1.0
 70
     8
 71
     3
 72
     8
 73
     4
 74
     0
 42
0.0000001
 43
0.0000001
 40
0.0
 40
0.0
 40
0.0
 40
0.0
 40
1.0
 40
1.0
 40
1.0
 40
1.0
 10
33.190713
 20
69.738695
 30
0.0
 10
33.627308
 20
68.971588
 30
0.0
 10
33.829585
 20
68.873273
 30
0.0
 10
34.97451
 20
68.871691
 30
0.0
  0
SPLINE
  5
134
330
1F
100
AcDbEntity
  8
0
 62
     7
100
AcDbSpline
210
0.0
220
0.0
230
1.0
 70
     8
 71
     3
 72
     8
 73
     4
 74
     0
 42
0.0000001
 43
0.0000001
 40
0.0
 40
0.0
 40
0.0
 40
0.0
 40
1.0
 40
1.0
 40
1.0
 40
1.0
 10
34.97451
 20
68.871691
 30
0.0
 10
36.607222
 20
68.869433
 30
0.0
 10
37.544034
 20
67.990824
 30
0.0
 10
37.70019
 20
66.31535
 30
0.0
  0
SPLINE
  5
135
330
1F
100
AcDbEntity
  8
0
 62
     7
100
AcDbSpline
210
0.0
220
0.0
230
1.0
 70
     8
 71
     3
 72
     8
 73
     4
 74
     0
 42
0.0000001
 43
0.0000001
 40
0.0
 40
0.0
 40
0.0
 40
0.0
 40
1.0
 40
1.0
 40
1.0
 40
1.0
 10
37.70019
 20
66.31535
 30
0.0
 10
37.79117
 20
65.339158
 30
0.0
 10
37.683567
 20
65.05951
 30
0.0
 10
36.955262
 20
64.37916
 30
0.0
  0
SPLINE
  5
136
330
1F
100
AcDbEntity
  8
0
 62
     7
100
AcDbSpline
210
0.0
220
0.0
230
1.0
 70
     8
 71
     3
 72
     8
 73
     4
 74
     0
 42
0.0000001
 43
0.0000001
 40
0.0
 40
0.0
 40
0.0
 40
0.0
 40
1.0
 40
1.0
 40
1.0
 40
1.0
 10
36.955262
 20
64.37916
 30
0.0
 10
36.135479
 20
63.613367
 30
0.0
 10
36.112933
 20
63.527749
 30
0.0
 10
36.345647
 20
62.064154
 30
0.0
  0
SPLINE
  5
137
330
1F
100
AcDbEntity
  8
0
 62
     7
100
AcDbSpline
210
0.0
220
0.0
230
1.0
 70
     8
 71
     3
 72
     8
 73
     4
 74
     0
 42
0.0000001
 43
0.0000001
 40
0.0
 40
0.0
 40
0.0
 40
0.0
 40
1.0
 40
1.0
 40
1.0
 40
1.0
 10
36.345647
 20
62.064154
 30
0.0
 10
36.492437
 20
61.14095
 30
0.0
 10
36.48136
 20
60.345112
 30
0.0
 10
36.317425
 20
60.036801
 30
0.0
  0
SPLINE
  5
138
330
1F
100
AcDbEntity
  8
0
 62
     7
100
AcDbSpline
210
0.0
220
0.0
230
1.0
 70
     8
 71
     3
 72
     8
 73
     4
 74
     0
 42
0.0000001
 43
0.0000001
 40
0.0
 40
0.0
 40
0.0
 40
0.0
 40
1.0
 40
1.0
 40
1.0
 40
1.0
 10
36.317425
 20
60.036801
 30
0.0
 10
36.108092
 20
59.643106
 30
0.0
 10
36.240435
 20
59.30957
 30
0.0
 10
36.907383
 20
58.549957
 30
0.0
  0
SPLINE
  5
139
330
1F
100
AcDbEntity
  8
0
 62
     7
100
AcDbSpline
210
0.0
220
0.0
230
1.0
 70
     8
 71
     3
 72
     8
 73
     4
 74
     0
 42
0.0000001
 43
0.0000001
 40
0.0
 40
0.0
 40
0.0
 40
0.0
 40
1.0
 40
1.0
 40
1.0
 40
1.0
 10
36.907383
 20
58.549957
 30
0.0
 10
38.003367
 20
57.3017
 30
0.0
 10
38.199458
 20
56.49131
 30
0.0
 10
37.696676
 20
55.287988
 30
0.0
  0
SPLINE
  5
13A
330
1F
100
AcDbEntity
  8
0
 62
     7
100
AcDbSpline
210
0.0
220
0.0
230
1.0
 70
     8
 71
     3
 72
     8
 73
     4
 74
     0
 42
0.0000001
 43
0.0000001
 40
0.0
 40
0.0
 40
0.0
 40
0.0
 40
1.0
 40
1.0
 40
1.0
 40
1.0
 10
37.696676
 20
55.287988
 30
0.0
 10
37.42103
 20
54.628271
 30
0.0
 10
36.927852
 20
54.150012
 30
0.0
 10
36.127453
 20
53.76624
 30
0.0
  0
SPLINE
  5
13B
330
1F
100
AcDbEntity
  8
0
 62
     7
100
AcDbSpline
210
0.0
220
0.0
230
1.0
 70
     8
 71
     3
 72
     8
 73
     4
 74
     0
 42
0.0000001
 43
0.0000001
 40
0.0
 40
0.0
 40
0.0
 40
0.0
 40
1.0
 40
1.0
 40
1.0
 40
1.0
 10
36.127453
 20
53.76624
 30
0.0
 10
35.485474
 20
53.458423
 30
0.0
 10
35.004496
 20
53.079574
 30
0.0
 10
35.058615
 20
52.924352
 30
0.0
  0
SPLINE
  5
13C
330
1F
100
AcDbEntity
  8
0
 62
     7
100
AcDbSpline
210
0.0
220
0.0
230
1.0
 70
     8
 71
     3
 72
     8
 73
     4
 74
     0
 42
0.0000001
 43
0.0000001
 40
0.0
 40
0.0
 40
0.0
 40
0.0
 40
1.0
 40
1.0
 40
1.0
 40
1.0
 10
35.058615
 20
52.924352
 30
0.0
 10
35.235749
 20
52.416321
 30
0.0
 10
34.141475
 20
50.59376
 30
0.0
 10
33.231943
 20
49.881945
 30
0.0
  0
SPLINE
  5
13D
330
1F
100
AcDbEntity
  8
0
 62
     7
100
AcDbSpline
210
0.0
220
0.0
230
1.0
 70
     8
 71
     3
 72
     8
 73
     4
 74
     0
 42
0.0000001
 43
0.0000001
 40
0.0
 40
0.0
 40
0.0
 40
0.0
 40
1.0
 40
1.0
 40
1.0
 40
1.0
 10
33.231943
 20
49.881945
 30
0.0
 10
32.528736
 20
49.331603
 30
0.0
 10
32.318658
 20
48.928796
 30
0.0
 10
32.231773
 20
47.9642
 30
0.0
  0
SPLINE
  5
13E
330
1F
100
AcDbEntity
  8
0
 62
     7
100
AcDbSpline
210
0.0
220
0.0
230
1.0
 70
     8
 71
     3
 72
     8
 73
     4
 74
     0
 42
0.0000001
 43
0.0000001
 40
0.0
 40
0.0
 40
0.0
 40
0.0
 40
1.0
 40
1.0
 40
1.0
 40
1.0
 10
32.231773
 20
47.9642
 30
0.0
 10
32.171279
 20
47.29261
 30
0.0
 10
31.96509
 20
46.643595
 30
0.0
 10
31.773577
 20
46.521949
 30
0.0
  0
SPLINE
  5
13F
330
1F
100
AcDbEntity
  8
0
 62
     7
100
AcDbSpline
210
0.0
220
0.0
230
1.0
 70
     8
 71
     3
 72
     8
 73
     4
 74
     0
 42
0.0000001
 43
0.0000001
 40
0.0
 40
0.0
 40
0.0
 40
0.0
 40
1.0
 40
1.0
 40
1.0
 40
1.0
 10
31.773577
 20
46.521949
 30
0.0
 10
31.582061
 20
46.400302
 30
0.0
 10
31.552368
 20
46.294864
 30
0.0
 10
31.70759
 20
46.287642
 30
0.0
  0
SPLINE
  5
140
330
1F
100
AcDbEntity
  8
0
 62
     7
100
AcDbSpline
210
0.0
220
0.0
230
1.0
 70
     8
 71
     3
 72
     8
 73
     4
 74
     0
 42
0.0000001
 43
0.0000001
 40
0.0
 40
0.0
 40
0.0
 40
0.0
 40
1.0
 40
1.0
 40
1.0
 40
1.0
 10
31.70759
 20
46.287642
 30
0.0
 10
31.862813
 20
46.280417
 30
0.0
 10
31.481813
 20
45.961627
 30
0.0
 10
30.860924
 20
45.579211
 30
0.0
  0
SPLINE
  5
141
330
1F
100
AcDbEntity
  8
0
 62
     7
100
AcDbSpline
210
0.0
220
0.0
230
1.0
 70
     8
 71
     3
 72
     8
 73
     4
 74
     0
 42
0.0000001
 43
0.0000001
 40
0.0
 40
0.0
 40
0.0
 40
0.0
 40
1.0
 40
1.0
 40
1.0
 40
1.0
 10
30.860924
 20
45.579211
 30
0.0
 10
29.636951
 20
44.825347
 30
0.0
 10
27.69591
 20
44.649765
 30
0.0
 10
26.329412
 20
45.169308
 30
0.0
  0
SPLINE
  5
142
330
1F
100
AcDbEntity
  8
0
 62
     7
100
AcDbSpline
210
0.0
220
0.0
230
1.0
 70
     8
 71
     3
 72
     8
 73
     4
 74
     0
 42
0.0000001
 43
0.0000001
 40
0.0
 40
0.0
 40
0.0
 40
0.0
 40
1.0
 40
1.0
 40
1.0
 40
1.0
 10
26.329412
 20
45.169308
 30
0.0
 10
25.035906
 20
45.661097
 30
0.0
 10
24.476431
 20
44.481922
 30
0.0
 10
25.426403
 20
43.266083
 30
0.0
  0
SPLINE
  5
143
330
1F
100
AcDbEntity
  8
0
 62
     7
100
AcDbSpline
210
0.0
220
0.0
230
1.0
 70
     8
 71
     3
 72
     8
 73
     4
 74
     0
 42
0.0000001
 43
0.0000001
 40
0.0
 40
0.0
 40
0.0
 40
0.0
 40
1.0
 40
1.0
 40
1.0
 40
1.0
 10
25.426403
 20
43.266083
 30
0.0
 10
25.574631
 20
43.076368
 30
0.0
 10
25.696941
 20
41.806368
 30
0.0
 10
25.6982
 20
40.443861
 30
0.0
  0
SPLINE
  5
144
330
1F
100
AcDbEntity
  8
0
 62
     7
100
AcDbSpline
210
0.0
220
0.0
230
1.0
 70
     8
 71
     3
 72
     8
 73
     4
 74
     0
 42
0.0000001
 43
0.0000001
 40
0.0
 40
0.0
 40
0.0
 40
0.0
 40
1.0
 40
1.0
 40
1.0
 40
1.0
 10
25.6982
 20
40.443861
 30
0.0
 10
25.70074
 20
37.808148
 30
0.0
 10
25.126234
 20
35.881383
 30
0.0
 10
23.346165
 20
32.55426
 30
0.0
  0
LWPOLYLINE
  5
145
330
1F
100
AcDbEntity
  8
0
 62
     7
100
AcDbPolyline
 90
        3
 70
     0
 43
0.0
 10
30.64957
 20
73.068632
 10
30.492418
 20
71.545951
 10
31.595348
 20
71.074933
  0
SPLINE
  5
146
330
1F
100
AcDbEntity
  8
0
 62
     7
100
AcDbSpline
210
0.0
220
0.0
230
1.0
 70
     8
 71
     3
 72
     8
 73
     4
 74
     0
 42
0.0000001
 43
0.0000001
 40
0.0
 40
0.0
 40
0.0
 40
0.0
 40
1.0
 40
1.0
 40
1.0
 40
1.0
 10
23.528597
 20
31.495927
 30
0.0
 10
24.058909
 20
31.717505
 30
0.0
 10
25.165079
 20
31.898796
 30
0.0
 10
25.986758
 20
31.898796
 30
0.0
  0
SPLINE
  5
147
330
1F
100
AcDbEntity
  8
0
 62
     7
100
AcDbSpline
210
0.0
220
0.0
230
1.0
 70
     8
 71
     3
 72
     8
 73
     4
 74
     0
 42
0.0000001
 43
0.0000001
 40
0.0
 40
0.0
 40
0.0
 40
0.0
 40
1.0
 40
1.0
 40
1.0
 40
1.0
 10
25.986758
 20
31.898796
 30
0.0
 10
27.197632
 20
31.898796
 30
0.0
 10
27.745341
 20
31.724995
 30
0.0
 10
28.877254
 20
30.981574
 30
0.0
  0
SPLINE
  5
148
330
1F
100
AcDbEntity
  8
0
 62
     7
100
AcDbSpline
210
0.0
220
0.0
230
1.0
 70
     8
 71
     3
 72
     8
 73
     4
 74
     0
 42
0.0000001
 43
0.0000001
 40
0.0
 40
0.0
 40
0.0
 40
0.0
 40
1.0
 40
1.0
 40
1.0
 40
1.0
 10
28.877254
 20
30.981574
 30
0.0
 10
30.865998
 20
29.675401
 30
0.0
 10
31.75668
 20
28.235769
 30
0.0
 10
31.974099
 20
25.976055
 30
0.0
  0
SPLINE
  5
149
330
1F
100
AcDbEntity
  8
0
 62
     7
100
AcDbSpline
210
0.0
220
0.0
230
1.0
 70
     8
 71
     3
 72
     8
 73
     4
 74
     0
 42
0.0000001
 43
0.0000001
 40
0.0
 40
0.0
 40
0.0
 40
0.0
 40
1.0
 40
1.0
 40
1.0
 40
1.0
 10
31.974099
 20
25.976055
 30
0.0
 10
32.071383
 20
24.964952
 30
0.0
 10
32.217019
 20
23.546288
 30
0.0
 10
32.297737
 20
22.823472
 30
0.0
  0
SPLINE
  5
14A
330
1F
100
AcDbEntity
  8
0
 62
     7
100
AcDbSpline
210
0.0
220
0.0
230
1.0
 70
     8
 71
     3
 72
     8
 73
     4
 74
     0
 42
0.0000001
 43
0.0000001
 40
0.0
 40
0.0
 40
0.0
 40
0.0
 40
1.0
 40
1.0
 40
1.0
 40
1.0
 10
32.297737
 20
22.823472
 30
0.0
 10
32.384588
 20
22.045716
 30
0.0
 10
32.322883
 20
21.434106
 30
0.0
 10
32.146598
 20
21.325149
 30
0.0
  0
SPLINE
  5
14B
330
1F
100
AcDbEntity
  8
0
 62
     7
100
AcDbSpline
210
0.0
220
0.0
230
1.0
 70
     8
 71
     3
 72
     8
 73
     4
 74
     0
 42
0.0000001
 43
0.0000001
 40
0.0
 40
0.0
 40
0.0
 40
0.0
 40
1.0
 40
1.0
 40
1.0
 40
1.0
 10
32.146598
 20
21.325149
 30
0.0
 10
31.982757
 20
21.22389
 30
0.0
 10
31.848704
 20
21.246654
 30
0.0
 10
31.848704
 20
21.37574
 30
0.0
  0
SPLINE
  5
14C
330
1F
100
AcDbEntity
  8
0
 62
     7
100
AcDbSpline
210
0.0
220
0.0
230
1.0
 70
     8
 71
     3
 72
     8
 73
     4
 74
     0
 42
0.0000001
 43
0.0000001
 40
0.0
 40
0.0
 40
0.0
 40
0.0
 40
1.0
 40
1.0
 40
1.0
 40
1.0
 10
31.848704
 20
21.37574
 30
0.0
 10
31.848704
 20
21.806151
 30
0.0
 10
29.844802
 20
22.696534
 30
0.0
 10
28.935655
 20
22.670081
 30
0.0
  0
SPLINE
  5
14D
330
1F
100
AcDbEntity
  8
0
 62
     7
100
AcDbSpline
210
0.0
220
0.0
230
1.0
 70
     8
 71
     3
 72
     8
 73
     4
 74
     0
 42
0.0000001
 43
0.0000001
 40
0.0
 40
0.0
 40
0.0
 40
0.0
 40
1.0
 40
1.0
 40
1.0
 40
1.0
 10
28.935655
 20
22.670081
 30
0.0
 10
28.442333
 20
22.655716
 30
0.0
 10
27.276705
 20
22.294562
 30
0.0
 10
26.345372
 20
21.867492
 30
0.0
  0
SPLINE
  5
14E
330
1F
100
AcDbEntity
  8
0
 62
     7
100
AcDbSpline
210
0.0
220
0.0
230
1.0
 70
     8
 71
     3
 72
     8
 73
     4
 74
     0
 42
0.0000001
 43
0.0000001
 40
0.0
 40
0.0
 40
0.0
 40
0.0
 40
1.0
 40
1.0
 40
1.0
 40
1.0
 10
26.345372
 20
21.867492
 30
0.0
 10
23.973904
 20
20.780039
 30
0.0
 10
22.610037
 20
20.674293
 30
0.0
 10
21.043926
 20
21.456447
 30
0.0
  0
SPLINE
  5
14F
330
1F
100
AcDbEntity
  8
0
 62
     7
100
AcDbSpline
210
0.0
220
0.0
230
1.0
 70
     8
 71
     3
 72
     8
 73
     4
 74
     0
 42
0.0000001
 43
0.0000001
 40
0.0
 40
0.0
 40
0.0
 40
0.0
 40
1.0
 40
1.0
 40
1.0
 40
1.0
 10
21.043926
 20
21.456447
 30
0.0
 10
19.76851
 20
22.09342
 30
0.0
 10
18.595578
 20
23.652785
 30
0.0
 10
18.573663
 20
24.740554
 30
0.0
  0
SPLINE
  5
150
330
1F
100
AcDbEntity
  8
0
 62
     7
100
AcDbSpline
210
0.0
220
0.0
230
1.0
 70
     8
 71
     3
 72
     8
 73
     4
 74
     0
 42
0.0000001
 43
0.0000001
 40
0.0
 40
0.0
 40
0.0
 40
0.0
 40
1.0
 40
1.0
 40
1.0
 40
1.0
 10
18.573663
 20
24.740554
 30
0.0
 10
18.565592
 20
25.141343
 30
0.0
 10
18.333117
 20
24.997816
 30
0.0
 10
17.59718
 20
24.137685
 30
0.0
  0
SPLINE
  5
151
330
1F
100
AcDbEntity
  8
0
 62
     7
100
AcDbSpline
210
0.0
220
0.0
230
1.0
 70
     8
 71
     3
 72
     8
 73
     4
 74
     0
 42
0.0000001
 43
0.0000001
 40
0.0
 40
0.0
 40
0.0
 40
0.0
 40
1.0
 40
1.0
 40
1.0
 40
1.0
 10
17.59718
 20
24.137685
 30
0.0
 10
14.648996
 20
20.691975
 30
0.0
 10
13.598148
 20
15.227091
 30
0.0
 10
14.889825
 20
10.058222
 30
0.0
  0
SPLINE
  5
152
330
1F
100
AcDbEntity
  8
0
 62
     7
100
AcDbSpline
210
0.0
220
0.0
230
1.0
 70
     8
 71
     3
 72
     8
 73
     4
 74
     0
 42
0.0000001
 43
0.0000001
 40
0.0
 40
0.0
 40
0.0
 40
0.0
 40
1.0
 40
1.0
 40
1.0
 40
1.0
 10
14.889825
 20
10.058222
 30
0.0
 10
15.852268
 20
6.20684
 30
0.0
 10
16.748995
 20
5.10054
 30
0.0
 10
18.915386
 20
5.091845
 30
0.0
  0
SPLINE
  5
153
330
1F
100
AcDbEntity
  8
0
 62
     7
100
AcDbSpline
210
0.0
220
0.0
230
1.0
 70
     8
 71
     3
 72
     8
 73
     4
 74
     0
 42
0.0000001
 43
0.0000001
 40
0.0
 40
0.0
 40
0.0
 40
0.0
 40
1.0
 40
1.0
 40
1.0
 40
1.0
 10
18.915386
 20
5.091845
 30
0.0
 10
19.618851
 20
5.089023
 30
0.0
 10
20.23565
 20
4.849063
 30
0.0
 10
20.834345
 20
4.345297
 30
0.0
  0
SPLINE
  5
154
330
1F
100
AcDbEntity
  8
0
 62
     7
100
AcDbSpline
210
0.0
220
0.0
230
1.0
 70
     8
 71
     3
 72
     8
 73
     4
 74
     0
 42
0.0000001
 43
0.0000001
 40
0.0
 40
0.0
 40
0.0
 40
0.0
 40
1.0
 40
1.0
 40
1.0
 40
1.0
 10
20.834345
 20
4.345297
 30
0.0
 10
21.61666
 20
3.687022
 30
0.0
 10
21.707047
 20
3.458876
 30
0.0
 10
21.632108
 20
2.331692
 30
0.0
  0
SPLINE
  5
155
330
1F
100
AcDbEntity
  8
0
 62
     7
100
AcDbSpline
210
0.0
220
0.0
230
1.0
 70
     8
 71
     3
 72
     8
 73
     4
 74
     0
 42
0.0000001
 43
0.0000001
 40
0.0
 40
0.0
 40
0.0
 40
0.0
 40
1.0
 40
1.0
 40
1.0
 40
1.0
 10
21.632108
 20
2.331692
 30
0.0
 10
21.524147
 20
0.707811
 30
0.0
 10
20.853593
 20
0.180681
 30
0.0
 10
19.514536
 20
0.667052
 30
0.0
  0
LWPOLYLINE
  5
156
330
1F
100
AcDbEntity
  8
0
 62
     7
100
AcDbPolyline
 90
        3
 70
     0
 43
0.0
 10
23.346165
 20
32.55426
 10
22.564396
 20
31.09306
 10
23.528597
 20
31.495927
  0
SPLINE
  5
157
330
1F
100
AcDbEntity
  8
0
 62
     7
100
AcDbSpline
210
0.0
220
0.0
230
1.0
 70
     8
 71
     3
 72
     8
 73
     4
 74
     0
 42
0.0000001
 43
0.0000001
 40
0.0
 40
0.0
 40
0.0
 40
0.0
 40
1.0
 40
1.0
 40
1.0
 40
1.0
 10
20.952955
 20
1.58299
 30
0.0
 10
21.518788
 20
3.057522
 30
0.0
 10
20.147467
 20
4.52324
 30
0.0
 10
18.20207
 20
4.52324
 30
0.0
  0
SPLINE
  5
158
330
1F
100
AcDbEntity
  8
0
 62
     7
100
AcDbSpline
210
0.0
220
0.0
230
1.0
 70
     8
 71
     3
 72
     8
 73
     4
 74
     0
 42
0.0000001
 43
0.0000001
 40
0.0
 40
0.0
 40
0.0
 40
0.0
 40
1.0
 40
1.0
 40
1.0
 40
1.0
 10
18.20207
 20
4.52324
 30
0.0
 10
17.550018
 20
4.52324
 30
0.0
 10
16.743701
 20
4.71433
 30
0.0
 10
16.410258
 20
4.947883
 30
0.0
  0
SPLINE
  5
159
330
1F
100
AcDbEntity
  8
0
 62
     7
100
AcDbSpline
210
0.0
220
0.0
230
1.0
 70
     8
 71
     3
 72
     8
 73
     4
 74
     0
 42
0.0000001
 43
0.0000001
 40
0.0
 40
0.0
 40
0.0
 40
0.0
 40
1.0
 40
1.0
 40
1.0
 40
1.0
 10
16.410258
 20
4.947883
 30
0.0
 10
15.81103
 20
5.367599
 30
0.0
 10
15.808729
 20
5.363032
 30
0.0
 10
16.212163
 20
4.55433
 30
0.0
  0
SPLINE
  5
15A
330
1F
100
AcDbEntity
  8
0
 62
     7
100
AcDbSpline
210
0.0
220
0.0
230
1.0
 70
     8
 71
     3
 72
     8
 73
     4
 74
     0
 42
0.0000001
 43
0.0000001
 40
0.0
 40
0.0
 40
0.0
 40
0.0
 40
1.0
 40
1.0
 40
1.0
 40
1.0
 10
16.212163
 20
4.55433
 30
0.0
 10
16.711231
 20
3.553928
 30
0.0
 10
19.588255
 20
1.136574
 30
0.0
 10
20.279821
 20
1.136574
 30
0.0
  0
SPLINE
  5
15B
330
1F
100
AcDbEntity
  8
0
 62
     7
100
AcDbSpline
210
0.0
220
0.0
230
1.0
 70
     8
 71
     3
 72
     8
 73
     4
 74
     0
 42
0.0000001
 43
0.0000001
 40
0.0
 40
0.0
 40
0.0
 40
0.0
 40
1.0
 40
1.0
 40
1.0
 40
1.0
 10
20.279821
 20
1.136574
 30
0.0
 10
20.555826
 20
1.136574
 30
0.0
 10
20.858738
 20
1.33746
 30
0.0
 10
20.952955
 20
1.58299
 30
0.0
  0
LWPOLYLINE
  5
15C
330
1F
100
AcDbEntity
  8
0
 62
     7
100
AcDbPolyline
 90
        2
 70
     0
 43
0.0
 10
19.514536
 20
0.667052
 10
19.514536
 20
0.667052
  0
SPLINE
  5
15D
330
1F
100
AcDbEntity
  8
0
 62
     7
100
AcDbSpline
210
0.0
220
0.0
230
1.0
 70
     8
 71
     3
 72
     8
 73
     4
 74
     0
 42
0.0000001
 43
0.0000001
 40
0.0
 40
0.0
 40
0.0
 40
0.0
 40
1.0
 40
1.0
 40
1.0
 40
1.0
 10
13.061928
 20
19.574324
 30
0.0
 10
14.086203
 20
20.139347
 30
0.0
 10
14.419807
 20
20.539941
 30
0.0
 10
15.605363
 20
22.628502
 30
0.0
  0
SPLINE
  5
15E
330
1F
100
AcDbEntity
  8
0
 62
     7
100
AcDbSpline
210
0.0
220
0.0
230
1.0
 70
     8
 71
     3
 72
     8
 73
     4
 74
     0
 42
0.0000001
 43
0.0000001
 40
0.0
 40
0.0
 40
0.0
 40
0.0
 40
1.0
 40
1.0
 40
1.0
 40
1.0
 10
15.605363
 20
22.628502
 30
0.0
 10
15.987825
 20
23.302273
 30
0.0
 10
15.985099
 20
23.394444
 30
0.0
 10
15.5781
 20
23.550626
 30
0.0
  0
SPLINE
  5
15F
330
1F
100
AcDbEntity
  8
0
 62
     7
100
AcDbSpline
210
0.0
220
0.0
230
1.0
 70
     8
 71
     3
 72
     8
 73
     4
 74
     0
 42
0.0000001
 43
0.0000001
 40
0.0
 40
0.0
 40
0.0
 40
0.0
 40
1.0
 40
1.0
 40
1.0
 40
1.0
 10
15.5781
 20
23.550626
 30
0.0
 10
15.060809
 20
23.74913
 30
0.0
 10
14.461491
 20
23.079143
 30
0.0
 10
14.209828
 20
22.021018
 30
0.0
  0
SPLINE
  5
160
330
1F
100
AcDbEntity
  8
0
 62
     7
100
AcDbSpline
210
0.0
220
0.0
230
1.0
 70
     8
 71
     3
 72
     8
 73
     4
 74
     0
 42
0.0000001
 43
0.0000001
 40
0.0
 40
0.0
 40
0.0
 40
0.0
 40
1.0
 40
1.0
 40
1.0
 40
1.0
 10
14.209828
 20
22.021018
 30
0.0
 10
14.117533
 20
21.632963
 30
0.0
 10
13.858839
 20
21.070734
 30
0.0
 10
13.634949
 20
20.77162
 30
0.0
  0
SPLINE
  5
161
330
1F
100
AcDbEntity
  8
0
 62
     7
100
AcDbSpline
210
0.0
220
0.0
230
1.0
 70
     8
 71
     3
 72
     8
 73
     4
 74
     0
 42
0.0000001
 43
0.0000001
 40
0.0
 40
0.0
 40
0.0
 40
0.0
 40
1.0
 40
1.0
 40
1.0
 40
1.0
 10
13.634949
 20
20.77162
 30
0.0
 10
12.872137
 20
19.752502
 30
0.0
 10
12.953707
 20
20.49605
 30
0.0
 10
13.801348
 20
22.288387
 30
0.0
  0
SPLINE
  5
162
330
1F
100
AcDbEntity
  8
0
 62
     7
100
AcDbSpline
210
0.0
220
0.0
230
1.0
 70
     8
 71
     3
 72
     8
 73
     4
 74
     0
 42
0.0000001
 43
0.0000001
 40
0.0
 40
0.0
 40
0.0
 40
0.0
 40
1.0
 40
1.0
 40
1.0
 40
1.0
 10
13.801348
 20
22.288387
 30
0.0
 10
14.266509
 20
23.271968
 30
0.0
 10
14.589973
 20
24.133835
 30
0.0
 10
14.520156
 20
24.203652
 30
0.0
  0
SPLINE
  5
163
330
1F
100
AcDbEntity
  8
0
 62
     7
100
AcDbSpline
210
0.0
220
0.0
230
1.0
 70
     8
 71
     3
 72
     8
 73
     4
 74
     0
 42
0.0000001
 43
0.0000001
 40
0.0
 40
0.0
 40
0.0
 40
0.0
 40
1.0
 40
1.0
 40
1.0
 40
1.0
 10
14.520156
 20
24.203652
 30
0.0
 10
14.29483
 20
24.428978
 30
0.0
 10
13.004121
 20
22.205637
 30
0.0
 10
12.47485
 20
20.680463
 30
0.0
  0
SPLINE
  5
164
330
1F
100
AcDbEntity
  8
0
 62
     7
100
AcDbSpline
210
0.0
220
0.0
230
1.0
 70
     8
 71
     3
 72
     8
 73
     4
 74
     0
 42
0.0000001
 43
0.0000001
 40
0.0
 40
0.0
 40
0.0
 40
0.0
 40
1.0
 40
1.0
 40
1.0
 40
1.0
 10
12.47485
 20
20.680463
 30
0.0
 10
12.192054
 20
19.865546
 30
0.0
 10
11.854926
 20
19.198796
 30
0.0
 10
11.725677
 20
19.198796
 30
0.0
  0
SPLINE
  5
165
330
1F
100
AcDbEntity
  8
0
 62
     7
100
AcDbSpline
210
0.0
220
0.0
230
1.0
 70
     8
 71
     3
 72
     8
 73
     4
 74
     0
 42
0.0000001
 43
0.0000001
 40
0.0
 40
0.0
 40
0.0
 40
0.0
 40
1.0
 40
1.0
 40
1.0
 40
1.0
 10
11.725677
 20
19.198796
 30
0.0
 10
11.406178
 20
19.198796
 30
0.0
 10
12.060127
 20
21.144538
 30
0.0
 10
13.409307
 20
24.20824
 30
0.0
  0
SPLINE
  5
166
330
1F
100
AcDbEntity
  8
0
 62
     7
100
AcDbSpline
210
0.0
220
0.0
230
1.0
 70
     8
 71
     3
 72
     8
 73
     4
 74
     0
 42
0.0000001
 43
0.0000001
 40
0.0
 40
0.0
 40
0.0
 40
0.0
 40
1.0
 40
1.0
 40
1.0
 40
1.0
 10
13.409307
 20
24.20824
 30
0.0
 10
13.494753
 20
24.402268
 30
0.0
 10
13.432732
 20
24.561018
 30
0.0
 10
13.271461
 20
24.561018
 30
0.0
  0
SPLINE
  5
167
330
1F
100
AcDbEntity
  8
0
 62
     7
100
AcDbSpline
210
0.0
220
0.0
230
1.0
 70
     8
 71
     3
 72
     8
 73
     4
 74
     0
 42
0.0000001
 43
0.0000001
 40
0.0
 40
0.0
 40
0.0
 40
0.0
 40
1.0
 40
1.0
 40
1.0
 40
1.0
 10
13.271461
 20
24.561018
 30
0.0
 10
12.964931
 20
24.561018
 30
0.0
 10
11.818319
 20
23.096734
 30
0.0
 10
11.80088
 20
22.683007
 30
0.0
  0
SPLINE
  5
168
330
1F
100
AcDbEntity
  8
0
 62
     7
100
AcDbSpline
210
0.0
220
0.0
230
1.0
 70
     8
 71
     3
 72
     8
 73
     4
 74
     0
 42
0.0000001
 43
0.0000001
 40
0.0
 40
0.0
 40
0.0
 40
0.0
 40
1.0
 40
1.0
 40
1.0
 40
1.0
 10
11.80088
 20
22.683007
 30
0.0
 10
11.795349
 20
22.551746
 30
0.0
 10
11.485167
 20
21.809352
 30
0.0
 10
11.111592
 20
21.03324
 30
0.0
  0
SPLINE
  5
169
330
1F
100
AcDbEntity
  8
0
 62
     7
100
AcDbSpline
210
0.0
220
0.0
230
1.0
 70
     8
 71
     3
 72
     8
 73
     4
 74
     0
 42
0.0000001
 43
0.0000001
 40
0.0
 40
0.0
 40
0.0
 40
0.0
 40
1.0
 40
1.0
 40
1.0
 40
1.0
 10
11.111592
 20
21.03324
 30
0.0
 10
10.173045
 20
19.083393
 30
0.0
 10
10.246558
 20
20.031078
 30
0.0
 10
11.226527
 20
22.514907
 30
0.0
  0
SPLINE
  5
16A
330
1F
100
AcDbEntity
  8
0
 62
     7
100
AcDbSpline
210
0.0
220
0.0
230
1.0
 70
     8
 71
     3
 72
     8
 73
     4
 74
     0
 42
0.0000001
 43
0.0000001
 40
0.0
 40
0.0
 40
0.0
 40
0.0
 40
1.0
 40
1.0
 40
1.0
 40
1.0
 10
11.226527
 20
22.514907
 30
0.0
 10
11.670525
 20
23.640268
 30
0.0
 10
11.951903
 20
24.560152
 30
0.0
 10
11.851813
 20
24.559091
 30
0.0
  0
SPLINE
  5
16B
330
1F
100
AcDbEntity
  8
0
 62
     7
100
AcDbSpline
210
0.0
220
0.0
230
1.0
 70
     8
 71
     3
 72
     8
 73
     4
 74
     0
 42
0.0000001
 43
0.0000001
 40
0.0
 40
0.0
 40
0.0
 40
0.0
 40
1.0
 40
1.0
 40
1.0
 40
1.0
 10
11.851813
 20
24.559091
 30
0.0
 10
11.562507
 20
24.556014
 30
0.0
 10
10.445756
 20
22.801442
 30
0.0
 10
10.097788
 20
21.803256
 30
0.0
  0
SPLINE
  5
16C
330
1F
100
AcDbEntity
  8
0
 62
     7
100
AcDbSpline
210
0.0
220
0.0
230
1.0
 70
     8
 71
     3
 72
     8
 73
     4
 74
     0
 42
0.0000001
 43
0.0000001
 40
0.0
 40
0.0
 40
0.0
 40
0.0
 40
1.0
 40
1.0
 40
1.0
 40
1.0
 10
10.097788
 20
21.803256
 30
0.0
 10
9.8308
 20
21.037378
 30
0.0
 10
9.270939
 20
20.526482
 30
0.0
 10
9.270939
 20
21.048723
 30
0.0
  0
SPLINE
  5
16D
330
1F
100
AcDbEntity
  8
0
 62
     7
100
AcDbSpline
210
0.0
220
0.0
230
1.0
 70
     8
 71
     3
 72
     8
 73
     4
 74
     0
 42
0.0000001
 43
0.0000001
 40
0.0
 40
0.0
 40
0.0
 40
0.0
 40
1.0
 40
1.0
 40
1.0
 40
1.0
 10
9.270939
 20
21.048723
 30
0.0
 10
9.270939
 20
21.198837
 30
0.0
 10
10.333731
 20
23.628835
 30
0.0
 10
10.591081
 20
24.067129
 30
0.0
  0
SPLINE
  5
16E
330
1F
100
AcDbEntity
  8
0
 62
     7
100
AcDbSpline
210
0.0
220
0.0
230
1.0
 70
     8
 71
     3
 72
     8
 73
     4
 74
     0
 42
0.0000001
 43
0.0000001
 40
0.0
 40
0.0
 40
0.0
 40
0.0
 40
1.0
 40
1.0
 40
1.0
 40
1.0
 10
10.591081
 20
24.067129
 30
0.0
 10
10.659435
 20
24.183546
 30
0.0
 10
10.45704
 20
24.278796
 30
0.0
 10
10.141315
 20
24.278796
 30
0.0
  0
SPLINE
  5
16F
330
1F
100
AcDbEntity
  8
0
 62
     7
100
AcDbSpline
210
0.0
220
0.0
230
1.0
 70
     8
 71
     3
 72
     8
 73
     4
 74
     0
 42
0.0000001
 43
0.0000001
 40
0.0
 40
0.0
 40
0.0
 40
0.0
 40
1.0
 40
1.0
 40
1.0
 40
1.0
 10
10.141315
 20
24.278796
 30
0.0
 10
9.735872
 20
24.278796
 30
0.0
 10
9.399412
 20
23.91033
 30
0.0
 10
8.995769
 20
23.024279
 30
0.0
  0
SPLINE
  5
170
330
1F
100
AcDbEntity
  8
0
 62
     7
100
AcDbSpline
210
0.0
220
0.0
230
1.0
 70
     8
 71
     3
 72
     8
 73
     4
 74
     0
 42
0.0000001
 43
0.0000001
 40
0.0
 40
0.0
 40
0.0
 40
0.0
 40
1.0
 40
1.0
 40
1.0
 40
1.0
 10
8.995769
 20
23.024279
 30
0.0
 10
8.681447
 20
22.334296
 30
0.0
 10
8.424272
 20
21.579792
 30
0.0
 10
8.424272
 20
21.347602
 30
0.0
  0
SPLINE
  5
171
330
1F
100
AcDbEntity
  8
0
 62
     7
100
AcDbSpline
210
0.0
220
0.0
230
1.0
 70
     8
 71
     3
 72
     8
 73
     4
 74
     0
 42
0.0000001
 43
0.0000001
 40
0.0
 40
0.0
 40
0.0
 40
0.0
 40
1.0
 40
1.0
 40
1.0
 40
1.0
 10
8.424272
 20
21.347602
 30
0.0
 10
8.424272
 20
21.115415
 30
0.0
 10
8.283692
 20
20.838558
 30
0.0
 10
8.111872
 20
20.732366
 30
0.0
  0
SPLINE
  5
172
330
1F
100
AcDbEntity
  8
0
 62
     7
100
AcDbSpline
210
0.0
220
0.0
230
1.0
 70
     8
 71
     3
 72
     8
 73
     4
 74
     0
 42
0.0000001
 43
0.0000001
 40
0.0
 40
0.0
 40
0.0
 40
0.0
 40
1.0
 40
1.0
 40
1.0
 40
1.0
 10
8.111872
 20
20.732366
 30
0.0
 10
7.726286
 20
20.494061
 30
0.0
 10
8.017816
 20
22.073921
 30
0.0
 10
8.570999
 20
23.220463
 30
0.0
  0
SPLINE
  5
173
330
1F
100
AcDbEntity
  8
0
 62
     7
100
AcDbSpline
210
0.0
220
0.0
230
1.0
 70
     8
 71
     3
 72
     8
 73
     4
 74
     0
 42
0.0000001
 43
0.0000001
 40
0.0
 40
0.0
 40
0.0
 40
0.0
 40
1.0
 40
1.0
 40
1.0
 40
1.0
 10
8.570999
 20
23.220463
 30
0.0
 10
8.776948
 20
23.647324
 30
0.0
 10
8.852073
 20
23.996574
 30
0.0
 10
8.737937
 20
23.996574
 30
0.0
  0
SPLINE
  5
174
330
1F
100
AcDbEntity
  8
0
 62
     7
100
AcDbSpline
210
0.0
220
0.0
230
1.0
 70
     8
 71
     3
 72
     8
 73
     4
 74
     0
 42
0.0000001
 43
0.0000001
 40
0.0
 40
0.0
 40
0.0
 40
0.0
 40
1.0
 40
1.0
 40
1.0
 40
1.0
 10
8.737937
 20
23.996574
 30
0.0
 10
8.442591
 20
23.996574
 30
0.0
 10
7.411983
 20
22.550775
 30
0.0
 10
7.174934
 20
21.803893
 30
0.0
  0
SPLINE
  5
175
330
1F
100
AcDbEntity
  8
0
 62
     7
100
AcDbSpline
210
0.0
220
0.0
230
1.0
 70
     8
 71
     3
 72
     8
 73
     4
 74
     0
 42
0.0000001
 43
0.0000001
 40
0.0
 40
0.0
 40
0.0
 40
0.0
 40
1.0
 40
1.0
 40
1.0
 40
1.0
 10
7.174934
 20
21.803893
 30
0.0
 10
7.065039
 20
21.457646
 30
0.0
 10
6.856683
 20
21.174352
 30
0.0
 10
6.71192
 20
21.174352
 30
0.0
  0
SPLINE
  5
176
330
1F
100
AcDbEntity
  8
0
 62
     7
100
AcDbSpline
210
0.0
220
0.0
230
1.0
 70
     8
 71
     3
 72
     8
 73
     4
 74
     0
 42
0.0000001
 43
0.0000001
 40
0.0
 40
0.0
 40
0.0
 40
0.0
 40
1.0
 40
1.0
 40
1.0
 40
1.0
 10
6.71192
 20
21.174352
 30
0.0
 10
6.369421
 20
21.174352
 30
0.0
 10
6.373888
 20
21.208551
 30
0.0
 10
6.872154
 20
22.401067
 30
0.0
  0
SPLINE
  5
177
330
1F
100
AcDbEntity
  8
0
 62
     7
100
AcDbSpline
210
0.0
220
0.0
230
1.0
 70
     8
 71
     3
 72
     8
 73
     4
 74
     0
 42
0.0000001
 43
0.0000001
 40
0.0
 40
0.0
 40
0.0
 40
0.0
 40
1.0
 40
1.0
 40
1.0
 40
1.0
 10
6.872154
 20
22.401067
 30
0.0
 10
7.234629
 20
23.268596
 30
0.0
 10
7.237195
 20
23.392085
 30
0.0
 10
6.889963
 20
23.258845
 30
0.0
  0
SPLINE
  5
178
330
1F
100
AcDbEntity
  8
0
 62
     7
100
AcDbSpline
210
0.0
220
0.0
230
1.0
 70
     8
 71
     3
 72
     8
 73
     4
 74
     0
 42
0.0000001
 43
0.0000001
 40
0.0
 40
0.0
 40
0.0
 40
0.0
 40
1.0
 40
1.0
 40
1.0
 40
1.0
 10
6.889963
 20
23.258845
 30
0.0
 10
6.666871
 20
23.173236
 30
0.0
 10
6.545606
 20
22.943552
 30
0.0
 10
6.62048
 20
22.748435
 30
0.0
  0
SPLINE
  5
179
330
1F
100
AcDbEntity
  8
0
 62
     7
100
AcDbSpline
210
0.0
220
0.0
230
1.0
 70
     8
 71
     3
 72
     8
 73
     4
 74
     0
 42
0.0000001
 43
0.0000001
 40
0.0
 40
0.0
 40
0.0
 40
0.0
 40
1.0
 40
1.0
 40
1.0
 40
1.0
 10
6.62048
 20
22.748435
 30
0.0
 10
6.695353
 20
22.553315
 30
0.0
 10
6.560335
 20
22.230774
 30
0.0
 10
6.320438
 20
22.031678
 30
0.0
  0
SPLINE
  5
17A
330
1F
100
AcDbEntity
  8
0
 62
     7
100
AcDbSpline
210
0.0
220
0.0
230
1.0
 70
     8
 71
     3
 72
     8
 73
     4
 74
     0
 42
0.0000001
 43
0.0000001
 40
0.0
 40
0.0
 40
0.0
 40
0.0
 40
1.0
 40
1.0
 40
1.0
 40
1.0
 10
6.320438
 20
22.031678
 30
0.0
 10
6.080541
 20
21.832581
 30
0.0
 10
5.884261
 20
21.494733
 30
0.0
 10
5.884261
 20
21.280907
 30
0.0
  0
SPLINE
  5
17B
330
1F
100
AcDbEntity
  8
0
 62
     7
100
AcDbSpline
210
0.0
220
0.0
230
1.0
 70
     8
 71
     3
 72
     8
 73
     4
 74
     0
 42
0.0000001
 43
0.0000001
 40
0.0
 40
0.0
 40
0.0
 40
0.0
 40
1.0
 40
1.0
 40
1.0
 40
1.0
 10
5.884261
 20
21.280907
 30
0.0
 10
5.884261
 20
21.067079
 30
0.0
 10
5.757261
 20
20.892129
 30
0.0
 10
5.602039
 20
20.892129
 30
0.0
  0
SPLINE
  5
17C
330
1F
100
AcDbEntity
  8
0
 62
     7
100
AcDbSpline
210
0.0
220
0.0
230
1.0
 70
     8
 71
     3
 72
     8
 73
     4
 74
     0
 42
0.0000001
 43
0.0000001
 40
0.0
 40
0.0
 40
0.0
 40
0.0
 40
1.0
 40
1.0
 40
1.0
 40
1.0
 10
5.602039
 20
20.892129
 30
0.0
 10
5.235023
 20
20.892129
 30
0.0
 10
5.243408
 20
21.35091
 30
0.0
 10
5.623403
 20
22.060936
 30
0.0
  0
SPLINE
  5
17D
330
1F
100
AcDbEntity
  8
0
 62
     7
100
AcDbSpline
210
0.0
220
0.0
230
1.0
 70
     8
 71
     3
 72
     8
 73
     4
 74
     0
 42
0.0000001
 43
0.0000001
 40
0.0
 40
0.0
 40
0.0
 40
0.0
 40
1.0
 40
1.0
 40
1.0
 40
1.0
 10
5.623403
 20
22.060936
 30
0.0
 10
5.905786
 20
22.588573
 30
0.0
 10
5.881151
 20
22.603768
 30
0.0
 10
5.270625
 20
22.278504
 30
0.0
  0
SPLINE
  5
17E
330
1F
100
AcDbEntity
  8
0
 62
     7
100
AcDbSpline
210
0.0
220
0.0
230
1.0
 70
     8
 71
     3
 72
     8
 73
     4
 74
     0
 42
0.0000001
 43
0.0000001
 40
0.0
 40
0.0
 40
0.0
 40
0.0
 40
1.0
 40
1.0
 40
1.0
 40
1.0
 10
5.270625
 20
22.278504
 30
0.0
 10
4.056327
 20
21.631574
 30
0.0
 10
3.658639
 20
20.609907
 30
0.0
 10
4.621119
 20
20.609907
 30
0.0
  0
SPLINE
  5
17F
330
1F
100
AcDbEntity
  8
0
 62
     7
100
AcDbSpline
210
0.0
220
0.0
230
1.0
 70
     8
 71
     3
 72
     8
 73
     4
 74
     0
 42
0.0000001
 43
0.0000001
 40
0.0
 40
0.0
 40
0.0
 40
0.0
 40
1.0
 40
1.0
 40
1.0
 40
1.0
 10
4.621119
 20
20.609907
 30
0.0
 10
4.839401
 20
20.609907
 30
0.0
 10
5.618769
 20
20.228907
 30
0.0
 10
6.353049
 20
19.76324
 30
0.0
  0
SPLINE
  5
180
330
1F
100
AcDbEntity
  8
0
 62
     7
100
AcDbSpline
210
0.0
220
0.0
230
1.0
 70
     8
 71
     3
 72
     8
 73
     4
 74
     0
 42
0.0000001
 43
0.0000001
 40
0.0
 40
0.0
 40
0.0
 40
0.0
 40
1.0
 40
1.0
 40
1.0
 40
1.0
 10
6.353049
 20
19.76324
 30
0.0
 10
7.545889
 20
19.006764
 30
0.0
 10
7.915211
 20
18.918998
 30
0.0
 10
9.820073
 20
18.939324
 30
0.0
  0
SPLINE
  5
181
330
1F
100
AcDbEntity
  8
0
 62
     7
100
AcDbSpline
210
0.0
220
0.0
230
1.0
 70
     8
 71
     3
 72
     8
 73
     4
 74
     0
 42
0.0000001
 43
0.0000001
 40
0.0
 40
0.0
 40
0.0
 40
0.0
 40
1.0
 40
1.0
 40
1.0
 40
1.0
 10
9.820073
 20
18.939324
 30
0.0
 10
11.447812
 20
18.95668
 30
0.0
 10
12.214539
 20
19.106879
 30
0.0
 10
13.061931
 20
19.574324
 30
0.0
  0
LWPOLYLINE
  5
182
330
1F
100
AcDbEntity
  8
0
 62
     7
100
AcDbPolyline
 90
        2
 70
     0
 43
0.0
 10
20.952955
 20
1.58299
 10
20.952955
 20
1.58299
  0
SPLINE
  5
183
330
1F
100
AcDbEntity
  8
0
 62
     7
100
AcDbSpline
210
0.0
220
0.0
230
1.0
 70
     8
 71
     3
 72
     8
 73
     4
 74
     0
 42
0.0000001
 43
0.0000001
 40
0.0
 40
0.0
 40
0.0
 40
0.0
 40
1.0
 40
1.0
 40
1.0
 40
1.0
 10
5.10815
 20
23.018115
 30
0.0
 10
6.15415
 20
23.713237
 30
0.0
 10
6.519563
 20
24.192453
 30
0.0
 10
5.790188
 20
23.912565
 30
0.0
  0
SPLINE
  5
184
330
1F
100
AcDbEntity
  8
0
 62
     7
100
AcDbSpline
210
0.0
220
0.0
230
1.0
 70
     8
 71
     3
 72
     8
 73
     4
 74
     0
 42
0.0000001
 43
0.0000001
 40
0.0
 40
0.0
 40
0.0
 40
0.0
 40
1.0
 40
1.0
 40
1.0
 40
1.0
 10
5.790188
 20
23.912565
 30
0.0
 10
5.583223
 20
23.833145
 30
0.0
 10
5.413889
 20
23.946558
 30
0.0
 10
5.413889
 20
24.164592
 30
0.0
  0
SPLINE
  5
185
330
1F
100
AcDbEntity
  8
0
 62
     7
100
AcDbSpline
210
0.0
220
0.0
230
1.0
 70
     8
 71
     3
 72
     8
 73
     4
 74
     0
 42
0.0000001
 43
0.0000001
 40
0.0
 40
0.0
 40
0.0
 40
0.0
 40
1.0
 40
1.0
 40
1.0
 40
1.0
 10
5.413889
 20
24.164592
 30
0.0
 10
5.413889
 20
24.641522
 30
0.0
 10
5.401387
 20
24.640345
 30
0.0
 10
6.268972
 20
24.245042
 30
0.0
  0
SPLINE
  5
186
330
1F
100
AcDbEntity
  8
0
 62
     7
100
AcDbSpline
210
0.0
220
0.0
230
1.0
 70
     8
 71
     3
 72
     8
 73
     4
 74
     0
 42
0.0000001
 43
0.0000001
 40
0.0
 40
0.0
 40
0.0
 40
0.0
 40
1.0
 40
1.0
 40
1.0
 40
1.0
 10
6.268972
 20
24.245042
 30
0.0
 10
6.822734
 20
23.99273
 30
0.0
 10
7.093953
 20
24.021164
 30
0.0
 10
7.615048
 20
24.386153
 30
0.0
  0
LWPOLYLINE
  5
187
330
1F
100
AcDbEntity
  8
0
 62
     7
100
AcDbPolyline
 90
        2
 70
     0
 43
0.0
 10
13.061931
 20
19.574324
 10
13.061928
 20
19.574324
  0
SPLINE
  5
188
330
1F
100
AcDbEntity
  8
0
 62
     7
100
AcDbSpline
210
0.0
220
0.0
230
1.0
 70
     8
 71
     3
 72
     8
 73
     4
 74
     0
 42
0.0000001
 43
0.0000001
 40
0.0
 40
0.0
 40
0.0
 40
0.0
 40
1.0
 40
1.0
 40
1.0
 40
1.0
 10
7.640391
 20
24.84324
 30
0.0
 10
7.295409
 20
24.84324
 30
0.0
 10
7.01315
 20
24.953189
 30
0.0
 10
7.01315
 20
25.087569
 30
0.0
  0
SPLINE
  5
189
330
1F
100
AcDbEntity
  8
0
 62
     7
100
AcDbSpline
210
0.0
220
0.0
230
1.0
 70
     8
 71
     3
 72
     8
 73
     4
 74
     0
 42
0.0000001
 43
0.0000001
 40
0.0
 40
0.0
 40
0.0
 40
0.0
 40
1.0
 40
1.0
 40
1.0
 40
1.0
 10
7.01315
 20
25.087569
 30
0.0
 10
7.01315
 20
25.223261
 30
0.0
 10
7.546451
 20
25.228725
 30
0.0
 10
8.212594
 20
25.099845
 30
0.0
  0
SPLINE
  5
18A
330
1F
100
AcDbEntity
  8
0
 62
     7
100
AcDbSpline
210
0.0
220
0.0
230
1.0
 70
     8
 71
     3
 72
     8
 73
     4
 74
     0
 42
0.0000001
 43
0.0000001
 40
0.0
 40
0.0
 40
0.0
 40
0.0
 40
1.0
 40
1.0
 40
1.0
 40
1.0
 10
8.212594
 20
25.099845
 30
0.0
 10
10.035287
 20
24.74724
 30
0.0
 10
10.359137
 20
24.785216
 30
0.0
 10
9.710875
 20
25.275534
 30
0.0
  0
SPLINE
  5
18B
330
1F
100
AcDbEntity
  8
0
 62
     7
100
AcDbSpline
210
0.0
220
0.0
230
1.0
 70
     8
 71
     3
 72
     8
 73
     4
 74
     0
 42
0.0000001
 43
0.0000001
 40
0.0
 40
0.0
 40
0.0
 40
0.0
 40
1.0
 40
1.0
 40
1.0
 40
1.0
 10
9.710875
 20
25.275534
 30
0.0
 10
9.409569
 20
25.503446
 30
0.0
 10
8.933319
 20
25.689907
 30
0.0
 10
8.652542
 20
25.689907
 30
0.0
  0
SPLINE
  5
18C
330
1F
100
AcDbEntity
  8
0
 62
     7
100
AcDbSpline
210
0.0
220
0.0
230
1.0
 70
     8
 71
     3
 72
     8
 73
     4
 74
     0
 42
0.0000001
 43
0.0000001
 40
0.0
 40
0.0
 40
0.0
 40
0.0
 40
1.0
 40
1.0
 40
1.0
 40
1.0
 10
8.652542
 20
25.689907
 30
0.0
 10
8.371765
 20
25.689907
 30
0.0
 10
8.142039
 20
25.810834
 30
0.0
 10
8.142039
 20
25.958631
 30
0.0
  0
SPLINE
  5
18D
330
1F
100
AcDbEntity
  8
0
 62
     7
100
AcDbSpline
210
0.0
220
0.0
230
1.0
 70
     8
 71
     3
 72
     8
 73
     4
 74
     0
 42
0.0000001
 43
0.0000001
 40
0.0
 40
0.0
 40
0.0
 40
0.0
 40
1.0
 40
1.0
 40
1.0
 40
1.0
 10
8.142039
 20
25.958631
 30
0.0
 10
8.142039
 20
26.107892
 30
0.0
 10
8.737987
 20
26.041728
 30
0.0
 10
9.482594
 20
25.809801
 30
0.0
  0
SPLINE
  5
18E
330
1F
100
AcDbEntity
  8
0
 62
     7
100
AcDbSpline
210
0.0
220
0.0
230
1.0
 70
     8
 71
     3
 72
     8
 73
     4
 74
     0
 42
0.0000001
 43
0.0000001
 40
0.0
 40
0.0
 40
0.0
 40
0.0
 40
1.0
 40
1.0
 40
1.0
 40
1.0
 10
9.482594
 20
25.809801
 30
0.0
 10
11.281814
 20
25.249386
 30
0.0
 10
12.375372
 20
25.021994
 30
0.0
 10
12.375372
 20
25.208278
 30
0.0
  0
SPLINE
  5
18F
330
1F
100
AcDbEntity
  8
0
 62
     7
100
AcDbSpline
210
0.0
220
0.0
230
1.0
 70
     8
 71
     3
 72
     8
 73
     4
 74
     0
 42
0.0000001
 43
0.0000001
 40
0.0
 40
0.0
 40
0.0
 40
0.0
 40
1.0
 40
1.0
 40
1.0
 40
1.0
 10
12.375372
 20
25.208278
 30
0.0
 10
12.375372
 20
25.517912
 30
0.0
 10
10.456027
 20
26.536574
 30
0.0
 10
9.872617
 20
26.536574
 30
0.0
  0
SPLINE
  5
190
330
1F
100
AcDbEntity
  8
0
 62
     7
100
AcDbSpline
210
0.0
220
0.0
230
1.0
 70
     8
 71
     3
 72
     8
 73
     4
 74
     0
 42
0.0000001
 43
0.0000001
 40
0.0
 40
0.0
 40
0.0
 40
0.0
 40
1.0
 40
1.0
 40
1.0
 40
1.0
 10
9.872617
 20
26.536574
 30
0.0
 10
9.541689
 20
26.536574
 30
0.0
 10
9.270927
 20
26.663574
 30
0.0
 10
9.270927
 20
26.818796
 30
0.0
  0
SPLINE
  5
191
330
1F
100
AcDbEntity
  8
0
 62
     7
100
AcDbSpline
210
0.0
220
0.0
230
1.0
 70
     8
 71
     3
 72
     8
 73
     4
 74
     0
 42
0.0000001
 43
0.0000001
 40
0.0
 40
0.0
 40
0.0
 40
0.0
 40
1.0
 40
1.0
 40
1.0
 40
1.0
 10
9.270927
 20
26.818796
 30
0.0
 10
9.270927
 20
26.974018
 30
0.0
 10
9.46565
 20
27.101018
 30
0.0
 10
9.703642
 20
27.101018
 30
0.0
  0
SPLINE
  5
192
330
1F
100
AcDbEntity
  8
0
 62
     7
100
AcDbSpline
210
0.0
220
0.0
230
1.0
 70
     8
 71
     3
 72
     8
 73
     4
 74
     0
 42
0.0000001
 43
0.0000001
 40
0.0
 40
0.0
 40
0.0
 40
0.0
 40
1.0
 40
1.0
 40
1.0
 40
1.0
 10
9.703642
 20
27.101018
 30
0.0
 10
10.328998
 20
27.101018
 30
0.0
 10
12.939816
 20
25.731066
 30
0.0
 10
12.939816
 20
25.402929
 30
0.0
  0
SPLINE
  5
193
330
1F
100
AcDbEntity
  8
0
 62
     7
100
AcDbSpline
210
0.0
220
0.0
230
1.0
 70
     8
 71
     3
 72
     8
 73
     4
 74
     0
 42
0.0000001
 43
0.0000001
 40
0.0
 40
0.0
 40
0.0
 40
0.0
 40
1.0
 40
1.0
 40
1.0
 40
1.0
 10
12.939816
 20
25.402929
 30
0.0
 10
12.939816
 20
25.250323
 30
0.0
 10
13.162066
 20
25.130879
 30
0.0
 10
13.433705
 20
25.137497
 30
0.0
  0
SPLINE
  5
194
330
1F
100
AcDbEntity
  8
0
 62
     7
100
AcDbSpline
210
0.0
220
0.0
230
1.0
 70
     8
 71
     3
 72
     8
 73
     4
 74
     0
 42
0.0000001
 43
0.0000001
 40
0.0
 40
0.0
 40
0.0
 40
0.0
 40
1.0
 40
1.0
 40
1.0
 40
1.0
 10
13.433705
 20
25.137497
 30
0.0
 10
13.783277
 20
25.14602
 30
0.0
 10
13.556492
 20
25.485107
 30
0.0
 10
12.657594
 20
26.297952
 30
0.0
  0
SPLINE
  5
195
330
1F
100
AcDbEntity
  8
0
 62
     7
100
AcDbSpline
210
0.0
220
0.0
230
1.0
 70
     8
 71
     3
 72
     8
 73
     4
 74
     0
 42
0.0000001
 43
0.0000001
 40
0.0
 40
0.0
 40
0.0
 40
0.0
 40
1.0
 40
1.0
 40
1.0
 40
1.0
 10
12.657594
 20
26.297952
 30
0.0
 10
11.479689
 20
27.363093
 30
0.0
 10
11.457091
 20
27.408268
 30
0.0
 10
12.345956
 20
26.920918
 30
0.0
  0
SPLINE
  5
196
330
1F
100
AcDbEntity
  8
0
 62
     7
100
AcDbSpline
210
0.0
220
0.0
230
1.0
 70
     8
 71
     3
 72
     8
 73
     4
 74
     0
 42
0.0000001
 43
0.0000001
 40
0.0
 40
0.0
 40
0.0
 40
0.0
 40
1.0
 40
1.0
 40
1.0
 40
1.0
 10
12.345956
 20
26.920918
 30
0.0
 10
12.873054
 20
26.631917
 30
0.0
 10
13.74807
 20
25.982713
 30
0.0
 10
14.290433
 20
25.47824
 30
0.0
  0
SPLINE
  5
197
330
1F
100
AcDbEntity
  8
0
 62
     7
100
AcDbSpline
210
0.0
220
0.0
230
1.0
 70
     8
 71
     3
 72
     8
 73
     4
 74
     0
 42
0.0000001
 43
0.0000001
 40
0.0
 40
0.0
 40
0.0
 40
0.0
 40
1.0
 40
1.0
 40
1.0
 40
1.0
 10
14.290433
 20
25.47824
 30
0.0
 10
14.832797
 20
24.973768
 30
0.0
 10
15.322283
 20
24.561018
 30
0.0
 10
15.378182
 20
24.561018
 30
0.0
  0
SPLINE
  5
198
330
1F
100
AcDbEntity
  8
0
 62
     7
100
AcDbSpline
210
0.0
220
0.0
230
1.0
 70
     8
 71
     3
 72
     8
 73
     4
 74
     0
 42
0.0000001
 43
0.0000001
 40
0.0
 40
0.0
 40
0.0
 40
0.0
 40
1.0
 40
1.0
 40
1.0
 40
1.0
 10
15.378182
 20
24.561018
 30
0.0
 10
15.434082
 20
24.561018
 30
0.0
 10
15.479816
 20
24.876514
 30
0.0
 10
15.479816
 20
25.26212
 30
0.0
  0
SPLINE
  5
199
330
1F
100
AcDbEntity
  8
0
 62
     7
100
AcDbSpline
210
0.0
220
0.0
230
1.0
 70
     8
 71
     3
 72
     8
 73
     4
 74
     0
 42
0.0000001
 43
0.0000001
 40
0.0
 40
0.0
 40
0.0
 40
0.0
 40
1.0
 40
1.0
 40
1.0
 40
1.0
 10
15.479816
 20
25.26212
 30
0.0
 10
15.479816
 20
25.647729
 30
0.0
 10
15.116932
 20
26.369363
 30
0.0
 10
14.673409
 20
26.865752
 30
0.0
  0
SPLINE
  5
19A
330
1F
100
AcDbEntity
  8
0
 62
     7
100
AcDbSpline
210
0.0
220
0.0
230
1.0
 70
     8
 71
     3
 72
     8
 73
     4
 74
     0
 42
0.0000001
 43
0.0000001
 40
0.0
 40
0.0
 40
0.0
 40
0.0
 40
1.0
 40
1.0
 40
1.0
 40
1.0
 10
14.673409
 20
26.865752
 30
0.0
 10
13.941883
 20
27.68447
 30
0.0
 10
13.712572
 20
27.769196
 30
0.0
 10
12.203964
 20
27.778168
 30
0.0
  0
SPLINE
  5
19B
330
1F
100
AcDbEntity
  8
0
 62
     7
100
AcDbSpline
210
0.0
220
0.0
230
1.0
 70
     8
 71
     3
 72
     8
 73
     4
 74
     0
 42
0.0000001
 43
0.0000001
 40
0.0
 40
0.0
 40
0.0
 40
0.0
 40
1.0
 40
1.0
 40
1.0
 40
1.0
 10
12.203964
 20
27.778168
 30
0.0
 10
10.227122
 20
27.789909
 30
0.0
 10
9.882864
 20
27.709611
 30
0.0
 10
7.859816
 20
26.764717
 30
0.0
  0
SPLINE
  5
19C
330
1F
100
AcDbEntity
  8
0
 62
     7
100
AcDbSpline
210
0.0
220
0.0
230
1.0
 70
     8
 71
     3
 72
     8
 73
     4
 74
     0
 42
0.0000001
 43
0.0000001
 40
0.0
 40
0.0
 40
0.0
 40
0.0
 40
1.0
 40
1.0
 40
1.0
 40
1.0
 10
7.859816
 20
26.764717
 30
0.0
 10
5.868547
 20
25.834667
 30
0.0
 10
4.16292
 20
24.258504
 30
0.0
 10
3.047657
 20
22.317823
 30
0.0
  0
LWPOLYLINE
  5
19D
330
1F
100
AcDbEntity
  8
0
 62
     7
100
AcDbPolyline
 90
        3
 70
     0
 43
0.0
 10
7.615048
 20
24.386153
 10
8.26763
 20
24.84324
 10
7.640391
 20
24.84324
  0
SPLINE
  5
19E
330
1F
100
AcDbEntity
  8
0
 62
     7
100
AcDbSpline
210
0.0
220
0.0
230
1.0
 70
     8
 71
     3
 72
     8
 73
     4
 74
     0
 42
0.0000001
 43
0.0000001
 40
0.0
 40
0.0
 40
0.0
 40
0.0
 40
1.0
 40
1.0
 40
1.0
 40
1.0
 10
3.106915
 20
21.547489
 30
0.0
 10
3.625509
 20
21.969507
 30
0.0
 10
4.526066
 20
22.63129
 30
0.0
 10
5.10815
 20
23.018115
 30
0.0
  0
LWPOLYLINE
  5
19F
330
1F
100
AcDbEntity
  8
0
 62
     7
100
AcDbPolyline
 90
        3
 70
     0
 43
0.0
 10
3.047657
 20
22.317823
 10
2.16401
 20
20.780183
 10
3.106915
 20
21.547489
  0
SPLINE
  5
1A0
330
1F
100
AcDbEntity
  8
0
 62
     7
100
AcDbSpline
210
0.0
220
0.0
230
1.0
 70
     8
 71
     3
 72
     8
 73
     4
 74
     0
 42
0.0000001
 43
0.0000001
 40
0.0
 40
0.0
 40
0.0
 40
0.0
 40
1.0
 40
1.0
 40
1.0
 40
1.0
 10
26.520262
 20
22.682358
 30
0.0
 10
27.686687
 20
23.377929
 30
0.0
 10
27.687593
 20
23.379817
 30
0.0
 10
27.752546
 20
25.251218
 30
0.0
  0
SPLINE
  5
1A1
330
1F
100
AcDbEntity
  8
0
 62
     7
100
AcDbSpline
210
0.0
220
0.0
230
1.0
 70
     8
 71
     3
 72
     8
 73
     4
 74
     0
 42
0.0000001
 43
0.0000001
 40
0.0
 40
0.0
 40
0.0
 40
0.0
 40
1.0
 40
1.0
 40
1.0
 40
1.0
 10
27.752546
 20
25.251218
 30
0.0
 10
27.805649
 20
26.781119
 30
0.0
 10
27.728106
 20
27.171864
 30
0.0
 10
27.329041
 20
27.385439
 30
0.0
  0
SPLINE
  5
1A2
330
1F
100
AcDbEntity
  8
0
 62
     7
100
AcDbSpline
210
0.0
220
0.0
230
1.0
 70
     8
 71
     3
 72
     8
 73
     4
 74
     0
 42
0.0000001
 43
0.0000001
 40
0.0
 40
0.0
 40
0.0
 40
0.0
 40
1.0
 40
1.0
 40
1.0
 40
1.0
 10
27.329041
 20
27.385439
 30
0.0
 10
26.911442
 20
27.608934
 30
0.0
 10
26.818136
 20
27.479907
 30
0.0
 10
26.68624
 20
26.496541
 30
0.0
  0
SPLINE
  5
1A3
330
1F
100
AcDbEntity
  8
0
 62
     7
100
AcDbSpline
210
0.0
220
0.0
230
1.0
 70
     8
 71
     3
 72
     8
 73
     4
 74
     0
 42
0.0000001
 43
0.0000001
 40
0.0
 40
0.0
 40
0.0
 40
0.0
 40
1.0
 40
1.0
 40
1.0
 40
1.0
 10
26.68624
 20
26.496541
 30
0.0
 10
26.601379
 20
25.863855
 30
0.0
 10
26.601836
 20
24.915537
 30
0.0
 10
26.687369
 20
24.389167
 30
0.0
  0
SPLINE
  5
1A4
330
1F
100
AcDbEntity
  8
0
 62
     7
100
AcDbSpline
210
0.0
220
0.0
230
1.0
 70
     8
 71
     3
 72
     8
 73
     4
 74
     0
 42
0.0000001
 43
0.0000001
 40
0.0
 40
0.0
 40
0.0
 40
0.0
 40
1.0
 40
1.0
 40
1.0
 40
1.0
 10
26.687369
 20
24.389167
 30
0.0
 10
26.77884
 20
23.825502
 30
0.0
 10
26.724405
 20
23.432129
 30
0.0
 10
26.554933
 20
23.432129
 30
0.0
  0
SPLINE
  5
1A5
330
1F
100
AcDbEntity
  8
0
 62
     7
100
AcDbSpline
210
0.0
220
0.0
230
1.0
 70
     8
 71
     3
 72
     8
 73
     4
 74
     0
 42
0.0000001
 43
0.0000001
 40
0.0
 40
0.0
 40
0.0
 40
0.0
 40
1.0
 40
1.0
 40
1.0
 40
1.0
 10
26.554933
 20
23.432129
 30
0.0
 10
26.129517
 20
23.432129
 30
0.0
 10
25.864268
 20
25.252293
 30
0.0
 10
26.080018
 20
26.691028
 30
0.0
  0
SPLINE
  5
1A6
330
1F
100
AcDbEntity
  8
0
 62
     7
100
AcDbSpline
210
0.0
220
0.0
230
1.0
 70
     8
 71
     3
 72
     8
 73
     4
 74
     0
 42
0.0000001
 43
0.0000001
 40
0.0
 40
0.0
 40
0.0
 40
0.0
 40
1.0
 40
1.0
 40
1.0
 40
1.0
 10
26.080018
 20
26.691028
 30
0.0
 10
26.234154
 20
27.719649
 30
0.0
 10
26.188854
 20
27.947685
 30
0.0
 10
25.830266
 20
27.947685
 30
0.0
  0
SPLINE
  5
1A7
330
1F
100
AcDbEntity
  8
0
 62
     7
100
AcDbSpline
210
0.0
220
0.0
230
1.0
 70
     8
 71
     3
 72
     8
 73
     4
 74
     0
 42
0.0000001
 43
0.0000001
 40
0.0
 40
0.0
 40
0.0
 40
0.0
 40
1.0
 40
1.0
 40
1.0
 40
1.0
 10
25.830266
 20
27.947685
 30
0.0
 10
25.287973
 20
27.947685
 30
0.0
 10
24.947618
 20
25.989867
 30
0.0
 10
25.140656
 20
23.980877
 30
0.0
  0
SPLINE
  5
1A8
330
1F
100
AcDbEntity
  8
0
 62
     7
100
AcDbSpline
210
0.0
220
0.0
230
1.0
 70
     8
 71
     3
 72
     8
 73
     4
 74
     0
 42
0.0000001
 43
0.0000001
 40
0.0
 40
0.0
 40
0.0
 40
0.0
 40
1.0
 40
1.0
 40
1.0
 40
1.0
 10
25.140656
 20
23.980877
 30
0.0
 10
25.2144
 20
23.213399
 30
0.0
 10
25.179969
 20
22.585463
 30
0.0
 10
25.064139
 20
22.585463
 30
0.0
  0
SPLINE
  5
1A9
330
1F
100
AcDbEntity
  8
0
 62
     7
100
AcDbSpline
210
0.0
220
0.0
230
1.0
 70
     8
 71
     3
 72
     8
 73
     4
 74
     0
 42
0.0000001
 43
0.0000001
 40
0.0
 40
0.0
 40
0.0
 40
0.0
 40
1.0
 40
1.0
 40
1.0
 40
1.0
 10
25.064139
 20
22.585463
 30
0.0
 10
24.665216
 20
22.585463
 30
0.0
 10
24.540801
 20
23.40702
 30
0.0
 10
24.596345
 20
25.674512
 30
0.0
  0
SPLINE
  5
1AA
330
1F
100
AcDbEntity
  8
0
 62
     7
100
AcDbSpline
210
0.0
220
0.0
230
1.0
 70
     8
 71
     3
 72
     8
 73
     4
 74
     0
 42
0.0000001
 43
0.0000001
 40
0.0
 40
0.0
 40
0.0
 40
0.0
 40
1.0
 40
1.0
 40
1.0
 40
1.0
 10
24.596345
 20
25.674512
 30
0.0
 10
24.626977
 20
26.92503
 30
0.0
 10
24.629359
 20
27.948069
 30
0.0
 10
24.601651
 20
27.947933
 30
0.0
  0
SPLINE
  5
1AB
330
1F
100
AcDbEntity
  8
0
 62
     7
100
AcDbSpline
210
0.0
220
0.0
230
1.0
 70
     8
 71
     3
 72
     8
 73
     4
 74
     0
 42
0.0000001
 43
0.0000001
 40
0.0
 40
0.0
 40
0.0
 40
0.0
 40
1.0
 40
1.0
 40
1.0
 40
1.0
 10
24.601651
 20
27.947933
 30
0.0
 10
24.573936
 20
27.947798
 30
0.0
 10
24.351681
 20
27.748114
 30
0.0
 10
24.107762
 20
27.504192
 30
0.0
  0
SPLINE
  5
1AC
330
1F
100
AcDbEntity
  8
0
 62
     7
100
AcDbSpline
210
0.0
220
0.0
230
1.0
 70
     8
 71
     3
 72
     8
 73
     4
 74
     0
 42
0.0000001
 43
0.0000001
 40
0.0
 40
0.0
 40
0.0
 40
0.0
 40
1.0
 40
1.0
 40
1.0
 40
1.0
 10
24.107762
 20
27.504192
 30
0.0
 10
23.7821
 20
27.178533
 30
0.0
 10
23.664269
 20
26.488681
 30
0.0
 10
23.664269
 20
24.907748
 30
0.0
  0
SPLINE
  5
1AD
330
1F
100
AcDbEntity
  8
0
 62
     7
100
AcDbSpline
210
0.0
220
0.0
230
1.0
 70
     8
 71
     3
 72
     8
 73
     4
 74
     0
 42
0.0000001
 43
0.0000001
 40
0.0
 40
0.0
 40
0.0
 40
0.0
 40
1.0
 40
1.0
 40
1.0
 40
1.0
 10
23.664269
 20
24.907748
 30
0.0
 10
23.664269
 20
23.32596
 30
0.0
 10
23.580887
 20
22.838179
 30
0.0
 10
23.34997
 20
23.069096
 30
0.0
  0
SPLINE
  5
1AE
330
1F
100
AcDbEntity
  8
0
 62
     7
100
AcDbSpline
210
0.0
220
0.0
230
1.0
 70
     8
 71
     3
 72
     8
 73
     4
 74
     0
 42
0.0000001
 43
0.0000001
 40
0.0
 40
0.0
 40
0.0
 40
0.0
 40
1.0
 40
1.0
 40
1.0
 40
1.0
 10
23.34997
 20
23.069096
 30
0.0
 10
23.153549
 20
23.265517
 30
0.0
 10
23.07622
 20
24.186382
 30
0.0
 10
23.143787
 20
25.524429
 30
0.0
  0
SPLINE
  5
1AF
330
1F
100
AcDbEntity
  8
0
 62
     7
100
AcDbSpline
210
0.0
220
0.0
230
1.0
 70
     8
 71
     3
 72
     8
 73
     4
 74
     0
 42
0.0000001
 43
0.0000001
 40
0.0
 40
0.0
 40
0.0
 40
0.0
 40
1.0
 40
1.0
 40
1.0
 40
1.0
 10
23.143787
 20
25.524429
 30
0.0
 10
23.260274
 20
27.831186
 30
0.0
 10
22.964527
 20
28.424909
 30
0.0
 10
22.674761
 20
26.466018
 30
0.0
  0
SPLINE
  5
1B0
330
1F
100
AcDbEntity
  8
0
 62
     7
100
AcDbSpline
210
0.0
220
0.0
230
1.0
 70
     8
 71
     3
 72
     8
 73
     4
 74
     0
 42
0.0000001
 43
0.0000001
 40
0.0
 40
0.0
 40
0.0
 40
0.0
 40
1.0
 40
1.0
 40
1.0
 40
1.0
 10
22.674761
 20
26.466018
 30
0.0
 10
22.349308
 20
24.265884
 30
0.0
 10
22.33038
 20
23.295559
 30
0.0
 10
22.602561
 20
22.764476
 30
0.0
  0
SPLINE
  5
1B1
330
1F
100
AcDbEntity
  8
0
 62
     7
100
AcDbSpline
210
0.0
220
0.0
230
1.0
 70
     8
 71
     3
 72
     8
 73
     4
 74
     0
 42
0.0000001
 43
0.0000001
 40
0.0
 40
0.0
 40
0.0
 40
0.0
 40
1.0
 40
1.0
 40
1.0
 40
1.0
 10
22.602561
 20
22.764476
 30
0.0
 10
22.806365
 20
22.366808
 30
0.0
 10
22.779361
 20
22.269171
 30
0.0
 10
22.492231
 20
22.365564
 30
0.0
  0
SPLINE
  5
1B2
330
1F
100
AcDbEntity
  8
0
 62
     7
100
AcDbSpline
210
0.0
220
0.0
230
1.0
 70
     8
 71
     3
 72
     8
 73
     4
 74
     0
 42
0.0000001
 43
0.0000001
 40
0.0
 40
0.0
 40
0.0
 40
0.0
 40
1.0
 40
1.0
 40
1.0
 40
1.0
 10
22.492231
 20
22.365564
 30
0.0
 10
22.21297
 20
22.459315
 30
0.0
 10
22.112047
 20
23.135254
 30
0.0
 10
22.112047
 20
24.911868
 30
0.0
  0
SPLINE
  5
1B3
330
1F
100
AcDbEntity
  8
0
 62
     7
100
AcDbSpline
210
0.0
220
0.0
230
1.0
 70
     8
 71
     3
 72
     8
 73
     4
 74
     0
 42
0.0000001
 43
0.0000001
 40
0.0
 40
0.0
 40
0.0
 40
0.0
 40
1.0
 40
1.0
 40
1.0
 40
1.0
 10
22.112047
 20
24.911868
 30
0.0
 10
22.112047
 20
28.445404
 30
0.0
 10
21.433734
 20
27.412493
 30
0.0
 10
21.314614
 20
23.697565
 30
0.0
  0
SPLINE
  5
1B4
330
1F
100
AcDbEntity
  8
0
 62
     7
100
AcDbSpline
210
0.0
220
0.0
230
1.0
 70
     8
 71
     3
 72
     8
 73
     4
 74
     0
 42
0.0000001
 43
0.0000001
 40
0.0
 40
0.0
 40
0.0
 40
0.0
 40
1.0
 40
1.0
 40
1.0
 40
1.0
 10
21.314614
 20
23.697565
 30
0.0
 10
21.270127
 20
22.310186
 30
0.0
 10
21.332789
 20
22.133154
 30
0.0
 10
21.964535
 20
21.861642
 30
0.0
  0
SPLINE
  5
1B5
330
1F
100
AcDbEntity
  8
0
 62
     7
100
AcDbSpline
210
0.0
220
0.0
230
1.0
 70
     8
 71
     3
 72
     8
 73
     4
 74
     0
 42
0.0000001
 43
0.0000001
 40
0.0
 40
0.0
 40
0.0
 40
0.0
 40
1.0
 40
1.0
 40
1.0
 40
1.0
 10
21.964535
 20
21.861642
 30
0.0
 10
22.93508
 20
21.444512
 30
0.0
 10
25.097868
 20
21.834125
 30
0.0
 10
26.520271
 20
22.682358
 30
0.0
  0
LWPOLYLINE
  5
1B6
330
1F
100
AcDbEntity
  8
0
 62
     7
100
AcDbPolyline
 90
        2
 70
     0
 43
0.0
 10
5.10815
 20
23.018115
 10
5.10815
 20
23.018115
  0
SPLINE
  5
1B7
330
1F
100
AcDbEntity
  8
0
 62
     7
100
AcDbSpline
210
0.0
220
0.0
230
1.0
 70
     8
 71
     3
 72
     8
 73
     4
 74
     0
 42
0.0000001
 43
0.0000001
 40
0.0
 40
0.0
 40
0.0
 40
0.0
 40
1.0
 40
1.0
 40
1.0
 40
1.0
 10
20.842039
 20
24.617463
 30
0.0
 10
20.842039
 20
26.111039
 30
0.0
 10
20.758712
 20
26.566137
 30
0.0
 10
20.52757
 20
26.334994
 30
0.0
  0
SPLINE
  5
1B8
330
1F
100
AcDbEntity
  8
0
 62
     7
100
AcDbSpline
210
0.0
220
0.0
230
1.0
 70
     8
 71
     3
 72
     8
 73
     4
 74
     0
 42
0.0000001
 43
0.0000001
 40
0.0
 40
0.0
 40
0.0
 40
0.0
 40
1.0
 40
1.0
 40
1.0
 40
1.0
 10
20.52757
 20
26.334994
 30
0.0
 10
19.972882
 20
25.780306
 30
0.0
 10
20.134784
 20
22.585463
 30
0.0
 10
20.717584
 20
22.585463
 30
0.0
  0
SPLINE
  5
1B9
330
1F
100
AcDbEntity
  8
0
 62
     7
100
AcDbSpline
210
0.0
220
0.0
230
1.0
 70
     8
 71
     3
 72
     8
 73
     4
 74
     0
 42
0.0000001
 43
0.0000001
 40
0.0
 40
0.0
 40
0.0
 40
0.0
 40
1.0
 40
1.0
 40
1.0
 40
1.0
 10
20.717584
 20
22.585463
 30
0.0
 10
20.786034
 20
22.585463
 30
0.0
 10
20.842039
 20
23.499863
 30
0.0
 10
20.842039
 20
24.617463
 30
0.0
  0
LWPOLYLINE
  5
1BA
330
1F
100
AcDbEntity
  8
0
 62
     7
100
AcDbPolyline
 90
        2
 70
     0
 43
0.0
 10
26.520271
 20
22.682358
 10
26.520262
 20
22.682358
  0
SPLINE
  5
1BB
330
1F
100
AcDbEntity
  8
0
 62
     7
100
AcDbSpline
210
0.0
220
0.0
230
1.0
 70
     8
 71
     3
 72
     8
 73
     4
 74
     0
 42
0.0000001
 43
0.0000001
 40
0.0
 40
0.0
 40
0.0
 40
0.0
 40
1.0
 40
1.0
 40
1.0
 40
1.0
 10
30.78769
 20
23.961028
 30
0.0
 10
30.060338
 20
24.989231
 30
0.0
 10
30.00894
 20
25.014453
 30
0.0
 10
29.924959
 20
24.384361
 30
0.0
  0
SPLINE
  5
1BC
330
1F
100
AcDbEntity
  8
0
 62
     7
100
AcDbSpline
210
0.0
220
0.0
230
1.0
 70
     8
 71
     3
 72
     8
 73
     4
 74
     0
 42
0.0000001
 43
0.0000001
 40
0.0
 40
0.0
 40
0.0
 40
0.0
 40
1.0
 40
1.0
 40
1.0
 40
1.0
 10
29.924959
 20
24.384361
 30
0.0
 10
29.787108
 20
23.350093
 30
0.0
 10
29.432098
 20
23.59185
 30
0.0
 10
29.354718
 20
24.772685
 30
0.0
  0
SPLINE
  5
1BD
330
1F
100
AcDbEntity
  8
0
 62
     7
100
AcDbSpline
210
0.0
220
0.0
230
1.0
 70
     8
 71
     3
 72
     8
 73
     4
 74
     0
 42
0.0000001
 43
0.0000001
 40
0.0
 40
0.0
 40
0.0
 40
0.0
 40
1.0
 40
1.0
 40
1.0
 40
1.0
 10
29.354718
 20
24.772685
 30
0.0
 10
29.31567
 20
25.368575
 30
0.0
 10
29.04383
 20
26.074229
 30
0.0
 10
28.73259
 20
26.387623
 30
0.0
  0
SPLINE
  5
1BE
330
1F
100
AcDbEntity
  8
0
 62
     7
100
AcDbSpline
210
0.0
220
0.0
230
1.0
 70
     8
 71
     3
 72
     8
 73
     4
 74
     0
 42
0.0000001
 43
0.0000001
 40
0.0
 40
0.0
 40
0.0
 40
0.0
 40
1.0
 40
1.0
 40
1.0
 40
1.0
 10
28.73259
 20
26.387623
 30
0.0
 10
28.183296
 20
26.940724
 30
0.0
 10
28.179816
 20
26.933175
 30
0.0
 10
28.179816
 20
25.188178
 30
0.0
  0
LWPOLYLINE
  5
1BF
330
1F
100
AcDbEntity
  8
0
 62
     7
100
AcDbPolyline
 90
        2
 70
     0
 43
0.0
 10
20.842039
 20
24.617463
 10
20.842039
 20
24.617463
  0
SPLINE
  5
1C0
330
1F
100
AcDbEntity
  8
0
 62
     7
100
AcDbSpline
210
0.0
220
0.0
230
1.0
 70
     8
 71
     3
 72
     8
 73
     4
 74
     0
 42
0.0000001
 43
0.0000001
 40
0.0
 40
0.0
 40
0.0
 40
0.0
 40
1.0
 40
1.0
 40
1.0
 40
1.0
 10
29.238149
 20
23.427811
 30
0.0
 10
29.820232
 20
23.425554
 30
0.0
 10
30.486982
 20
23.30038
 30
0.0
 10
30.719816
 20
23.14991
 30
0.0
  0
SPLINE
  5
1C1
330
1F
100
AcDbEntity
  8
0
 62
     7
100
AcDbSpline
210
0.0
220
0.0
230
1.0
 70
     8
 71
     3
 72
     8
 73
     4
 74
     0
 42
0.0000001
 43
0.0000001
 40
0.0
 40
0.0
 40
0.0
 40
0.0
 40
1.0
 40
1.0
 40
1.0
 40
1.0
 10
30.719816
 20
23.14991
 30
0.0
 10
31.533891
 20
22.623814
 30
0.0
 10
31.555021
 20
22.87631
 30
0.0
 10
30.78769
 20
23.961031
 30
0.0
  0
LWPOLYLINE
  5
1C2
330
1F
100
AcDbEntity
  8
0
 62
     7
100
AcDbPolyline
 90
        3
 70
     0
 43
0.0
 10
28.179816
 20
25.188178
 10
28.179816
 20
23.432129
 10
29.238149
 20
23.427811
  0
SPLINE
  5
1C3
330
1F
100
AcDbEntity
  8
0
 62
     7
100
AcDbSpline
210
0.0
220
0.0
230
1.0
 70
     8
 71
     3
 72
     8
 73
     4
 74
     0
 42
0.0000001
 43
0.0000001
 40
0.0
 40
0.0
 40
0.0
 40
0.0
 40
1.0
 40
1.0
 40
1.0
 40
1.0
 10
19.670255
 20
26.748802
 30
0.0
 10
19.915596
 20
26.503461
 30
0.0
 10
19.995372
 20
26.506785
 30
0.0
 10
19.995372
 20
26.762349
 30
0.0
  0
SPLINE
  5
1C4
330
1F
100
AcDbEntity
  8
0
 62
     7
100
AcDbSpline
210
0.0
220
0.0
230
1.0
 70
     8
 71
     3
 72
     8
 73
     4
 74
     0
 42
0.0000001
 43
0.0000001
 40
0.0
 40
0.0
 40
0.0
 40
0.0
 40
1.0
 40
1.0
 40
1.0
 40
1.0
 10
19.995372
 20
26.762349
 30
0.0
 10
19.995372
 20
26.948615
 30
0.0
 10
20.189016
 20
27.101015
 30
0.0
 10
20.42569
 20
27.101015
 30
0.0
  0
SPLINE
  5
1C5
330
1F
100
AcDbEntity
  8
0
 62
     7
100
AcDbSpline
210
0.0
220
0.0
230
1.0
 70
     8
 71
     3
 72
     8
 73
     4
 74
     0
 42
0.0000001
 43
0.0000001
 40
0.0
 40
0.0
 40
0.0
 40
0.0
 40
1.0
 40
1.0
 40
1.0
 40
1.0
 10
20.42569
 20
27.101015
 30
0.0
 10
20.662365
 20
27.101015
 30
0.0
 10
20.96837
 20
27.386765
 30
0.0
 10
21.105696
 20
27.736015
 30
0.0
  0
SPLINE
  5
1C6
330
1F
100
AcDbEntity
  8
0
 62
     7
100
AcDbSpline
210
0.0
220
0.0
230
1.0
 70
     8
 71
     3
 72
     8
 73
     4
 74
     0
 42
0.0000001
 43
0.0000001
 40
0.0
 40
0.0
 40
0.0
 40
0.0
 40
1.0
 40
1.0
 40
1.0
 40
1.0
 10
21.105696
 20
27.736015
 30
0.0
 10
21.493125
 20
28.721315
 30
0.0
 10
22.849245
 20
30.206456
 30
0.0
 10
23.352414
 20
30.196485
 30
0.0
  0
SPLINE
  5
1C7
330
1F
100
AcDbEntity
  8
0
 62
     7
100
AcDbSpline
210
0.0
220
0.0
230
1.0
 70
     8
 71
     3
 72
     8
 73
     4
 74
     0
 42
0.0000001
 43
0.0000001
 40
0.0
 40
0.0
 40
0.0
 40
0.0
 40
1.0
 40
1.0
 40
1.0
 40
1.0
 10
23.352414
 20
30.196485
 30
0.0
 10
23.763628
 20
30.188329
 30
0.0
 10
23.764405
 20
30.155825
 30
0.0
 10
23.360824
 20
29.843707
 30
0.0
  0
SPLINE
  5
1C8
330
1F
100
AcDbEntity
  8
0
 62
     7
100
AcDbSpline
210
0.0
220
0.0
230
1.0
 70
     8
 71
     3
 72
     8
 73
     4
 74
     0
 42
0.0000001
 43
0.0000001
 40
0.0
 40
0.0
 40
0.0
 40
0.0
 40
1.0
 40
1.0
 40
1.0
 40
1.0
 10
23.360824
 20
29.843707
 30
0.0
 10
23.116326
 20
29.654616
 30
0.0
 10
22.700071
 20
29.167596
 30
0.0
 10
22.43581
 20
28.761439
 30
0.0
  0
SPLINE
  5
1C9
330
1F
100
AcDbEntity
  8
0
 62
     7
100
AcDbSpline
210
0.0
220
0.0
230
1.0
 70
     8
 71
     3
 72
     8
 73
     4
 74
     0
 42
0.0000001
 43
0.0000001
 40
0.0
 40
0.0
 40
0.0
 40
0.0
 40
1.0
 40
1.0
 40
1.0
 40
1.0
 10
22.43581
 20
28.761439
 30
0.0
 10
21.95882
 20
28.02833
 30
0.0
 10
21.960511
 20
28.023964
 30
0.0
 10
22.668682
 20
28.15934
 30
0.0
  0
SPLINE
  5
1CA
330
1F
100
AcDbEntity
  8
0
 62
     7
100
AcDbSpline
210
0.0
220
0.0
230
1.0
 70
     8
 71
     3
 72
     8
 73
     4
 74
     0
 42
0.0000001
 43
0.0000001
 40
0.0
 40
0.0
 40
0.0
 40
0.0
 40
1.0
 40
1.0
 40
1.0
 40
1.0
 10
22.668682
 20
28.15934
 30
0.0
 10
23.061033
 20
28.234341
 30
0.0
 10
23.382039
 20
28.471399
 30
0.0
 10
23.382039
 20
28.686139
 30
0.0
  0
SPLINE
  5
1CB
330
1F
100
AcDbEntity
  8
0
 62
     7
100
AcDbSpline
210
0.0
220
0.0
230
1.0
 70
     8
 71
     3
 72
     8
 73
     4
 74
     0
 42
0.0000001
 43
0.0000001
 40
0.0
 40
0.0
 40
0.0
 40
0.0
 40
1.0
 40
1.0
 40
1.0
 40
1.0
 10
23.382039
 20
28.686139
 30
0.0
 10
23.382039
 20
28.900876
 30
0.0
 10
23.485092
 20
29.076571
 30
0.0
 10
23.611045
 20
29.076571
 30
0.0
  0
SPLINE
  5
1CC
330
1F
100
AcDbEntity
  8
0
 62
     7
100
AcDbSpline
210
0.0
220
0.0
230
1.0
 70
     8
 71
     3
 72
     8
 73
     4
 74
     0
 42
0.0000001
 43
0.0000001
 40
0.0
 40
0.0
 40
0.0
 40
0.0
 40
1.0
 40
1.0
 40
1.0
 40
1.0
 10
23.611045
 20
29.076571
 30
0.0
 10
23.736998
 20
29.076571
 30
0.0
 10
24.146768
 20
29.362321
 30
0.0
 10
24.521643
 20
29.711571
 30
0.0
  0
SPLINE
  5
1CD
330
1F
100
AcDbEntity
  8
0
 62
     7
100
AcDbSpline
210
0.0
220
0.0
230
1.0
 70
     8
 71
     3
 72
     8
 73
     4
 74
     0
 42
0.0000001
 43
0.0000001
 40
0.0
 40
0.0
 40
0.0
 40
0.0
 40
1.0
 40
1.0
 40
1.0
 40
1.0
 10
24.521643
 20
29.711571
 30
0.0
 10
24.896519
 20
30.060821
 30
0.0
 10
25.206216
 20
30.306622
 30
0.0
 10
25.209859
 20
30.257798
 30
0.0
  0
SPLINE
  5
1CE
330
1F
100
AcDbEntity
  8
0
 62
     7
100
AcDbSpline
210
0.0
220
0.0
230
1.0
 70
     8
 71
     3
 72
     8
 73
     4
 74
     0
 42
0.0000001
 43
0.0000001
 40
0.0
 40
0.0
 40
0.0
 40
0.0
 40
1.0
 40
1.0
 40
1.0
 40
1.0
 10
25.209859
 20
30.257798
 30
0.0
 10
25.2135
 20
30.208974
 30
0.0
 10
25.444211
 20
30.256387
 30
0.0
 10
25.722544
 20
30.363219
 30
0.0
  0
SPLINE
  5
1CF
330
1F
100
AcDbEntity
  8
0
 62
     7
100
AcDbSpline
210
0.0
220
0.0
230
1.0
 70
     8
 71
     3
 72
     8
 73
     4
 74
     0
 42
0.0000001
 43
0.0000001
 40
0.0
 40
0.0
 40
0.0
 40
0.0
 40
1.0
 40
1.0
 40
1.0
 40
1.0
 10
25.722544
 20
30.363219
 30
0.0
 10
26.695965
 20
30.736757
 30
0.0
 10
26.488024
 20
30.281488
 30
0.0
 10
25.337435
 20
29.520063
 30
0.0
  0
SPLINE
  5
1D0
330
1F
100
AcDbEntity
  8
0
 62
     7
100
AcDbSpline
210
0.0
220
0.0
230
1.0
 70
     8
 71
     3
 72
     8
 73
     4
 74
     0
 42
0.0000001
 43
0.0000001
 40
0.0
 40
0.0
 40
0.0
 40
0.0
 40
1.0
 40
1.0
 40
1.0
 40
1.0
 10
25.337435
 20
29.520063
 30
0.0
 10
23.924806
 20
28.585228
 30
0.0
 10
24.07694
 20
28.238419
 30
0.0
 10
25.574606
 20
28.979408
 30
0.0
  0
SPLINE
  5
1D1
330
1F
100
AcDbEntity
  8
0
 62
     7
100
AcDbSpline
210
0.0
220
0.0
230
1.0
 70
     8
 71
     3
 72
     8
 73
     4
 74
     0
 42
0.0000001
 43
0.0000001
 40
0.0
 40
0.0
 40
0.0
 40
0.0
 40
1.0
 40
1.0
 40
1.0
 40
1.0
 10
25.574606
 20
28.979408
 30
0.0
 10
26.228134
 20
29.302747
 30
0.0
 10
26.936365
 20
29.450764
 30
0.0
 10
27.350233
 20
29.350507
 30
0.0
  0
SPLINE
  5
1D2
330
1F
100
AcDbEntity
  8
0
 62
     7
100
AcDbSpline
210
0.0
220
0.0
230
1.0
 70
     8
 71
     3
 72
     8
 73
     4
 74
     0
 42
0.0000001
 43
0.0000001
 40
0.0
 40
0.0
 40
0.0
 40
0.0
 40
1.0
 40
1.0
 40
1.0
 40
1.0
 10
27.350233
 20
29.350507
 30
0.0
 10
27.986855
 20
29.19629
 30
0.0
 10
27.964314
 20
29.167266
 30
0.0
 10
27.050927
 20
28.965127
 30
0.0
  0
SPLINE
  5
1D3
330
1F
100
AcDbEntity
  8
0
 62
     7
100
AcDbSpline
210
0.0
220
0.0
230
1.0
 70
     8
 71
     3
 72
     8
 73
     4
 74
     0
 42
0.0000001
 43
0.0000001
 40
0.0
 40
0.0
 40
0.0
 40
0.0
 40
1.0
 40
1.0
 40
1.0
 40
1.0
 10
27.050927
 20
28.965127
 30
0.0
 10
26.189729
 20
28.77454
 30
0.0
 10
26.13548
 20
28.715967
 30
0.0
 10
26.627594
 20
28.508051
 30
0.0
  0
SPLINE
  5
1D4
330
1F
100
AcDbEntity
  8
0
 62
     7
100
AcDbSpline
210
0.0
220
0.0
230
1.0
 70
     8
 71
     3
 72
     8
 73
     4
 74
     0
 42
0.0000001
 43
0.0000001
 40
0.0
 40
0.0
 40
0.0
 40
0.0
 40
1.0
 40
1.0
 40
1.0
 40
1.0
 10
26.627594
 20
28.508051
 30
0.0
 10
26.938039
 20
28.376891
 30
0.0
 10
27.573039
 20
28.258705
 30
0.0
 10
28.038705
 20
28.245418
 30
0.0
  0
SPLINE
  5
1D5
330
1F
100
AcDbEntity
  8
0
 62
     7
100
AcDbSpline
210
0.0
220
0.0
230
1.0
 70
     8
 71
     3
 72
     8
 73
     4
 74
     0
 42
0.0000001
 43
0.0000001
 40
0.0
 40
0.0
 40
0.0
 40
0.0
 40
1.0
 40
1.0
 40
1.0
 40
1.0
 10
28.038705
 20
28.245418
 30
0.0
 10
29.102741
 20
28.215059
 30
0.0
 10
30.077512
 20
27.676393
 30
0.0
 10
29.080381
 20
27.669781
 30
0.0
  0
SPLINE
  5
1D6
330
1F
100
AcDbEntity
  8
0
 62
     7
100
AcDbSpline
210
0.0
220
0.0
230
1.0
 70
     8
 71
     3
 72
     8
 73
     4
 74
     0
 42
0.0000001
 43
0.0000001
 40
0.0
 40
0.0
 40
0.0
 40
0.0
 40
1.0
 40
1.0
 40
1.0
 40
1.0
 10
29.080381
 20
27.669781
 30
0.0
 10
28.1246
 20
27.663431
 30
0.0
 10
28.596429
 20
27.162577
 30
0.0
 10
29.885064
 20
26.815584
 30
0.0
  0
SPLINE
  5
1D7
330
1F
100
AcDbEntity
  8
0
 62
     7
100
AcDbSpline
210
0.0
220
0.0
230
1.0
 70
     8
 71
     3
 72
     8
 73
     4
 74
     0
 42
0.0000001
 43
0.0000001
 40
0.0
 40
0.0
 40
0.0
 40
0.0
 40
1.0
 40
1.0
 40
1.0
 40
1.0
 10
29.885064
 20
26.815584
 30
0.0
 10
30.4994
 20
26.650163
 30
0.0
 10
31.002038
 20
26.379122
 30
0.0
 10
31.002038
 20
26.213277
 30
0.0
  0
SPLINE
  5
1D8
330
1F
100
AcDbEntity
  8
0
 62
     7
100
AcDbSpline
210
0.0
220
0.0
230
1.0
 70
     8
 71
     3
 72
     8
 73
     4
 74
     0
 42
0.0000001
 43
0.0000001
 40
0.0
 40
0.0
 40
0.0
 40
0.0
 40
1.0
 40
1.0
 40
1.0
 40
1.0
 10
31.002038
 20
26.213277
 30
0.0
 10
31.002038
 20
26.045849
 30
0.0
 10
30.789417
 20
25.993327
 30
0.0
 10
30.523973
 20
26.09519
 30
0.0
  0
SPLINE
  5
1D9
330
1F
100
AcDbEntity
  8
0
 62
     7
100
AcDbSpline
210
0.0
220
0.0
230
1.0
 70
     8
 71
     3
 72
     8
 73
     4
 74
     0
 42
0.0000001
 43
0.0000001
 40
0.0
 40
0.0
 40
0.0
 40
0.0
 40
1.0
 40
1.0
 40
1.0
 40
1.0
 10
30.523973
 20
26.09519
 30
0.0
 10
30.088261
 20
26.262386
 30
0.0
 10
30.084762
 20
26.233806
 30
0.0
 10
30.484465
 20
25.772604
 30
0.0
  0
SPLINE
  5
1DA
330
1F
100
AcDbEntity
  8
0
 62
     7
100
AcDbSpline
210
0.0
220
0.0
230
1.0
 70
     8
 71
     3
 72
     8
 73
     4
 74
     0
 42
0.0000001
 43
0.0000001
 40
0.0
 40
0.0
 40
0.0
 40
0.0
 40
1.0
 40
1.0
 40
1.0
 40
1.0
 10
30.484465
 20
25.772604
 30
0.0
 10
30.725674
 20
25.494288
 30
0.0
 10
31.068335
 20
25.012571
 30
0.0
 10
31.245937
 20
24.702127
 30
0.0
  0
SPLINE
  5
1DB
330
1F
100
AcDbEntity
  8
0
 62
     7
100
AcDbSpline
210
0.0
220
0.0
230
1.0
 70
     8
 71
     3
 72
     8
 73
     4
 74
     0
 42
0.0000001
 43
0.0000001
 40
0.0
 40
0.0
 40
0.0
 40
0.0
 40
1.0
 40
1.0
 40
1.0
 40
1.0
 10
31.245937
 20
24.702127
 30
0.0
 10
31.853886
 20
23.639439
 30
0.0
 10
31.289975
 20
26.866455
 30
0.0
 10
30.629482
 20
28.229831
 30
0.0
  0
SPLINE
  5
1DC
330
1F
100
AcDbEntity
  8
0
 62
     7
100
AcDbSpline
210
0.0
220
0.0
230
1.0
 70
     8
 71
     3
 72
     8
 73
     4
 74
     0
 42
0.0000001
 43
0.0000001
 40
0.0
 40
0.0
 40
0.0
 40
0.0
 40
1.0
 40
1.0
 40
1.0
 40
1.0
 10
30.629482
 20
28.229831
 30
0.0
 10
29.433588
 20
30.698369
 30
0.0
 10
26.145446
 20
32.002538
 30
0.0
 10
23.856296
 20
30.916265
 30
0.0
  0
SPLINE
  5
1DD
330
1F
100
AcDbEntity
  8
0
 62
     7
100
AcDbSpline
210
0.0
220
0.0
230
1.0
 70
     8
 71
     3
 72
     8
 73
     4
 74
     0
 42
0.0000001
 43
0.0000001
 40
0.0
 40
0.0
 40
0.0
 40
0.0
 40
1.0
 40
1.0
 40
1.0
 40
1.0
 10
23.856296
 20
30.916265
 30
0.0
 10
23.297332
 20
30.651021
 30
0.0
 10
22.315445
 20
29.864925
 30
0.0
 10
21.674323
 20
29.169391
 30
0.0
  0
SPLINE
  5
1DE
330
1F
100
AcDbEntity
  8
0
 62
     7
100
AcDbSpline
210
0.0
220
0.0
230
1.0
 70
     8
 71
     3
 72
     8
 73
     4
 74
     0
 42
0.0000001
 43
0.0000001
 40
0.0
 40
0.0
 40
0.0
 40
0.0
 40
1.0
 40
1.0
 40
1.0
 40
1.0
 10
21.674323
 20
29.169391
 30
0.0
 10
20.293283
 20
27.671138
 30
0.0
 10
19.889268
 20
27.798705
 30
0.0
 10
20.79112
 20
29.44826
 30
0.0
  0
LWPOLYLINE
  5
1DF
330
1F
100
AcDbEntity
  8
0
 62
     7
100
AcDbPolyline
 90
        2
 70
     0
 43
0.0
 10
30.78769
 20
23.961031
 10
30.78769
 20
23.961028
  0
SPLINE
  5
1E0
330
1F
100
AcDbEntity
  8
0
 62
     7
100
AcDbSpline
210
0.0
220
0.0
230
1.0
 70
     8
 71
     3
 72
     8
 73
     4
 74
     0
 42
0.0000001
 43
0.0000001
 40
0.0
 40
0.0
 40
0.0
 40
0.0
 40
1.0
 40
1.0
 40
1.0
 40
1.0
 10
20.6969
 20
29.782127
 30
0.0
 10
19.711408
 20
28.654036
 30
0.0
 10
16.770261
 20
24.811996
 30
0.0
 10
16.484005
 20
24.278793
 30
0.0
  0
SPLINE
  5
1E1
330
1F
100
AcDbEntity
  8
0
 62
     7
100
AcDbSpline
210
0.0
220
0.0
230
1.0
 70
     8
 71
     3
 72
     8
 73
     4
 74
     0
 42
0.0000001
 43
0.0000001
 40
0.0
 40
0.0
 40
0.0
 40
0.0
 40
1.0
 40
1.0
 40
1.0
 40
1.0
 10
16.484005
 20
24.278793
 30
0.0
 10
16.359006
 20
24.04596
 30
0.0
 10
16.951625
 20
24.579611
 30
0.0
 10
17.800936
 20
25.464688
 30
0.0
  0
SPLINE
  5
1E2
330
1F
100
AcDbEntity
  8
0
 62
     7
100
AcDbSpline
210
0.0
220
0.0
230
1.0
 70
     8
 71
     3
 72
     8
 73
     4
 74
     0
 42
0.0000001
 43
0.0000001
 40
0.0
 40
0.0
 40
0.0
 40
0.0
 40
1.0
 40
1.0
 40
1.0
 40
1.0
 10
17.800936
 20
25.464688
 30
0.0
 10
18.966229
 20
26.679048
 30
0.0
 10
19.424916
 20
26.994138
 30
0.0
 10
19.670255
 20
26.748799
 30
0.0
  0
LWPOLYLINE
  5
1E3
330
1F
100
AcDbEntity
  8
0
 62
     7
100
AcDbPolyline
 90
        3
 70
     0
 43
0.0
 10
20.79112
 20
29.44826
 10
21.436545
 20
30.628793
 10
20.6969
 20
29.782127
  0
SPLINE
  5
1E4
330
1F
100
AcDbEntity
  8
0
 62
     7
100
AcDbSpline
210
0.0
220
0.0
230
1.0
 70
     8
 71
     3
 72
     8
 73
     4
 74
     0
 42
0.0000001
 43
0.0000001
 40
0.0
 40
0.0
 40
0.0
 40
0.0
 40
1.0
 40
1.0
 40
1.0
 40
1.0
 10
19.319215
 20
25.331251
 30
0.0
 10
19.225436
 20
25.42503
 30
0.0
 10
19.158733
 20
25.258341
 30
0.0
 10
19.170987
 20
24.960834
 30
0.0
  0
SPLINE
  5
1E5
330
1F
100
AcDbEntity
  8
0
 62
     7
100
AcDbSpline
210
0.0
220
0.0
230
1.0
 70
     8
 71
     3
 72
     8
 73
     4
 74
     0
 42
0.0000001
 43
0.0000001
 40
0.0
 40
0.0
 40
0.0
 40
0.0
 40
1.0
 40
1.0
 40
1.0
 40
1.0
 10
19.170987
 20
24.960834
 30
0.0
 10
19.184533
 20
24.632059
 30
0.0
 10
19.251403
 20
24.565187
 30
0.0
 10
19.341494
 20
24.790324
 30
0.0
  0
SPLINE
  5
1E6
330
1F
100
AcDbEntity
  8
0
 62
     7
100
AcDbSpline
210
0.0
220
0.0
230
1.0
 70
     8
 71
     3
 72
     8
 73
     4
 74
     0
 42
0.0000001
 43
0.0000001
 40
0.0
 40
0.0
 40
0.0
 40
0.0
 40
1.0
 40
1.0
 40
1.0
 40
1.0
 10
19.341494
 20
24.790324
 30
0.0
 10
19.423022
 20
24.994054
 30
0.0
 10
19.412995
 20
25.237471
 30
0.0
 10
19.319199
 20
25.331251
 30
0.0
  0
LWPOLYLINE
  5
1E7
330
1F
100
AcDbEntity
  8
0
 62
     7
100
AcDbPolyline
 90
        2
 70
     0
 43
0.0
 10
19.670255
 20
26.748799
 10
19.670255
 20
26.748802
  0
SPLINE
  5
1E8
330
1F
100
AcDbEntity
  8
0
 62
     7
100
AcDbSpline
210
0.0
220
0.0
230
1.0
 70
     8
 71
     3
 72
     8
 73
     4
 74
     0
 42
0.0000001
 43
0.0000001
 40
0.0
 40
0.0
 40
0.0
 40
0.0
 40
1.0
 40
1.0
 40
1.0
 40
1.0
 10
19.327739
 20
40.291952
 30
0.0
 10
20.360946
 20
41.406801
 30
0.0
 10
20.907937
 20
42.873673
 30
0.0
 10
20.7496
 20
44.104972
 30
0.0
  0
SPLINE
  5
1E9
330
1F
100
AcDbEntity
  8
0
 62
     7
100
AcDbSpline
210
0.0
220
0.0
230
1.0
 70
     8
 71
     3
 72
     8
 73
     4
 74
     0
 42
0.0000001
 43
0.0000001
 40
0.0
 40
0.0
 40
0.0
 40
0.0
 40
1.0
 40
1.0
 40
1.0
 40
1.0
 10
20.7496
 20
44.104972
 30
0.0
 10
20.674743
 20
44.687089
 30
0.0
 10
20.722901
 20
45.095753
 30
0.0
 10
20.856613
 20
45.013112
 30
0.0
  0
SPLINE
  5
1EA
330
1F
100
AcDbEntity
  8
0
 62
     7
100
AcDbSpline
210
0.0
220
0.0
230
1.0
 70
     8
 71
     3
 72
     8
 73
     4
 74
     0
 42
0.0000001
 43
0.0000001
 40
0.0
 40
0.0
 40
0.0
 40
0.0
 40
1.0
 40
1.0
 40
1.0
 40
1.0
 10
20.856613
 20
45.013112
 30
0.0
 10
21.219739
 20
44.788689
 30
0.0
 10
20.963654
 20
46.520659
 30
0.0
 10
20.083301
 20
50.24324
 30
0.0
  0
SPLINE
  5
1EB
330
1F
100
AcDbEntity
  8
0
 62
     7
100
AcDbSpline
210
0.0
220
0.0
230
1.0
 70
     8
 71
     3
 72
     8
 73
     4
 74
     0
 42
0.0000001
 43
0.0000001
 40
0.0
 40
0.0
 40
0.0
 40
0.0
 40
1.0
 40
1.0
 40
1.0
 40
1.0
 10
20.083301
 20
50.24324
 30
0.0
 10
19.570842
 20
52.410179
 30
0.0
 10
19.313927
 20
52.807142
 30
0.0
 10
19.225114
 20
51.569242
 30
0.0
  0
SPLINE
  5
1EC
330
1F
100
AcDbEntity
  8
0
 62
     7
100
AcDbSpline
210
0.0
220
0.0
230
1.0
 70
     8
 71
     3
 72
     8
 73
     4
 74
     0
 42
0.0000001
 43
0.0000001
 40
0.0
 40
0.0
 40
0.0
 40
0.0
 40
1.0
 40
1.0
 40
1.0
 40
1.0
 10
19.225114
 20
51.569242
 30
0.0
 10
19.166418
 20
50.75115
 30
0.0
 10
18.547738
 20
49.961018
 30
0.0
 10
17.965861
 20
49.961018
 30
0.0
  0
SPLINE
  5
1ED
330
1F
100
AcDbEntity
  8
0
 62
     7
100
AcDbSpline
210
0.0
220
0.0
230
1.0
 70
     8
 71
     3
 72
     8
 73
     4
 74
     0
 42
0.0000001
 43
0.0000001
 40
0.0
 40
0.0
 40
0.0
 40
0.0
 40
1.0
 40
1.0
 40
1.0
 40
1.0
 10
17.965861
 20
49.961018
 30
0.0
 10
17.481382
 20
49.961018
 30
0.0
 10
16.586523
 20
51.141029
 30
0.0
 10
16.724284
 20
51.598232
 30
0.0
  0
SPLINE
  5
1EE
330
1F
100
AcDbEntity
  8
0
 62
     7
100
AcDbSpline
210
0.0
220
0.0
230
1.0
 70
     8
 71
     3
 72
     8
 73
     4
 74
     0
 42
0.0000001
 43
0.0000001
 40
0.0
 40
0.0
 40
0.0
 40
0.0
 40
1.0
 40
1.0
 40
1.0
 40
1.0
 10
16.724284
 20
51.598232
 30
0.0
 10
16.803741
 20
51.861932
 30
0.0
 10
16.929025
 20
52.428024
 30
0.0
 10
17.002693
 20
52.856217
 30
0.0
  0
SPLINE
  5
1EF
330
1F
100
AcDbEntity
  8
0
 62
     7
100
AcDbSpline
210
0.0
220
0.0
230
1.0
 70
     8
 71
     3
 72
     8
 73
     4
 74
     0
 42
0.0000001
 43
0.0000001
 40
0.0
 40
0.0
 40
0.0
 40
0.0
 40
1.0
 40
1.0
 40
1.0
 40
1.0
 10
17.002693
 20
52.856217
 30
0.0
 10
17.076362
 20
53.284408
 30
0.0
 10
17.221954
 20
53.903564
 30
0.0
 10
17.326233
 20
54.232116
 30
0.0
  0
SPLINE
  5
1F0
330
1F
100
AcDbEntity
  8
0
 62
     7
100
AcDbSpline
210
0.0
220
0.0
230
1.0
 70
     8
 71
     3
 72
     8
 73
     4
 74
     0
 42
0.0000001
 43
0.0000001
 40
0.0
 40
0.0
 40
0.0
 40
0.0
 40
1.0
 40
1.0
 40
1.0
 40
1.0
 10
17.326233
 20
54.232116
 30
0.0
 10
17.587554
 20
55.055465
 30
0.0
 10
16.937802
 20
54.636642
 30
0.0
 10
16.607974
 20
53.769136
 30
0.0
  0
SPLINE
  5
1F1
330
1F
100
AcDbEntity
  8
0
 62
     7
100
AcDbSpline
210
0.0
220
0.0
230
1.0
 70
     8
 71
     3
 72
     8
 73
     4
 74
     0
 42
0.0000001
 43
0.0000001
 40
0.0
 40
0.0
 40
0.0
 40
0.0
 40
1.0
 40
1.0
 40
1.0
 40
1.0
 10
16.607974
 20
53.769136
 30
0.0
 10
16.110182
 20
52.459839
 30
0.0
 10
15.503845
 20
48.907511
 30
0.0
 10
15.324586
 20
46.250183
 30
0.0
  0
SPLINE
  5
1F2
330
1F
100
AcDbEntity
  8
0
 62
     7
100
AcDbSpline
210
0.0
220
0.0
230
1.0
 70
     8
 71
     3
 72
     8
 73
     4
 74
     0
 42
0.0000001
 43
0.0000001
 40
0.0
 40
0.0
 40
0.0
 40
0.0
 40
1.0
 40
1.0
 40
1.0
 40
1.0
 10
15.324586
 20
46.250183
 30
0.0
 10
15.128309
 20
43.340545
 30
0.0
 10
15.587639
 20
40.862388
 30
0.0
 10
16.490592
 20
39.959435
 30
0.0
  0
SPLINE
  5
1F3
330
1F
100
AcDbEntity
  8
0
 62
     7
100
AcDbSpline
210
0.0
220
0.0
230
1.0
 70
     8
 71
     3
 72
     8
 73
     4
 74
     0
 42
0.0000001
 43
0.0000001
 40
0.0
 40
0.0
 40
0.0
 40
0.0
 40
1.0
 40
1.0
 40
1.0
 40
1.0
 10
16.490592
 20
39.959435
 30
0.0
 10
17.193393
 20
39.256634
 30
0.0
 10
18.511394
 20
39.411106
 30
0.0
 10
19.327736
 20
40.291952
 30
0.0
  0
LWPOLYLINE
  5
1F4
330
1F
100
AcDbEntity
  8
0
 62
     7
100
AcDbPolyline
 90
        2
 70
     0
 43
0.0
 10
19.319199
 20
25.331251
 10
19.319215
 20
25.331251
  0
LWPOLYLINE
  5
1FE
330
1F
100
AcDbEntity
  8
0
 62
     7
100
AcDbPolyline
 90
        2
 70
     0
 43
0.0
 10
19.327736
 20
40.291952
 10
19.327739
 20
40.291952
  0
SPLINE
  5
204
330
1F
100
AcDbEntity
  8
0
 62
     7
100
AcDbSpline
210
0.0
220
0.0
230
1.0
 70
     8
 71
     3
 72
     8
 73
     4
 74
     0
 42
0.0000001
 43
0.0000001
 40
0.0
 40
0.0
 40
0.0
 40
0.0
 40
1.0
 40
1.0
 40
1.0
 40
1.0
 10
14.570273
 20
42.920516
 30
0.0
 10
14.635255
 20
43.264266
 30
0.0
 10
14.444687
 20
43.334565
 30
0.0
 10
13.687494
 20
43.246167
 30
0.0
  0
SPLINE
  5
205
330
1F
100
AcDbEntity
  8
0
 62
     7
100
AcDbSpline
210
0.0
220
0.0
230
1.0
 70
     8
 71
     3
 72
     8
 73
     4
 74
     0
 42
0.0000001
 43
0.0000001
 40
0.0
 40
0.0
 40
0.0
 40
0.0
 40
1.0
 40
1.0
 40
1.0
 40
1.0
 10
13.687494
 20
43.246167
 30
0.0
 10
13.156385
 20
43.184163
 30
0.0
 10
12.453384
 20
43.27711
 30
0.0
 10
12.125267
 20
43.452711
 30
0.0
  0
SPLINE
  5
206
330
1F
100
AcDbEntity
  8
0
 62
     7
100
AcDbSpline
210
0.0
220
0.0
230
1.0
 70
     8
 71
     3
 72
     8
 73
     4
 74
     0
 42
0.0000001
 43
0.0000001
 40
0.0
 40
0.0
 40
0.0
 40
0.0
 40
1.0
 40
1.0
 40
1.0
 40
1.0
 10
12.125267
 20
43.452711
 30
0.0
 10
11.651712
 20
43.70615
 30
0.0
 10
11.528691
 20
43.691539
 30
0.0
 10
11.528691
 20
43.381854
 30
0.0
  0
SPLINE
  5
207
330
1F
100
AcDbEntity
  8
0
 62
     7
100
AcDbSpline
210
0.0
220
0.0
230
1.0
 70
     8
 71
     3
 72
     8
 73
     4
 74
     0
 42
0.0000001
 43
0.0000001
 40
0.0
 40
0.0
 40
0.0
 40
0.0
 40
1.0
 40
1.0
 40
1.0
 40
1.0
 10
11.528691
 20
43.381854
 30
0.0
 10
11.528691
 20
42.450094
 30
0.0
 10
14.399046
 20
42.014727
 30
0.0
 10
14.570273
 20
42.920516
 30
0.0
  0
SPLINE
  5
209
330
1F
100
AcDbEntity
  8
0
 62
     7
100
AcDbSpline
210
0.0
220
0.0
230
1.0
 70
     8
 71
     3
 72
     8
 73
     4
 74
     0
 42
0.0000001
 43
0.0000001
 40
0.0
 40
0.0
 40
0.0
 40
0.0
 40
1.0
 40
1.0
 40
1.0
 40
1.0
 10
9.698683
 20
43.632038
 30
0.0
 10
11.269879
 20
44.377621
 30
0.0
 10
12.823228
 20
46.158892
 30
0.0
 10
13.918464
 20
48.470992
 30
0.0
  0
SPLINE
  5
20A
330
1F
100
AcDbEntity
  8
0
 62
     7
100
AcDbSpline
210
0.0
220
0.0
230
1.0
 70
     8
 71
     3
 72
     8
 73
     4
 74
     0
 42
0.0000001
 43
0.0000001
 40
0.0
 40
0.0
 40
0.0
 40
0.0
 40
1.0
 40
1.0
 40
1.0
 40
1.0
 10
13.918464
 20
48.470992
 30
0.0
 10
15.60562
 20
52.032659
 30
0.0
 10
15.875842
 20
52.78324
 30
0.0
 10
15.470946
 20
52.78324
 30
0.0
  0
SPLINE
  5
20B
330
1F
100
AcDbEntity
  8
0
 62
     7
100
AcDbSpline
210
0.0
220
0.0
230
1.0
 70
     8
 71
     3
 72
     8
 73
     4
 74
     0
 42
0.0000001
 43
0.0000001
 40
0.0
 40
0.0
 40
0.0
 40
0.0
 40
1.0
 40
1.0
 40
1.0
 40
1.0
 10
15.470946
 20
52.78324
 30
0.0
 10
15.320595
 20
52.78324
 30
0.0
 10
15.19758
 20
52.671647
 30
0.0
 10
15.19758
 20
52.535257
 30
0.0
  0
SPLINE
  5
20C
330
1F
100
AcDbEntity
  8
0
 62
     7
100
AcDbSpline
210
0.0
220
0.0
230
1.0
 70
     8
 71
     3
 72
     8
 73
     4
 74
     0
 42
0.0000001
 43
0.0000001
 40
0.0
 40
0.0
 40
0.0
 40
0.0
 40
1.0
 40
1.0
 40
1.0
 40
1.0
 10
15.19758
 20
52.535257
 30
0.0
 10
15.19758
 20
52.398868
 30
0.0
 10
14.816464
 20
52.129411
 30
0.0
 10
14.350659
 20
51.936469
 30
0.0
  0
SPLINE
  5
20D
330
1F
100
AcDbEntity
  8
0
 62
     7
100
AcDbSpline
210
0.0
220
0.0
230
1.0
 70
     8
 71
     3
 72
     8
 73
     4
 74
     0
 42
0.0000001
 43
0.0000001
 40
0.0
 40
0.0
 40
0.0
 40
0.0
 40
1.0
 40
1.0
 40
1.0
 40
1.0
 10
14.350659
 20
51.936469
 30
0.0
 10
13.675499
 20
51.65681
 30
0.0
 10
13.417932
 20
51.656875
 30
0.0
 10
13.080659
 20
51.936752
 30
0.0
  0
SPLINE
  5
20E
330
1F
100
AcDbEntity
  8
0
 62
     7
100
AcDbSpline
210
0.0
220
0.0
230
1.0
 70
     8
 71
     3
 72
     8
 73
     4
 74
     0
 42
0.0000001
 43
0.0000001
 40
0.0
 40
0.0
 40
0.0
 40
0.0
 40
1.0
 40
1.0
 40
1.0
 40
1.0
 10
13.080659
 20
51.936752
 30
0.0
 10
12.584524
 20
52.348505
 30
0.0
 10
12.529688
 20
53.428014
 30
0.0
 10
12.963715
 20
54.238999
 30
0.0
  0
SPLINE
  5
20F
330
1F
100
AcDbEntity
  8
0
 62
     7
100
AcDbSpline
210
0.0
220
0.0
230
1.0
 70
     8
 71
     3
 72
     8
 73
     4
 74
     0
 42
0.0000001
 43
0.0000001
 40
0.0
 40
0.0
 40
0.0
 40
0.0
 40
1.0
 40
1.0
 40
1.0
 40
1.0
 10
12.963715
 20
54.238999
 30
0.0
 10
13.570549
 20
55.372878
 30
0.0
 10
11.545929
 20
53.588356
 30
0.0
 10
9.826499
 20
51.473825
 30
0.0
  0
SPLINE
  5
210
330
1F
100
AcDbEntity
  8
0
 62
     7
100
AcDbSpline
210
0.0
220
0.0
230
1.0
 70
     8
 71
     3
 72
     8
 73
     4
 74
     0
 42
0.0000001
 43
0.0000001
 40
0.0
 40
0.0
 40
0.0
 40
0.0
 40
1.0
 40
1.0
 40
1.0
 40
1.0
 10
9.826499
 20
51.473825
 30
0.0
 10
8.019046
 20
49.251043
 30
0.0
 10
6.749196
 20
46.828848
 30
0.0
 10
6.528425
 20
45.182863
 30
0.0
  0
SPLINE
  5
211
330
1F
100
AcDbEntity
  8
0
 62
     7
100
AcDbSpline
210
0.0
220
0.0
230
1.0
 70
     8
 71
     3
 72
     8
 73
     4
 74
     0
 42
0.0000001
 43
0.0000001
 40
0.0
 40
0.0
 40
0.0
 40
0.0
 40
1.0
 40
1.0
 40
1.0
 40
1.0
 10
6.528425
 20
45.182863
 30
0.0
 10
6.40846
 20
44.288476
 30
0.0
 10
6.493754
 20
44.034761
 30
0.0
 10
7.043926
 20
43.649406
 30
0.0
  0
SPLINE
  5
212
330
1F
100
AcDbEntity
  8
0
 62
     7
100
AcDbSpline
210
0.0
220
0.0
230
1.0
 70
     8
 71
     3
 72
     8
 73
     4
 74
     0
 42
0.0000001
 43
0.0000001
 40
0.0
 40
0.0
 40
0.0
 40
0.0
 40
1.0
 40
1.0
 40
1.0
 40
1.0
 10
7.043926
 20
43.649406
 30
0.0
 10
7.869426
 20
43.071201
 30
0.0
 10
8.508055
 20
43.067015
 30
0.0
 10
9.698683
 20
43.631993
 30
0.0
  0
LWPOLYLINE
  5
213
330
1F
100
AcDbEntity
  8
0
 62
     7
100
AcDbPolyline
 90
        2
 70
     0
 43
0.0
 10
14.570273
 20
42.920516
 10
14.570273
 20
42.920516
  0
SPLINE
  5
214
330
1F
100
AcDbEntity
  8
0
 62
     7
100
AcDbSpline
210
0.0
220
0.0
230
1.0
 70
     8
 71
     3
 72
     8
 73
     4
 74
     0
 42
0.0000001
 43
0.0000001
 40
0.0
 40
0.0
 40
0.0
 40
0.0
 40
1.0
 40
1.0
 40
1.0
 40
1.0
 10
14.462747
 20
44.20093
 30
0.0
 10
14.557466
 20
44.447773
 30
0.0
 10
14.578686
 20
44.740793
 30
0.0
 10
14.509903
 20
44.85209
 30
0.0
  0
SPLINE
  5
215
330
1F
100
AcDbEntity
  8
0
 62
     7
100
AcDbSpline
210
0.0
220
0.0
230
1.0
 70
     8
 71
     3
 72
     8
 73
     4
 74
     0
 42
0.0000001
 43
0.0000001
 40
0.0
 40
0.0
 40
0.0
 40
0.0
 40
1.0
 40
1.0
 40
1.0
 40
1.0
 10
14.509903
 20
44.85209
 30
0.0
 10
14.441117
 20
44.96339
 30
0.0
 10
14.482104
 20
45.771268
 30
0.0
 10
14.601002
 20
46.647382
 30
0.0
  0
SPLINE
  5
216
330
1F
100
AcDbEntity
  8
0
 62
     7
100
AcDbSpline
210
0.0
220
0.0
230
1.0
 70
     8
 71
     3
 72
     8
 73
     4
 74
     0
 42
0.0000001
 43
0.0000001
 40
0.0
 40
0.0
 40
0.0
 40
0.0
 40
1.0
 40
1.0
 40
1.0
 40
1.0
 10
14.601002
 20
46.647382
 30
0.0
 10
14.719894
 20
47.523493
 30
0.0
 10
14.712259
 20
48.175474
 30
0.0
 10
14.58404
 20
48.096232
 30
0.0
  0
SPLINE
  5
217
330
1F
100
AcDbEntity
  8
0
 62
     7
100
AcDbSpline
210
0.0
220
0.0
230
1.0
 70
     8
 71
     3
 72
     8
 73
     4
 74
     0
 42
0.0000001
 43
0.0000001
 40
0.0
 40
0.0
 40
0.0
 40
0.0
 40
1.0
 40
1.0
 40
1.0
 40
1.0
 10
14.58404
 20
48.096232
 30
0.0
 10
14.455821
 20
48.016987
 30
0.0
 10
14.350913
 20
47.78055
 30
0.0
 10
14.350913
 20
47.570816
 30
0.0
  0
SPLINE
  5
218
330
1F
100
AcDbEntity
  8
0
 62
     7
100
AcDbSpline
210
0.0
220
0.0
230
1.0
 70
     8
 71
     3
 72
     8
 73
     4
 74
     0
 42
0.0000001
 43
0.0000001
 40
0.0
 40
0.0
 40
0.0
 40
0.0
 40
1.0
 40
1.0
 40
1.0
 40
1.0
 10
14.350913
 20
47.570816
 30
0.0
 10
14.350913
 20
47.361083
 30
0.0
 10
13.852478
 20
46.558914
 30
0.0
 10
13.243279
 20
45.788219
 30
0.0
  0
SPLINE
  5
219
330
1F
100
AcDbEntity
  8
0
 62
     7
100
AcDbSpline
210
0.0
220
0.0
230
1.0
 70
     8
 71
     3
 72
     8
 73
     4
 74
     0
 42
0.0000001
 43
0.0000001
 40
0.0
 40
0.0
 40
0.0
 40
0.0
 40
1.0
 40
1.0
 40
1.0
 40
1.0
 10
13.243279
 20
45.788219
 30
0.0
 10
12.422988
 20
44.750474
 30
0.0
 10
12.217988
 20
44.30461
 30
0.0
 10
12.453056
 20
44.069542
 30
0.0
  0
SPLINE
  5
21A
330
1F
100
AcDbEntity
  8
0
 62
     7
100
AcDbSpline
210
0.0
220
0.0
230
1.0
 70
     8
 71
     3
 72
     8
 73
     4
 74
     0
 42
0.0000001
 43
0.0000001
 40
0.0
 40
0.0
 40
0.0
 40
0.0
 40
1.0
 40
1.0
 40
1.0
 40
1.0
 10
12.453056
 20
44.069542
 30
0.0
 10
12.927706
 20
43.594892
 30
0.0
 10
14.263704
 20
43.682237
 30
0.0
 10
14.462747
 20
44.20093
 30
0.0
  0
LWPOLYLINE
  5
21B
330
1F
100
AcDbEntity
  8
0
 62
     7
100
AcDbPolyline
 90
        2
 70
     0
 43
0.0
 10
9.698683
 20
43.631993
 10
9.698683
 20
43.632038
  0
SPLINE
  5
21C
330
1F
100
AcDbEntity
  8
0
 62
     7
100
AcDbSpline
210
0.0
220
0.0
230
1.0
 70
     8
 71
     3
 72
     8
 73
     4
 74
     0
 42
0.0000001
 43
0.0000001
 40
0.0
 40
0.0
 40
0.0
 40
0.0
 40
1.0
 40
1.0
 40
1.0
 40
1.0
 10
22.81758
 20
44.631407
 30
0.0
 10
22.81758
 20
44.729888
 30
0.0
 10
23.182544
 20
44.883457
 30
0.0
 10
23.62861
 20
44.97267
 30
0.0
  0
SPLINE
  5
21D
330
1F
100
AcDbEntity
  8
0
 62
     7
100
AcDbSpline
210
0.0
220
0.0
230
1.0
 70
     8
 71
     3
 72
     8
 73
     4
 74
     0
 42
0.0000001
 43
0.0000001
 40
0.0
 40
0.0
 40
0.0
 40
0.0
 40
1.0
 40
1.0
 40
1.0
 40
1.0
 10
23.62861
 20
44.97267
 30
0.0
 10
24.074677
 20
45.061883
 30
0.0
 10
24.522166
 20
45.349933
 30
0.0
 10
24.623032
 20
45.612784
 30
0.0
  0
SPLINE
  5
21E
330
1F
100
AcDbEntity
  8
0
 62
     7
100
AcDbSpline
210
0.0
220
0.0
230
1.0
 70
     8
 71
     3
 72
     8
 73
     4
 74
     0
 42
0.0000001
 43
0.0000001
 40
0.0
 40
0.0
 40
0.0
 40
0.0
 40
1.0
 40
1.0
 40
1.0
 40
1.0
 10
24.623032
 20
45.612784
 30
0.0
 10
24.910447
 20
46.361779
 30
0.0
 10
24.568862
 20
46.444797
 30
0.0
 10
23.874801
 20
45.794634
 30
0.0
  0
SPLINE
  5
21F
330
1F
100
AcDbEntity
  8
0
 62
     7
100
AcDbSpline
210
0.0
220
0.0
230
1.0
 70
     8
 71
     3
 72
     8
 73
     4
 74
     0
 42
0.0000001
 43
0.0000001
 40
0.0
 40
0.0
 40
0.0
 40
0.0
 40
1.0
 40
1.0
 40
1.0
 40
1.0
 10
23.874801
 20
45.794634
 30
0.0
 10
23.526164
 20
45.468046
 30
0.0
 10
22.891663
 20
45.068524
 30
0.0
 10
22.464802
 20
44.906802
 30
0.0
  0
SPLINE
  5
220
330
1F
100
AcDbEntity
  8
0
 62
     7
100
AcDbSpline
210
0.0
220
0.0
230
1.0
 70
     8
 71
     3
 72
     8
 73
     4
 74
     0
 42
0.0000001
 43
0.0000001
 40
0.0
 40
0.0
 40
0.0
 40
0.0
 40
1.0
 40
1.0
 40
1.0
 40
1.0
 10
22.464802
 20
44.906802
 30
0.0
 10
22.037941
 20
44.745083
 30
0.0
 10
21.688691
 20
44.418047
 30
0.0
 10
21.688691
 20
44.180057
 30
0.0
  0
SPLINE
  5
221
330
1F
100
AcDbEntity
  8
0
 62
     7
100
AcDbSpline
210
0.0
220
0.0
230
1.0
 70
     8
 71
     3
 72
     8
 73
     4
 74
     0
 42
0.0000001
 43
0.0000001
 40
0.0
 40
0.0
 40
0.0
 40
0.0
 40
1.0
 40
1.0
 40
1.0
 40
1.0
 10
21.688691
 20
44.180057
 30
0.0
 10
21.688691
 20
43.817994
 30
0.0
 10
21.780848
 20
43.804899
 30
0.0
 10
22.253136
 20
44.099847
 30
0.0
  0
SPLINE
  5
222
330
1F
100
AcDbEntity
  8
0
 62
     7
100
AcDbSpline
210
0.0
220
0.0
230
1.0
 70
     8
 71
     3
 72
     8
 73
     4
 74
     0
 42
0.0000001
 43
0.0000001
 40
0.0
 40
0.0
 40
0.0
 40
0.0
 40
1.0
 40
1.0
 40
1.0
 40
1.0
 10
22.253136
 20
44.099847
 30
0.0
 10
22.56358
 20
44.293722
 30
0.0
 10
22.81758
 20
44.532925
 30
0.0
 10
22.81758
 20
44.631407
 30
0.0
  0
LWPOLYLINE
  5
223
330
1F
100
AcDbEntity
  8
0
 62
     7
100
AcDbPolyline
 90
        2
 70
     0
 43
0.0
 10
14.462747
 20
44.20093
 10
14.462747
 20
44.20093
  0
LWPOLYLINE
  5
224
330
1F
100
AcDbEntity
  8
0
 62
     7
100
AcDbPolyline
 90
        2
 70
     0
 43
0.0
 10
22.81758
 20
44.631407
 10
22.81758
 20
44.631407
  0
SPLINE
  5
225
330
1F
100
AcDbEntity
  8
0
 62
     7
100
AcDbSpline
210
0.0
220
0.0
230
1.0
 70
     8
 71
     3
 72
     8
 73
     4
 74
     0
 42
0.0000001
 43
0.0000001
 40
0.0
 40
0.0
 40
0.0
 40
0.0
 40
1.0
 40
1.0
 40
1.0
 40
1.0
 10
22.873169
 20
47.844352
 30
0.0
 10
22.277158
 20
48.46524
 30
0.0
 10
21.631372
 20
49.22724
 30
0.0
 10
21.438092
 20
49.537685
 30
0.0
  0
SPLINE
  5
226
330
1F
100
AcDbEntity
  8
0
 62
     7
100
AcDbSpline
210
0.0
220
0.0
230
1.0
 70
     8
 71
     3
 72
     8
 73
     4
 74
     0
 42
0.0000001
 43
0.0000001
 40
0.0
 40
0.0
 40
0.0
 40
0.0
 40
1.0
 40
1.0
 40
1.0
 40
1.0
 10
21.438092
 20
49.537685
 30
0.0
 10
21.127549
 20
50.036473
 30
0.0
 10
21.105744
 20
49.988964
 30
0.0
 10
21.250646
 20
49.129247
 30
0.0
  0
SPLINE
  5
227
330
1F
100
AcDbEntity
  8
0
 62
     7
100
AcDbSpline
210
0.0
220
0.0
230
1.0
 70
     8
 71
     3
 72
     8
 73
     4
 74
     0
 42
0.0000001
 43
0.0000001
 40
0.0
 40
0.0
 40
0.0
 40
0.0
 40
1.0
 40
1.0
 40
1.0
 40
1.0
 10
21.250646
 20
49.129247
 30
0.0
 10
21.340832
 20
48.594162
 30
0.0
 10
21.493772
 20
47.482912
 30
0.0
 10
21.590514
 20
46.659803
 30
0.0
  0
SPLINE
  5
228
330
1F
100
AcDbEntity
  8
0
 62
     7
100
AcDbSpline
210
0.0
220
0.0
230
1.0
 70
     8
 71
     3
 72
     8
 73
     4
 74
     0
 42
0.0000001
 43
0.0000001
 40
0.0
 40
0.0
 40
0.0
 40
0.0
 40
1.0
 40
1.0
 40
1.0
 40
1.0
 10
21.590514
 20
46.659803
 30
0.0
 10
21.687255
 20
45.836693
 30
0.0
 10
21.848965
 20
45.16324
 30
0.0
 10
21.949877
 20
45.16324
 30
0.0
  0
SPLINE
  5
229
330
1F
100
AcDbEntity
  8
0
 62
     7
100
AcDbSpline
210
0.0
220
0.0
230
1.0
 70
     8
 71
     3
 72
     8
 73
     4
 74
     0
 42
0.0000001
 43
0.0000001
 40
0.0
 40
0.0
 40
0.0
 40
0.0
 40
1.0
 40
1.0
 40
1.0
 40
1.0
 10
21.949877
 20
45.16324
 30
0.0
 10
22.050785
 20
45.16324
 30
0.0
 10
22.54363
 20
45.51249
 30
0.0
 10
23.045088
 20
45.939352
 30
0.0
  0
LWPOLYLINE
  5
22A
330
1F
100
AcDbEntity
  8
0
 62
     7
100
AcDbPolyline
 90
        3
 70
     0
 43
0.0
 10
23.045088
 20
45.939352
 10
23.956829
 20
46.715463
 10
22.873169
 20
47.844352
  0
SPLINE
  5
22B
330
1F
100
AcDbEntity
  8
0
 62
     7
100
AcDbSpline
210
0.0
220
0.0
230
1.0
 70
     8
 71
     3
 72
     8
 73
     4
 74
     0
 42
0.0000001
 43
0.0000001
 40
0.0
 40
0.0
 40
0.0
 40
0.0
 40
1.0
 40
1.0
 40
1.0
 40
1.0
 10
30.170405
 20
45.922588
 30
0.0
 10
32.547631
 20
47.326849
 30
0.0
 10
31.568398
 20
51.079547
 30
0.0
 10
28.320938
 20
53.010274
 30
0.0
  0
SPLINE
  5
22C
330
1F
100
AcDbEntity
  8
0
 62
     7
100
AcDbSpline
210
0.0
220
0.0
230
1.0
 70
     8
 71
     3
 72
     8
 73
     4
 74
     0
 42
0.0000001
 43
0.0000001
 40
0.0
 40
0.0
 40
0.0
 40
0.0
 40
1.0
 40
1.0
 40
1.0
 40
1.0
 10
28.320938
 20
53.010274
 30
0.0
 10
26.176321
 20
54.285315
 30
0.0
 10
22.077334
 20
55.891258
 30
0.0
 10
21.050386
 20
55.858797
 30
0.0
  0
LWPOLYLINE
  5
22D
330
1F
100
AcDbEntity
  8
0
 62
     7
100
AcDbPolyline
 90
        2
 70
     0
 43
0.0
 10
23.045088
 20
45.939352
 10
23.045088
 20
45.939352
  0
SPLINE
  5
22E
330
1F
100
AcDbEntity
  8
0
 62
     7
100
AcDbSpline
210
0.0
220
0.0
230
1.0
 70
     8
 71
     3
 72
     8
 73
     4
 74
     0
 42
0.0000001
 43
0.0000001
 40
0.0
 40
0.0
 40
0.0
 40
0.0
 40
1.0
 40
1.0
 40
1.0
 40
1.0
 10
20.983136
 20
55.623787
 30
0.0
 10
22.157423
 20
55.33791
 30
0.0
 10
23.424155
 20
54.645207
 30
0.0
 10
24.062468
 20
53.939877
 30
0.0
  0
SPLINE
  5
22F
330
1F
100
AcDbEntity
  8
0
 62
     7
100
AcDbSpline
210
0.0
220
0.0
230
1.0
 70
     8
 71
     3
 72
     8
 73
     4
 74
     0
 42
0.0000001
 43
0.0000001
 40
0.0
 40
0.0
 40
0.0
 40
0.0
 40
1.0
 40
1.0
 40
1.0
 40
1.0
 10
24.062468
 20
53.939877
 30
0.0
 10
24.510487
 20
53.444823
 30
0.0
 10
24.546789
 20
53.227577
 30
0.0
 10
24.279519
 20
52.640984
 30
0.0
  0
SPLINE
  5
230
330
1F
100
AcDbEntity
  8
0
 62
     7
100
AcDbSpline
210
0.0
220
0.0
230
1.0
 70
     8
 71
     3
 72
     8
 73
     4
 74
     0
 42
0.0000001
 43
0.0000001
 40
0.0
 40
0.0
 40
0.0
 40
0.0
 40
1.0
 40
1.0
 40
1.0
 40
1.0
 10
24.279519
 20
52.640984
 30
0.0
 10
23.617028
 20
51.186972
 30
0.0
 10
21.38027
 20
52.014859
 30
0.0
 10
20.141995
 20
54.1724
 30
0.0
  0
SPLINE
  5
231
330
1F
100
AcDbEntity
  8
0
 62
     7
100
AcDbSpline
210
0.0
220
0.0
230
1.0
 70
     8
 71
     3
 72
     8
 73
     4
 74
     0
 42
0.0000001
 43
0.0000001
 40
0.0
 40
0.0
 40
0.0
 40
0.0
 40
1.0
 40
1.0
 40
1.0
 40
1.0
 10
20.141995
 20
54.1724
 30
0.0
 10
19.222292
 20
55.774869
 30
0.0
 10
19.486689
 20
54.666168
 30
0.0
 10
20.57697
 20
52.348412
 30
0.0
  0
SPLINE
  5
232
330
1F
100
AcDbEntity
  8
0
 62
     7
100
AcDbSpline
210
0.0
220
0.0
230
1.0
 70
     8
 71
     3
 72
     8
 73
     4
 74
     0
 42
0.0000001
 43
0.0000001
 40
0.0
 40
0.0
 40
0.0
 40
0.0
 40
1.0
 40
1.0
 40
1.0
 40
1.0
 10
20.57697
 20
52.348412
 30
0.0
 10
21.436952
 20
50.520233
 30
0.0
 10
21.827372
 20
49.993573
 30
0.0
 10
23.858241
 20
47.922109
 30
0.0
  0
SPLINE
  5
233
330
1F
100
AcDbEntity
  8
0
 62
     7
100
AcDbSpline
210
0.0
220
0.0
230
1.0
 70
     8
 71
     3
 72
     8
 73
     4
 74
     0
 42
0.0000001
 43
0.0000001
 40
0.0
 40
0.0
 40
0.0
 40
0.0
 40
1.0
 40
1.0
 40
1.0
 40
1.0
 10
23.858241
 20
47.922109
 30
0.0
 10
26.116174
 20
45.619043
 30
0.0
 10
28.420732
 20
44.889019
 30
0.0
 10
30.170405
 20
45.922579
 30
0.0
  0
LWPOLYLINE
  5
234
330
1F
100
AcDbEntity
  8
0
 62
     7
100
AcDbPolyline
 90
        3
 70
     0
 43
0.0
 10
21.050386
 20
55.858797
 10
20.136469
 20
55.829908
 10
20.983136
 20
55.623787
  0
SPLINE
  5
235
330
1F
100
AcDbEntity
  8
0
 62
     7
100
AcDbSpline
210
0.0
220
0.0
230
1.0
 70
     8
 71
     3
 72
     8
 73
     4
 74
     0
 42
0.0000001
 43
0.0000001
 40
0.0
 40
0.0
 40
0.0
 40
0.0
 40
1.0
 40
1.0
 40
1.0
 40
1.0
 10
6.573535
 20
47.959151
 30
0.0
 10
6.660521
 20
48.099898
 30
0.0
 10
6.491891
 20
48.152344
 30
0.0
 10
6.1988
 20
48.0757
 30
0.0
  0
SPLINE
  5
236
330
1F
100
AcDbEntity
  8
0
 62
     7
100
AcDbSpline
210
0.0
220
0.0
230
1.0
 70
     8
 71
     3
 72
     8
 73
     4
 74
     0
 42
0.0000001
 43
0.0000001
 40
0.0
 40
0.0
 40
0.0
 40
0.0
 40
1.0
 40
1.0
 40
1.0
 40
1.0
 10
6.1988
 20
48.0757
 30
0.0
 10
5.864164
 20
47.988189
 30
0.0
 10
5.312789
 20
48.252084
 30
0.0
 10
4.716744
 20
48.785029
 30
0.0
  0
SPLINE
  5
237
330
1F
100
AcDbEntity
  8
0
 62
     7
100
AcDbSpline
210
0.0
220
0.0
230
1.0
 70
     8
 71
     3
 72
     8
 73
     4
 74
     0
 42
0.0000001
 43
0.0000001
 40
0.0
 40
0.0
 40
0.0
 40
0.0
 40
1.0
 40
1.0
 40
1.0
 40
1.0
 10
4.716744
 20
48.785029
 30
0.0
 10
3.858949
 20
49.552019
 30
0.0
 10
3.771681
 20
49.771664
 30
0.0
 10
3.81019
 20
51.066756
 30
0.0
  0
SPLINE
  5
238
330
1F
100
AcDbEntity
  8
0
 62
     7
100
AcDbSpline
210
0.0
220
0.0
230
1.0
 70
     8
 71
     3
 72
     8
 73
     4
 74
     0
 42
0.0000001
 43
0.0000001
 40
0.0
 40
0.0
 40
0.0
 40
0.0
 40
1.0
 40
1.0
 40
1.0
 40
1.0
 10
3.81019
 20
51.066756
 30
0.0
 10
3.833671
 20
51.856177
 30
0.0
 10
3.738599
 20
52.429215
 30
0.0
 10
3.598523
 20
52.342644
 30
0.0
  0
SPLINE
  5
239
330
1F
100
AcDbEntity
  8
0
 62
     7
100
AcDbSpline
210
0.0
220
0.0
230
1.0
 70
     8
 71
     3
 72
     8
 73
     4
 74
     0
 42
0.0000001
 43
0.0000001
 40
0.0
 40
0.0
 40
0.0
 40
0.0
 40
1.0
 40
1.0
 40
1.0
 40
1.0
 10
3.598523
 20
52.342644
 30
0.0
 10
3.253992
 20
52.129713
 30
0.0
 10
3.276877
 20
50.45719
 30
0.0
 10
3.637292
 20
49.509228
 30
0.0
  0
SPLINE
  5
23A
330
1F
100
AcDbEntity
  8
0
 62
     7
100
AcDbSpline
210
0.0
220
0.0
230
1.0
 70
     8
 71
     3
 72
     8
 73
     4
 74
     0
 42
0.0000001
 43
0.0000001
 40
0.0
 40
0.0
 40
0.0
 40
0.0
 40
1.0
 40
1.0
 40
1.0
 40
1.0
 10
3.637292
 20
49.509228
 30
0.0
 10
4.170963
 20
48.105565
 30
0.0
 10
6.050721
 20
47.113218
 30
0.0
 10
6.573535
 20
47.959151
 30
0.0
  0
LWPOLYLINE
  5
23B
330
1F
100
AcDbEntity
  8
0
 62
     7
100
AcDbPolyline
 90
        2
 70
     0
 43
0.0
 10
30.170405
 20
45.922579
 10
30.170405
 20
45.922588
  0
SPLINE
  5
23C
330
1F
100
AcDbEntity
  8
0
 62
     7
100
AcDbSpline
210
0.0
220
0.0
230
1.0
 70
     8
 71
     3
 72
     8
 73
     4
 74
     0
 42
0.0000001
 43
0.0000001
 40
0.0
 40
0.0
 40
0.0
 40
0.0
 40
1.0
 40
1.0
 40
1.0
 40
1.0
 10
7.063532
 20
48.965575
 30
0.0
 10
7.268648
 20
49.194178
 30
0.0
 10
7.817469
 20
49.90303
 30
0.0
 10
8.283136
 20
50.540793
 30
0.0
  0
SPLINE
  5
23D
330
1F
100
AcDbEntity
  8
0
 62
     7
100
AcDbSpline
210
0.0
220
0.0
230
1.0
 70
     8
 71
     3
 72
     8
 73
     4
 74
     0
 42
0.0000001
 43
0.0000001
 40
0.0
 40
0.0
 40
0.0
 40
0.0
 40
1.0
 40
1.0
 40
1.0
 40
1.0
 10
8.283136
 20
50.540793
 30
0.0
 10
8.748802
 20
51.178556
 30
0.0
 10
9.622226
 20
52.261508
 30
0.0
 10
10.224079
 20
52.947356
 30
0.0
  0
SPLINE
  5
23E
330
1F
100
AcDbEntity
  8
0
 62
     7
100
AcDbSpline
210
0.0
220
0.0
230
1.0
 70
     8
 71
     3
 72
     8
 73
     4
 74
     0
 42
0.0000001
 43
0.0000001
 40
0.0
 40
0.0
 40
0.0
 40
0.0
 40
1.0
 40
1.0
 40
1.0
 40
1.0
 10
10.224079
 20
52.947356
 30
0.0
 10
10.825932
 20
53.633203
 30
0.0
 10
11.270432
 20
54.193798
 30
0.0
 10
11.211857
 20
54.193121
 30
0.0
  0
SPLINE
  5
23F
330
1F
100
AcDbEntity
  8
0
 62
     7
100
AcDbSpline
210
0.0
220
0.0
230
1.0
 70
     8
 71
     3
 72
     8
 73
     4
 74
     0
 42
0.0000001
 43
0.0000001
 40
0.0
 40
0.0
 40
0.0
 40
0.0
 40
1.0
 40
1.0
 40
1.0
 40
1.0
 10
11.211857
 20
54.193121
 30
0.0
 10
11.153282
 20
54.192557
 30
0.0
 10
10.216358
 20
53.877625
 30
0.0
 10
9.129802
 20
53.493518
 30
0.0
  0
SPLINE
  5
240
330
1F
100
AcDbEntity
  8
0
 62
     7
100
AcDbSpline
210
0.0
220
0.0
230
1.0
 70
     8
 71
     3
 72
     8
 73
     4
 74
     0
 42
0.0000001
 43
0.0000001
 40
0.0
 40
0.0
 40
0.0
 40
0.0
 40
1.0
 40
1.0
 40
1.0
 40
1.0
 10
9.129802
 20
53.493518
 30
0.0
 10
8.043247
 20
53.109413
 30
0.0
 10
6.681259
 20
52.792466
 30
0.0
 10
6.103161
 20
52.789193
 30
0.0
  0
SPLINE
  5
241
330
1F
100
AcDbEntity
  8
0
 62
     7
100
AcDbSpline
210
0.0
220
0.0
230
1.0
 70
     8
 71
     3
 72
     8
 73
     4
 74
     0
 42
0.0000001
 43
0.0000001
 40
0.0
 40
0.0
 40
0.0
 40
0.0
 40
1.0
 40
1.0
 40
1.0
 40
1.0
 10
6.103161
 20
52.789193
 30
0.0
 10
5.224617
 20
52.784225
 30
0.0
 10
4.980518
 20
52.644864
 30
0.0
 10
4.61616
 20
51.940274
 30
0.0
  0
SPLINE
  5
242
330
1F
100
AcDbEntity
  8
0
 62
     7
100
AcDbSpline
210
0.0
220
0.0
230
1.0
 70
     8
 71
     3
 72
     8
 73
     4
 74
     0
 42
0.0000001
 43
0.0000001
 40
0.0
 40
0.0
 40
0.0
 40
0.0
 40
1.0
 40
1.0
 40
1.0
 40
1.0
 10
4.61616
 20
51.940274
 30
0.0
 10
4.229154
 20
51.191888
 30
0.0
 10
4.226936
 20
50.985567
 30
0.0
 10
4.596376
 20
50.101373
 30
0.0
  0
SPLINE
  5
243
330
1F
100
AcDbEntity
  8
0
 62
     7
100
AcDbSpline
210
0.0
220
0.0
230
1.0
 70
     8
 71
     3
 72
     8
 73
     4
 74
     0
 42
0.0000001
 43
0.0000001
 40
0.0
 40
0.0
 40
0.0
 40
0.0
 40
1.0
 40
1.0
 40
1.0
 40
1.0
 10
4.596376
 20
50.101373
 30
0.0
 10
4.825247
 20
49.553611
 30
0.0
 10
5.303896
 20
48.988495
 30
0.0
 10
5.660044
 20
48.845563
 30
0.0
  0
SPLINE
  5
244
330
1F
100
AcDbEntity
  8
0
 62
     7
100
AcDbSpline
210
0.0
220
0.0
230
1.0
 70
     8
 71
     3
 72
     8
 73
     4
 74
     0
 42
0.0000001
 43
0.0000001
 40
0.0
 40
0.0
 40
0.0
 40
0.0
 40
1.0
 40
1.0
 40
1.0
 40
1.0
 10
5.660044
 20
48.845563
 30
0.0
 10
6.554781
 20
48.486478
 30
0.0
 10
6.640244
 20
48.493784
 30
0.0
 10
7.063535
 20
48.965567
 30
0.0
  0
LWPOLYLINE
  5
245
330
1F
100
AcDbEntity
  8
0
 62
     7
100
AcDbPolyline
 90
        2
 70
     0
 43
0.0
 10
6.573535
 20
47.959151
 10
6.573535
 20
47.959151
  0
SPLINE
  5
246
330
1F
100
AcDbEntity
  8
0
 62
     7
100
AcDbSpline
210
0.0
220
0.0
230
1.0
 70
     8
 71
     3
 72
     8
 73
     4
 74
     0
 42
0.0000001
 43
0.0000001
 40
0.0
 40
0.0
 40
0.0
 40
0.0
 40
1.0
 40
1.0
 40
1.0
 40
1.0
 10
34.018262
 20
51.896524
 30
0.0
 10
34.240185
 20
52.417771
 30
0.0
 10
34.368994
 20
52.897013
 30
0.0
 10
34.304506
 20
52.961498
 30
0.0
  0
SPLINE
  5
247
330
1F
100
AcDbEntity
  8
0
 62
     7
100
AcDbSpline
210
0.0
220
0.0
230
1.0
 70
     8
 71
     3
 72
     8
 73
     4
 74
     0
 42
0.0000001
 43
0.0000001
 40
0.0
 40
0.0
 40
0.0
 40
0.0
 40
1.0
 40
1.0
 40
1.0
 40
1.0
 10
34.304506
 20
52.961498
 30
0.0
 10
34.049899
 20
53.216104
 30
0.0
 10
33.259801
 20
52.69661
 30
0.0
 10
33.259801
 20
52.2746
 30
0.0
  0
SPLINE
  5
248
330
1F
100
AcDbEntity
  8
0
 62
     7
100
AcDbSpline
210
0.0
220
0.0
230
1.0
 70
     8
 71
     3
 72
     8
 73
     4
 74
     0
 42
0.0000001
 43
0.0000001
 40
0.0
 40
0.0
 40
0.0
 40
0.0
 40
1.0
 40
1.0
 40
1.0
 40
1.0
 10
33.259801
 20
52.2746
 30
0.0
 10
33.259801
 20
52.028062
 30
0.0
 10
32.928427
 20
51.480469
 30
0.0
 10
32.523416
 20
51.057728
 30
0.0
  0
SPLINE
  5
249
330
1F
100
AcDbEntity
  8
0
 62
     7
100
AcDbSpline
210
0.0
220
0.0
230
1.0
 70
     8
 71
     3
 72
     8
 73
     4
 74
     0
 42
0.0000001
 43
0.0000001
 40
0.0
 40
0.0
 40
0.0
 40
0.0
 40
1.0
 40
1.0
 40
1.0
 40
1.0
 10
32.523416
 20
51.057728
 30
0.0
 10
32.112636
 20
50.628965
 30
0.0
 10
31.876221
 20
50.144793
 30
0.0
 10
31.988746
 20
49.962729
 30
0.0
  0
SPLINE
  5
24A
330
1F
100
AcDbEntity
  8
0
 62
     7
100
AcDbSpline
210
0.0
220
0.0
230
1.0
 70
     8
 71
     3
 72
     8
 73
     4
 74
     0
 42
0.0000001
 43
0.0000001
 40
0.0
 40
0.0
 40
0.0
 40
0.0
 40
1.0
 40
1.0
 40
1.0
 40
1.0
 10
31.988746
 20
49.962729
 30
0.0
 10
32.26884
 20
49.509522
 30
0.0
 10
33.502425
 20
50.684927
 30
0.0
 10
34.018262
 20
51.896524
 30
0.0
  0
LWPOLYLINE
  5
24B
330
1F
100
AcDbEntity
  8
0
 62
     7
100
AcDbPolyline
 90
        2
 70
     0
 43
0.0
 10
7.063535
 20
48.965567
 10
7.063532
 20
48.965575
  0
SPLINE
  5
24C
330
1F
100
AcDbEntity
  8
0
 62
     7
100
AcDbSpline
210
0.0
220
0.0
230
1.0
 70
     8
 71
     3
 72
     8
 73
     4
 74
     0
 42
0.0000001
 43
0.0000001
 40
0.0
 40
0.0
 40
0.0
 40
0.0
 40
1.0
 40
1.0
 40
1.0
 40
1.0
 10
18.526964
 20
52.109711
 30
0.0
 10
18.573071
 20
52.724087
 30
0.0
 10
18.494184
 20
53.539715
 30
0.0
 10
18.351662
 20
53.922222
 30
0.0
  0
SPLINE
  5
24D
330
1F
100
AcDbEntity
  8
0
 62
     7
100
AcDbSpline
210
0.0
220
0.0
230
1.0
 70
     8
 71
     3
 72
     8
 73
     4
 74
     0
 42
0.0000001
 43
0.0000001
 40
0.0
 40
0.0
 40
0.0
 40
0.0
 40
1.0
 40
1.0
 40
1.0
 40
1.0
 10
18.351662
 20
53.922222
 30
0.0
 10
18.119418
 20
54.545526
 30
0.0
 10
18.057487
 20
54.449734
 30
0.0
 10
17.754779
 20
52.998968
 30
0.0
  0
SPLINE
  5
24E
330
1F
100
AcDbEntity
  8
0
 62
     7
100
AcDbSpline
210
0.0
220
0.0
230
1.0
 70
     8
 71
     3
 72
     8
 73
     4
 74
     0
 42
0.0000001
 43
0.0000001
 40
0.0
 40
0.0
 40
0.0
 40
0.0
 40
1.0
 40
1.0
 40
1.0
 40
1.0
 10
17.754779
 20
52.998968
 30
0.0
 10
17.569014
 20
52.108673
 30
0.0
 10
17.50079
 20
51.24472
 30
0.0
 10
17.603166
 20
51.07907
 30
0.0
  0
SPLINE
  5
24F
330
1F
100
AcDbEntity
  8
0
 62
     7
100
AcDbSpline
210
0.0
220
0.0
230
1.0
 70
     8
 71
     3
 72
     8
 73
     4
 74
     0
 42
0.0000001
 43
0.0000001
 40
0.0
 40
0.0
 40
0.0
 40
0.0
 40
1.0
 40
1.0
 40
1.0
 40
1.0
 10
17.603166
 20
51.07907
 30
0.0
 10
17.9706
 20
50.484549
 30
0.0
 10
18.444696
 20
51.013479
 30
0.0
 10
18.526964
 20
52.109711
 30
0.0
  0
LWPOLYLINE
  5
250
330
1F
100
AcDbEntity
  8
0
 62
     7
100
AcDbPolyline
 90
        2
 70
     0
 43
0.0
 10
34.018262
 20
51.896524
 10
34.018262
 20
51.896524
  0
SPLINE
  5
251
330
1F
100
AcDbEntity
  8
0
 62
     7
100
AcDbSpline
210
0.0
220
0.0
230
1.0
 70
     8
 71
     3
 72
     8
 73
     4
 74
     0
 42
0.0000001
 43
0.0000001
 40
0.0
 40
0.0
 40
0.0
 40
0.0
 40
1.0
 40
1.0
 40
1.0
 40
1.0
 10
32.256022
 20
51.717149
 30
0.0
 10
32.899771
 20
52.636228
 30
0.0
 10
32.830437
 20
52.719103
 30
0.0
 10
31.3279
 20
52.826559
 30
0.0
  0
LWPOLYLINE
  5
252
330
1F
100
AcDbEntity
  8
0
 62
     7
100
AcDbPolyline
 90
        2
 70
     0
 43
0.0
 10
18.526964
 20
52.109711
 10
18.526964
 20
52.109711
  0
SPLINE
  5
253
330
1F
100
AcDbEntity
  8
0
 62
     7
100
AcDbSpline
210
0.0
220
0.0
230
1.0
 70
     8
 71
     3
 72
     8
 73
     4
 74
     0
 42
0.0000001
 43
0.0000001
 40
0.0
 40
0.0
 40
0.0
 40
0.0
 40
1.0
 40
1.0
 40
1.0
 40
1.0
 10
30.6929
 20
52.007138
 30
0.0
 10
31.561236
 20
50.919769
 30
0.0
 10
31.681843
 20
50.897395
 30
0.0
 10
32.256022
 20
51.717149
 30
0.0
  0
LWPOLYLINE
  5
254
330
1F
100
AcDbEntity
  8
0
 62
     7
100
AcDbPolyline
 90
        3
 70
     0
 43
0.0
 10
31.3279
 20
52.826559
 10
29.960443
 20
52.924352
 10
30.6929
 20
52.007138
  0
SPLINE
  5
255
330
1F
100
AcDbEntity
  8
0
 62
     7
100
AcDbSpline
210
0.0
220
0.0
230
1.0
 70
     8
 71
     3
 72
     8
 73
     4
 74
     0
 42
0.0000001
 43
0.0000001
 40
0.0
 40
0.0
 40
0.0
 40
0.0
 40
1.0
 40
1.0
 40
1.0
 40
1.0
 10
15.140927
 20
53.558779
 30
0.0
 10
16.342578
 20
55.264863
 30
0.0
 10
16.117418
 20
56.370384
 30
0.0
 10
14.750681
 20
55.474864
 30
0.0
  0
SPLINE
  5
256
330
1F
100
AcDbEntity
  8
0
 62
     7
100
AcDbSpline
210
0.0
220
0.0
230
1.0
 70
     8
 71
     3
 72
     8
 73
     4
 74
     0
 42
0.0000001
 43
0.0000001
 40
0.0
 40
0.0
 40
0.0
 40
0.0
 40
1.0
 40
1.0
 40
1.0
 40
1.0
 10
14.750681
 20
55.474864
 30
0.0
 10
13.329455
 20
54.543638
 30
0.0
 10
12.669806
 20
51.752359
 30
0.0
 10
14.044877
 20
52.488273
 30
0.0
  0
SPLINE
  5
257
330
1F
100
AcDbEntity
  8
0
 62
     7
100
AcDbSpline
210
0.0
220
0.0
230
1.0
 70
     8
 71
     3
 72
     8
 73
     4
 74
     0
 42
0.0000001
 43
0.0000001
 40
0.0
 40
0.0
 40
0.0
 40
0.0
 40
1.0
 40
1.0
 40
1.0
 40
1.0
 10
14.044877
 20
52.488273
 30
0.0
 10
14.34683
 20
52.649874
 30
0.0
 10
14.840052
 20
53.131601
 30
0.0
 10
15.140927
 20
53.558779
 30
0.0
  0
LWPOLYLINE
  5
258
330
1F
100
AcDbEntity
  8
0
 62
     7
100
AcDbPolyline
 90
        2
 70
     0
 43
0.0
 10
32.256022
 20
51.717149
 10
32.256022
 20
51.717149
  0
SPLINE
  5
259
330
1F
100
AcDbEntity
  8
0
 62
     7
100
AcDbSpline
210
0.0
220
0.0
230
1.0
 70
     8
 71
     3
 72
     8
 73
     4
 74
     0
 42
0.0000001
 43
0.0000001
 40
0.0
 40
0.0
 40
0.0
 40
0.0
 40
1.0
 40
1.0
 40
1.0
 40
1.0
 10
23.664247
 20
53.037585
 30
0.0
 10
23.664247
 20
53.582694
 30
0.0
 10
22.376396
 20
54.513404
 30
0.0
 10
21.194802
 20
54.822217
 30
0.0
  0
SPLINE
  5
25A
330
1F
100
AcDbEntity
  8
0
 62
     7
100
AcDbSpline
210
0.0
220
0.0
230
1.0
 70
     8
 71
     3
 72
     8
 73
     4
 74
     0
 42
0.0000001
 43
0.0000001
 40
0.0
 40
0.0
 40
0.0
 40
0.0
 40
1.0
 40
1.0
 40
1.0
 40
1.0
 10
21.194802
 20
54.822217
 30
0.0
 10
20.410256
 20
55.02726
 30
0.0
 10
20.403683
 20
54.905817
 30
0.0
 10
21.147951
 20
53.956644
 30
0.0
  0
SPLINE
  5
25B
330
1F
100
AcDbEntity
  8
0
 62
     7
100
AcDbSpline
210
0.0
220
0.0
230
1.0
 70
     8
 71
     3
 72
     8
 73
     4
 74
     0
 42
0.0000001
 43
0.0000001
 40
0.0
 40
0.0
 40
0.0
 40
0.0
 40
1.0
 40
1.0
 40
1.0
 40
1.0
 10
21.147951
 20
53.956644
 30
0.0
 10
22.204689
 20
52.60898
 30
0.0
 10
23.664247
 20
52.075887
 30
0.0
 10
23.664247
 20
53.037585
 30
0.0
  0
LWPOLYLINE
  5
25C
330
1F
100
AcDbEntity
  8
0
 62
     7
100
AcDbPolyline
 90
        2
 70
     0
 43
0.0
 10
15.140927
 20
53.558779
 10
15.140927
 20
53.558779
  0
SPLINE
  5
25D
330
1F
100
AcDbEntity
  8
0
 62
     7
100
AcDbSpline
210
0.0
220
0.0
230
1.0
 70
     8
 71
     3
 72
     8
 73
     4
 74
     0
 42
0.0000001
 43
0.0000001
 40
0.0
 40
0.0
 40
0.0
 40
0.0
 40
1.0
 40
1.0
 40
1.0
 40
1.0
 10
8.477169
 20
53.945765
 30
0.0
 10
10.534628
 20
54.515916
 30
0.0
 10
13.288327
 20
55.846639
 30
0.0
 10
14.068691
 20
56.647862
 30
0.0
  0
SPLINE
  5
25E
330
1F
100
AcDbEntity
  8
0
 62
     7
100
AcDbSpline
210
0.0
220
0.0
230
1.0
 70
     8
 71
     3
 72
     8
 73
     4
 74
     0
 42
0.0000001
 43
0.0000001
 40
0.0
 40
0.0
 40
0.0
 40
0.0
 40
1.0
 40
1.0
 40
1.0
 40
1.0
 10
14.068691
 20
56.647862
 30
0.0
 10
14.448043
 20
57.037354
 30
0.0
 10
14.427983
 20
57.049763
 30
0.0
 10
13.875578
 20
56.767321
 30
0.0
  0
SPLINE
  5
25F
330
1F
100
AcDbEntity
  8
0
 62
     7
100
AcDbSpline
210
0.0
220
0.0
230
1.0
 70
     8
 71
     3
 72
     8
 73
     4
 74
     0
 42
0.0000001
 43
0.0000001
 40
0.0
 40
0.0
 40
0.0
 40
0.0
 40
1.0
 40
1.0
 40
1.0
 40
1.0
 10
13.875578
 20
56.767321
 30
0.0
 10
12.349628
 20
55.987098
 30
0.0
 10
10.682024
 20
56.651096
 30
0.0
 10
10.682024
 20
58.038912
 30
0.0
  0
SPLINE
  5
260
330
1F
100
AcDbEntity
  8
0
 62
     7
100
AcDbSpline
210
0.0
220
0.0
230
1.0
 70
     8
 71
     3
 72
     8
 73
     4
 74
     0
 42
0.0000001
 43
0.0000001
 40
0.0
 40
0.0
 40
0.0
 40
0.0
 40
1.0
 40
1.0
 40
1.0
 40
1.0
 10
10.682024
 20
58.038912
 30
0.0
 10
10.682024
 20
58.933737
 30
0.0
 10
12.299076
 20
59.686647
 30
0.0
 10
13.668974
 20
59.429653
 30
0.0
  0
SPLINE
  5
261
330
1F
100
AcDbEntity
  8
0
 62
     7
100
AcDbSpline
210
0.0
220
0.0
230
1.0
 70
     8
 71
     3
 72
     8
 73
     4
 74
     0
 42
0.0000001
 43
0.0000001
 40
0.0
 40
0.0
 40
0.0
 40
0.0
 40
1.0
 40
1.0
 40
1.0
 40
1.0
 10
13.668974
 20
59.429653
 30
0.0
 10
14.175055
 20
59.33471
 30
0.0
 10
14.662015
 20
59.37498
 30
0.0
 10
14.75111
 20
59.51914
 30
0.0
  0
SPLINE
  5
262
330
1F
100
AcDbEntity
  8
0
 62
     7
100
AcDbSpline
210
0.0
220
0.0
230
1.0
 70
     8
 71
     3
 72
     8
 73
     4
 74
     0
 42
0.0000001
 43
0.0000001
 40
0.0
 40
0.0
 40
0.0
 40
0.0
 40
1.0
 40
1.0
 40
1.0
 40
1.0
 10
14.75111
 20
59.51914
 30
0.0
 10
14.840205
 20
59.663299
 30
0.0
 10
14.119861
 20
59.918842
 30
0.0
 10
13.15034
 20
60.087016
 30
0.0
  0
SPLINE
  5
263
330
1F
100
AcDbEntity
  8
0
 62
     7
100
AcDbSpline
210
0.0
220
0.0
230
1.0
 70
     8
 71
     3
 72
     8
 73
     4
 74
     0
 42
0.0000001
 43
0.0000001
 40
0.0
 40
0.0
 40
0.0
 40
0.0
 40
1.0
 40
1.0
 40
1.0
 40
1.0
 10
13.15034
 20
60.087016
 30
0.0
 10
7.588855
 20
61.051716
 30
0.0
 10
1.086469
 20
57.954421
 30
0.0
 10
1.086469
 20
54.340608
 30
0.0
  0
SPLINE
  5
264
330
1F
100
AcDbEntity
  8
0
 62
     7
100
AcDbSpline
210
0.0
220
0.0
230
1.0
 70
     8
 71
     3
 72
     8
 73
     4
 74
     0
 42
0.0000001
 43
0.0000001
 40
0.0
 40
0.0
 40
0.0
 40
0.0
 40
1.0
 40
1.0
 40
1.0
 40
1.0
 10
1.086469
 20
54.340608
 30
0.0
 10
1.086469
 20
53.877199
 30
0.0
 10
1.320651
 20
53.586781
 30
0.0
 10
1.86258
 20
53.378134
 30
0.0
  0
SPLINE
  5
265
330
1F
100
AcDbEntity
  8
0
 62
     7
100
AcDbSpline
210
0.0
220
0.0
230
1.0
 70
     8
 71
     3
 72
     8
 73
     4
 74
     0
 42
0.0000001
 43
0.0000001
 40
0.0
 40
0.0
 40
0.0
 40
0.0
 40
1.0
 40
1.0
 40
1.0
 40
1.0
 10
1.86258
 20
53.378134
 30
0.0
 10
2.891765
 20
52.981891
 30
0.0
 10
5.944154
 20
53.24383
 30
0.0
 10
8.477169
 20
53.945765
 30
0.0
  0
LWPOLYLINE
  5
266
330
1F
100
AcDbEntity
  8
0
 62
     7
100
AcDbPolyline
 90
        2
 70
     0
 43
0.0
 10
23.664247
 20
53.037585
 10
23.664247
 20
53.037585
  0
SPLINE
  5
267
330
1F
100
AcDbEntity
  8
0
 62
     7
100
AcDbSpline
210
0.0
220
0.0
230
1.0
 70
     8
 71
     3
 72
     8
 73
     4
 74
     0
 42
0.0000001
 43
0.0000001
 40
0.0
 40
0.0
 40
0.0
 40
0.0
 40
1.0
 40
1.0
 40
1.0
 40
1.0
 10
34.6537
 20
53.788637
 30
0.0
 10
35.623856
 20
54.015584
 30
0.0
 10
36.930773
 20
55.001279
 30
0.0
 10
37.202392
 20
55.710901
 30
0.0
  0
SPLINE
  5
268
330
1F
100
AcDbEntity
  8
0
 62
     7
100
AcDbSpline
210
0.0
220
0.0
230
1.0
 70
     8
 71
     3
 72
     8
 73
     4
 74
     0
 42
0.0000001
 43
0.0000001
 40
0.0
 40
0.0
 40
0.0
 40
0.0
 40
1.0
 40
1.0
 40
1.0
 40
1.0
 10
37.202392
 20
55.710901
 30
0.0
 10
37.54516
 20
56.6064
 30
0.0
 10
36.550247
 20
58.174895
 30
0.0
 10
35.000187
 20
59.182711
 30
0.0
  0
SPLINE
  5
269
330
1F
100
AcDbEntity
  8
0
 62
     7
100
AcDbSpline
210
0.0
220
0.0
230
1.0
 70
     8
 71
     3
 72
     8
 73
     4
 74
     0
 42
0.0000001
 43
0.0000001
 40
0.0
 40
0.0
 40
0.0
 40
0.0
 40
1.0
 40
1.0
 40
1.0
 40
1.0
 10
35.000187
 20
59.182711
 30
0.0
 10
32.244784
 20
60.974217
 30
0.0
 10
27.74439
 20
61.027009
 30
0.0
 10
24.077036
 20
59.310845
 30
0.0
  0
SPLINE
  5
26A
330
1F
100
AcDbEntity
  8
0
 62
     7
100
AcDbSpline
210
0.0
220
0.0
230
1.0
 70
     8
 71
     3
 72
     8
 73
     4
 74
     0
 42
0.0000001
 43
0.0000001
 40
0.0
 40
0.0
 40
0.0
 40
0.0
 40
1.0
 40
1.0
 40
1.0
 40
1.0
 10
24.077036
 20
59.310845
 30
0.0
 10
22.185035
 20
58.425472
 30
0.0
 10
21.638707
 20
57.960632
 30
0.0
 10
23.081085
 20
58.463448
 30
0.0
  0
SPLINE
  5
26B
330
1F
100
AcDbEntity
  8
0
 62
     7
100
AcDbSpline
210
0.0
220
0.0
230
1.0
 70
     8
 71
     3
 72
     8
 73
     4
 74
     0
 42
0.0000001
 43
0.0000001
 40
0.0
 40
0.0
 40
0.0
 40
0.0
 40
1.0
 40
1.0
 40
1.0
 40
1.0
 10
23.081085
 20
58.463448
 30
0.0
 10
24.177826
 20
58.845777
 30
0.0
 10
27.044685
 20
58.609447
 30
0.0
 10
27.360613
 20
58.110664
 30
0.0
  0
SPLINE
  5
26C
330
1F
100
AcDbEntity
  8
0
 62
     7
100
AcDbSpline
210
0.0
220
0.0
230
1.0
 70
     8
 71
     3
 72
     8
 73
     4
 74
     0
 42
0.0000001
 43
0.0000001
 40
0.0
 40
0.0
 40
0.0
 40
0.0
 40
1.0
 40
1.0
 40
1.0
 40
1.0
 10
27.360613
 20
58.110664
 30
0.0
 10
27.686543
 20
57.5961
 30
0.0
 10
27.677602
 20
57.489228
 30
0.0
 10
27.26258
 20
56.93881
 30
0.0
  0
SPLINE
  5
26D
330
1F
100
AcDbEntity
  8
0
 62
     7
100
AcDbSpline
210
0.0
220
0.0
230
1.0
 70
     8
 71
     3
 72
     8
 73
     4
 74
     0
 42
0.0000001
 43
0.0000001
 40
0.0
 40
0.0
 40
0.0
 40
0.0
 40
1.0
 40
1.0
 40
1.0
 40
1.0
 10
27.26258
 20
56.93881
 30
0.0
 10
26.630114
 20
56.100009
 30
0.0
 10
24.820726
 20
56.045947
 30
0.0
 10
23.306812
 20
56.820618
 30
0.0
  0
SPLINE
  5
26E
330
1F
100
AcDbEntity
  8
0
 62
     7
100
AcDbSpline
210
0.0
220
0.0
230
1.0
 70
     8
 71
     3
 72
     8
 73
     4
 74
     0
 42
0.0000001
 43
0.0000001
 40
0.0
 40
0.0
 40
0.0
 40
0.0
 40
1.0
 40
1.0
 40
1.0
 40
1.0
 10
23.306812
 20
56.820618
 30
0.0
 10
22.566947
 20
57.199208
 30
0.0
 10
22.105844
 20
57.33516
 30
0.0
 10
22.28214
 20
57.122737
 30
0.0
  0
SPLINE
  5
26F
330
1F
100
AcDbEntity
  8
0
 62
     7
100
AcDbSpline
210
0.0
220
0.0
230
1.0
 70
     8
 71
     3
 72
     8
 73
     4
 74
     0
 42
0.0000001
 43
0.0000001
 40
0.0
 40
0.0
 40
0.0
 40
0.0
 40
1.0
 40
1.0
 40
1.0
 40
1.0
 10
22.28214
 20
57.122737
 30
0.0
 10
22.556327
 20
56.79236
 30
0.0
 10
23.400231
 20
56.356476
 30
0.0
 10
27.474247
 20
54.440955
 30
0.0
  0
SPLINE
  5
270
330
1F
100
AcDbEntity
  8
0
 62
     7
100
AcDbSpline
210
0.0
220
0.0
230
1.0
 70
     8
 71
     3
 72
     8
 73
     4
 74
     0
 42
0.0000001
 43
0.0000001
 40
0.0
 40
0.0
 40
0.0
 40
0.0
 40
1.0
 40
1.0
 40
1.0
 40
1.0
 10
27.474247
 20
54.440955
 30
0.0
 10
29.468273
 20
53.503401
 30
0.0
 10
32.324842
 20
53.243858
 30
0.0
 10
34.6537
 20
53.788637
 30
0.0
  0
LWPOLYLINE
  5
271
330
1F
100
AcDbEntity
  8
0
 62
     7
100
AcDbPolyline
 90
        2
 70
     0
 43
0.0
 10
8.477169
 20
53.945765
 10
8.477169
 20
53.945765
  0
SPLINE
  5
272
330
1F
100
AcDbEntity
  8
0
 62
     7
100
AcDbSpline
210
0.0
220
0.0
230
1.0
 70
     8
 71
     3
 72
     8
 73
     4
 74
     0
 42
0.0000001
 43
0.0000001
 40
0.0
 40
0.0
 40
0.0
 40
0.0
 40
1.0
 40
1.0
 40
1.0
 40
1.0
 10
18.692614
 20
55.95156
 30
0.0
 10
20.220388
 20
56.406745
 30
0.0
 10
21.339351
 20
57.432623
 30
0.0
 10
21.729907
 20
58.736179
 30
0.0
  0
SPLINE
  5
273
330
1F
100
AcDbEntity
  8
0
 62
     7
100
AcDbSpline
210
0.0
220
0.0
230
1.0
 70
     8
 71
     3
 72
     8
 73
     4
 74
     0
 42
0.0000001
 43
0.0000001
 40
0.0
 40
0.0
 40
0.0
 40
0.0
 40
1.0
 40
1.0
 40
1.0
 40
1.0
 10
21.729907
 20
58.736179
 30
0.0
 10
22.006572
 20
59.659604
 30
0.0
 10
21.96907
 20
59.916263
 30
0.0
 10
21.43006
 20
60.788405
 30
0.0
  0
SPLINE
  5
274
330
1F
100
AcDbEntity
  8
0
 62
     7
100
AcDbSpline
210
0.0
220
0.0
230
1.0
 70
     8
 71
     3
 72
     8
 73
     4
 74
     0
 42
0.0000001
 43
0.0000001
 40
0.0
 40
0.0
 40
0.0
 40
0.0
 40
1.0
 40
1.0
 40
1.0
 40
1.0
 10
21.43006
 20
60.788405
 30
0.0
 10
20.698701
 20
61.971765
 30
0.0
 10
20.094133
 20
62.210556
 30
0.0
 10
18.507951
 20
61.942573
 30
0.0
  0
SPLINE
  5
275
330
1F
100
AcDbEntity
  8
0
 62
     7
100
AcDbSpline
210
0.0
220
0.0
230
1.0
 70
     8
 71
     3
 72
     8
 73
     4
 74
     0
 42
0.0000001
 43
0.0000001
 40
0.0
 40
0.0
 40
0.0
 40
0.0
 40
1.0
 40
1.0
 40
1.0
 40
1.0
 10
18.507951
 20
61.942573
 30
0.0
 10
16.517212
 20
61.60624
 30
0.0
 10
15.479802
 20
60.538706
 30
0.0
 10
15.479802
 20
58.826496
 30
0.0
  0
SPLINE
  5
276
330
1F
100
AcDbEntity
  8
0
 62
     7
100
AcDbSpline
210
0.0
220
0.0
230
1.0
 70
     8
 71
     3
 72
     8
 73
     4
 74
     0
 42
0.0000001
 43
0.0000001
 40
0.0
 40
0.0
 40
0.0
 40
0.0
 40
1.0
 40
1.0
 40
1.0
 40
1.0
 10
15.479802
 20
58.826496
 30
0.0
 10
15.479802
 20
57.985829
 30
0.0
 10
16.445818
 20
55.999166
 30
0.0
 10
16.953922
 20
55.794887
 30
0.0
  0
SPLINE
  5
277
330
1F
100
AcDbEntity
  8
0
 62
     7
100
AcDbSpline
210
0.0
220
0.0
230
1.0
 70
     8
 71
     3
 72
     8
 73
     4
 74
     0
 42
0.0000001
 43
0.0000001
 40
0.0
 40
0.0
 40
0.0
 40
0.0
 40
1.0
 40
1.0
 40
1.0
 40
1.0
 10
16.953922
 20
55.794887
 30
0.0
 10
17.483834
 20
55.581844
 30
0.0
 10
17.437778
 20
55.577692
 30
0.0
 10
18.692614
 20
55.95156
 30
0.0
  0
LWPOLYLINE
  5
278
330
1F
100
AcDbEntity
  8
0
 62
     7
100
AcDbPolyline
 90
        2
 70
     0
 43
0.0
 10
34.6537
 20
53.788637
 10
34.6537
 20
53.788637
  0
SPLINE
  5
279
330
1F
100
AcDbEntity
  8
0
 62
     7
100
AcDbSpline
210
0.0
220
0.0
230
1.0
 70
     8
 71
     3
 72
     8
 73
     4
 74
     0
 42
0.0000001
 43
0.0000001
 40
0.0
 40
0.0
 40
0.0
 40
0.0
 40
1.0
 40
1.0
 40
1.0
 40
1.0
 10
21.829802
 20
56.734352
 30
0.0
 10
21.733869
 20
56.889574
 30
0.0
 10
21.599373
 20
57.016574
 30
0.0
 10
21.530923
 20
57.016574
 30
0.0
  0
SPLINE
  5
27A
330
1F
100
AcDbEntity
  8
0
 62
     7
100
AcDbSpline
210
0.0
220
0.0
230
1.0
 70
     8
 71
     3
 72
     8
 73
     4
 74
     0
 42
0.0000001
 43
0.0000001
 40
0.0
 40
0.0
 40
0.0
 40
0.0
 40
1.0
 40
1.0
 40
1.0
 40
1.0
 10
21.530923
 20
57.016574
 30
0.0
 10
21.462473
 20
57.016574
 30
0.0
 10
21.406469
 20
56.889574
 30
0.0
 10
21.406469
 20
56.734352
 30
0.0
  0
SPLINE
  5
27B
330
1F
100
AcDbEntity
  8
0
 62
     7
100
AcDbSpline
210
0.0
220
0.0
230
1.0
 70
     8
 71
     3
 72
     8
 73
     4
 74
     0
 42
0.0000001
 43
0.0000001
 40
0.0
 40
0.0
 40
0.0
 40
0.0
 40
1.0
 40
1.0
 40
1.0
 40
1.0
 10
21.406469
 20
56.734352
 30
0.0
 10
21.406469
 20
56.579129
 30
0.0
 10
21.540965
 20
56.452129
 30
0.0
 10
21.705348
 20
56.452129
 30
0.0
  0
SPLINE
  5
27C
330
1F
100
AcDbEntity
  8
0
 62
     7
100
AcDbSpline
210
0.0
220
0.0
230
1.0
 70
     8
 71
     3
 72
     8
 73
     4
 74
     0
 42
0.0000001
 43
0.0000001
 40
0.0
 40
0.0
 40
0.0
 40
0.0
 40
1.0
 40
1.0
 40
1.0
 40
1.0
 10
21.705348
 20
56.452129
 30
0.0
 10
21.869731
 20
56.452129
 30
0.0
 10
21.925735
 20
56.579129
 30
0.0
 10
21.829802
 20
56.734352
 30
0.0
  0
LWPOLYLINE
  5
27D
330
1F
100
AcDbEntity
  8
0
 62
     7
100
AcDbPolyline
 90
        2
 70
     0
 43
0.0
 10
18.692614
 20
55.95156
 10
18.692614
 20
55.95156
  0
SPLINE
  5
27E
330
1F
100
AcDbEntity
  8
0
 62
     7
100
AcDbSpline
210
0.0
220
0.0
230
1.0
 70
     8
 71
     3
 72
     8
 73
     4
 74
     0
 42
0.0000001
 43
0.0000001
 40
0.0
 40
0.0
 40
0.0
 40
0.0
 40
1.0
 40
1.0
 40
1.0
 40
1.0
 10
26.733001
 20
57.178482
 30
0.0
 10
26.790981
 20
57.231266
 30
0.0
 10
26.773949
 20
57.442469
 30
0.0
 10
26.695147
 20
57.647823
 30
0.0
  0
SPLINE
  5
27F
330
1F
100
AcDbEntity
  8
0
 62
     7
100
AcDbSpline
210
0.0
220
0.0
230
1.0
 70
     8
 71
     3
 72
     8
 73
     4
 74
     0
 42
0.0000001
 43
0.0000001
 40
0.0
 40
0.0
 40
0.0
 40
0.0
 40
1.0
 40
1.0
 40
1.0
 40
1.0
 10
26.695147
 20
57.647823
 30
0.0
 10
26.55764
 20
58.006158
 30
0.0
 10
25.959673
 20
58.05422
 30
0.0
 10
23.664247
 20
57.891431
 30
0.0
  0
LWPOLYLINE
  5
280
330
1F
100
AcDbEntity
  8
0
 62
     7
100
AcDbPolyline
 90
        2
 70
     0
 43
0.0
 10
21.829802
 20
56.734352
 10
21.829802
 20
56.734352
  0
SPLINE
  5
281
330
1F
100
AcDbEntity
  8
0
 62
     7
100
AcDbSpline
210
0.0
220
0.0
230
1.0
 70
     8
 71
     3
 72
     8
 73
     4
 74
     0
 42
0.0000001
 43
0.0000001
 40
0.0
 40
0.0
 40
0.0
 40
0.0
 40
1.0
 40
1.0
 40
1.0
 40
1.0
 10
23.805358
 20
57.295666
 30
0.0
 10
24.777873
 20
56.842776
 30
0.0
 10
26.297431
 20
56.781954
 30
0.0
 10
26.733001
 20
57.178482
 30
0.0
  0
LWPOLYLINE
  5
282
330
1F
100
AcDbEntity
  8
0
 62
     7
100
AcDbPolyline
 90
        3
 70
     0
 43
0.0
 10
23.664247
 20
57.891431
 10
22.676469
 20
57.821378
 10
23.805358
 20
57.295666
  0
SPLINE
  5
283
330
1F
100
AcDbEntity
  8
0
 62
     7
100
AcDbSpline
210
0.0
220
0.0
230
1.0
 70
     8
 71
     3
 72
     8
 73
     4
 74
     0
 42
0.0000001
 43
0.0000001
 40
0.0
 40
0.0
 40
0.0
 40
0.0
 40
1.0
 40
1.0
 40
1.0
 40
1.0
 10
13.780757
 20
57.470551
 30
0.0
 10
15.083444
 20
57.991781
 30
0.0
 10
15.205948
 20
58.331173
 30
0.0
 10
14.225897
 20
58.703788
 30
0.0
  0
SPLINE
  5
284
330
1F
100
AcDbEntity
  8
0
 62
     7
100
AcDbSpline
210
0.0
220
0.0
230
1.0
 70
     8
 71
     3
 72
     8
 73
     4
 74
     0
 42
0.0000001
 43
0.0000001
 40
0.0
 40
0.0
 40
0.0
 40
0.0
 40
1.0
 40
1.0
 40
1.0
 40
1.0
 10
14.225897
 20
58.703788
 30
0.0
 10
13.17513
 20
59.103288
 30
0.0
 10
11.246469
 20
58.647293
 30
0.0
 10
11.246469
 20
57.999356
 30
0.0
  0
SPLINE
  5
285
330
1F
100
AcDbEntity
  8
0
 62
     7
100
AcDbSpline
210
0.0
220
0.0
230
1.0
 70
     8
 71
     3
 72
     8
 73
     4
 74
     0
 42
0.0000001
 43
0.0000001
 40
0.0
 40
0.0
 40
0.0
 40
0.0
 40
1.0
 40
1.0
 40
1.0
 40
1.0
 10
11.246469
 20
57.999356
 30
0.0
 10
11.246469
 20
57.636142
 30
0.0
 10
11.97119
 20
57.0447
 30
0.0
 10
12.440201
 20
57.025156
 30
0.0
  0
SPLINE
  5
286
330
1F
100
AcDbEntity
  8
0
 62
     7
100
AcDbSpline
210
0.0
220
0.0
230
1.0
 70
     8
 71
     3
 72
     8
 73
     4
 74
     0
 42
0.0000001
 43
0.0000001
 40
0.0
 40
0.0
 40
0.0
 40
0.0
 40
1.0
 40
1.0
 40
1.0
 40
1.0
 10
12.440201
 20
57.025156
 30
0.0
 10
12.553477
 20
57.020443
 30
0.0
 10
13.156727
 20
57.220863
 30
0.0
 10
13.780757
 20
57.470551
 30
0.0
  0
LWPOLYLINE
  5
287
330
1F
100
AcDbEntity
  8
0
 62
     7
100
AcDbPolyline
 90
        2
 70
     0
 43
0.0
 10
26.733001
 20
57.178482
 10
26.733001
 20
57.178482
  0
SPLINE
  5
288
330
1F
100
AcDbEntity
  8
0
 62
     7
100
AcDbSpline
210
0.0
220
0.0
230
1.0
 70
     8
 71
     3
 72
     8
 73
     4
 74
     0
 42
0.0000001
 43
0.0000001
 40
0.0
 40
0.0
 40
0.0
 40
0.0
 40
1.0
 40
1.0
 40
1.0
 40
1.0
 10
4.190913
 20
59.539917
 30
0.0
 10
4.190913
 20
59.685978
 30
0.0
 10
4.063913
 20
59.883974
 30
0.0
 10
3.908691
 20
59.979907
 30
0.0
  0
SPLINE
  5
289
330
1F
100
AcDbEntity
  8
0
 62
     7
100
AcDbSpline
210
0.0
220
0.0
230
1.0
 70
     8
 71
     3
 72
     8
 73
     4
 74
     0
 42
0.0000001
 43
0.0000001
 40
0.0
 40
0.0
 40
0.0
 40
0.0
 40
1.0
 40
1.0
 40
1.0
 40
1.0
 10
3.908691
 20
59.979907
 30
0.0
 10
3.528267
 20
60.215023
 30
0.0
 10
3.550303
 20
61.985431
 30
0.0
 10
3.943176
 20
62.750127
 30
0.0
  0
SPLINE
  5
28A
330
1F
100
AcDbEntity
  8
0
 62
     7
100
AcDbSpline
210
0.0
220
0.0
230
1.0
 70
     8
 71
     3
 72
     8
 73
     4
 74
     0
 42
0.0000001
 43
0.0000001
 40
0.0
 40
0.0
 40
0.0
 40
0.0
 40
1.0
 40
1.0
 40
1.0
 40
1.0
 10
3.943176
 20
62.750127
 30
0.0
 10
4.117363
 20
63.089173
 30
0.0
 10
4.593613
 20
63.732284
 30
0.0
 10
5.001509
 20
64.179264
 30
0.0
  0
SPLINE
  5
28B
330
1F
100
AcDbEntity
  8
0
 62
     7
100
AcDbSpline
210
0.0
220
0.0
230
1.0
 70
     8
 71
     3
 72
     8
 73
     4
 74
     0
 42
0.0000001
 43
0.0000001
 40
0.0
 40
0.0
 40
0.0
 40
0.0
 40
1.0
 40
1.0
 40
1.0
 40
1.0
 10
5.001509
 20
64.179264
 30
0.0
 10
5.659383
 20
64.900176
 30
0.0
 10
5.673898
 20
64.956153
 30
0.0
 10
5.130022
 20
64.674936
 30
0.0
  0
SPLINE
  5
28C
330
1F
100
AcDbEntity
  8
0
 62
     7
100
AcDbSpline
210
0.0
220
0.0
230
1.0
 70
     8
 71
     3
 72
     8
 73
     4
 74
     0
 42
0.0000001
 43
0.0000001
 40
0.0
 40
0.0
 40
0.0
 40
0.0
 40
1.0
 40
1.0
 40
1.0
 40
1.0
 10
5.130022
 20
64.674936
 30
0.0
 10
3.580599
 20
63.87379
 30
0.0
 10
2.710658
 20
61.650634
 30
0.0
 10
3.346194
 20
60.116315
 30
0.0
  0
SPLINE
  5
28D
330
1F
100
AcDbEntity
  8
0
 62
     7
100
AcDbSpline
210
0.0
220
0.0
230
1.0
 70
     8
 71
     3
 72
     8
 73
     4
 74
     0
 42
0.0000001
 43
0.0000001
 40
0.0
 40
0.0
 40
0.0
 40
0.0
 40
1.0
 40
1.0
 40
1.0
 40
1.0
 10
3.346194
 20
60.116315
 30
0.0
 10
3.676809
 20
59.318141
 30
0.0
 10
4.190913
 20
58.967341
 30
0.0
 10
4.190913
 20
59.539917
 30
0.0
  0
LWPOLYLINE
  5
28E
330
1F
100
AcDbEntity
  8
0
 62
     7
100
AcDbPolyline
 90
        2
 70
     0
 43
0.0
 10
13.780757
 20
57.470551
 10
13.780757
 20
57.470551
  0
SPLINE
  5
28F
330
1F
100
AcDbEntity
  8
0
 62
     7
100
AcDbSpline
210
0.0
220
0.0
230
1.0
 70
     8
 71
     3
 72
     8
 73
     4
 74
     0
 42
0.0000001
 43
0.0000001
 40
0.0
 40
0.0
 40
0.0
 40
0.0
 40
1.0
 40
1.0
 40
1.0
 40
1.0
 10
23.770893
 20
59.983695
 30
0.0
 10
24.333125
 20
60.218611
 30
0.0
 10
24.793136
 20
60.452619
 30
0.0
 10
24.793136
 20
60.503712
 30
0.0
  0
SPLINE
  5
290
330
1F
100
AcDbEntity
  8
0
 62
     7
100
AcDbSpline
210
0.0
220
0.0
230
1.0
 70
     8
 71
     3
 72
     8
 73
     4
 74
     0
 42
0.0000001
 43
0.0000001
 40
0.0
 40
0.0
 40
0.0
 40
0.0
 40
1.0
 40
1.0
 40
1.0
 40
1.0
 10
24.793136
 20
60.503712
 30
0.0
 10
24.793136
 20
60.774291
 30
0.0
 10
22.704765
 20
60.205907
 30
0.0
 10
22.605575
 20
59.908332
 30
0.0
  0
SPLINE
  5
291
330
1F
100
AcDbEntity
  8
0
 62
     7
100
AcDbSpline
210
0.0
220
0.0
230
1.0
 70
     8
 71
     3
 72
     8
 73
     4
 74
     0
 42
0.0000001
 43
0.0000001
 40
0.0
 40
0.0
 40
0.0
 40
0.0
 40
1.0
 40
1.0
 40
1.0
 40
1.0
 10
22.605575
 20
59.908332
 30
0.0
 10
22.456601
 20
59.461417
 30
0.0
 10
22.53268
 20
59.466336
 30
0.0
 10
23.770893
 20
59.983695
 30
0.0
  0
LWPOLYLINE
  5
292
330
1F
100
AcDbEntity
  8
0
 62
     7
100
AcDbPolyline
 90
        2
 70
     0
 43
0.0
 10
4.190913
 20
59.539917
 10
4.190913
 20
59.539917
  0
SPLINE
  5
293
330
1F
100
AcDbEntity
  8
0
 62
     7
100
AcDbSpline
210
0.0
220
0.0
230
1.0
 70
     8
 71
     3
 72
     8
 73
     4
 74
     0
 42
0.0000001
 43
0.0000001
 40
0.0
 40
0.0
 40
0.0
 40
0.0
 40
1.0
 40
1.0
 40
1.0
 40
1.0
 10
7.471721
 20
60.542302
 30
0.0
 10
8.480542
 20
60.776262
 30
0.0
 10
9.755455
 20
60.967685
 30
0.0
 10
10.304863
 20
60.967685
 30
0.0
  0
LWPOLYLINE
  5
294
330
1F
100
AcDbEntity
  8
0
 62
     7
100
AcDbPolyline
 90
        2
 70
     0
 43
0.0
 10
23.770893
 20
59.983695
 10
23.770893
 20
59.983695
  0
SPLINE
  5
295
330
1F
100
AcDbEntity
  8
0
 62
     7
100
AcDbSpline
210
0.0
220
0.0
230
1.0
 70
     8
 71
     3
 72
     8
 73
     4
 74
     0
 42
0.0000001
 43
0.0000001
 40
0.0
 40
0.0
 40
0.0
 40
0.0
 40
1.0
 40
1.0
 40
1.0
 40
1.0
 10
9.652351
 20
61.835622
 30
0.0
 10
8.744061
 20
62.312988
 30
0.0
 10
7.597276
 20
63.010999
 30
0.0
 10
7.103946
 20
63.386759
 30
0.0
  0
SPLINE
  5
296
330
1F
100
AcDbEntity
  8
0
 62
     7
100
AcDbSpline
210
0.0
220
0.0
230
1.0
 70
     8
 71
     3
 72
     8
 73
     4
 74
     0
 42
0.0000001
 43
0.0000001
 40
0.0
 40
0.0
 40
0.0
 40
0.0
 40
1.0
 40
1.0
 40
1.0
 40
1.0
 10
7.103946
 20
63.386759
 30
0.0
 10
6.111687
 20
64.142538
 30
0.0
 10
5.695561
 20
64.087373
 30
0.0
 10
4.97846
 20
63.104986
 30
0.0
  0
SPLINE
  5
297
330
1F
100
AcDbEntity
  8
0
 62
     7
100
AcDbSpline
210
0.0
220
0.0
230
1.0
 70
     8
 71
     3
 72
     8
 73
     4
 74
     0
 42
0.0000001
 43
0.0000001
 40
0.0
 40
0.0
 40
0.0
 40
0.0
 40
1.0
 40
1.0
 40
1.0
 40
1.0
 10
4.97846
 20
63.104986
 30
0.0
 10
4.024219
 20
61.79773
 30
0.0
 10
4.194258
 20
59.563093
 30
0.0
 10
5.218075
 20
59.955969
 30
0.0
  0
SPLINE
  5
298
330
1F
100
AcDbEntity
  8
0
 62
     7
100
AcDbSpline
210
0.0
220
0.0
230
1.0
 70
     8
 71
     3
 72
     8
 73
     4
 74
     0
 42
0.0000001
 43
0.0000001
 40
0.0
 40
0.0
 40
0.0
 40
0.0
 40
1.0
 40
1.0
 40
1.0
 40
1.0
 10
5.218075
 20
59.955969
 30
0.0
 10
5.448761
 20
60.044491
 30
0.0
 10
6.462901
 20
60.308341
 30
0.0
 10
7.471721
 20
60.542302
 30
0.0
  0
LWPOLYLINE
  5
299
330
1F
100
AcDbEntity
  8
0
 62
     7
100
AcDbPolyline
 90
        3
 70
     0
 43
0.0
 10
10.304863
 20
60.967685
 10
11.303785
 20
60.967685
 10
9.652351
 20
61.835622
  0
SPLINE
  5
29A
330
1F
100
AcDbEntity
  8
0
 62
     7
100
AcDbSpline
210
0.0
220
0.0
230
1.0
 70
     8
 71
     3
 72
     8
 73
     4
 74
     0
 42
0.0000001
 43
0.0000001
 40
0.0
 40
0.0
 40
0.0
 40
0.0
 40
1.0
 40
1.0
 40
1.0
 40
1.0
 10
35.747348
 20
61.542407
 30
0.0
 10
35.695774
 20
62.249669
 30
0.0
 10
35.498735
 20
62.810916
 30
0.0
 10
35.276296
 20
62.884141
 30
0.0
  0
SPLINE
  5
29B
330
1F
100
AcDbEntity
  8
0
 62
     7
100
AcDbSpline
210
0.0
220
0.0
230
1.0
 70
     8
 71
     3
 72
     8
 73
     4
 74
     0
 42
0.0000001
 43
0.0000001
 40
0.0
 40
0.0
 40
0.0
 40
0.0
 40
1.0
 40
1.0
 40
1.0
 40
1.0
 10
35.276296
 20
62.884141
 30
0.0
 10
34.985802
 20
62.979769
 30
0.0
 10
34.950696
 20
62.849391
 30
0.0
 10
35.130229
 20
62.341631
 30
0.0
  0
SPLINE
  5
29C
330
1F
100
AcDbEntity
  8
0
 62
     7
100
AcDbSpline
210
0.0
220
0.0
230
1.0
 70
     8
 71
     3
 72
     8
 73
     4
 74
     0
 42
0.0000001
 43
0.0000001
 40
0.0
 40
0.0
 40
0.0
 40
0.0
 40
1.0
 40
1.0
 40
1.0
 40
1.0
 10
35.130229
 20
62.341631
 30
0.0
 10
35.260209
 20
61.974016
 30
0.0
 10
35.35912
 20
61.257174
 30
0.0
 10
35.350032
 20
60.748648
 30
0.0
  0
SPLINE
  5
29D
330
1F
100
AcDbEntity
  8
0
 62
     7
100
AcDbSpline
210
0.0
220
0.0
230
1.0
 70
     8
 71
     3
 72
     8
 73
     4
 74
     0
 42
0.0000001
 43
0.0000001
 40
0.0
 40
0.0
 40
0.0
 40
0.0
 40
1.0
 40
1.0
 40
1.0
 40
1.0
 10
35.350032
 20
60.748648
 30
0.0
 10
35.34038
 20
60.208242
 30
0.0
 10
35.437905
 20
59.928455
 30
0.0
 10
35.584754
 20
60.075304
 30
0.0
  0
SPLINE
  5
29E
330
1F
100
AcDbEntity
  8
0
 62
     7
100
AcDbSpline
210
0.0
220
0.0
230
1.0
 70
     8
 71
     3
 72
     8
 73
     4
 74
     0
 42
0.0000001
 43
0.0000001
 40
0.0
 40
0.0
 40
0.0
 40
0.0
 40
1.0
 40
1.0
 40
1.0
 40
1.0
 10
35.584754
 20
60.075304
 30
0.0
 10
35.722941
 20
60.213491
 30
0.0
 10
35.796107
 20
60.873687
 30
0.0
 10
35.747348
 20
61.542407
 30
0.0
  0
LWPOLYLINE
  5
29F
330
1F
100
AcDbEntity
  8
0
 62
     7
100
AcDbPolyline
 90
        2
 70
     0
 43
0.0
 10
7.471721
 20
60.542302
 10
7.471721
 20
60.542302
  0
SPLINE
  5
2A0
330
1F
100
AcDbEntity
  8
0
 62
     7
100
AcDbSpline
210
0.0
220
0.0
230
1.0
 70
     8
 71
     3
 72
     8
 73
     4
 74
     0
 42
0.0000001
 43
0.0000001
 40
0.0
 40
0.0
 40
0.0
 40
0.0
 40
1.0
 40
1.0
 40
1.0
 40
1.0
 10
34.666592
 20
60.897129
 30
0.0
 10
34.658859
 20
62.286929
 30
0.0
 10
34.349281
 20
62.460177
 30
0.0
 10
32.955382
 20
61.854788
 30
0.0
  0
LWPOLYLINE
  5
2A1
330
1F
100
AcDbEntity
  8
0
 62
     7
100
AcDbPolyline
 90
        2
 70
     0
 43
0.0
 10
35.747348
 20
61.542407
 10
35.747348
 20
61.542407
  0
SPLINE
  5
2A2
330
1F
100
AcDbEntity
  8
0
 62
     7
100
AcDbSpline
210
0.0
220
0.0
230
1.0
 70
     8
 71
     3
 72
     8
 73
     4
 74
     0
 42
0.0000001
 43
0.0000001
 40
0.0
 40
0.0
 40
0.0
 40
0.0
 40
1.0
 40
1.0
 40
1.0
 40
1.0
 10
32.502063
 20
60.999156
 30
0.0
 10
32.939028
 20
60.826625
 30
0.0
 10
33.471285
 20
60.685463
 30
0.0
 10
33.684851
 20
60.685463
 30
0.0
  0
SPLINE
  5
2A3
330
1F
100
AcDbEntity
  8
0
 62
     7
100
AcDbSpline
210
0.0
220
0.0
230
1.0
 70
     8
 71
     3
 72
     8
 73
     4
 74
     0
 42
0.0000001
 43
0.0000001
 40
0.0
 40
0.0
 40
0.0
 40
0.0
 40
1.0
 40
1.0
 40
1.0
 40
1.0
 10
33.684851
 20
60.685463
 30
0.0
 10
33.898419
 20
60.685463
 30
0.0
 10
34.151646
 20
60.558463
 30
0.0
 10
34.247579
 20
60.40324
 30
0.0
  0
SPLINE
  5
2A4
330
1F
100
AcDbEntity
  8
0
 62
     7
100
AcDbSpline
210
0.0
220
0.0
230
1.0
 70
     8
 71
     3
 72
     8
 73
     4
 74
     0
 42
0.0000001
 43
0.0000001
 40
0.0
 40
0.0
 40
0.0
 40
0.0
 40
1.0
 40
1.0
 40
1.0
 40
1.0
 10
34.247579
 20
60.40324
 30
0.0
 10
34.540289
 20
59.929623
 30
0.0
 10
34.671119
 20
60.083834
 30
0.0
 10
34.666592
 20
60.897129
 30
0.0
  0
LWPOLYLINE
  5
2A5
330
1F
100
AcDbEntity
  8
0
 62
     7
100
AcDbPolyline
 90
        3
 70
     0
 43
0.0
 10
32.955382
 20
61.854788
 10
31.707579
 20
61.312849
 10
32.502063
 20
60.999156
  0
SPLINE
  5
2A6
330
1F
100
AcDbEntity
  8
0
 62
     7
100
AcDbSpline
210
0.0
220
0.0
230
1.0
 70
     8
 71
     3
 72
     8
 73
     4
 74
     0
 42
0.0000001
 43
0.0000001
 40
0.0
 40
0.0
 40
0.0
 40
0.0
 40
1.0
 40
1.0
 40
1.0
 40
1.0
 10
13.228882
 20
61.666179
 30
0.0
 10
12.378005
 20
62.544061
 30
0.0
 10
12.31238
 20
62.721618
 30
0.0
 10
12.603026
 20
63.359512
 30
0.0
  0
SPLINE
  5
2A7
330
1F
100
AcDbEntity
  8
0
 62
     7
100
AcDbSpline
210
0.0
220
0.0
230
1.0
 70
     8
 71
     3
 72
     8
 73
     4
 74
     0
 42
0.0000001
 43
0.0000001
 40
0.0
 40
0.0
 40
0.0
 40
0.0
 40
1.0
 40
1.0
 40
1.0
 40
1.0
 10
12.603026
 20
63.359512
 30
0.0
 10
12.855356
 20
63.913316
 30
0.0
 10
13.136621
 20
64.072129
 30
0.0
 10
13.865099
 20
64.072129
 30
0.0
  0
SPLINE
  5
2A8
330
1F
100
AcDbEntity
  8
0
 62
     7
100
AcDbSpline
210
0.0
220
0.0
230
1.0
 70
     8
 71
     3
 72
     8
 73
     4
 74
     0
 42
0.0000001
 43
0.0000001
 40
0.0
 40
0.0
 40
0.0
 40
0.0
 40
1.0
 40
1.0
 40
1.0
 40
1.0
 10
13.865099
 20
64.072129
 30
0.0
 10
14.38066
 20
64.072129
 30
0.0
 10
14.980509
 20
63.913379
 30
0.0
 10
15.198094
 20
63.719352
 30
0.0
  0
SPLINE
  5
2A9
330
1F
100
AcDbEntity
  8
0
 62
     7
100
AcDbSpline
210
0.0
220
0.0
230
1.0
 70
     8
 71
     3
 72
     8
 73
     4
 74
     0
 42
0.0000001
 43
0.0000001
 40
0.0
 40
0.0
 40
0.0
 40
0.0
 40
1.0
 40
1.0
 40
1.0
 40
1.0
 10
15.198094
 20
63.719352
 30
0.0
 10
15.524944
 20
63.427892
 30
0.0
 10
15.541519
 20
63.440155
 30
0.0
 10
15.293454
 20
63.789907
 30
0.0
  0
SPLINE
  5
2AA
330
1F
100
AcDbEntity
  8
0
 62
     7
100
AcDbSpline
210
0.0
220
0.0
230
1.0
 70
     8
 71
     3
 72
     8
 73
     4
 74
     0
 42
0.0000001
 43
0.0000001
 40
0.0
 40
0.0
 40
0.0
 40
0.0
 40
1.0
 40
1.0
 40
1.0
 40
1.0
 10
15.293454
 20
63.789907
 30
0.0
 10
15.128314
 20
64.02274
 30
0.0
 10
14.916089
 20
64.537318
 30
0.0
 10
14.821838
 20
64.933413
 30
0.0
  0
SPLINE
  5
2AB
330
1F
100
AcDbEntity
  8
0
 62
     7
100
AcDbSpline
210
0.0
220
0.0
230
1.0
 70
     8
 71
     3
 72
     8
 73
     4
 74
     0
 42
0.0000001
 43
0.0000001
 40
0.0
 40
0.0
 40
0.0
 40
0.0
 40
1.0
 40
1.0
 40
1.0
 40
1.0
 10
14.821838
 20
64.933413
 30
0.0
 10
14.584751
 20
65.929798
 30
0.0
 10
11.089542
 20
69.542816
 30
0.0
 10
10.559498
 20
69.339419
 30
0.0
  0
SPLINE
  5
2AC
330
1F
100
AcDbEntity
  8
0
 62
     7
100
AcDbSpline
210
0.0
220
0.0
230
1.0
 70
     8
 71
     3
 72
     8
 73
     4
 74
     0
 42
0.0000001
 43
0.0000001
 40
0.0
 40
0.0
 40
0.0
 40
0.0
 40
1.0
 40
1.0
 40
1.0
 40
1.0
 10
10.559498
 20
69.339419
 30
0.0
 10
10.300288
 20
69.239951
 30
0.0
 10
10.197932
 20
69.31532
 30
0.0
 10
10.284797
 20
69.541689
 30
0.0
  0
SPLINE
  5
2AD
330
1F
100
AcDbEntity
  8
0
 62
     7
100
AcDbSpline
210
0.0
220
0.0
230
1.0
 70
     8
 71
     3
 72
     8
 73
     4
 74
     0
 42
0.0000001
 43
0.0000001
 40
0.0
 40
0.0
 40
0.0
 40
0.0
 40
1.0
 40
1.0
 40
1.0
 40
1.0
 10
10.284797
 20
69.541689
 30
0.0
 10
10.482759
 20
70.057566
 30
0.0
 10
8.300114
 20
70.970454
 30
0.0
 10
7.05511
 20
70.892502
 30
0.0
  0
SPLINE
  5
2AE
330
1F
100
AcDbEntity
  8
0
 62
     7
100
AcDbSpline
210
0.0
220
0.0
230
1.0
 70
     8
 71
     3
 72
     8
 73
     4
 74
     0
 42
0.0000001
 43
0.0000001
 40
0.0
 40
0.0
 40
0.0
 40
0.0
 40
1.0
 40
1.0
 40
1.0
 40
1.0
 10
7.05511
 20
70.892502
 30
0.0
 10
5.480525
 20
70.793914
 30
0.0
 10
5.127064
 20
70.613919
 30
0.0
 10
4.757898
 20
69.722675
 30
0.0
  0
SPLINE
  5
2AF
330
1F
100
AcDbEntity
  8
0
 62
     7
100
AcDbSpline
210
0.0
220
0.0
230
1.0
 70
     8
 71
     3
 72
     8
 73
     4
 74
     0
 42
0.0000001
 43
0.0000001
 40
0.0
 40
0.0
 40
0.0
 40
0.0
 40
1.0
 40
1.0
 40
1.0
 40
1.0
 10
4.757898
 20
69.722675
 30
0.0
 10
3.906653
 20
67.667584
 30
0.0
 10
6.291208
 20
64.198968
 30
0.0
 10
9.694261
 20
62.542157
 30
0.0
  0
SPLINE
  5
2B0
330
1F
100
AcDbEntity
  8
0
 62
     7
100
AcDbSpline
210
0.0
220
0.0
230
1.0
 70
     8
 71
     3
 72
     8
 73
     4
 74
     0
 42
0.0000001
 43
0.0000001
 40
0.0
 40
0.0
 40
0.0
 40
0.0
 40
1.0
 40
1.0
 40
1.0
 40
1.0
 10
9.694261
 20
62.542157
 30
0.0
 10
11.113133
 20
61.851364
 30
0.0
 10
13.592277
 20
60.810724
 30
0.0
 10
14.053513
 20
60.712326
 30
0.0
  0
SPLINE
  5
2B1
330
1F
100
AcDbEntity
  8
0
 62
     7
100
AcDbSpline
210
0.0
220
0.0
230
1.0
 70
     8
 71
     3
 72
     8
 73
     4
 74
     0
 42
0.0000001
 43
0.0000001
 40
0.0
 40
0.0
 40
0.0
 40
0.0
 40
1.0
 40
1.0
 40
1.0
 40
1.0
 10
14.053513
 20
60.712326
 30
0.0
 10
14.122768
 20
60.697551
 30
0.0
 10
13.751685
 20
61.126785
 30
0.0
 10
13.228882
 20
61.666179
 30
0.0
  0
LWPOLYLINE
  5
2B2
330
1F
100
AcDbEntity
  8
0
 62
     7
100
AcDbPolyline
 90
        2
 70
     0
 43
0.0
 10
34.666592
 20
60.897129
 10
34.666592
 20
60.897129
  0
SPLINE
  5
2B3
330
1F
100
AcDbEntity
  8
0
 62
     7
100
AcDbSpline
210
0.0
220
0.0
230
1.0
 70
     8
 71
     3
 72
     8
 73
     4
 74
     0
 42
0.0000001
 43
0.0000001
 40
0.0
 40
0.0
 40
0.0
 40
0.0
 40
1.0
 40
1.0
 40
1.0
 40
1.0
 10
23.949466
 20
62.38071
 30
0.0
 10
24.85416
 20
62.961251
 30
0.0
 10
25.599837
 20
63.234541
 30
0.0
 10
26.116831
 20
63.175048
 30
0.0
  0
SPLINE
  5
2B4
330
1F
100
AcDbEntity
  8
0
 62
     7
100
AcDbSpline
210
0.0
220
0.0
230
1.0
 70
     8
 71
     3
 72
     8
 73
     4
 74
     0
 42
0.0000001
 43
0.0000001
 40
0.0
 40
0.0
 40
0.0
 40
0.0
 40
1.0
 40
1.0
 40
1.0
 40
1.0
 10
26.116831
 20
63.175048
 30
0.0
 10
27.043231
 20
63.068444
 30
0.0
 10
27.311661
 20
62.288015
 30
0.0
 10
26.666956
 20
61.575623
 30
0.0
  0
SPLINE
  5
2B5
330
1F
100
AcDbEntity
  8
0
 62
     7
100
AcDbSpline
210
0.0
220
0.0
230
1.0
 70
     8
 71
     3
 72
     8
 73
     4
 74
     0
 42
0.0000001
 43
0.0000001
 40
0.0
 40
0.0
 40
0.0
 40
0.0
 40
1.0
 40
1.0
 40
1.0
 40
1.0
 10
26.666956
 20
61.575623
 30
0.0
 10
26.264956
 20
61.131418
 30
0.0
 10
26.31947
 20
61.103526
 30
0.0
 10
27.41833
 20
61.191179
 30
0.0
  0
SPLINE
  5
2B6
330
1F
100
AcDbEntity
  8
0
 62
     7
100
AcDbSpline
210
0.0
220
0.0
230
1.0
 70
     8
 71
     3
 72
     8
 73
     4
 74
     0
 42
0.0000001
 43
0.0000001
 40
0.0
 40
0.0
 40
0.0
 40
0.0
 40
1.0
 40
1.0
 40
1.0
 40
1.0
 10
27.41833
 20
61.191179
 30
0.0
 10
28.069981
 20
61.24316
 30
0.0
 10
28.793649
 20
61.35674
 30
0.0
 10
29.026482
 20
61.443579
 30
0.0
  0
SPLINE
  5
2B7
330
1F
100
AcDbEntity
  8
0
 62
     7
100
AcDbSpline
210
0.0
220
0.0
230
1.0
 70
     8
 71
     3
 72
     8
 73
     4
 74
     0
 42
0.0000001
 43
0.0000001
 40
0.0
 40
0.0
 40
0.0
 40
0.0
 40
1.0
 40
1.0
 40
1.0
 40
1.0
 10
29.026482
 20
61.443579
 30
0.0
 10
29.259316
 20
61.530418
 30
0.0
 10
29.940589
 20
61.644528
 30
0.0
 10
30.540421
 20
61.697157
 30
0.0
  0
SPLINE
  5
2B8
330
1F
100
AcDbEntity
  8
0
 62
     7
100
AcDbSpline
210
0.0
220
0.0
230
1.0
 70
     8
 71
     3
 72
     8
 73
     4
 74
     0
 42
0.0000001
 43
0.0000001
 40
0.0
 40
0.0
 40
0.0
 40
0.0
 40
1.0
 40
1.0
 40
1.0
 40
1.0
 10
30.540421
 20
61.697157
 30
0.0
 10
31.790222
 20
61.806813
 30
0.0
 10
34.640562
 20
63.167267
 30
0.0
 10
36.058687
 20
64.331
 30
0.0
  0
SPLINE
  5
2B9
330
1F
100
AcDbEntity
  8
0
 62
     7
100
AcDbSpline
210
0.0
220
0.0
230
1.0
 70
     8
 71
     3
 72
     8
 73
     4
 74
     0
 42
0.0000001
 43
0.0000001
 40
0.0
 40
0.0
 40
0.0
 40
0.0
 40
1.0
 40
1.0
 40
1.0
 40
1.0
 10
36.058687
 20
64.331
 30
0.0
 10
36.866559
 20
64.993948
 30
0.0
 10
37.016648
 20
65.294469
 30
0.0
 10
36.983272
 20
66.182265
 30
0.0
  0
SPLINE
  5
2BA
330
1F
100
AcDbEntity
  8
0
 62
     7
100
AcDbSpline
210
0.0
220
0.0
230
1.0
 70
     8
 71
     3
 72
     8
 73
     4
 74
     0
 42
0.0000001
 43
0.0000001
 40
0.0
 40
0.0
 40
0.0
 40
0.0
 40
1.0
 40
1.0
 40
1.0
 40
1.0
 10
36.983272
 20
66.182265
 30
0.0
 10
36.930152
 20
67.595259
 30
0.0
 10
36.585342
 20
67.939868
 30
0.0
 10
35.007505
 20
68.156876
 30
0.0
  0
SPLINE
  5
2BB
330
1F
100
AcDbEntity
  8
0
 62
     7
100
AcDbSpline
210
0.0
220
0.0
230
1.0
 70
     8
 71
     3
 72
     8
 73
     4
 74
     0
 42
0.0000001
 43
0.0000001
 40
0.0
 40
0.0
 40
0.0
 40
0.0
 40
1.0
 40
1.0
 40
1.0
 40
1.0
 10
35.007505
 20
68.156876
 30
0.0
 10
33.987562
 20
68.297154
 30
0.0
 10
33.14122
 20
68.16964
 30
0.0
 10
31.362252
 20
67.607664
 30
0.0
  0
SPLINE
  5
2BC
330
1F
100
AcDbEntity
  8
0
 62
     7
100
AcDbSpline
210
0.0
220
0.0
230
1.0
 70
     8
 71
     3
 72
     8
 73
     4
 74
     0
 42
0.0000001
 43
0.0000001
 40
0.0
 40
0.0
 40
0.0
 40
0.0
 40
1.0
 40
1.0
 40
1.0
 40
1.0
 10
31.362252
 20
67.607664
 30
0.0
 10
29.11392
 20
66.897417
 30
0.0
 10
27.722204
 20
66.044828
 30
0.0
 10
25.639816
 20
64.102003
 30
0.0
  0
SPLINE
  5
2BD
330
1F
100
AcDbEntity
  8
0
 62
     7
100
AcDbSpline
210
0.0
220
0.0
230
1.0
 70
     8
 71
     3
 72
     8
 73
     4
 74
     0
 42
0.0000001
 43
0.0000001
 40
0.0
 40
0.0
 40
0.0
 40
0.0
 40
1.0
 40
1.0
 40
1.0
 40
1.0
 10
25.639816
 20
64.102003
 30
0.0
 10
25.096539
 20
63.595137
 30
0.0
 10
24.112289
 20
62.80346
 30
0.0
 10
23.452594
 20
62.342721
 30
0.0
  0
SPLINE
  5
2BE
330
1F
100
AcDbEntity
  8
0
 62
     7
100
AcDbSpline
210
0.0
220
0.0
230
1.0
 70
     8
 71
     3
 72
     8
 73
     4
 74
     0
 42
0.0000001
 43
0.0000001
 40
0.0
 40
0.0
 40
0.0
 40
0.0
 40
1.0
 40
1.0
 40
1.0
 40
1.0
 10
23.452594
 20
62.342721
 30
0.0
 10
22.7929
 20
61.881981
 30
0.0
 10
22.263177
 20
61.352364
 30
0.0
 10
22.275431
 20
61.165793
 30
0.0
  0
SPLINE
  5
2BF
330
1F
100
AcDbEntity
  8
0
 62
     7
100
AcDbSpline
210
0.0
220
0.0
230
1.0
 70
     8
 71
     3
 72
     8
 73
     4
 74
     0
 42
0.0000001
 43
0.0000001
 40
0.0
 40
0.0
 40
0.0
 40
0.0
 40
1.0
 40
1.0
 40
1.0
 40
1.0
 10
22.275431
 20
61.165793
 30
0.0
 10
22.292393
 20
60.907565
 30
0.0
 10
22.330247
 20
60.90645
 30
0.0
 10
22.433984
 20
61.161123
 30
0.0
  0
SPLINE
  5
2C0
330
1F
100
AcDbEntity
  8
0
 62
     7
100
AcDbSpline
210
0.0
220
0.0
230
1.0
 70
     8
 71
     3
 72
     8
 73
     4
 74
     0
 42
0.0000001
 43
0.0000001
 40
0.0
 40
0.0
 40
0.0
 40
0.0
 40
1.0
 40
1.0
 40
1.0
 40
1.0
 10
22.433984
 20
61.161123
 30
0.0
 10
22.508933
 20
61.345125
 30
0.0
 10
23.190901
 20
61.893939
 30
0.0
 10
23.949466
 20
62.380708
 30
0.0
  0
LWPOLYLINE
  5
2C1
330
1F
100
AcDbEntity
  8
0
 62
     7
100
AcDbPolyline
 90
        2
 70
     0
 43
0.0
 10
13.228882
 20
61.666179
 10
13.228882
 20
61.666179
  0
SPLINE
  5
2C2
330
1F
100
AcDbEntity
  8
0
 62
     7
100
AcDbSpline
210
0.0
220
0.0
230
1.0
 70
     8
 71
     3
 72
     8
 73
     4
 74
     0
 42
0.0000001
 43
0.0000001
 40
0.0
 40
0.0
 40
0.0
 40
0.0
 40
1.0
 40
1.0
 40
1.0
 40
1.0
 10
25.851483
 20
61.711423
 30
0.0
 10
26.573501
 20
62.164149
 30
0.0
 10
26.688802
 20
62.661018
 30
0.0
 10
26.071839
 20
62.661018
 30
0.0
  0
SPLINE
  5
2C3
330
1F
100
AcDbEntity
  8
0
 62
     7
100
AcDbSpline
210
0.0
220
0.0
230
1.0
 70
     8
 71
     3
 72
     8
 73
     4
 74
     0
 42
0.0000001
 43
0.0000001
 40
0.0
 40
0.0
 40
0.0
 40
0.0
 40
1.0
 40
1.0
 40
1.0
 40
1.0
 10
26.071839
 20
62.661018
 30
0.0
 10
25.566715
 20
62.661018
 30
0.0
 10
23.444161
 20
61.578748
 30
0.0
 10
23.211737
 20
61.202678
 30
0.0
  0
SPLINE
  5
2C4
330
1F
100
AcDbEntity
  8
0
 62
     7
100
AcDbSpline
210
0.0
220
0.0
230
1.0
 70
     8
 71
     3
 72
     8
 73
     4
 74
     0
 42
0.0000001
 43
0.0000001
 40
0.0
 40
0.0
 40
0.0
 40
0.0
 40
1.0
 40
1.0
 40
1.0
 40
1.0
 10
23.211737
 20
61.202678
 30
0.0
 10
22.973417
 20
60.817065
 30
0.0
 10
25.069352
 20
61.221005
 30
0.0
 10
25.851483
 20
61.711423
 30
0.0
  0
LWPOLYLINE
  5
2C5
330
1F
100
AcDbEntity
  8
0
 62
     7
100
AcDbPolyline
 90
        2
 70
     0
 43
0.0
 10
23.949466
 20
62.380708
 10
23.949466
 20
62.38071
  0
SPLINE
  5
2C6
330
1F
100
AcDbEntity
  8
0
 62
     7
100
AcDbSpline
210
0.0
220
0.0
230
1.0
 70
     8
 71
     3
 72
     8
 73
     4
 74
     0
 42
0.0000001
 43
0.0000001
 40
0.0
 40
0.0
 40
0.0
 40
0.0
 40
1.0
 40
1.0
 40
1.0
 40
1.0
 10
15.606565
 20
61.884907
 30
0.0
 10
15.191309
 20
63.247553
 30
0.0
 10
13.605624
 20
64.074439
 30
0.0
 10
13.069938
 20
63.207679
 30
0.0
  0
SPLINE
  5
2C7
330
1F
100
AcDbEntity
  8
0
 62
     7
100
AcDbSpline
210
0.0
220
0.0
230
1.0
 70
     8
 71
     3
 72
     8
 73
     4
 74
     0
 42
0.0000001
 43
0.0000001
 40
0.0
 40
0.0
 40
0.0
 40
0.0
 40
1.0
 40
1.0
 40
1.0
 40
1.0
 10
13.069938
 20
63.207679
 30
0.0
 10
12.720115
 20
62.641657
 30
0.0
 10
14.325852
 20
61.320839
 30
0.0
 10
15.42828
 20
61.267796
 30
0.0
  0
SPLINE
  5
2C8
330
1F
100
AcDbEntity
  8
0
 62
     7
100
AcDbSpline
210
0.0
220
0.0
230
1.0
 70
     8
 71
     3
 72
     8
 73
     4
 74
     0
 42
0.0000001
 43
0.0000001
 40
0.0
 40
0.0
 40
0.0
 40
0.0
 40
1.0
 40
1.0
 40
1.0
 40
1.0
 10
15.42828
 20
61.267796
 30
0.0
 10
15.684828
 20
61.255452
 30
0.0
 10
15.74009
 20
61.446742
 30
0.0
 10
15.606565
 20
61.884907
 30
0.0
  0
LWPOLYLINE
  5
2C9
330
1F
100
AcDbEntity
  8
0
 62
     7
100
AcDbPolyline
 90
        2
 70
     0
 43
0.0
 10
25.851483
 20
61.711423
 10
25.851483
 20
61.711423
  0
SPLINE
  5
2CA
330
1F
100
AcDbEntity
  8
0
 62
     7
100
AcDbSpline
210
0.0
220
0.0
230
1.0
 70
     8
 71
     3
 72
     8
 73
     4
 74
     0
 42
0.0000001
 43
0.0000001
 40
0.0
 40
0.0
 40
0.0
 40
0.0
 40
1.0
 40
1.0
 40
1.0
 40
1.0
 10
23.382039
 20
63.145253
 30
0.0
 10
24.914429
 20
64.195383
 30
0.0
 10
26.978656
 20
66.153104
 30
0.0
 10
27.800281
 20
67.335533
 30
0.0
  0
SPLINE
  5
2CB
330
1F
100
AcDbEntity
  8
0
 62
     7
100
AcDbSpline
210
0.0
220
0.0
230
1.0
 70
     8
 71
     3
 72
     8
 73
     4
 74
     0
 42
0.0000001
 43
0.0000001
 40
0.0
 40
0.0
 40
0.0
 40
0.0
 40
1.0
 40
1.0
 40
1.0
 40
1.0
 10
27.800281
 20
67.335533
 30
0.0
 10
29.173257
 20
69.311432
 30
0.0
 10
30.304579
 20
72.924962
 30
0.0
 10
30.021925
 20
74.431639
 30
0.0
  0
SPLINE
  5
2CC
330
1F
100
AcDbEntity
  8
0
 62
     7
100
AcDbSpline
210
0.0
220
0.0
230
1.0
 70
     8
 71
     3
 72
     8
 73
     4
 74
     0
 42
0.0000001
 43
0.0000001
 40
0.0
 40
0.0
 40
0.0
 40
0.0
 40
1.0
 40
1.0
 40
1.0
 40
1.0
 10
30.021925
 20
74.431639
 30
0.0
 10
29.791956
 20
75.657474
 30
0.0
 10
28.387596
 20
76.620967
 30
0.0
 10
27.513038
 20
76.152917
 30
0.0
  0
SPLINE
  5
2CD
330
1F
100
AcDbEntity
  8
0
 62
     7
100
AcDbSpline
210
0.0
220
0.0
230
1.0
 70
     8
 71
     3
 72
     8
 73
     4
 74
     0
 42
0.0000001
 43
0.0000001
 40
0.0
 40
0.0
 40
0.0
 40
0.0
 40
1.0
 40
1.0
 40
1.0
 40
1.0
 10
27.513038
 20
76.152917
 30
0.0
 10
25.13091
 20
74.878041
 30
0.0
 10
21.984632
 20
69.764856
 30
0.0
 10
21.295019
 20
66.047685
 30
0.0
  0
SPLINE
  5
2CE
330
1F
100
AcDbEntity
  8
0
 62
     7
100
AcDbSpline
210
0.0
220
0.0
230
1.0
 70
     8
 71
     3
 72
     8
 73
     4
 74
     0
 42
0.0000001
 43
0.0000001
 40
0.0
 40
0.0
 40
0.0
 40
0.0
 40
1.0
 40
1.0
 40
1.0
 40
1.0
 10
21.295019
 20
66.047685
 30
0.0
 10
21.223027
 20
65.659629
 30
0.0
 10
20.979105
 20
64.745595
 30
0.0
 10
20.752972
 20
64.016499
 30
0.0
  0
SPLINE
  5
2CF
330
1F
100
AcDbEntity
  8
0
 62
     7
100
AcDbSpline
210
0.0
220
0.0
230
1.0
 70
     8
 71
     3
 72
     8
 73
     4
 74
     0
 42
0.0000001
 43
0.0000001
 40
0.0
 40
0.0
 40
0.0
 40
0.0
 40
1.0
 40
1.0
 40
1.0
 40
1.0
 10
20.752972
 20
64.016499
 30
0.0
 10
20.139381
 20
62.038174
 30
0.0
 10
20.507343
 20
62.160393
 30
0.0
 10
21.593125
 20
64.295558
 30
0.0
  0
SPLINE
  5
2D0
330
1F
100
AcDbEntity
  8
0
 62
     7
100
AcDbSpline
210
0.0
220
0.0
230
1.0
 70
     8
 71
     3
 72
     8
 73
     4
 74
     0
 42
0.0000001
 43
0.0000001
 40
0.0
 40
0.0
 40
0.0
 40
0.0
 40
1.0
 40
1.0
 40
1.0
 40
1.0
 10
21.593125
 20
64.295558
 30
0.0
 10
22.65279
 20
66.379368
 30
0.0
 10
23.159546
 20
66.894352
 30
0.0
 10
24.150391
 20
66.894352
 30
0.0
  0
SPLINE
  5
2D1
330
1F
100
AcDbEntity
  8
0
 62
     7
100
AcDbSpline
210
0.0
220
0.0
230
1.0
 70
     8
 71
     3
 72
     8
 73
     4
 74
     0
 42
0.0000001
 43
0.0000001
 40
0.0
 40
0.0
 40
0.0
 40
0.0
 40
1.0
 40
1.0
 40
1.0
 40
1.0
 10
24.150391
 20
66.894352
 30
0.0
 10
25.778568
 20
66.894352
 30
0.0
 10
25.11179
 20
64.894322
 30
0.0
 10
22.949553
 20
63.292378
 30
0.0
  0
SPLINE
  5
2D2
330
1F
100
AcDbEntity
  8
0
 62
     7
100
AcDbSpline
210
0.0
220
0.0
230
1.0
 70
     8
 71
     3
 72
     8
 73
     4
 74
     0
 42
0.0000001
 43
0.0000001
 40
0.0
 40
0.0
 40
0.0
 40
0.0
 40
1.0
 40
1.0
 40
1.0
 40
1.0
 10
22.949553
 20
63.292378
 30
0.0
 10
22.113972
 20
62.673319
 30
0.0
 10
21.511529
 20
62.085603
 30
0.0
 10
21.610789
 20
61.986342
 30
0.0
  0
SPLINE
  5
2D3
330
1F
100
AcDbEntity
  8
0
 62
     7
100
AcDbSpline
210
0.0
220
0.0
230
1.0
 70
     8
 71
     3
 72
     8
 73
     4
 74
     0
 42
0.0000001
 43
0.0000001
 40
0.0
 40
0.0
 40
0.0
 40
0.0
 40
1.0
 40
1.0
 40
1.0
 40
1.0
 10
21.610789
 20
61.986342
 30
0.0
 10
21.71005
 20
61.887082
 30
0.0
 10
21.863437
 20
61.911409
 30
0.0
 10
21.951649
 20
62.040403
 30
0.0
  0
SPLINE
  5
2D4
330
1F
100
AcDbEntity
  8
0
 62
     7
100
AcDbSpline
210
0.0
220
0.0
230
1.0
 70
     8
 71
     3
 72
     8
 73
     4
 74
     0
 42
0.0000001
 43
0.0000001
 40
0.0
 40
0.0
 40
0.0
 40
0.0
 40
1.0
 40
1.0
 40
1.0
 40
1.0
 10
21.951649
 20
62.040403
 30
0.0
 10
22.039863
 20
62.169397
 30
0.0
 10
22.683539
 20
62.66658
 30
0.0
 10
23.382039
 20
63.145253
 30
0.0
  0
LWPOLYLINE
  5
2D5
330
1F
100
AcDbEntity
  8
0
 62
     7
100
AcDbPolyline
 90
        2
 70
     0
 43
0.0
 10
15.606565
 20
61.884907
 10
15.606565
 20
61.884907
  0
SPLINE
  5
2D6
330
1F
100
AcDbEntity
  8
0
 62
     7
100
AcDbSpline
210
0.0
220
0.0
230
1.0
 70
     8
 71
     3
 72
     8
 73
     4
 74
     0
 42
0.0000001
 43
0.0000001
 40
0.0
 40
0.0
 40
0.0
 40
0.0
 40
1.0
 40
1.0
 40
1.0
 40
1.0
 10
16.570543
 20
63.749911
 30
0.0
 10
16.536437
 20
64.71353
 30
0.0
 10
16.681682
 20
65.337083
 30
0.0
 10
17.05925
 20
65.848004
 30
0.0
  0
SPLINE
  5
2D7
330
1F
100
AcDbEntity
  8
0
 62
     7
100
AcDbSpline
210
0.0
220
0.0
230
1.0
 70
     8
 71
     3
 72
     8
 73
     4
 74
     0
 42
0.0000001
 43
0.0000001
 40
0.0
 40
0.0
 40
0.0
 40
0.0
 40
1.0
 40
1.0
 40
1.0
 40
1.0
 10
17.05925
 20
65.848004
 30
0.0
 10
17.691651
 20
66.703762
 30
0.0
 10
18.757472
 20
67.053937
 30
0.0
 10
19.316811
 20
66.589725
 30
0.0
  0
SPLINE
  5
2D8
330
1F
100
AcDbEntity
  8
0
 62
     7
100
AcDbSpline
210
0.0
220
0.0
230
1.0
 70
     8
 71
     3
 72
     8
 73
     4
 74
     0
 42
0.0000001
 43
0.0000001
 40
0.0
 40
0.0
 40
0.0
 40
0.0
 40
1.0
 40
1.0
 40
1.0
 40
1.0
 10
19.316811
 20
66.589725
 30
0.0
 10
19.915297
 20
66.093027
 30
0.0
 10
19.807226
 20
64.267849
 30
0.0
 10
19.128222
 20
63.404634
 30
0.0
  0
SPLINE
  5
2D9
330
1F
100
AcDbEntity
  8
0
 62
     7
100
AcDbSpline
210
0.0
220
0.0
230
1.0
 70
     8
 71
     3
 72
     8
 73
     4
 74
     0
 42
0.0000001
 43
0.0000001
 40
0.0
 40
0.0
 40
0.0
 40
0.0
 40
1.0
 40
1.0
 40
1.0
 40
1.0
 10
19.128222
 20
63.404634
 30
0.0
 10
18.560932
 20
62.683442
 30
0.0
 10
18.657966
 20
62.447348
 30
0.0
 10
19.342716
 20
62.88275
 30
0.0
  0
SPLINE
  5
2DA
330
1F
100
AcDbEntity
  8
0
 62
     7
100
AcDbSpline
210
0.0
220
0.0
230
1.0
 70
     8
 71
     3
 72
     8
 73
     4
 74
     0
 42
0.0000001
 43
0.0000001
 40
0.0
 40
0.0
 40
0.0
 40
0.0
 40
1.0
 40
1.0
 40
1.0
 40
1.0
 10
19.342716
 20
62.88275
 30
0.0
 10
19.68359
 20
63.099497
 30
0.0
 10
20.151243
 20
64.144278
 30
0.0
 10
20.415273
 20
65.278944
 30
0.0
  0
SPLINE
  5
2DB
330
1F
100
AcDbEntity
  8
0
 62
     7
100
AcDbSpline
210
0.0
220
0.0
230
1.0
 70
     8
 71
     3
 72
     8
 73
     4
 74
     0
 42
0.0000001
 43
0.0000001
 40
0.0
 40
0.0
 40
0.0
 40
0.0
 40
1.0
 40
1.0
 40
1.0
 40
1.0
 10
20.415273
 20
65.278944
 30
0.0
 10
20.4956
 20
65.62414
 30
0.0
 10
20.751967
 20
66.732074
 30
0.0
 10
20.984981
 20
67.741018
 30
0.0
  0
SPLINE
  5
2DC
330
1F
100
AcDbEntity
  8
0
 62
     7
100
AcDbSpline
210
0.0
220
0.0
230
1.0
 70
     8
 71
     3
 72
     8
 73
     4
 74
     0
 42
0.0000001
 43
0.0000001
 40
0.0
 40
0.0
 40
0.0
 40
0.0
 40
1.0
 40
1.0
 40
1.0
 40
1.0
 10
20.984981
 20
67.741018
 30
0.0
 10
21.434471
 20
69.687293
 30
0.0
 10
21.497316
 20
75.271569
 30
0.0
 10
21.072685
 20
75.534006
 30
0.0
  0
SPLINE
  5
2DD
330
1F
100
AcDbEntity
  8
0
 62
     7
100
AcDbSpline
210
0.0
220
0.0
230
1.0
 70
     8
 71
     3
 72
     8
 73
     4
 74
     0
 42
0.0000001
 43
0.0000001
 40
0.0
 40
0.0
 40
0.0
 40
0.0
 40
1.0
 40
1.0
 40
1.0
 40
1.0
 10
21.072685
 20
75.534006
 30
0.0
 10
20.940766
 20
75.615536
 30
0.0
 10
20.903035
 20
75.795835
 30
0.0
 10
20.988839
 20
75.93467
 30
0.0
  0
SPLINE
  5
2DE
330
1F
100
AcDbEntity
  8
0
 62
     7
100
AcDbSpline
210
0.0
220
0.0
230
1.0
 70
     8
 71
     3
 72
     8
 73
     4
 74
     0
 42
0.0000001
 43
0.0000001
 40
0.0
 40
0.0
 40
0.0
 40
0.0
 40
1.0
 40
1.0
 40
1.0
 40
1.0
 10
20.988839
 20
75.93467
 30
0.0
 10
21.074646
 20
76.073505
 30
0.0
 10
20.891114
 20
76.440831
 30
0.0
 10
20.580997
 20
76.750949
 30
0.0
  0
SPLINE
  5
2DF
330
1F
100
AcDbEntity
  8
0
 62
     7
100
AcDbSpline
210
0.0
220
0.0
230
1.0
 70
     8
 71
     3
 72
     8
 73
     4
 74
     0
 42
0.0000001
 43
0.0000001
 40
0.0
 40
0.0
 40
0.0
 40
0.0
 40
1.0
 40
1.0
 40
1.0
 40
1.0
 10
20.580997
 20
76.750949
 30
0.0
 10
20.09402
 20
77.237927
 30
0.0
 10
19.890608
 20
77.272359
 30
0.0
 10
19.089035
 20
77.003502
 30
0.0
  0
SPLINE
  5
2E0
330
1F
100
AcDbEntity
  8
0
 62
     7
100
AcDbSpline
210
0.0
220
0.0
230
1.0
 70
     8
 71
     3
 72
     8
 73
     4
 74
     0
 42
0.0000001
 43
0.0000001
 40
0.0
 40
0.0
 40
0.0
 40
0.0
 40
1.0
 40
1.0
 40
1.0
 40
1.0
 10
19.089035
 20
77.003502
 30
0.0
 10
17.569107
 20
76.493697
 30
0.0
 10
17.176186
 20
75.98827
 30
0.0
 10
16.166672
 20
73.244352
 30
0.0
  0
SPLINE
  5
2E1
330
1F
100
AcDbEntity
  8
0
 62
     7
100
AcDbSpline
210
0.0
220
0.0
230
1.0
 70
     8
 71
     3
 72
     8
 73
     4
 74
     0
 42
0.0000001
 43
0.0000001
 40
0.0
 40
0.0
 40
0.0
 40
0.0
 40
1.0
 40
1.0
 40
1.0
 40
1.0
 10
16.166672
 20
73.244352
 30
0.0
 10
15.741558
 20
72.088871
 30
0.0
 10
15.708171
 20
71.756756
 30
0.0
 10
15.670144
 20
68.305463
 30
0.0
  0
SPLINE
  5
2E2
330
1F
100
AcDbEntity
  8
0
 62
     7
100
AcDbSpline
210
0.0
220
0.0
230
1.0
 70
     8
 71
     3
 72
     8
 73
     4
 74
     0
 42
0.0000001
 43
0.0000001
 40
0.0
 40
0.0
 40
0.0
 40
0.0
 40
1.0
 40
1.0
 40
1.0
 40
1.0
 10
15.670144
 20
68.305463
 30
0.0
 10
15.635781
 20
65.186488
 30
0.0
 10
16.021172
 20
62.378796
 30
0.0
 10
16.483655
 20
62.378796
 30
0.0
  0
SPLINE
  5
2E3
330
1F
100
AcDbEntity
  8
0
 62
     7
100
AcDbSpline
210
0.0
220
0.0
230
1.0
 70
     8
 71
     3
 72
     8
 73
     4
 74
     0
 42
0.0000001
 43
0.0000001
 40
0.0
 40
0.0
 40
0.0
 40
0.0
 40
1.0
 40
1.0
 40
1.0
 40
1.0
 10
16.483655
 20
62.378796
 30
0.0
 10
16.558137
 20
62.378796
 30
0.0
 10
16.597236
 20
62.995798
 30
0.0
 10
16.570543
 20
63.749911
 30
0.0
  0
LWPOLYLINE
  5
2E4
330
1F
100
AcDbEntity
  8
0
 62
     7
100
AcDbPolyline
 90
        2
 70
     0
 43
0.0
 10
23.382039
 20
63.145253
 10
23.382039
 20
63.145253
  0
SPLINE
  5
2E5
330
1F
100
AcDbEntity
  8
0
 62
     7
100
AcDbSpline
210
0.0
220
0.0
230
1.0
 70
     8
 71
     3
 72
     8
 73
     4
 74
     0
 42
0.0000001
 43
0.0000001
 40
0.0
 40
0.0
 40
0.0
 40
0.0
 40
1.0
 40
1.0
 40
1.0
 40
1.0
 10
18.281442
 20
63.540185
 30
0.0
 10
18.962622
 20
64.461531
 30
0.0
 10
19.217551
 20
66.054002
 30
0.0
 10
18.712601
 20
66.233536
 30
0.0
  0
SPLINE
  5
2E6
330
1F
100
AcDbEntity
  8
0
 62
     7
100
AcDbSpline
210
0.0
220
0.0
230
1.0
 70
     8
 71
     3
 72
     8
 73
     4
 74
     0
 42
0.0000001
 43
0.0000001
 40
0.0
 40
0.0
 40
0.0
 40
0.0
 40
1.0
 40
1.0
 40
1.0
 40
1.0
 10
18.712601
 20
66.233536
 30
0.0
 10
18.550355
 20
66.291223
 30
0.0
 10
18.141858
 20
66.08152
 30
0.0
 10
17.804831
 20
65.767531
 30
0.0
  0
SPLINE
  5
2E7
330
1F
100
AcDbEntity
  8
0
 62
     7
100
AcDbSpline
210
0.0
220
0.0
230
1.0
 70
     8
 71
     3
 72
     8
 73
     4
 74
     0
 42
0.0000001
 43
0.0000001
 40
0.0
 40
0.0
 40
0.0
 40
0.0
 40
1.0
 40
1.0
 40
1.0
 40
1.0
 10
17.804831
 20
65.767531
 30
0.0
 10
17.329069
 20
65.324292
 30
0.0
 10
17.204674
 20
64.913158
 30
0.0
 10
17.248497
 20
63.92883
 30
0.0
  0
SPLINE
  5
2E8
330
1F
100
AcDbEntity
  8
0
 62
     7
100
AcDbSpline
210
0.0
220
0.0
230
1.0
 70
     8
 71
     3
 72
     8
 73
     4
 74
     0
 42
0.0000001
 43
0.0000001
 40
0.0
 40
0.0
 40
0.0
 40
0.0
 40
1.0
 40
1.0
 40
1.0
 40
1.0
 10
17.248497
 20
63.92883
 30
0.0
 10
17.279542
 20
63.231533
 30
0.0
 10
17.378404
 20
62.661018
 30
0.0
 10
17.468193
 20
62.661018
 30
0.0
  0
SPLINE
  5
2E9
330
1F
100
AcDbEntity
  8
0
 62
     7
100
AcDbSpline
210
0.0
220
0.0
230
1.0
 70
     8
 71
     3
 72
     8
 73
     4
 74
     0
 42
0.0000001
 43
0.0000001
 40
0.0
 40
0.0
 40
0.0
 40
0.0
 40
1.0
 40
1.0
 40
1.0
 40
1.0
 10
17.468193
 20
62.661018
 30
0.0
 10
17.557982
 20
62.661018
 30
0.0
 10
17.923943
 20
63.056643
 30
0.0
 10
18.281442
 20
63.540185
 30
0.0
  0
LWPOLYLINE
  5
2EA
330
1F
100
AcDbEntity
  8
0
 62
     7
100
AcDbPolyline
 90
        2
 70
     0
 43
0.0
 10
16.570543
 20
63.749911
 10
16.570543
 20
63.749911
  0
SPLINE
  5
2EB
330
1F
100
AcDbEntity
  8
0
 62
     7
100
AcDbSpline
210
0.0
220
0.0
230
1.0
 70
     8
 71
     3
 72
     8
 73
     4
 74
     0
 42
0.0000001
 43
0.0000001
 40
0.0
 40
0.0
 40
0.0
 40
0.0
 40
1.0
 40
1.0
 40
1.0
 40
1.0
 10
24.082523
 20
65.27942
 30
0.0
 10
24.672254
 20
66.121382
 30
0.0
 10
24.619817
 20
66.384818
 30
0.0
 10
23.883556
 20
66.27898
 30
0.0
  0
SPLINE
  5
2EC
330
1F
100
AcDbEntity
  8
0
 62
     7
100
AcDbSpline
210
0.0
220
0.0
230
1.0
 70
     8
 71
     3
 72
     8
 73
     4
 74
     0
 42
0.0000001
 43
0.0000001
 40
0.0
 40
0.0
 40
0.0
 40
0.0
 40
1.0
 40
1.0
 40
1.0
 40
1.0
 10
23.883556
 20
66.27898
 30
0.0
 10
23.32687
 20
66.198957
 30
0.0
 10
21.989469
 20
64.391318
 30
0.0
 10
21.97557
 20
63.700134
 30
0.0
  0
SPLINE
  5
2ED
330
1F
100
AcDbEntity
  8
0
 62
     7
100
AcDbSpline
210
0.0
220
0.0
230
1.0
 70
     8
 71
     3
 72
     8
 73
     4
 74
     0
 42
0.0000001
 43
0.0000001
 40
0.0
 40
0.0
 40
0.0
 40
0.0
 40
1.0
 40
1.0
 40
1.0
 40
1.0
 10
21.97557
 20
63.700134
 30
0.0
 10
21.968684
 20
63.358422
 30
0.0
 10
23.586221
 20
64.570852
 30
0.0
 10
24.082523
 20
65.27942
 30
0.0
  0
LWPOLYLINE
  5
2EE
330
1F
100
AcDbEntity
  8
0
 62
     7
100
AcDbPolyline
 90
        2
 70
     0
 43
0.0
 10
18.281442
 20
63.540185
 10
18.281442
 20
63.540185
  0
SPLINE
  5
2EF
330
1F
100
AcDbEntity
  8
0
 62
     7
100
AcDbSpline
210
0.0
220
0.0
230
1.0
 70
     8
 71
     3
 72
     8
 73
     4
 74
     0
 42
0.0000001
 43
0.0000001
 40
0.0
 40
0.0
 40
0.0
 40
0.0
 40
1.0
 40
1.0
 40
1.0
 40
1.0
 10
14.797646
 20
70.462959
 30
0.0
 10
14.598414
 20
70.98215
 30
0.0
 10
13.105633
 20
70.945705
 30
0.0
 10
12.042005
 20
70.395682
 30
0.0
  0
LWPOLYLINE
  5
2F0
330
1F
100
AcDbEntity
  8
0
 62
     7
100
AcDbPolyline
 90
        2
 70
     0
 43
0.0
 10
24.082523
 20
65.27942
 10
24.082523
 20
65.27942
  0
SPLINE
  5
2F1
330
1F
100
AcDbEntity
  8
0
 62
     7
100
AcDbSpline
210
0.0
220
0.0
230
1.0
 70
     8
 71
     3
 72
     8
 73
     4
 74
     0
 42
0.0000001
 43
0.0000001
 40
0.0
 40
0.0
 40
0.0
 40
0.0
 40
1.0
 40
1.0
 40
1.0
 40
1.0
 10
11.885939
 20
69.477712
 30
0.0
 10
12.278482
 20
69.220208
 30
0.0
 10
13.08894
 20
68.450287
 30
0.0
 10
13.686957
 20
67.766776
 30
0.0
  0
LWPOLYLINE
  5
2F2
330
1F
100
AcDbEntity
  8
0
 62
     7
100
AcDbPolyline
 90
        3
 70
     0
 43
0.0
 10
12.042005
 20
70.395682
 10
11.172228
 20
69.945901
 10
11.885939
 20
69.477712
  0
SPLINE
  5
2F3
330
1F
100
AcDbEntity
  8
0
 62
     7
100
AcDbSpline
210
0.0
220
0.0
230
1.0
 70
     8
 71
     3
 72
     8
 73
     4
 74
     0
 42
0.0000001
 43
0.0000001
 40
0.0
 40
0.0
 40
0.0
 40
0.0
 40
1.0
 40
1.0
 40
1.0
 40
1.0
 10
14.859342
 20
68.302243
 30
0.0
 10
14.906138
 20
69.28026
 30
0.0
 10
14.878364
 20
70.252582
 30
0.0
 10
14.797646
 20
70.462959
 30
0.0
  0
LWPOLYLINE
  5
2F4
330
1F
100
AcDbEntity
  8
0
 62
     7
100
AcDbPolyline
 90
        3
 70
     0
 43
0.0
 10
13.686957
 20
67.766776
 10
14.774261
 20
66.524031
 10
14.859342
 20
68.302243
  0
SPLINE
  5
2F5
330
1F
100
AcDbEntity
  8
0
 62
     7
100
AcDbSpline
210
0.0
220
0.0
230
1.0
 70
     8
 71
     3
 72
     8
 73
     4
 74
     0
 42
0.0000001
 43
0.0000001
 40
0.0
 40
0.0
 40
0.0
 40
0.0
 40
1.0
 40
1.0
 40
1.0
 40
1.0
 10
30.367038
 20
68.017577
 30
0.0
 10
31.721459
 20
68.444678
 30
0.0
 10
31.790979
 20
68.579258
 30
0.0
 10
31.018367
 20
69.278462
 30
0.0
  0
SPLINE
  5
2F6
330
1F
100
AcDbEntity
  8
0
 62
     7
100
AcDbSpline
210
0.0
220
0.0
230
1.0
 70
     8
 71
     3
 72
     8
 73
     4
 74
     0
 42
0.0000001
 43
0.0000001
 40
0.0
 40
0.0
 40
0.0
 40
0.0
 40
1.0
 40
1.0
 40
1.0
 40
1.0
 10
31.018367
 20
69.278462
 30
0.0
 10
30.282755
 20
69.944182
 30
0.0
 10
29.990596
 20
69.795063
 30
0.0
 10
29.106904
 20
68.302846
 30
0.0
  0
SPLINE
  5
2F7
330
1F
100
AcDbEntity
  8
0
 62
     7
100
AcDbSpline
210
0.0
220
0.0
230
1.0
 70
     8
 71
     3
 72
     8
 73
     4
 74
     0
 42
0.0000001
 43
0.0000001
 40
0.0
 40
0.0
 40
0.0
 40
0.0
 40
1.0
 40
1.0
 40
1.0
 40
1.0
 10
29.106904
 20
68.302846
 30
0.0
 10
28.694106
 20
67.605785
 30
0.0
 10
28.538887
 20
67.171337
 30
0.0
 10
28.761978
 20
67.337405
 30
0.0
  0
SPLINE
  5
2F8
330
1F
100
AcDbEntity
  8
0
 62
     7
100
AcDbSpline
210
0.0
220
0.0
230
1.0
 70
     8
 71
     3
 72
     8
 73
     4
 74
     0
 42
0.0000001
 43
0.0000001
 40
0.0
 40
0.0
 40
0.0
 40
0.0
 40
1.0
 40
1.0
 40
1.0
 40
1.0
 10
28.761978
 20
67.337405
 30
0.0
 10
28.985066
 20
67.503473
 30
0.0
 10
29.707343
 20
67.80955
 30
0.0
 10
30.367038
 20
68.017577
 30
0.0
  0
LWPOLYLINE
  5
2F9
330
1F
100
AcDbEntity
  8
0
 62
     7
100
AcDbPolyline
 90
        2
 70
     0
 43
0.0
 10
14.797646
 20
70.462959
 10
14.797646
 20
70.462959
  0
SPLINE
  5
2FA
330
1F
100
AcDbEntity
  8
0
 62
     7
100
AcDbSpline
210
0.0
220
0.0
230
1.0
 70
     8
 71
     3
 72
     8
 73
     4
 74
     0
 42
0.0000001
 43
0.0000001
 40
0.0
 40
0.0
 40
0.0
 40
0.0
 40
1.0
 40
1.0
 40
1.0
 40
1.0
 10
32.849394
 20
68.890799
 30
0.0
 10
33.10154
 20
69.298781
 30
0.0
 10
31.968547
 20
70.466246
 30
0.0
 10
30.989115
 20
70.807678
 30
0.0
  0
SPLINE
  5
2FB
330
1F
100
AcDbEntity
  8
0
 62
     7
100
AcDbSpline
210
0.0
220
0.0
230
1.0
 70
     8
 71
     3
 72
     8
 73
     4
 74
     0
 42
0.0000001
 43
0.0000001
 40
0.0
 40
0.0
 40
0.0
 40
0.0
 40
1.0
 40
1.0
 40
1.0
 40
1.0
 10
30.989115
 20
70.807678
 30
0.0
 10
30.377875
 20
71.020757
 30
0.0
 10
30.163807
 20
70.992294
 30
0.0
 10
30.044779
 20
70.682119
 30
0.0
  0
SPLINE
  5
2FC
330
1F
100
AcDbEntity
  8
0
 62
     7
100
AcDbSpline
210
0.0
220
0.0
230
1.0
 70
     8
 71
     3
 72
     8
 73
     4
 74
     0
 42
0.0000001
 43
0.0000001
 40
0.0
 40
0.0
 40
0.0
 40
0.0
 40
1.0
 40
1.0
 40
1.0
 40
1.0
 10
30.044779
 20
70.682119
 30
0.0
 10
29.951926
 20
70.440144
 30
0.0
 10
30.067131
 20
70.281018
 30
0.0
 10
30.335155
 20
70.281018
 30
0.0
  0
SPLINE
  5
2FD
330
1F
100
AcDbEntity
  8
0
 62
     7
100
AcDbSpline
210
0.0
220
0.0
230
1.0
 70
     8
 71
     3
 72
     8
 73
     4
 74
     0
 42
0.0000001
 43
0.0000001
 40
0.0
 40
0.0
 40
0.0
 40
0.0
 40
1.0
 40
1.0
 40
1.0
 40
1.0
 10
30.335155
 20
70.281018
 30
0.0
 10
30.874995
 20
70.281018
 30
0.0
 10
32.451178
 20
69.002011
 30
0.0
 10
32.209351
 20
68.760184
 30
0.0
  0
SPLINE
  5
2FE
330
1F
100
AcDbEntity
  8
0
 62
     7
100
AcDbSpline
210
0.0
220
0.0
230
1.0
 70
     8
 71
     3
 72
     8
 73
     4
 74
     0
 42
0.0000001
 43
0.0000001
 40
0.0
 40
0.0
 40
0.0
 40
0.0
 40
1.0
 40
1.0
 40
1.0
 40
1.0
 10
32.209351
 20
68.760184
 30
0.0
 10
32.114476
 20
68.66531
 30
0.0
 10
32.177524
 20
68.587685
 30
0.0
 10
32.349457
 20
68.587685
 30
0.0
  0
SPLINE
  5
2FF
330
1F
100
AcDbEntity
  8
0
 62
     7
100
AcDbSpline
210
0.0
220
0.0
230
1.0
 70
     8
 71
     3
 72
     8
 73
     4
 74
     0
 42
0.0000001
 43
0.0000001
 40
0.0
 40
0.0
 40
0.0
 40
0.0
 40
1.0
 40
1.0
 40
1.0
 40
1.0
 10
32.349457
 20
68.587685
 30
0.0
 10
32.521387
 20
68.587685
 30
0.0
 10
32.74636
 20
68.724086
 30
0.0
 10
32.849394
 20
68.890799
 30
0.0
  0
LWPOLYLINE
  5
300
330
1F
100
AcDbEntity
  8
0
 62
     7
100
AcDbPolyline
 90
        2
 70
     0
 43
0.0
 10
30.367038
 20
68.017577
 10
30.367038
 20
68.017577
  0
SPLINE
  5
301
330
1F
100
AcDbEntity
  8
0
 62
     7
100
AcDbSpline
210
0.0
220
0.0
230
1.0
 70
     8
 71
     3
 72
     8
 73
     4
 74
     0
 42
0.0000001
 43
0.0000001
 40
0.0
 40
0.0
 40
0.0
 40
0.0
 40
1.0
 40
1.0
 40
1.0
 40
1.0
 10
13.987267
 20
71.409907
 30
0.0
 10
14.874966
 20
71.409907
 30
0.0
 10
15.197594
 20
71.522752
 30
0.0
 10
15.197594
 20
71.83324
 30
0.0
  0
SPLINE
  5
302
330
1F
100
AcDbEntity
  8
0
 62
     7
100
AcDbSpline
210
0.0
220
0.0
230
1.0
 70
     8
 71
     3
 72
     8
 73
     4
 74
     0
 42
0.0000001
 43
0.0000001
 40
0.0
 40
0.0
 40
0.0
 40
0.0
 40
1.0
 40
1.0
 40
1.0
 40
1.0
 10
15.197594
 20
71.83324
 30
0.0
 10
15.197594
 20
72.138142
 30
0.0
 10
14.88549
 20
72.256574
 30
0.0
 10
14.081984
 20
72.256574
 30
0.0
  0
SPLINE
  5
303
330
1F
100
AcDbEntity
  8
0
 62
     7
100
AcDbSpline
210
0.0
220
0.0
230
1.0
 70
     8
 71
     3
 72
     8
 73
     4
 74
     0
 42
0.0000001
 43
0.0000001
 40
0.0
 40
0.0
 40
0.0
 40
0.0
 40
1.0
 40
1.0
 40
1.0
 40
1.0
 10
14.081984
 20
72.256574
 30
0.0
 10
12.940285
 20
72.256574
 30
0.0
 10
11.528705
 20
71.773964
 30
0.0
 10
11.528705
 20
71.383625
 30
0.0
  0
SPLINE
  5
304
330
1F
100
AcDbEntity
  8
0
 62
     7
100
AcDbSpline
210
0.0
220
0.0
230
1.0
 70
     8
 71
     3
 72
     8
 73
     4
 74
     0
 42
0.0000001
 43
0.0000001
 40
0.0
 40
0.0
 40
0.0
 40
0.0
 40
1.0
 40
1.0
 40
1.0
 40
1.0
 10
11.528705
 20
71.383625
 30
0.0
 10
11.528705
 20
71.263778
 30
0.0
 10
11.272862
 20
71.08452
 30
0.0
 10
10.960163
 20
70.985273
 30
0.0
  0
SPLINE
  5
305
330
1F
100
AcDbEntity
  8
0
 62
     7
100
AcDbSpline
210
0.0
220
0.0
230
1.0
 70
     8
 71
     3
 72
     8
 73
     4
 74
     0
 42
0.0000001
 43
0.0000001
 40
0.0
 40
0.0
 40
0.0
 40
0.0
 40
1.0
 40
1.0
 40
1.0
 40
1.0
 10
10.960163
 20
70.985273
 30
0.0
 10
10.647464
 20
70.886026
 30
0.0
 10
10.45623
 20
70.700284
 30
0.0
 10
10.535198
 20
70.572513
 30
0.0
  0
SPLINE
  5
306
330
1F
100
AcDbEntity
  8
0
 62
     7
100
AcDbSpline
210
0.0
220
0.0
230
1.0
 70
     8
 71
     3
 72
     8
 73
     4
 74
     0
 42
0.0000001
 43
0.0000001
 40
0.0
 40
0.0
 40
0.0
 40
0.0
 40
1.0
 40
1.0
 40
1.0
 40
1.0
 10
10.535198
 20
70.572513
 30
0.0
 10
10.614164
 20
70.444741
 30
0.0
 10
11.15086
 20
70.580883
 30
0.0
 10
11.727858
 20
70.875054
 30
0.0
  0
SPLINE
  5
307
330
1F
100
AcDbEntity
  8
0
 62
     7
100
AcDbSpline
210
0.0
220
0.0
230
1.0
 70
     8
 71
     3
 72
     8
 73
     4
 74
     0
 42
0.0000001
 43
0.0000001
 40
0.0
 40
0.0
 40
0.0
 40
0.0
 40
1.0
 40
1.0
 40
1.0
 40
1.0
 10
11.727858
 20
70.875054
 30
0.0
 10
12.304853
 20
71.169223
 30
0.0
 10
13.32159
 20
71.409907
 30
0.0
 10
13.987267
 20
71.409907
 30
0.0
  0
LWPOLYLINE
  5
308
330
1F
100
AcDbEntity
  8
0
 62
     7
100
AcDbPolyline
 90
        2
 70
     0
 43
0.0
 10
32.849394
 20
68.890799
 10
32.849394
 20
68.890799
  0
SPLINE
  5
309
330
1F
100
AcDbEntity
  8
0
 62
     7
100
AcDbSpline
210
0.0
220
0.0
230
1.0
 70
     8
 71
     3
 72
     8
 73
     4
 74
     0
 42
0.0000001
 43
0.0000001
 40
0.0
 40
0.0
 40
0.0
 40
0.0
 40
1.0
 40
1.0
 40
1.0
 40
1.0
 10
23.236796
 20
72.36718
 30
0.0
 10
23.627123
 20
72.878928
 30
0.0
 10
23.946483
 20
73.447536
 30
0.0
 10
23.946483
 20
73.630754
 30
0.0
  0
SPLINE
  5
30A
330
1F
100
AcDbEntity
  8
0
 62
     7
100
AcDbSpline
210
0.0
220
0.0
230
1.0
 70
     8
 71
     3
 72
     8
 73
     4
 74
     0
 42
0.0000001
 43
0.0000001
 40
0.0
 40
0.0
 40
0.0
 40
0.0
 40
1.0
 40
1.0
 40
1.0
 40
1.0
 10
23.946483
 20
73.630754
 30
0.0
 10
23.946483
 20
73.925422
 30
0.0
 10
22.566244
 20
74.651887
 30
0.0
 10
22.386751
 20
74.451692
 30
0.0
  0
SPLINE
  5
30B
330
1F
100
AcDbEntity
  8
0
 62
     7
100
AcDbSpline
210
0.0
220
0.0
230
1.0
 70
     8
 71
     3
 72
     8
 73
     4
 74
     0
 42
0.0000001
 43
0.0000001
 40
0.0
 40
0.0
 40
0.0
 40
0.0
 40
1.0
 40
1.0
 40
1.0
 40
1.0
 10
22.386751
 20
74.451692
 30
0.0
 10
22.348064
 20
74.408544
 30
0.0
 10
22.238257
 20
73.42074
 30
0.0
 10
22.142736
 20
72.256574
 30
0.0
  0
SPLINE
  5
30C
330
1F
100
AcDbEntity
  8
0
 62
     7
100
AcDbSpline
210
0.0
220
0.0
230
1.0
 70
     8
 71
     3
 72
     8
 73
     4
 74
     0
 42
0.0000001
 43
0.0000001
 40
0.0
 40
0.0
 40
0.0
 40
0.0
 40
1.0
 40
1.0
 40
1.0
 40
1.0
 10
22.142736
 20
72.256574
 30
0.0
 10
22.018744
 20
70.745441
 30
0.0
 10
22.04888
 20
70.325404
 30
0.0
 10
22.248081
 20
70.788319
 30
0.0
  0
SPLINE
  5
30D
330
1F
100
AcDbEntity
  8
0
 62
     7
100
AcDbSpline
210
0.0
220
0.0
230
1.0
 70
     8
 71
     3
 72
     8
 73
     4
 74
     0
 42
0.0000001
 43
0.0000001
 40
0.0
 40
0.0
 40
0.0
 40
0.0
 40
1.0
 40
1.0
 40
1.0
 40
1.0
 10
22.248081
 20
70.788319
 30
0.0
 10
22.401545
 20
71.144945
 30
0.0
 10
22.846465
 20
71.855433
 30
0.0
 10
23.236796
 20
72.36718
 30
0.0
  0
LWPOLYLINE
  5
30E
330
1F
100
AcDbEntity
  8
0
 62
     7
100
AcDbPolyline
 90
        2
 70
     0
 43
0.0
 10
13.987267
 20
71.409907
 10
13.987267
 20
71.409907
  0
SPLINE
  5
30F
330
1F
100
AcDbEntity
  8
0
 62
     7
100
AcDbSpline
210
0.0
220
0.0
230
1.0
 70
     8
 71
     3
 72
     8
 73
     4
 74
     0
 42
0.0000001
 43
0.0000001
 40
0.0
 40
0.0
 40
0.0
 40
0.0
 40
1.0
 40
1.0
 40
1.0
 40
1.0
 10
24.652922
 20
75.432777
 30
0.0
 10
24.4448
 20
75.549856
 30
0.0
 10
23.802104
 20
75.585163
 30
0.0
 10
23.224703
 20
75.511238
 30
0.0
  0
SPLINE
  5
310
330
1F
100
AcDbEntity
  8
0
 62
     7
100
AcDbSpline
210
0.0
220
0.0
230
1.0
 70
     8
 71
     3
 72
     8
 73
     4
 74
     0
 42
0.0000001
 43
0.0000001
 40
0.0
 40
0.0
 40
0.0
 40
0.0
 40
1.0
 40
1.0
 40
1.0
 40
1.0
 10
23.224703
 20
75.511238
 30
0.0
 10
22.071085
 20
75.363538
 30
0.0
 10
21.562377
 20
75.08461
 30
0.0
 10
22.417778
 20
75.068795
 30
0.0
  0
SPLINE
  5
311
330
1F
100
AcDbEntity
  8
0
 62
     7
100
AcDbSpline
210
0.0
220
0.0
230
1.0
 70
     8
 71
     3
 72
     8
 73
     4
 74
     0
 42
0.0000001
 43
0.0000001
 40
0.0
 40
0.0
 40
0.0
 40
0.0
 40
1.0
 40
1.0
 40
1.0
 40
1.0
 10
22.417778
 20
75.068795
 30
0.0
 10
22.715289
 20
75.063295
 30
0.0
 10
23.271551
 20
74.885576
 30
0.0
 10
23.653917
 20
74.673864
 30
0.0
  0
SPLINE
  5
312
330
1F
100
AcDbEntity
  8
0
 62
     7
100
AcDbSpline
210
0.0
220
0.0
230
1.0
 70
     8
 71
     3
 72
     8
 73
     4
 74
     0
 42
0.0000001
 43
0.0000001
 40
0.0
 40
0.0
 40
0.0
 40
0.0
 40
1.0
 40
1.0
 40
1.0
 40
1.0
 10
23.653917
 20
74.673864
 30
0.0
 10
24.259727
 20
74.338434
 30
0.0
 10
24.39299
 20
74.348793
 30
0.0
 10
24.690223
 20
74.75442
 30
0.0
  0
SPLINE
  5
313
330
1F
100
AcDbEntity
  8
0
 62
     7
100
AcDbSpline
210
0.0
220
0.0
230
1.0
 70
     8
 71
     3
 72
     8
 73
     4
 74
     0
 42
0.0000001
 43
0.0000001
 40
0.0
 40
0.0
 40
0.0
 40
0.0
 40
1.0
 40
1.0
 40
1.0
 40
1.0
 10
24.690223
 20
74.75442
 30
0.0
 10
24.96038
 20
75.123097
 30
0.0
 10
24.952622
 20
75.264179
 30
0.0
 10
24.652922
 20
75.432777
 30
0.0
  0
LWPOLYLINE
  5
314
330
1F
100
AcDbEntity
  8
0
 62
     7
100
AcDbPolyline
 90
        2
 70
     0
 43
0.0
 10
23.236796
 20
72.36718
 10
23.236796
 20
72.36718
  0
LWPOLYLINE
  5
315
330
1F
100
AcDbEntity
  8
0
 62
     7
100
AcDbPolyline
 90
        2
 70
     0
 43
0.0
 10
24.652922
 20
75.432777
 10
24.652922
 20
75.432777
  0
ENDSEC
  0
SECTION
  2
OBJECTS
  0
DICTIONARY
  5
C
330
0
100
AcDbDictionary
281
     1
  3
ACAD_GROUP
350
D
  3
ACAD_IMAGE_VARS
350
1003C
  3
ACAD_LAYOUT
350
10063
  3
ACAD_MATERIAL
350
10066
  3
ACAD_MLEADERSTYLE
350
10082
  3
ACAD_MLINESTYLE
350
17
  3
ACAD_SCALELIST
350
10041
  3
ACAD_TABLESTYLE
350
1007B
  3
ACAD_VISUALSTYLE
350
1006A
  3
ACDBVARIABLEDICTIONARY
350
1003E
  3
ACDB_RECOMPOSE_DATA
350
10080
  3
APPDATA
350
1003B
  0
DICTIONARY
  5
D
330
C
100
AcDbDictionary
281
     1
  0
RASTERVARIABLES
  5
1003C
102
{ACAD_REACTORS
330
C
102
}
330
C
100
AcDbRasterVariables
 90
        0
 70
     1
 71
     1
 72
     0
  0
DICTIONARY
  5
10063
102
{ACAD_REACTORS
330
C
102
}
330
C
100
AcDbDictionary
281
     1
  3
Model
350
10064
  3
Sheet 1
350
10065
  0
DICTIONARY
  5
10066
102
{ACAD_REACTORS
330
C
102
}
330
C
100
AcDbDictionary
281
     1
  3
ByBlock
350
10068
  3
ByLayer
350
10067
  3
Global
350
10069
  0
DICTIONARY
  5
10082
102
{ACAD_REACTORS
330
C
102
}
330
C
100
AcDbDictionary
281
     1
  0
DICTIONARY
  5
17
330
C
100
AcDbDictionary
281
     1
  3
Standard
350
10040
  0
DICTIONARY
  5
10041
102
{ACAD_REACTORS
330
C
102
}
330
C
100
AcDbDictionary
281
     1
  3
A0
350
10042
  3
A1
350
10043
  3
A2
350
10044
  3
A3
350
10045
  3
A4
350
10046
  3
A5
350
10047
  3
A6
350
10048
  3
A7
350
10049
  3
A8
350
1004A
  3
A9
350
1004B
  3
B0
350
1004C
  3
B1
350
1004D
  3
B2
350
1004E
  3
B3
350
1004F
  3
B4
350
10050
  3
B5
350
10051
  3
B6
350
10052
  3
B7
350
10053
  3
B8
350
10054
  3
B9
350
10055
  3
C0
350
10056
  3
C1
350
10057
  3
C2
350
10058
  3
C3
350
10059
  3
C4
350
1005A
  3
C5
350
1005B
  3
C6
350
1005C
  3
C7
350
1005D
  3
C8
350
1005E
  3
C9
350
1005F
  3
D0
350
10060
  3
D1
350
10061
  3
D2
350
10062
  0
DICTIONARY
  5
1007B
102
{ACAD_REACTORS
330
C
102
}
330
C
100
AcDbDictionary
281
     1
  3
Standard
350
1007C
  0
DICTIONARY
  5
1006A
102
{ACAD_REACTORS
330
C
102
}
330
C
100
AcDbDictionary
281
     1
  3
2dWireframe
350
1006F
  3
3D Hidden
350
10071
  3
3dWireframe
350
10070
  3
Basic
350
10072
  3
Brighten
350
10076
  3
ColorChange
350
1007A
  3
Conceptual
350
10074
  3
Dim
350
10075
  3
Facepattern
350
10079
  3
Flat
350
1006B
  3
FlatWithEdges
350
1006C
  3
Gouraud
350
1006D
  3
GouraudWithEdges
350
1006E
  3
Linepattern
350
10078
  3
Realistic
350
10073
  3
Thicken
350
10077
  0
DICTIONARY
  5
1003E
102
{ACAD_REACTORS
330
C
102
}
330
C
100
AcDbDictionary
281
     1
  3
CANNOSCALE
350
1007D
  3
CTABLESTYLE
350
10081
  0
XRECORD
  5
10080
102
{ACAD_REACTORS
330
C
102
}
330
C
100
AcDbXrecord
280
     1
 90
        1
330
1007C
  0
DICTIONARY
  5
1003B
102
{ACAD_REACTORS
330
C
102
}
330
C
100
AcDbDictionary
281
     1
  0
LAYOUT
  5
10064
102
{ACAD_REACTORS
330
10063
102
}
330
10063
100
AcDbPlotSettings
  1

  2
none_device
  4

  6

 40
0.0
 41
0.0
 42
0.0
 43
0.0
 44
0.0
 45
0.0
 46
0.0
 47
0.0
 48
0.0
 49
0.0
140
0.0
141
0.0
142
1.0
143
1.0
 70
  1712
 72
     0
 73
     0
 74
     0
  7

 75
     0
 76
     0
 77
     2
 78
   300
147
1.0
148
0.0
149
0.0
100
AcDbLayout
  1
Model
 70
     1
 71
     0
 10
0.0
 20
0.0
 11
12.0
 21
9.0
 12
0.0
 22
0.0
 32
0.0
 14
0.465594
 24
0.4931640179192536
 34
0.0
 15
37.95925970808923
 25
77.85807194073007
 35
0.0
146
0.0
 13
0.0
 23
0.0
 33
0.0
 16
1.0
 26
0.0
 36
0.0
 17
0.0
 27
1.0
 37
0.0
 76
     0
330
1F
331
2E
  0
LAYOUT
  5
10065
102
{ACAD_REACTORS
330
10063
102
}
330
10063
100
AcDbPlotSettings
  1

  2
none_device
  4

  6

 40
0.0
 41
0.0
 42
0.0
 43
0.0
 44
0.0
 45
0.0
 46
0.0
 47
0.0
 48
0.0
 49
0.0
140
0.0
141
0.0
142
1.0
143
1.0
 70
   688
 72
     0
 73
     0
 74
     5
  7

 75
    16
 76
     0
 77
     2
 78
   300
147
1.0
148
0.0
149
0.0
100
AcDbLayout
  1
Sheet 1
 70
     1
 71
     1
 10
0.0
 20
0.0
 11
0.0
 21
0.0
 12
0.0
 22
0.0
 32
0.0
 14
1.000000000000000E+20
 24
1.000000000000000E+20
 34
1.000000000000000E+20
 15
-1.000000000000000E+20
 25
-1.000000000000000E+20
 35
-1.000000000000000E+20
146
0.0
 13
0.0
 23
0.0
 33
0.0
 16
1.0
 26
0.0
 36
0.0
 17
0.0
 27
1.0
 37
0.0
 76
     0
330
1B
  0
MATERIAL
  5
10068
102
{ACAD_REACTORS
330
10066
102
}
330
10066
100
AcDbMaterial
  1
ByBlock
 72
     1
 94
      127
  0
MATERIAL
  5
10067
102
{ACAD_REACTORS
330
10066
102
}
330
10066
100
AcDbMaterial
  1
ByLayer
 72
     1
 94
      127
  0
MATERIAL
  5
10069
102
{ACAD_REACTORS
330
10066
102
}
330
10066
100
AcDbMaterial
  1
Global
 72
     1
 94
      127
  0
MLINESTYLE
  5
10040
102
{ACAD_REACTORS
330
17
102
}
330
17
100
AcDbMlineStyle
  2
Standard
 70
     0
  3

 62
   256
 51
90.0
 52
90.0
 71
     2
 49
0.5
 62
   256
  6
BYLAYER
 49
-0.5
 62
   256
  6
BYLAYER
  0
SCALE
  5
10042
102
{ACAD_REACTORS
330
10041
102
}
330
10041
100
AcDbScale
 70
     0
300
1:1
140
1.0
141
1.0
290
     1
  0
SCALE
  5
10043
102
{ACAD_REACTORS
330
10041
102
}
330
10041
100
AcDbScale
 70
     0
300
1:2
140
1.0
141
2.0
290
     0
  0
SCALE
  5
10044
102
{ACAD_REACTORS
330
10041
102
}
330
10041
100
AcDbScale
 70
     0
300
1:4
140
1.0
141
4.0
290
     0
  0
SCALE
  5
10045
102
{ACAD_REACTORS
330
10041
102
}
330
10041
100
AcDbScale
 70
     0
300
1:5
140
1.0
141
5.0
290
     0
  0
SCALE
  5
10046
102
{ACAD_REACTORS
330
10041
102
}
330
10041
100
AcDbScale
 70
     0
300
1:8
140
1.0
141
8.0
290
     0
  0
SCALE
  5
10047
102
{ACAD_REACTORS
330
10041
102
}
330
10041
100
AcDbScale
 70
     0
300
1:10
140
1.0
141
10.0
290
     0
  0
SCALE
  5
10048
102
{ACAD_REACTORS
330
10041
102
}
330
10041
100
AcDbScale
 70
     0
300
1:16
140
1.0
141
16.0
290
     0
  0
SCALE
  5
10049
102
{ACAD_REACTORS
330
10041
102
}
330
10041
100
AcDbScale
 70
     0
300
1:20
140
1.0
141
20.0
290
     0
  0
SCALE
  5
1004A
102
{ACAD_REACTORS
330
10041
102
}
330
10041
100
AcDbScale
 70
     0
300
1:30
140
1.0
141
30.0
290
     0
  0
SCALE
  5
1004B
102
{ACAD_REACTORS
330
10041
102
}
330
10041
100
AcDbScale
 70
     0
300
1:40
140
1.0
141
40.0
290
     0
  0
SCALE
  5
1004C
102
{ACAD_REACTORS
330
10041
102
}
330
10041
100
AcDbScale
 70
     0
300
1:50
140
1.0
141
50.0
290
     0
  0
SCALE
  5
1004D
102
{ACAD_REACTORS
330
10041
102
}
330
10041
100
AcDbScale
 70
     0
300
1:100
140
1.0
141
100.0
290
     0
  0
SCALE
  5
1004E
102
{ACAD_REACTORS
330
10041
102
}
330
10041
100
AcDbScale
 70
     0
300
2:1
140
2.0
141
1.0
290
     0
  0
SCALE
  5
1004F
102
{ACAD_REACTORS
330
10041
102
}
330
10041
100
AcDbScale
 70
     0
300
4:1
140
4.0
141
1.0
290
     0
  0
SCALE
  5
10050
102
{ACAD_REACTORS
330
10041
102
}
330
10041
100
AcDbScale
 70
     0
300
8:1
140
8.0
141
1.0
290
     0
  0
SCALE
  5
10051
102
{ACAD_REACTORS
330
10041
102
}
330
10041
100
AcDbScale
 70
     0
300
10:1
140
10.0
141
1.0
290
     0
  0
SCALE
  5
10052
102
{ACAD_REACTORS
330
10041
102
}
330
10041
100
AcDbScale
 70
     0
300
100:1
140
100.0
141
1.0
290
     0
  0
SCALE
  5
10053
102
{ACAD_REACTORS
330
10041
102
}
330
10041
100
AcDbScale
 70
     0
300
1/128\" = 1\'-0\"
140
0.0078125
141
12.0
290
     0
  0
SCALE
  5
10054
102
{ACAD_REACTORS
330
10041
102
}
330
10041
100
AcDbScale
 70
     0
300
1/64\" = 1\'-0\"
140
0.015625
141
12.0
290
     0
  0
SCALE
  5
10055
102
{ACAD_REACTORS
330
10041
102
}
330
10041
100
AcDbScale
 70
     0
300
1/32\" = 1\'-0\"
140
0.03125
141
12.0
290
     0
  0
SCALE
  5
10056
102
{ACAD_REACTORS
330
10041
102
}
330
10041
100
AcDbScale
 70
     0
300
1/16\" = 1\'-0\"
140
0.0625
141
12.0
290
     0
  0
SCALE
  5
10057
102
{ACAD_REACTORS
330
10041
102
}
330
10041
100
AcDbScale
 70
     0
300
3/32\" = 1\'-0\"
140
0.09375
141
12.0
290
     0
  0
SCALE
  5
10058
102
{ACAD_REACTORS
330
10041
102
}
330
10041
100
AcDbScale
 70
     0
300
1/8\" = 1\'-0\"
140
0.125
141
12.0
290
     0
  0
SCALE
  5
10059
102
{ACAD_REACTORS
330
10041
102
}
330
10041
100
AcDbScale
 70
     0
300
3/16\" = 1\'-0\"
140
0.1875
141
12.0
290
     0
  0
SCALE
  5
1005A
102
{ACAD_REACTORS
330
10041
102
}
330
10041
100
AcDbScale
 70
     0
300
1/4\" = 1\'-0\"
140
0.25
141
12.0
290
     0
  0
SCALE
  5
1005B
102
{ACAD_REACTORS
330
10041
102
}
330
10041
100
AcDbScale
 70
     0
300
3/8\" = 1\'-0\"
140
0.375
141
12.0
290
     0
  0
SCALE
  5
1005C
102
{ACAD_REACTORS
330
10041
102
}
330
10041
100
AcDbScale
 70
     0
300
1/2\" = 1\'-0\"
140
0.5
141
12.0
290
     0
  0
SCALE
  5
1005D
102
{ACAD_REACTORS
330
10041
102
}
330
10041
100
AcDbScale
 70
     0
300
3/4\" = 1\'-0\"
140
0.75
141
12.0
290
     0
  0
SCALE
  5
1005E
102
{ACAD_REACTORS
330
10041
102
}
330
10041
100
AcDbScale
 70
     0
300
1\" = 1\'-0\"
140
1.0
141
12.0
290
     0
  0
SCALE
  5
1005F
102
{ACAD_REACTORS
330
10041
102
}
330
10041
100
AcDbScale
 70
     0
300
1-1/2\" = 1\'-0\"
140
1.5
141
12.0
290
     0
  0
SCALE
  5
10060
102
{ACAD_REACTORS
330
10041
102
}
330
10041
100
AcDbScale
 70
     0
300
3\" = 1\'-0\"
140
3.0
141
12.0
290
     0
  0
SCALE
  5
10061
102
{ACAD_REACTORS
330
10041
102
}
330
10041
100
AcDbScale
 70
     0
300
6\" = 1\'-0\"
140
6.0
141
12.0
290
     0
  0
SCALE
  5
10062
102
{ACAD_REACTORS
330
10041
102
}
330
10041
100
AcDbScale
 70
     0
300
1\'-0\" = 1\'-0\"
140
12.0
141
12.0
290
     0
  0
TABLESTYLE
  5
1007C
102
{ACAD_REACTORS
330
1007B
102
}
102
{ACAD_XDICTIONARY
360
1007E
102
}
330
1007B
100
AcDbTableStyle
  3
Standard
 70
     0
 71
     0
 40
0.06
 41
0.06
280
     0
281
     0
  7
STANDARD
140
4.5
170
     2
 62
     0
 63
   257
283
     0
 90
        4
 91
        0
  1

274
    -2
284
     1
 64
     0
275
    -2
285
     1
 65
     0
276
    -2
286
     1
 66
     0
277
    -2
287
     1
 67
     0
278
    -2
288
     1
 68
     0
279
    -2
289
     1
 69
     0
  7
STANDARD
140
6.0
170
     5
 62
     0
 63
   257
283
     0
 90
        4
 91
        0
  1

274
    -2
284
     1
 64
     0
275
    -2
285
     1
 65
     0
276
    -2
286
     1
 66
     0
277
    -2
287
     1
 67
     0
278
    -2
288
     1
 68
     0
279
    -2
289
     1
 69
     0
  7
STANDARD
140
4.5
170
     5
 62
     0
 63
   257
283
     0
 90
        4
 91
        0
  1

274
    -2
284
     1
 64
     0
275
    -2
285
     1
 65
     0
276
    -2
286
     1
 66
     0
277
    -2
287
     1
 67
     0
278
    -2
288
     1
 68
     0
279
    -2
289
     1
 69
     0
  0
VISUALSTYLE
  5
1006F
102
{ACAD_REACTORS
330
1006A
102
}
330
1006A
100
AcDbVisualStyle
  2
2dWireframe
 70
     4
177
     2
291
     0
 71
     0
176
     1
 72
     2
176
     1
 73
     0
176
     1
 90
        0
176
     1
 40
-0.6
176
     1
 41
-30.0
176
     1
 62
     5
 63
     7
421
 16777215
176
     1
 74
     1
176
     1
 91
        4
176
     1
 64
     7
176
     1
 65
   257
176
     1
 75
     1
176
     1
175
     1
176
     1
 42
1.0
176
     1
 92
        0
176
     1
 66
   257
176
     1
 43
1.0
176
     1
 76
     1
176
     1
 77
     6
176
     1
 78
     2
176
     1
 67
     7
176
     1
 79
     5
176
     1
170
     0
176
     1
171
     0
176
     1
290
     0
176
     1
 93
        1
176
     1
 44
0.0
176
     1
173
     0
176
     1
  0
VISUALSTYLE
  5
10071
102
{ACAD_REACTORS
330
1006A
102
}
330
1006A
100
AcDbVisualStyle
  2
3D Hidden
 70
     6
177
     2
291
     0
 71
     1
176
     1
 72
     2
176
     1
 73
     2
176
     1
 90
        0
176
     1
 40
-0.6
176
     1
 41
-30.0
176
     1
 62
     5
 63
     7
421
 16777215
176
     1
 74
     2
176
     1
 91
        2
176
     1
 64
     7
176
     1
 65
   257
176
     1
 75
     2
176
     1
175
     1
176
     1
 42
40.0
176
     1
 92
        0
176
     1
 66
   257
176
     1
 43
1.0
176
     1
 76
     1
176
     1
 77
     6
176
     1
 78
     2
176
     1
 67
     7
176
     1
 79
     3
176
     1
170
     0
176
     1
171
     0
176
     1
290
     0
176
     1
 93
        1
176
     1
 44
0.0
176
     1
173
     0
176
     1
  0
VISUALSTYLE
  5
10070
102
{ACAD_REACTORS
330
1006A
102
}
330
1006A
100
AcDbVisualStyle
  2
3dWireframe
 70
     5
177
     2
291
     0
 71
     0
176
     1
 72
     2
176
     1
 73
     0
176
     1
 90
        0
176
     1
 40
-0.6
176
     1
 41
-30.0
176
     1
 62
     5
 63
     7
421
 16777215
176
     1
 74
     1
176
     1
 91
        4
176
     1
 64
     7
176
     1
 65
   257
176
     1
 75
     1
176
     1
175
     1
176
     1
 42
1.0
176
     1
 92
        0
176
     1
 66
   257
176
     1
 43
1.0
176
     1
 76
     1
176
     1
 77
     6
176
     1
 78
     2
176
     1
 67
     7
176
     1
 79
     5
176
     1
170
     0
176
     1
171
     0
176
     1
290
     0
176
     1
 93
        1
176
     1
 44
0.0
176
     1
173
     0
176
     1
  0
VISUALSTYLE
  5
10072
102
{ACAD_REACTORS
330
1006A
102
}
330
1006A
100
AcDbVisualStyle
  2
Basic
 70
     7
177
     2
291
     1
 71
     1
176
     1
 72
     0
176
     1
 73
     1
176
     1
 90
        0
176
     1
 40
-0.6
176
     1
 41
-30.0
176
     1
 62
     5
 63
     7
421
 16777215
176
     1
 74
     0
176
     1
 91
        4
176
     1
 64
     7
176
     1
 65
   257
176
     1
 75
     1
176
     1
175
     1
176
     1
 42
1.0
176
     1
 92
        8
176
     1
 66
     7
176
     1
 43
1.0
176
     1
 76
     1
176
     1
 77
     6
176
     1
 78
     2
176
     1
 67
     7
176
     1
 79
     5
176
     1
170
     0
176
     1
171
     0
176
     1
290
     0
176
     1
 93
        1
176
     1
 44
0.0
176
     1
173
     0
176
     1
  0
VISUALSTYLE
  5
10076
102
{ACAD_REACTORS
330
1006A
102
}
330
1006A
100
AcDbVisualStyle
  2
Brighten
 70
    12
177
     2
291
     1
 71
     2
176
     1
 72
     2
176
     1
 73
     0
176
     1
 90
        0
176
     1
 40
-0.6
176
     1
 41
-30.0
176
     1
 62
     5
 63
     7
421
 16777215
176
     1
 74
     1
176
     1
 91
        4
176
     1
 64
     7
176
     1
 65
   257
176
     1
 75
     1
176
     1
175
     1
176
     1
 42
1.0
176
     1
 92
        8
176
     1
 66
     7
176
     1
 43
1.0
176
     1
 76
     1
176
     1
 77
     6
176
     1
 78
     2
176
     1
 67
     7
176
     1
 79
     5
176
     1
170
     0
176
     1
171
     0
176
     1
290
     0
176
     1
 93
        1
176
     1
 44
50.0
176
     1
173
     0
176
     1
  0
VISUALSTYLE
  5
1007A
102
{ACAD_REACTORS
330
1006A
102
}
330
1006A
100
AcDbVisualStyle
  2
ColorChange
 70
    16
177
     2
291
     1
 71
     2
176
     1
 72
     2
176
     1
 73
     3
176
     1
 90
        0
176
     1
 40
-0.6
176
     1
 41
-30.0
176
     1
 62
     5
 63
     8
421
  8421504
176
     1
 74
     1
176
     1
 91
        4
176
     1
 64
     7
176
     1
 65
   257
176
     1
 75
     1
176
     1
175
     1
176
     1
 42
1.0
176
     1
 92
        8
176
     1
 66
     8
424
  8421504
176
     1
 43
1.0
176
     1
 76
     1
176
     1
 77
     6
176
     1
 78
     2
176
     1
 67
     7
176
     1
 79
     5
176
     1
170
     0
176
     1
171
     0
176
     1
290
     0
176
     1
 93
        1
176
     1
 44
0.0
176
     1
173
     0
176
     1
  0
VISUALSTYLE
  5
10074
102
{ACAD_REACTORS
330
1006A
102
}
330
1006A
100
AcDbVisualStyle
  2
Conceptual
 70
     9
177
     2
291
     0
 71
     3
176
     1
 72
     2
176
     1
 73
     0
176
     1
 90
        0
176
     1
 40
-0.6
176
     1
 41
-30.0
176
     1
 62
     5
 63
     7
421
 16777215
176
     1
 74
     2
176
     1
 91
        2
176
     1
 64
     7
176
     1
 65
   257
176
     1
 75
     1
176
     1
175
     1
176
     1
 42
40.0
176
     1
 92
        8
176
     1
 66
     7
176
     1
 43
1.0
176
     1
 76
     1
176
     1
 77
     6
176
     1
 78
     2
176
     1
 67
     7
176
     1
 79
     3
176
     1
170
     0
176
     1
171
     0
176
     1
290
     0
176
     1
 93
        1
176
     1
 44
0.0
176
     1
173
     0
176
     1
  0
VISUALSTYLE
  5
10075
102
{ACAD_REACTORS
330
1006A
102
}
330
1006A
100
AcDbVisualStyle
  2
Dim
 70
    11
177
     2
291
     1
 71
     2
176
     1
 72
     2
176
     1
 73
     0
176
     1
 90
        0
176
     1
 40
-0.6
176
     1
 41
-30.0
176
     1
 62
     5
 63
     7
421
 16777215
176
     1
 74
     1
176
     1
 91
        4
176
     1
 64
     7
176
     1
 65
   257
176
     1
 75
     1
176
     1
175
     1
176
     1
 42
1.0
176
     1
 92
        8
176
     1
 66
     7
176
     1
 43
1.0
176
     1
 76
     1
176
     1
 77
     6
176
     1
 78
     2
176
     1
 67
     7
176
     1
 79
     5
176
     1
170
     0
176
     1
171
     0
176
     1
290
     0
176
     1
 93
        1
176
     1
 44
-50.0
176
     1
173
     0
176
     1
  0
VISUALSTYLE
  5
10079
102
{ACAD_REACTORS
330
1006A
102
}
330
1006A
100
AcDbVisualStyle
  2
Facepattern
 70
    15
177
     2
291
     1
 71
     2
176
     1
 72
     2
176
     1
 73
     0
176
     1
 90
        0
176
     1
 40
-0.6
176
     1
 41
-30.0
176
     1
 62
     5
 63
     7
421
 16777215
176
     1
 74
     1
176
     1
 91
        4
176
     1
 64
     7
176
     1
 65
   257
176
     1
 75
     1
176
     1
175
     1
176
     1
 42
1.0
176
     1
 92
        8
176
     1
 66
     7
176
     1
 43
1.0
176
     1
 76
     1
176
     1
 77
     6
176
     1
 78
     2
176
     1
 67
     7
176
     1
 79
     5
176
     1
170
     0
176
     1
171
     0
176
     1
290
     0
176
     1
 93
        1
176
     1
 44
0.0
176
     1
173
     0
176
     1
  0
VISUALSTYLE
  5
1006B
102
{ACAD_REACTORS
330
1006A
102
}
330
1006A
100
AcDbVisualStyle
  2
Flat
 70
     0
177
     2
291
     1
 71
     2
176
     1
 72
     1
176
     1
 73
     1
176
     1
 90
        2
176
     1
 40
-0.6
176
     1
 41
30.0
176
     1
 62
     5
 63
     7
421
 16777215
176
     1
 74
     0
176
     1
 91
        4
176
     1
 64
     7
176
     1
 65
   257
176
     1
 75
     1
176
     1
175
     1
176
     1
 42
1.0
176
     1
 92
        8
176
     1
 66
     7
176
     1
 43
1.0
176
     1
 76
     1
176
     1
 77
     6
176
     1
 78
     2
176
     1
 67
     7
176
     1
 79
     5
176
     1
170
     0
176
     1
171
     0
176
     1
290
     0
176
     1
 93
       13
176
     1
 44
0.0
176
     1
173
     0
176
     1
  0
VISUALSTYLE
  5
1006C
102
{ACAD_REACTORS
330
1006A
102
}
330
1006A
100
AcDbVisualStyle
  2
FlatWithEdges
 70
     1
177
     2
291
     1
 71
     2
176
     1
 72
     1
176
     1
 73
     1
176
     1
 90
        2
176
     1
 40
-0.6
176
     1
 41
30.0
176
     1
 62
     5
 63
     7
421
 16777215
176
     1
 74
     1
176
     1
 91
        4
176
     1
 64
     7
176
     1
 65
   257
176
     1
 75
     1
176
     1
175
     1
176
     1
 42
1.0
176
     1
 92
        0
176
     1
 66
   257
176
     1
 43
1.0
176
     1
 76
     1
176
     1
 77
     6
176
     1
 78
     2
176
     1
 67
     7
176
     1
 79
     5
176
     1
170
     0
176
     1
171
     0
176
     1
290
     0
176
     1
 93
       13
176
     1
 44
0.0
176
     1
173
     0
176
     1
  0
VISUALSTYLE
  5
1006D
102
{ACAD_REACTORS
330
1006A
102
}
330
1006A
100
AcDbVisualStyle
  2
Gouraud
 70
     2
177
     2
291
     1
 71
     2
176
     1
 72
     2
176
     1
 73
     1
176
     1
 90
        2
176
     1
 40
-0.6
176
     1
 41
30.0
176
     1
 62
     5
 63
     7
421
 16777215
176
     1
 74
     0
176
     1
 91
        4
176
     1
 64
     7
176
     1
 65
   257
176
     1
 75
     1
176
     1
175
     1
176
     1
 42
1.0
176
     1
 92
        0
176
     1
 66
     7
176
     1
 43
1.0
176
     1
 76
     1
176
     1
 77
     6
176
     1
 78
     2
176
     1
 67
     7
176
     1
 79
     5
176
     1
170
     0
176
     1
171
     0
176
     1
290
     0
176
     1
 93
       13
176
     1
 44
0.0
176
     1
173
     0
176
     1
  0
VISUALSTYLE
  5
1006E
102
{ACAD_REACTORS
330
1006A
102
}
330
1006A
100
AcDbVisualStyle
  2
GouraudWithEdges
 70
     3
177
     2
291
     1
 71
     2
176
     1
 72
     2
176
     1
 73
     1
176
     1
 90
        2
176
     1
 40
-0.6
176
     1
 41
30.0
176
     1
 62
     5
 63
     7
421
 16777215
176
     1
 74
     1
176
     1
 91
        4
176
     1
 64
     7
176
     1
 65
   257
176
     1
 75
     1
176
     1
175
     1
176
     1
 42
1.0
176
     1
 92
        0
176
     1
 66
   257
176
     1
 43
1.0
176
     1
 76
     1
176
     1
 77
     6
176
     1
 78
     2
176
     1
 67
     7
176
     1
 79
     5
176
     1
170
     0
176
     1
171
     0
176
     1
290
     0
176
     1
 93
       13
176
     1
 44
0.0
176
     1
173
     0
176
     1
  0
VISUALSTYLE
  5
10078
102
{ACAD_REACTORS
330
1006A
102
}
330
1006A
100
AcDbVisualStyle
  2
Linepattern
 70
    14
177
     2
291
     1
 71
     2
176
     1
 72
     2
176
     1
 73
     0
176
     1
 90
        0
176
     1
 40
-0.6
176
     1
 41
-30.0
176
     1
 62
     5
 63
     7
421
 16777215
176
     1
 74
     1
176
     1
 91
        4
176
     1
 64
     7
176
     1
 65
   257
176
     1
 75
     7
176
     1
175
     7
176
     1
 42
1.0
176
     1
 92
        8
176
     1
 66
     7
176
     1
 43
1.0
176
     1
 76
     1
176
     1
 77
     6
176
     1
 78
     2
176
     1
 67
     7
176
     1
 79
     5
176
     1
170
     0
176
     1
171
     0
176
     1
290
     0
176
     1
 93
        1
176
     1
 44
0.0
176
     1
173
     0
176
     1
  0
VISUALSTYLE
  5
10073
102
{ACAD_REACTORS
330
1006A
102
}
330
1006A
100
AcDbVisualStyle
  2
Realistic
 70
     8
177
     2
291
     0
 71
     2
176
     1
 72
     2
176
     1
 73
     0
176
     1
 90
        0
176
     1
 40
-0.6
176
     1
 41
-30.0
176
     1
 62
     5
 63
     7
421
 16777215
176
     1
 74
     1
176
     1
 91
        0
176
     1
 64
     7
176
     1
 65
   257
176
     1
 75
     1
176
     1
175
     1
176
     1
 42
1.0
176
     1
 92
        8
176
     1
 66
     8
424
  7895160
176
     1
 43
1.0
176
     1
 76
     1
176
     1
 77
     6
176
     1
 78
     2
176
     1
 67
     7
176
     1
 79
     5
176
     1
170
     0
176
     1
171
     0
176
     1
290
     0
176
     1
 93
       13
176
     1
 44
0.0
176
     1
173
     0
176
     1
  0
VISUALSTYLE
  5
10077
102
{ACAD_REACTORS
330
1006A
102
}
330
1006A
100
AcDbVisualStyle
  2
Thicken
 70
    13
177
     2
291
     1
 71
     2
176
     1
 72
     2
176
     1
 73
     0
176
     1
 90
        0
176
     1
 40
-0.6
176
     1
 41
-30.0
176
     1
 62
     5
 63
     7
421
 16777215
176
     1
 74
     1
176
     1
 91
        4
176
     1
 64
     7
176
     1
 65
   257
176
     1
 75
     1
176
     1
175
     1
176
     1
 42
1.0
176
     1
 92
       12
176
     1
 66
     7
176
     1
 43
1.0
176
     1
 76
     1
176
     1
 77
     6
176
     1
 78
     2
176
     1
 67
     7
176
     1
 79
     5
176
     1
170
     0
176
     1
171
     0
176
     1
290
     0
176
     1
 93
        1
176
     1
 44
0.0
176
     1
173
     0
176
     1
  0
DICTIONARYVAR
  5
1007D
102
{ACAD_REACTORS
330
1003E
102
}
330
1003E
100
DictionaryVariables
280
     0
  1
1:1
  0
DICTIONARYVAR
  5
10081
102
{ACAD_REACTORS
330
1003E
102
}
330
1003E
100
DictionaryVariables
280
     0
  1
Standard
  0
DICTIONARY
  5
1007E
330
1007C
100
AcDbDictionary
280
     1
281
     1
  3
ACAD_ROUNDTRIP_2008_TABLESTYLE_CELLSTYLEMAP
360
1007F
  0
CELLSTYLEMAP
  5
1007F
102
{ACAD_REACTORS
330
1007E
102
}
330
1007E
100
AcDbCellStyleMap
 90
        3
300
CELLSTYLE
  1
TABLEFORMAT_BEGIN
 90
        5
170
     1
 91
        0
 92
        0
 62
   257
 93
        1
300
CONTENTFORMAT
  1
CONTENTFORMAT_BEGIN
 90
        0
 91
        0
 92
        4
 93
        0
300

 40
0.0
140
1.0
 94
        5
 62
     0
340
11
144
6.0
309
CONTENTFORMAT_END
171
     1
301
MARGIN
  1
CELLMARGIN_BEGIN
 40
1.5
 40
1.5
 40
1.5
 40
1.5
 40
1.5
 40
1.5
309
CELLMARGIN_END
 94
        6
 95
        1
302
GRIDFORMAT
  1
GRIDFORMAT_BEGIN
 90
        0
 91
        1
 62
     0
 92
       -2
340
14
 93
        0
 40
0.045
309
GRIDFORMAT_END
 95
        2
302
GRIDFORMAT
  1
GRIDFORMAT_BEGIN
 90
        0
 91
        1
 62
     0
 92
       -2
340
14
 93
        0
 40
0.045
309
GRIDFORMAT_END
 95
        4
302
GRIDFORMAT
  1
GRIDFORMAT_BEGIN
 90
        0
 91
        1
 62
     0
 92
       -2
340
14
 93
        0
 40
0.045
309
GRIDFORMAT_END
 95
        8
302
GRIDFORMAT
  1
GRIDFORMAT_BEGIN
 90
        0
 91
        1
 62
     0
 92
       -2
340
14
 93
        0
 40
0.045
309
GRIDFORMAT_END
 95
       16
302
GRIDFORMAT
  1
GRIDFORMAT_BEGIN
 90
        0
 91
        1
 62
     0
 92
       -2
340
14
 93
        0
 40
0.045
309
GRIDFORMAT_END
 95
       32
302
GRIDFORMAT
  1
GRIDFORMAT_BEGIN
 90
        0
 91
        1
 62
     0
 92
       -2
340
14
 93
        0
 40
0.045
309
GRIDFORMAT_END
309
TABLEFORMAT_END
  1
CELLSTYLE_BEGIN
 90
        1
 91
        1
300
_TITLE
309
CELLSTYLE_END
300
CELLSTYLE
  1
TABLEFORMAT_BEGIN
 90
        5
170
     1
 91
        0
 92
        0
 62
   257
 93
        1
300
CONTENTFORMAT
  1
CONTENTFORMAT_BEGIN
 90
        0
 91
        0
 92
        4
 93
        0
300

 40
0.0
140
1.0
 94
        5
 62
     0
340
11
144
4.5
309
CONTENTFORMAT_END
171
     1
301
MARGIN
  1
CELLMARGIN_BEGIN
 40
1.5
 40
1.5
 40
1.5
 40
1.5
 40
1.5
 40
1.5
309
CELLMARGIN_END
 94
        6
 95
        1
302
GRIDFORMAT
  1
GRIDFORMAT_BEGIN
 90
        0
 91
        1
 62
     0
 92
       -2
340
14
 93
        0
 40
0.045
309
GRIDFORMAT_END
 95
        2
302
GRIDFORMAT
  1
GRIDFORMAT_BEGIN
 90
        0
 91
        1
 62
     0
 92
       -2
340
14
 93
        0
 40
0.045
309
GRIDFORMAT_END
 95
        4
302
GRIDFORMAT
  1
GRIDFORMAT_BEGIN
 90
        0
 91
        1
 62
     0
 92
       -2
340
14
 93
        0
 40
0.045
309
GRIDFORMAT_END
 95
        8
302
GRIDFORMAT
  1
GRIDFORMAT_BEGIN
 90
        0
 91
        1
 62
     0
 92
       -2
340
14
 93
        0
 40
0.045
309
GRIDFORMAT_END
 95
       16
302
GRIDFORMAT
  1
GRIDFORMAT_BEGIN
 90
        0
 91
        1
 62
     0
 92
       -2
340
14
 93
        0
 40
0.045
309
GRIDFORMAT_END
 95
       32
302
GRIDFORMAT
  1
GRIDFORMAT_BEGIN
 90
        0
 91
        1
 62
     0
 92
       -2
340
14
 93
        0
 40
0.045
309
GRIDFORMAT_END
309
TABLEFORMAT_END
  1
CELLSTYLE_BEGIN
 90
        2
 91
        1
300
_HEADER
309
CELLSTYLE_END
300
CELLSTYLE
  1
TABLEFORMAT_BEGIN
 90
        5
170
     1
 91
        0
 92
        0
 62
   257
 93
        1
300
CONTENTFORMAT
  1
CONTENTFORMAT_BEGIN
 90
        0
 91
        0
 92
        4
 93
        0
300

 40
0.0
140
1.0
 94
        2
 62
     0
340
11
144
4.5
309
CONTENTFORMAT_END
171
     1
301
MARGIN
  1
CELLMARGIN_BEGIN
 40
1.5
 40
1.5
 40
1.5
 40
1.5
 40
1.5
 40
1.5
309
CELLMARGIN_END
 94
        6
 95
        1
302
GRIDFORMAT
  1
GRIDFORMAT_BEGIN
 90
        0
 91
        1
 62
     0
 92
       -2
340
14
 93
        0
 40
0.045
309
GRIDFORMAT_END
 95
        2
302
GRIDFORMAT
  1
GRIDFORMAT_BEGIN
 90
        0
 91
        1
 62
     0
 92
       -2
340
14
 93
        0
 40
0.045
309
GRIDFORMAT_END
 95
        4
302
GRIDFORMAT
  1
GRIDFORMAT_BEGIN
 90
        0
 91
        1
 62
     0
 92
       -2
340
14
 93
        0
 40
0.045
309
GRIDFORMAT_END
 95
        8
302
GRIDFORMAT
  1
GRIDFORMAT_BEGIN
 90
        0
 91
        1
 62
     0
 92
       -2
340
14
 93
        0
 40
0.045
309
GRIDFORMAT_END
 95
       16
302
GRIDFORMAT
  1
GRIDFORMAT_BEGIN
 90
        0
 91
        1
 62
     0
 92
       -2
340
14
 93
        0
 40
0.045
309
GRIDFORMAT_END
 95
       32
302
GRIDFORMAT
  1
GRIDFORMAT_BEGIN
 90
        0
 91
        1
 62
     0
 92
       -2
340
14
 93
        0
 40
0.045
309
GRIDFORMAT_END
309
TABLEFORMAT_END
  1
CELLSTYLE_BEGIN
 90
        3
 91
        2
300
_DATA
309
CELLSTYLE_END
  0
ENDSEC
  0
EOF
