  0
SECTION
  2
HEADER
  9
$ACADVER
  1
AC1009
  9
$EXTMIN
 10
1.49107013
 20
0.15104303
 30
0.0
  9
$EXTMAX
 10
8.50892987
 20
9.84895697
 30
0.0
  0
ENDSEC
  0
SECTION
  2
TABLES
  0
TABLE
  2
LAYER
 70
1
 0
LAYER
 2
Default_Layer
 70
0
 62
1
 6
CONTINUOUS
 0
ENDTAB
 0
ENDSEC
  0
SECTION
  2
ENTITIES
  0
POLYLINE
  8
Default_Layer
 66
   1
 39
0.000000
 70
    1
  0
VERTEX
  8
0
 10
2.51870353
 20
8.44926561
  0
VERTEX
  8
0
 10
2.58765205
 20
8.34460301
  0
VERTEX
  8
0
 10
2.65759242
 20
8.24093228
  0
VERTEX
  8
0
 10
2.59568998
 20
8.26583604
  0
VERTEX
  8
0
 10
2.55634371
 20
8.31329468
  0
VERTEX
  8
0
 10
2.51870353
 20
8.44926561
  0
SEQEND
  0
POLYLINE
  8
Default_Layer
 66
   1
 39
0.000000
 70
    0
  0
VERTEX
  8
0
 10
3.62569942
 20
7.91222857
  0
VERTEX
  8
0
 10
3.68903013
 20
7.86973460
  0
VERTEX
  8
0
 10
3.73461400
 20
7.81108892
  0
VERTEX
  8
0
 10
3.77705231
 20
7.75028672
  0
VERTEX
  8
0
 10
3.83094633
 20
7.70132322
  0
SEQEND
  0
POLYLINE
  8
Default_Layer
 66
   1
 39
0.000000
 70
    0
  0
VERTEX
  8
0
 10
3.83094633
 20
7.70132322
  0
VERTEX
  8
0
 10
3.97033050
 20
7.77370985
  0
VERTEX
  8
0
 10
4.08560410
 20
7.87850723
  0
VERTEX
  8
0
 10
4.18298811
 20
8.00350891
  0
VERTEX
  8
0
 10
4.26870353
 20
8.13650841
  0
SEQEND
  0
POLYLINE
  8
Default_Layer
 66
   1
 39
0.000000
 70
    0
  0
VERTEX
  8
0
 10
3.87261300
 20
7.54854544
  0
VERTEX
  8
0
 10
4.09953700
 20
7.59674241
  0
VERTEX
  8
0
 10
4.31347899
 20
7.60205382
  0
VERTEX
  8
0
 10
4.41396865
 20
7.58462625
  0
VERTEX
  8
0
 10
4.50927709
 20
7.55167585
  0
VERTEX
  8
0
 10
4.59875908
 20
7.50160217
  0
VERTEX
  8
0
 10
4.68176937
 20
7.43280470
  0
VERTEX
  8
0
 10
4.78534786
 20
7.30023170
  0
VERTEX
  8
0
 10
4.87054517
 20
7.14859537
  0
VERTEX
  8
0
 10
4.94906035
 20
6.99901741
  0
VERTEX
  8
0
 10
5.03259242
 20
6.87261952
  0
SEQEND
  0
POLYLINE
  8
Default_Layer
 66
   1
 39
0.000000
 70
    0
  0
VERTEX
  8
0
 10
3.84174880
 20
7.34844256
  0
VERTEX
  8
0
 10
4.08933146
 20
7.28449614
  0
VERTEX
  8
0
 10
4.20668413
 20
7.23712572
  0
VERTEX
  8
0
 10
4.31705744
 20
7.17148783
  0
SEQEND
  0
POLYLINE
  8
Default_Layer
 66
   1
 39
0.000000
 70
    0
  0
VERTEX
  8
0
 10
3.55522616
 20
7.09175532
  0
VERTEX
  8
0
 10
3.57679776
 20
6.71628850
  0
VERTEX
  8
0
 10
3.61052842
 20
6.53242484
  0
VERTEX
  8
0
 10
3.67148131
 20
6.35873063
  0
SEQEND
  0
POLYLINE
  8
Default_Layer
 66
   1
 39
0.000000
 70
    0
  0
VERTEX
  8
0
 10
3.26355950
 20
6.49453310
  0
VERTEX
  8
0
 10
3.23786355
 20
6.31940986
  0
VERTEX
  8
0
 10
3.24729418
 20
6.14528755
  0
VERTEX
  8
0
 10
3.28979022
 20
5.97807293
  0
VERTEX
  8
0
 10
3.36329052
 20
5.82367277
  0
VERTEX
  8
0
 10
3.46573391
 20
5.68799384
  0
VERTEX
  8
0
 10
3.59505922
 20
5.57694289
  0
VERTEX
  8
0
 10
3.74920528
 20
5.49642670
  0
VERTEX
  8
0
 10
3.92611094
 20
5.45235203
  0
SEQEND
  0
POLYLINE
  8
Default_Layer
 66
   1
 39
0.000000
 70
    0
  0
VERTEX
  8
0
 10
3.92611094
 20
5.45235203
  0
VERTEX
  8
0
 10
4.01474935
 20
5.65295613
  0
VERTEX
  8
0
 10
4.07312243
 20
5.86603353
  0
VERTEX
  8
0
 10
4.10113738
 20
6.08664465
  0
VERTEX
  8
0
 10
4.09870141
 20
6.30984993
  0
VERTEX
  8
0
 10
4.06572172
 20
6.53070979
  0
VERTEX
  8
0
 10
4.00210553
 20
6.74428466
  0
VERTEX
  8
0
 10
3.90776002
 20
6.94563498
  0
VERTEX
  8
0
 10
3.78259242
 20
7.12982116
  0
SEQEND
  0
POLYLINE
  8
Default_Layer
 66
   1
 39
0.000000
 70
    0
  0
VERTEX
  8
0
 10
3.92611094
 20
5.45235203
  0
VERTEX
  8
0
 10
3.93999983
 20
5.42508865
  0
SEQEND
  0
POLYLINE
  8
Default_Layer
 66
   1
 39
0.000000
 70
    0
  0
VERTEX
  8
0
 10
3.26355950
 20
6.49453310
  0
VERTEX
  8
0
 10
3.22626625
 20
6.47661370
  0
VERTEX
  8
0
 10
3.18331258
 20
6.43949195
  0
VERTEX
  8
0
 10
3.04224850
 20
6.36023065
  0
VERTEX
  8
0
 10
2.89529500
 20
6.30114402
  0
VERTEX
  8
0
 10
2.74361318
 20
6.25899431
  0
VERTEX
  8
0
 10
2.58836413
 20
6.23054373
  0
VERTEX
  8
0
 10
2.27180872
 20
6.20178895
  0
VERTEX
  8
0
 10
1.95491752
 20
6.18897754
  0
VERTEX
  8
0
 10
2.02760902
 20
6.45863222
  0
VERTEX
  8
0
 10
2.11936756
 20
6.73786172
  0
VERTEX
  8
0
 10
2.18221697
 20
6.86718154
  0
VERTEX
  8
0
 10
2.26161713
 20
6.98223248
  0
VERTEX
  8
0
 10
2.36149605
 20
7.07746032
  0
VERTEX
  8
0
 10
2.48578172
 20
7.14731088
  0
SEQEND
  0
POLYLINE
  8
Default_Layer
 66
   1
 39
0.000000
 70
    0
  0
VERTEX
  8
0
 10
2.48578172
 20
7.14731088
  0
VERTEX
  8
0
 10
2.49720899
 20
7.20148378
  0
VERTEX
  8
0
 10
2.53006699
 20
7.24224087
  0
VERTEX
  8
0
 10
2.56457352
 20
7.28028606
  0
VERTEX
  8
0
 10
2.58094633
 20
7.32632322
  0
SEQEND
  0
POLYLINE
  8
Default_Layer
 66
   1
 39
0.000000
 70
    0
  0
VERTEX
  8
0
 10
2.58094633
 20
7.32632322
  0
VERTEX
  8
0
 10
2.52453303
 20
7.38149111
  0
VERTEX
  8
0
 10
2.48070489
 20
7.45312150
  0
VERTEX
  8
0
 10
2.44998829
 20
7.53659341
  0
VERTEX
  8
0
 10
2.43290962
 20
7.62728588
  0
VERTEX
  8
0
 10
2.42999526
 20
7.72057791
  0
VERTEX
  8
0
 10
2.44177160
 20
7.81184855
  0
VERTEX
  8
0
 10
2.46876501
 20
7.89647682
  0
VERTEX
  8
0
 10
2.51150188
 20
7.96984174
  0
SEQEND
  0
POLYLINE
  8
Default_Layer
 66
   1
 39
0.000000
 70
    0
  0
VERTEX
  8
0
 10
2.51150188
 20
7.96984174
  0
VERTEX
  8
0
 10
2.39890066
 20
8.05088934
  0
VERTEX
  8
0
 10
2.31705522
 20
8.15159638
  0
VERTEX
  8
0
 10
2.25814916
 20
8.26698826
  0
VERTEX
  8
0
 10
2.21436609
 20
8.39209038
  0
VERTEX
  8
0
 10
2.14090330
 20
8.65152693
  0
VERTEX
  8
0
 10
2.09559078
 20
8.77591216
  0
VERTEX
  8
0
 10
2.03413563
 20
8.89010923
  0
VERTEX
  8
0
 10
2.18811718
 20
8.88454170
  0
VERTEX
  8
0
 10
2.34609604
 20
8.86067734
  0
VERTEX
  8
0
 10
2.50314585
 20
8.81885161
  0
VERTEX
  8
0
 10
2.65434026
 20
8.75939996
  0
VERTEX
  8
0
 10
2.79475292
 20
8.68265785
  0
VERTEX
  8
0
 10
2.91945748
 20
8.58896075
  0
VERTEX
  8
0
 10
3.02352757
 20
8.47864411
  0
VERTEX
  8
0
 10
3.10203686
 20
8.35204339
  0
SEQEND
  0
POLYLINE
  8
Default_Layer
 66
   1
 39
0.000000
 70
    0
  0
VERTEX
  8
0
 10
3.10203686
 20
8.35204339
  0
VERTEX
  8
0
 10
3.13907390
 20
8.33352487
  0
SEQEND
  0
POLYLINE
  8
Default_Layer
 66
   1
 39
0.000000
 70
    0
  0
VERTEX
  8
0
 10
3.13907390
 20
8.33352487
  0
VERTEX
  8
0
 10
3.18742781
 20
8.43537672
  0
SEQEND
  0
POLYLINE
  8
Default_Layer
 66
   1
 39
0.000000
 70
    0
  0
VERTEX
  8
0
 10
3.18742781
 20
8.43537672
  0
VERTEX
  8
0
 10
3.17635807
 20
8.54426041
  0
VERTEX
  8
0
 10
3.18566200
 20
8.64991929
  0
VERTEX
  8
0
 10
3.24915696
 20
8.85281826
  0
VERTEX
  8
0
 10
3.44205744
 20
9.23373063
  0
SEQEND
  0
POLYLINE
  8
Default_Layer
 66
   1
 39
0.000000
 70
    0
  0
VERTEX
  8
0
 10
3.89164592
 20
8.82478001
  0
VERTEX
  8
0
 10
3.79720620
 20
9.07760917
  0
VERTEX
  8
0
 10
3.67604749
 20
9.32771623
  0
VERTEX
  8
0
 10
3.56225076
 20
9.58239942
  0
VERTEX
  8
0
 10
3.51876343
 20
9.71373776
  0
VERTEX
  8
0
 10
3.48989695
 20
9.84895697
  0
VERTEX
  8
0
 10
3.43550219
 20
9.78984306
  0
VERTEX
  8
0
 10
3.40003980
 20
9.72046447
  0
VERTEX
  8
0
 10
3.38096000
 20
9.64341220
  0
VERTEX
  8
0
 10
3.37571300
 20
9.56127725
  0
VERTEX
  8
0
 10
3.39651829
 20
9.39212330
  0
VERTEX
  8
0
 10
3.44205744
 20
9.23373063
  0
SEQEND
  0
POLYLINE
  8
Default_Layer
 66
   1
 39
0.000000
 70
    0
  0
VERTEX
  8
0
 10
3.65296279
 20
8.03259894
  0
VERTEX
  8
0
 10
3.81404240
 20
8.18307455
  0
VERTEX
  8
0
 10
3.88452175
 20
8.28037610
  0
VERTEX
  8
0
 10
3.94013854
 20
8.38696210
  0
VERTEX
  8
0
 10
3.97477604
 20
8.49876403
  0
VERTEX
  8
0
 10
3.98231758
 20
8.61171334
  0
VERTEX
  8
0
 10
3.95664644
 20
8.72174152
  0
VERTEX
  8
0
 10
3.89164592
 20
8.82478001
  0
SEQEND
  0
POLYLINE
  8
Default_Layer
 66
   1
 39
0.000000
 70
    0
  0
VERTEX
  8
0
 10
3.89164592
 20
8.82478001
  0
VERTEX
  8
0
 10
3.66065505
 20
9.02411867
  0
VERTEX
  8
0
 10
3.44205744
 20
9.23373063
  0
SEQEND
  0
POLYLINE
  8
Default_Layer
 66
   1
 39
0.000000
 70
    0
  0
VERTEX
  8
0
 10
2.51150188
 20
7.96984174
  0
VERTEX
  8
0
 10
2.55805201
 20
7.97538204
  0
VERTEX
  8
0
 10
2.59147537
 20
7.99522029
  0
VERTEX
  8
0
 10
2.63160235
 20
8.06480456
  0
VERTEX
  8
0
 10
2.65720378
 20
8.15262243
  0
VERTEX
  8
0
 10
2.69360065
 20
8.23270182
  0
VERTEX
  8
0
 10
2.77389827
 20
8.31143144
  0
VERTEX
  8
0
 10
2.86758432
 20
8.35368184
  0
VERTEX
  8
0
 10
2.97638759
 20
8.36527763
  0
VERTEX
  8
0
 10
3.10203686
 20
8.35204339
  0
SEQEND
  0
POLYLINE
  8
Default_Layer
 66
   1
 39
0.000000
 70
    0
  0
VERTEX
  8
0
 10
3.24555538
 20
8.18126149
  0
VERTEX
  8
0
 10
3.29184029
 20
8.17597204
  0
VERTEX
  8
0
 10
3.32833423
 20
8.14017516
  0
VERTEX
  8
0
 10
3.36181053
 20
8.04443022
  0
VERTEX
  8
0
 10
3.37593685
 20
7.96745413
  0
VERTEX
  8
0
 10
3.40708305
 20
7.89992649
  0
VERTEX
  8
0
 10
3.48504716
 20
7.78123224
  0
VERTEX
  8
0
 10
3.51417107
 20
7.72407344
  0
VERTEX
  8
0
 10
3.52492690
 20
7.66437874
  0
VERTEX
  8
0
 10
3.50846765
 20
7.59915206
  0
VERTEX
  8
0
 10
3.45594633
 20
7.52539730
  0
SEQEND
  0
POLYLINE
  8
Default_Layer
 66
   1
 39
0.000000
 70
    0
  0
VERTEX
  8
0
 10
3.45594633
 20
7.52539730
  0
VERTEX
  8
0
 10
3.44243497
 20
7.47390711
  0
VERTEX
  8
0
 10
3.41427966
 20
7.42817507
  0
SEQEND
  0
POLYLINE
  8
Default_Layer
 66
   1
 39
0.000000
 70
    0
  0
VERTEX
  8
0
 10
3.47703686
 20
7.03722857
  0
VERTEX
  8
0
 10
3.51152710
 20
7.07112262
  0
VERTEX
  8
0
 10
3.55522616
 20
7.09175532
  0
SEQEND
  0
POLYLINE
  8
Default_Layer
 66
   1
 39
0.000000
 70
    0
  0
VERTEX
  8
0
 10
3.55522616
 20
7.09175532
  0
VERTEX
  8
0
 10
3.57323028
 20
7.13084997
  0
SEQEND
  0
POLYLINE
  8
Default_Layer
 66
   1
 39
0.000000
 70
    0
  0
VERTEX
  8
0
 10
3.57323028
 20
7.13084997
  0
VERTEX
  8
0
 10
3.59681351
 20
7.32124293
  0
VERTEX
  8
0
 10
3.63029428
 20
7.51816622
  0
VERTEX
  8
0
 10
3.64836034
 20
7.71677603
  0
VERTEX
  8
0
 10
3.62569942
 20
7.91222857
  0
SEQEND
  0
POLYLINE
  8
Default_Layer
 66
   1
 39
0.000000
 70
    0
  0
VERTEX
  8
0
 10
3.62569942
 20
7.91222857
  0
VERTEX
  8
0
 10
3.63810408
 20
7.97261349
  0
VERTEX
  8
0
 10
3.65296279
 20
8.03259894
  0
SEQEND
  0
POLYLINE
  8
Default_Layer
 66
   1
 39
0.000000
 70
    0
  0
VERTEX
  8
0
 10
3.65296279
 20
8.03259894
  0
VERTEX
  8
0
 10
3.63836983
 20
8.09005867
  0
VERTEX
  8
0
 10
3.59030691
 20
8.14237050
  0
VERTEX
  8
0
 10
3.47755127
 20
8.24607631
  0
VERTEX
  8
0
 10
3.42460288
 20
8.36122452
  0
VERTEX
  8
0
 10
3.39888275
 20
8.45177397
  0
VERTEX
  8
0
 10
3.37735051
 20
8.47816010
  0
VERTEX
  8
0
 10
3.33996601
 20
8.48679969
  0
VERTEX
  8
0
 10
3.18742781
 20
8.43537672
  0
SEQEND
  0
POLYLINE
  8
Default_Layer
 66
   1
 39
0.000000
 70
    0
  0
VERTEX
  8
0
 10
2.58094633
 20
7.32632322
  0
VERTEX
  8
0
 10
2.62097354
 20
7.32685119
  0
VERTEX
  8
0
 10
2.65759242
 20
7.31037672
  0
SEQEND
  0
POLYLINE
  8
Default_Layer
 66
   1
 39
0.000000
 70
    0
  0
VERTEX
  8
0
 10
2.65759242
 20
7.31037672
  0
VERTEX
  8
0
 10
2.68067594
 20
7.42527075
  0
VERTEX
  8
0
 10
2.67498241
 20
7.52097785
  0
VERTEX
  8
0
 10
2.68001262
 20
7.61002122
  0
VERTEX
  8
0
 10
2.73526732
 20
7.70492404
  0
VERTEX
  8
0
 10
2.75976523
 20
7.75582363
  0
VERTEX
  8
0
 10
2.77613665
 20
7.83028564
  0
VERTEX
  8
0
 10
2.79689337
 20
7.91768414
  0
VERTEX
  8
0
 10
2.83454715
 20
8.00739318
  0
VERTEX
  8
0
 10
2.89557685
 20
8.09409291
  0
VERTEX
  8
0
 10
2.96291706
 20
8.14515062
  0
VERTEX
  8
0
 10
3.04130379
 20
8.15806521
  0
VERTEX
  8
0
 10
3.13547308
 20
8.13033557
  0
VERTEX
  8
0
 10
3.21478580
 20
8.09167843
  0
VERTEX
  8
0
 10
3.23754517
 20
8.10983013
  0
VERTEX
  8
0
 10
3.24555538
 20
8.18126149
  0
SEQEND
  0
POLYLINE
  8
Default_Layer
 66
   1
 39
0.000000
 70
    0
  0
VERTEX
  8
0
 10
3.24555538
 20
8.18126149
  0
VERTEX
  8
0
 10
3.18195673
 20
8.24821355
  0
VERTEX
  8
0
 10
3.13907390
 20
8.33352487
  0
SEQEND
  0
POLYLINE
  8
Default_Layer
 66
   1
 39
0.000000
 70
    0
  0
VERTEX
  8
0
 10
3.38341546
 20
7.11233145
  0
VERTEX
  8
0
 10
3.38444427
 20
7.22704339
  0
SEQEND
  0
POLYLINE
  8
Default_Layer
 66
   1
 39
0.000000
 70
    0
  0
VERTEX
  8
0
 10
3.38444427
 20
7.22704339
  0
VERTEX
  8
0
 10
3.17941579
 20
7.19947784
  0
VERTEX
  8
0
 10
3.07936434
 20
7.18610425
  0
VERTEX
  8
0
 10
2.98372411
 20
7.15759894
  0
SEQEND
  0
POLYLINE
  8
Default_Layer
 66
   1
 39
0.000000
 70
    0
  0
VERTEX
  8
0
 10
3.38444427
 20
7.22704339
  0
VERTEX
  8
0
 10
3.38650188
 20
7.33095285
  0
SEQEND
  0
POLYLINE
  8
Default_Layer
 66
   1
 39
0.000000
 70
    0
  0
VERTEX
  8
0
 10
3.38650188
 20
7.33095285
  0
VERTEX
  8
0
 10
3.14256622
 20
7.34164343
  0
VERTEX
  8
0
 10
2.90039077
 20
7.35204339
  0
SEQEND
  0
POLYLINE
  8
Default_Layer
 66
   1
 39
0.000000
 70
    0
  0
VERTEX
  8
0
 10
3.38650188
 20
7.33095285
  0
VERTEX
  8
0
 10
3.40885910
 20
7.37655781
  0
VERTEX
  8
0
 10
3.41427966
 20
7.42817507
  0
SEQEND
  0
POLYLINE
  8
Default_Layer
 66
   1
 39
0.000000
 70
    0
  0
VERTEX
  8
0
 10
3.41427966
 20
7.42817507
  0
VERTEX
  8
0
 10
3.10872411
 20
7.49761952
  0
SEQEND
  0
POLYLINE
  8
Default_Layer
 66
   1
 39
0.000000
 70
    0
  0
VERTEX
  8
0
 10
3.45594633
 20
7.52539730
  0
VERTEX
  8
0
 10
3.20363283
 20
7.62168935
  0
VERTEX
  8
0
 10
2.95131670
 20
7.71521211
  0
SEQEND
  0
POLYLINE
  8
Default_Layer
 66
   1
 39
0.000000
 70
    0
  0
VERTEX
  8
0
 10
3.57323028
 20
7.13084997
  0
VERTEX
  8
0
 10
3.72581712
 20
7.22166953
  0
VERTEX
  8
0
 10
3.79317493
 20
7.27490362
  0
VERTEX
  8
0
 10
3.84174880
 20
7.34844256
  0
SEQEND
  0
POLYLINE
  8
Default_Layer
 66
   1
 39
0.000000
 70
    0
  0
VERTEX
  8
0
 10
3.84174880
 20
7.34844256
  0
VERTEX
  8
0
 10
3.86471132
 20
7.44737417
  0
VERTEX
  8
0
 10
3.87261300
 20
7.54854544
  0
SEQEND
  0
POLYLINE
  8
Default_Layer
 66
   1
 39
0.000000
 70
    0
  0
VERTEX
  8
0
 10
3.87261300
 20
7.54854544
  0
VERTEX
  8
0
 10
3.84583861
 20
7.62291603
  0
VERTEX
  8
0
 10
3.83094633
 20
7.70132322
  0
SEQEND
  0
POLYLINE
  8
Default_Layer
 66
   1
 39
0.000000
 70
    0
  0
VERTEX
  8
0
 10
2.48578172
 20
7.14731088
  0
VERTEX
  8
0
 10
2.50820649
 20
7.09869724
  0
VERTEX
  8
0
 10
2.54828346
 20
7.05616005
  0
VERTEX
  8
0
 10
2.58951696
 20
7.01521679
  0
VERTEX
  8
0
 10
2.61541135
 20
6.97138495
  0
VERTEX
  8
0
 10
2.61642016
 20
6.91977445
  0
VERTEX
  8
0
 10
2.60229862
 20
6.87473285
  0
VERTEX
  8
0
 10
2.59473344
 20
6.82593396
  0
VERTEX
  8
0
 10
2.61541135
 20
6.76305162
  0
VERTEX
  8
0
 10
2.64138186
 20
6.73103175
  0
VERTEX
  8
0
 10
2.65913563
 20
6.69875121
  0
SEQEND
  0
POLYLINE
  8
Default_Layer
 66
   1
 39
0.000000
 70
    0
  0
VERTEX
  8
0
 10
3.42816855
 20
7.03928618
  0
VERTEX
  8
0
 10
3.41221357
 20
7.08049819
  0
VERTEX
  8
0
 10
3.38341546
 20
7.11233145
  0
SEQEND
  0
POLYLINE
  8
Default_Layer
 66
   1
 39
0.000000
 70
    0
  0
VERTEX
  8
0
 10
3.38341546
 20
7.11233145
  0
VERTEX
  8
0
 10
3.32135001
 20
7.09236802
  0
VERTEX
  8
0
 10
3.24909078
 20
7.04499219
  0
VERTEX
  8
0
 10
3.08891274
 20
6.92795275
  0
VERTEX
  8
0
 10
3.00845477
 20
6.88826383
  0
VERTEX
  8
0
 10
2.93272474
 20
6.88111192
  0
VERTEX
  8
0
 10
2.86545307
 20
6.92148436
  0
VERTEX
  8
0
 10
2.81037020
 20
7.02436849
  0
VERTEX
  8
0
 10
2.76140504
 20
7.04599739
  0
VERTEX
  8
0
 10
2.67131142
 20
7.09386778
  0
VERTEX
  8
0
 10
2.63348625
 20
7.13092820
  0
VERTEX
  8
0
 10
2.61255274
 20
7.17849058
  0
VERTEX
  8
0
 10
2.61756882
 20
7.23786880
  0
VERTEX
  8
0
 10
2.65759242
 20
7.31037672
  0
SEQEND
  0
POLYLINE
  8
Default_Layer
 66
   1
 39
0.000000
 70
    0
  0
VERTEX
  8
0
 10
3.26355950
 20
6.49453310
  0
VERTEX
  8
0
 10
3.42143960
 20
6.74895994
  0
VERTEX
  8
0
 10
3.47683812
 20
6.88348671
  0
VERTEX
  8
0
 10
3.48568928
 20
6.95728359
  0
VERTEX
  8
0
 10
3.47703686
 20
7.03722857
  0
SEQEND
  0
POLYLINE
  8
Default_Layer
 66
   1
 39
0.000000
 70
    0
  0
VERTEX
  8
0
 10
3.47703686
 20
7.03722857
  0
VERTEX
  8
0
 10
3.42816855
 20
7.03928618
  0
SEQEND
  0
POLYLINE
  8
Default_Layer
 66
   1
 39
0.000000
 70
    0
  0
VERTEX
  8
0
 10
3.42816855
 20
7.03928618
  0
VERTEX
  8
0
 10
3.27459955
 20
6.87760719
  0
VERTEX
  8
0
 10
3.09373016
 20
6.75759597
  0
VERTEX
  8
0
 10
2.99376449
 20
6.71760440
  0
VERTEX
  8
0
 10
2.88782173
 20
6.69329611
  0
VERTEX
  8
0
 10
2.77618455
 20
6.68642656
  0
VERTEX
  8
0
 10
2.65913563
 20
6.69875121
  0
SEQEND
  0
POLYLINE
  8
Default_Layer
 66
   1
 39
0.000000
 70
    0
  0
VERTEX
  8
0
 10
2.65913563
 20
6.69875121
  0
VERTEX
  8
0
 10
2.54639182
 20
6.62701802
  0
VERTEX
  8
0
 10
2.43537020
 20
6.55317507
  0
SEQEND
  0
POLYLINE
  8
Default_Layer
 66
   1
 39
0.000000
 70
    1
  0
VERTEX
  8
0
 10
3.93999983
 20
5.42508865
  0
VERTEX
  8
0
 10
3.93217851
 20
5.38703690
  0
VERTEX
  8
0
 10
3.93938766
 20
5.34265744
  0
VERTEX
  8
0
 10
3.98546772
 20
5.25120034
  0
VERTEX
  8
0
 10
4.05138070
 20
5.18328719
  0
VERTEX
  8
0
 10
4.08338101
 20
5.16833767
  0
VERTEX
  8
0
 10
4.11026732
 20
5.17148783
  0
VERTEX
  8
0
 10
4.12802977
 20
5.19454933
  0
VERTEX
  8
0
 10
4.12823715
 20
5.22831824
  0
VERTEX
  8
0
 10
4.08878490
 20
5.31149982
  0
VERTEX
  8
0
 10
4.01750699
 20
5.38807561
  0
VERTEX
  8
0
 10
3.93999983
 20
5.42508865
  0
SEQEND
  0
POLYLINE
  8
Default_Layer
 66
   1
 39
0.000000
 70
    0
  0
VERTEX
  8
0
 10
4.07425909
 20
8.58095285
  0
VERTEX
  8
0
 10
4.14805803
 20
8.69228041
  0
VERTEX
  8
0
 10
4.24161716
 20
8.78081588
  0
VERTEX
  8
0
 10
4.35000090
 20
8.85226594
  0
VERTEX
  8
0
 10
4.46827365
 20
8.91233730
  0
VERTEX
  8
0
 10
4.71474384
 20
9.02117061
  0
VERTEX
  8
0
 10
4.83307011
 20
9.08134594
  0
VERTEX
  8
0
 10
4.94154304
 20
9.15296931
  0
VERTEX
  8
0
 10
4.94324548
 20
8.73512528
  0
VERTEX
  8
0
 10
4.92659393
 20
8.51795562
  0
VERTEX
  8
0
 10
4.89011488
 20
8.30546739
  0
VERTEX
  8
0
 10
4.82768909
 20
8.10529550
  0
VERTEX
  8
0
 10
4.73319733
 20
7.92507486
  0
VERTEX
  8
0
 10
4.60052035
 20
7.77244037
  0
VERTEX
  8
0
 10
4.51795014
 20
7.70885383
  0
VERTEX
  8
0
 10
4.42353892
 20
7.65502693
  0
SEQEND
  0
POLYLINE
  8
Default_Layer
 66
   1
 39
0.000000
 70
    0
  0
VERTEX
  8
0
 10
3.60203686
 20
8.26150841
  0
VERTEX
  8
0
 10
3.61592575
 20
8.49761952
  0
SEQEND
  0
POLYLINE
  8
Default_Layer
 66
   1
 39
0.000000
 70
    0
  0
VERTEX
  8
0
 10
3.10872411
 20
7.83815450
  0
VERTEX
  8
0
 10
3.26534437
 20
7.75874676
  0
VERTEX
  8
0
 10
3.42148131
 20
7.68537672
  0
SEQEND
  0
POLYLINE
  8
Default_Layer
 66
   1
 39
0.000000
 70
    1
  0
VERTEX
  8
0
 10
7.49761300
 20
7.03928618
  0
VERTEX
  8
0
 10
7.59620782
 20
6.89098920
  0
VERTEX
  8
0
 10
7.68531229
 20
6.71777392
  0
VERTEX
  8
0
 10
7.78036135
 20
6.54829316
  0
VERTEX
  8
0
 10
7.89678995
 20
6.41119977
  0
VERTEX
  8
0
 10
7.95553858
 20
6.37936583
  0
VERTEX
  8
0
 10
7.99486752
 20
6.39323557
  0
VERTEX
  8
0
 10
8.01678289
 20
6.44223009
  0
VERTEX
  8
0
 10
8.02329080
 20
6.51577049
  0
VERTEX
  8
0
 10
7.99810871
 20
6.69417334
  0
VERTEX
  8
0
 10
7.93537020
 20
6.84381293
  0
VERTEX
  8
0
 10
7.79185168
 20
7.00636437
  0
VERTEX
  8
0
 10
7.72445341
 20
7.05439366
  0
VERTEX
  8
0
 10
7.62682001
 20
7.08127001
  0
VERTEX
  8
0
 10
7.53814277
 20
7.07892400
  0
VERTEX
  8
0
 10
7.50941000
 20
7.06427091
  0
VERTEX
  8
0
 10
7.49761300
 20
7.03928618
  0
SEQEND
  0
POLYLINE
  8
Default_Layer
 66
   1
 39
0.000000
 70
    0
  0
VERTEX
  8
0
 10
7.52539077
 20
6.06037672
  0
VERTEX
  8
0
 10
7.63154912
 20
6.05469798
  0
VERTEX
  8
0
 10
7.73503465
 20
6.03317905
  0
VERTEX
  8
0
 10
7.93537020
 20
5.96315450
  0
SEQEND
  0
POLYLINE
  8
Default_Layer
 66
   1
 39
0.000000
 70
    0
  0
VERTEX
  8
0
 10
3.42816855
 20
4.04648783
  0
VERTEX
  8
0
 10
3.72883460
 20
3.93661105
  0
VERTEX
  8
0
 10
4.01168744
 20
3.79541670
  0
VERTEX
  8
0
 10
4.27678816
 20
3.62585784
  0
VERTEX
  8
0
 10
4.52419785
 20
3.43088753
  0
VERTEX
  8
0
 10
4.75397758
 20
3.21345881
  0
VERTEX
  8
0
 10
4.96618846
 20
2.97652476
  0
VERTEX
  8
0
 10
5.16089156
 20
2.72303842
  0
VERTEX
  8
0
 10
5.33814797
 20
2.45595285
  0
SEQEND
  0
POLYLINE
  8
Default_Layer
 66
   1
 39
0.000000
 70
    0
  0
VERTEX
  8
0
 10
6.26150188
 20
1.51150841
  0
VERTEX
  8
0
 10
6.63261528
 20
2.01897073
  0
VERTEX
  8
0
 10
7.07065826
 20
2.61901870
  0
VERTEX
  8
0
 10
7.19179014
 20
2.80689854
  0
VERTEX
  8
0
 10
7.25206506
 20
2.88115523
  0
VERTEX
  8
0
 10
7.32425909
 20
2.93537672
  0
SEQEND
  0
POLYLINE
  8
Default_Layer
 66
   1
 39
0.000000
 70
    0
  0
VERTEX
  8
0
 10
1.59277760
 20
3.84741376
  0
VERTEX
  8
0
 10
1.60060337
 20
3.87888979
  0
VERTEX
  8
0
 10
1.61955622
 20
3.90226819
  0
VERTEX
  8
0
 10
1.67251011
 20
3.93640553
  0
SEQEND
  0
POLYLINE
  8
Default_Layer
 66
   1
 39
0.000000
 70
    0
  0
VERTEX
  8
0
 10
1.67251011
 20
3.93640553
  0
VERTEX
  8
0
 10
1.77992118
 20
4.08516444
  0
VERTEX
  8
0
 10
1.91637224
 20
4.20907024
  0
VERTEX
  8
0
 10
2.07543177
 20
4.30579254
  0
VERTEX
  8
0
 10
2.25066824
 20
4.37300099
  0
VERTEX
  8
0
 10
2.43565012
 20
4.40836519
  0
VERTEX
  8
0
 10
2.62394588
 20
4.40955479
  0
VERTEX
  8
0
 10
2.80912399
 20
4.37423940
  0
VERTEX
  8
0
 10
2.98475291
 20
4.30008865
  0
SEQEND
  0
POLYLINE
  8
Default_Layer
 66
   1
 39
0.000000
 70
    0
  0
VERTEX
  8
0
 10
2.98475291
 20
4.30008865
  0
VERTEX
  8
0
 10
3.20822528
 20
4.31009997
  0
VERTEX
  8
0
 10
3.42331974
 20
4.29546748
  0
VERTEX
  8
0
 10
3.62984201
 20
4.25822263
  0
VERTEX
  8
0
 10
3.82759783
 20
4.20039687
  0
VERTEX
  8
0
 10
4.01639295
 20
4.12402164
  0
VERTEX
  8
0
 10
4.19603308
 20
4.03112840
  0
VERTEX
  8
0
 10
4.36632398
 20
3.92374860
  0
VERTEX
  8
0
 10
4.52707137
 20
3.80391367
  0
VERTEX
  8
0
 10
4.81915859
 20
3.53500424
  0
VERTEX
  8
0
 10
5.07074062
 20
3.24065170
  0
VERTEX
  8
0
 10
5.28026335
 20
2.93710764
  0
VERTEX
  8
0
 10
5.44617267
 20
2.64062363
  0
VERTEX
  8
0
 10
5.56493510
 20
2.37800280
  0
VERTEX
  8
0
 10
5.67109073
 20
2.11344640
  0
VERTEX
  8
0
 10
5.77808466
 20
1.85219055
  0
VERTEX
  8
0
 10
5.89936197
 20
1.59947137
  0
VERTEX
  8
0
 10
5.87844806
 20
2.01517340
  0
VERTEX
  8
0
 10
5.83417553
 20
2.44705950
  0
VERTEX
  8
0
 10
5.76529245
 20
2.88726730
  0
VERTEX
  8
0
 10
5.67054689
 20
3.32793444
  0
VERTEX
  8
0
 10
5.54868690
 20
3.76119852
  0
VERTEX
  8
0
 10
5.39846056
 20
4.17919718
  0
VERTEX
  8
0
 10
5.21861592
 20
4.57406804
  0
VERTEX
  8
0
 10
5.00790106
 20
4.93794874
  0
VERTEX
  8
0
 10
4.87662122
 20
5.10358455
  0
VERTEX
  8
0
 10
4.72838740
 20
5.24850528
  0
VERTEX
  8
0
 10
4.57587749
 20
5.38861069
  0
VERTEX
  8
0
 10
4.43176937
 20
5.53980059
  0
VERTEX
  8
0
 10
4.59068980
 20
5.49365392
  0
VERTEX
  8
0
 10
4.73517525
 20
5.41889898
  0
VERTEX
  8
0
 10
4.86742291
 20
5.32140437
  0
VERTEX
  8
0
 10
4.98962996
 20
5.20703868
  0
VERTEX
  8
0
 10
5.21271095
 20
4.95116838
  0
VERTEX
  8
0
 10
5.42199571
 20
4.69823680
  0
VERTEX
  8
0
 10
5.36393483
 20
4.93861032
  0
VERTEX
  8
0
 10
5.27454388
 20
5.18310644
  0
VERTEX
  8
0
 10
5.07785991
 20
5.68743433
  0
VERTEX
  8
0
 10
4.99831661
 20
5.90249537
  0
VERTEX
  8
0
 10
4.90453325
 20
6.11214907
  0
VERTEX
  8
0
 10
4.79864779
 20
6.31199170
  0
VERTEX
  8
0
 10
4.68279818
 20
6.49761952
  0
SEQEND
  0
POLYLINE
  8
Default_Layer
 66
   1
 39
0.000000
 70
    0
  0
VERTEX
  8
0
 10
4.68279818
 20
6.49761952
  0
VERTEX
  8
0
 10
4.65656361
 20
6.54545902
  0
SEQEND
  0
POLYLINE
  8
Default_Layer
 66
   1
 39
0.000000
 70
    0
  0
VERTEX
  8
0
 10
4.65656361
 20
6.54545902
  0
VERTEX
  8
0
 10
4.45502283
 20
6.60839481
  0
VERTEX
  8
0
 10
4.26100952
 20
6.69547264
  0
VERTEX
  8
0
 10
4.08961894
 20
6.81363935
  0
VERTEX
  8
0
 10
4.01712443
 20
6.88655191
  0
VERTEX
  8
0
 10
3.95594633
 20
6.96984174
  0
SEQEND
  0
POLYLINE
  8
Default_Layer
 66
   1
 39
0.000000
 70
    0
  0
VERTEX
  8
0
 10
4.88341546
 20
6.49453310
  0
VERTEX
  8
0
 10
5.13074129
 20
5.98003684
  0
VERTEX
  8
0
 10
5.39231368
 20
5.39791814
  0
VERTEX
  8
0
 10
5.51335675
 20
5.09341488
  0
VERTEX
  8
0
 10
5.61985877
 20
4.78630342
  0
VERTEX
  8
0
 10
5.70578550
 20
4.48134956
  0
VERTEX
  8
0
 10
5.76510271
 20
4.18331911
  0
VERTEX
  8
0
 10
5.80960392
 20
3.81024225
  0
VERTEX
  8
0
 10
5.86232493
 20
3.46109688
  0
VERTEX
  8
0
 10
5.90481413
 20
3.36067115
  0
VERTEX
  8
0
 10
5.93468068
 20
3.34947948
  0
VERTEX
  8
0
 10
5.96623439
 20
3.39782528
  0
VERTEX
  8
0
 10
5.98192919
 20
3.47960601
  0
VERTEX
  8
0
 10
5.98606700
 20
3.59376284
  0
VERTEX
  8
0
 10
5.97073075
 20
3.87782655
  0
VERTEX
  8
0
 10
5.92302452
 20
4.37930676
  0
VERTEX
  8
0
 10
5.91888418
 20
4.60517054
  0
VERTEX
  8
0
 10
5.93537020
 20
4.85667302
  0
VERTEX
  8
0
 10
5.97620988
 20
5.04806710
  0
VERTEX
  8
0
 10
5.99578740
 20
5.15497082
  0
VERTEX
  8
0
 10
6.00224263
 20
5.26150841
  0
VERTEX
  8
0
 10
6.01145653
 20
5.38529100
  0
VERTEX
  8
0
 10
6.04391377
 20
5.48813572
  0
VERTEX
  8
0
 10
6.09513651
 20
5.57528417
  0
VERTEX
  8
0
 10
6.16064691
 20
5.65197799
  0
VERTEX
  8
0
 10
6.31661926
 20
5.79496818
  0
VERTEX
  8
0
 10
6.47600806
 20
5.95903927
  0
VERTEX
  8
0
 10
6.68485579
 20
6.19720800
  0
SEQEND
  0
POLYLINE
  8
Default_Layer
 66
   1
 39
0.000000
 70
    0
  0
VERTEX
  8
0
 10
6.68485579
 20
6.19720800
  0
VERTEX
  8
0
 10
6.44675209
 20
6.18595759
  0
VERTEX
  8
0
 10
6.21251063
 20
6.22141470
  0
VERTEX
  8
0
 10
5.99054772
 20
6.30251023
  0
VERTEX
  8
0
 10
5.78927966
 20
6.42817507
  0
SEQEND
  0
POLYLINE
  8
Default_Layer
 66
   1
 39
0.000000
 70
    0
  0
VERTEX
  8
0
 10
5.78927966
 20
6.42817507
  0
VERTEX
  8
0
 10
5.72853194
 20
6.41647750
  0
VERTEX
  8
0
 10
5.66788049
 20
6.41068536
  0
VERTEX
  8
0
 10
5.75254397
 20
6.61285147
  0
VERTEX
  8
0
 10
5.81642579
 20
6.70873055
  0
VERTEX
  8
0
 10
5.89250291
 20
6.79213517
  0
VERTEX
  8
0
 10
5.97914678
 20
6.85631150
  0
VERTEX
  8
0
 10
6.07472884
 20
6.89450569
  0
VERTEX
  8
0
 10
6.17762051
 20
6.89996390
  0
VERTEX
  8
0
 10
6.28619324
 20
6.86593228
  0
SEQEND
  0
POLYLINE
  8
Default_Layer
 66
   1
 39
0.000000
 70
    0
  0
VERTEX
  8
0
 10
6.28619324
 20
6.86593228
  0
VERTEX
  8
0
 10
6.32492512
 20
6.87360758
  0
VERTEX
  8
0
 10
6.35666649
 20
6.89833968
  0
SEQEND
  0
POLYLINE
  8
Default_Layer
 66
   1
 39
0.000000
 70
    0
  0
VERTEX
  8
0
 10
6.35666649
 20
6.89833968
  0
VERTEX
  8
0
 10
6.19817142
 20
7.05072170
  0
VERTEX
  8
0
 10
6.05963259
 20
7.21638192
  0
VERTEX
  8
0
 10
5.95129795
 20
7.40177616
  0
VERTEX
  8
0
 10
5.88341546
 20
7.61336026
  0
VERTEX
  8
0
 10
6.16922540
 20
7.62617990
  0
VERTEX
  8
0
 10
6.30939890
 20
7.61173471
  0
VERTEX
  8
0
 10
6.44472505
 20
7.58125979
  0
VERTEX
  8
0
 10
6.57293405
 20
7.53316034
  0
VERTEX
  8
0
 10
6.69175612
 20
7.46584156
  0
VERTEX
  8
0
 10
6.79892147
 20
7.37770866
  0
VERTEX
  8
0
 10
6.89216032
 20
7.26716684
  0
SEQEND
  0
POLYLINE
  8
Default_Layer
 66
   1
 39
0.000000
 70
    0
  0
VERTEX
  8
0
 10
6.89216032
 20
7.26716684
  0
VERTEX
  8
0
 10
6.90636538
 20
7.39611554
  0
VERTEX
  8
0
 10
6.94101581
 20
7.51901831
  0
VERTEX
  8
0
 10
6.99586298
 20
7.63868053
  0
VERTEX
  8
0
 10
7.07065826
 20
7.75790758
  0
VERTEX
  8
0
 10
7.18099257
 20
7.94592165
  0
VERTEX
  8
0
 10
7.21570111
 20
7.98264898
  0
VERTEX
  8
0
 10
7.25289789
 20
8.00008151
  0
VERTEX
  8
0
 10
7.29240206
 20
7.99062710
  0
VERTEX
  8
0
 10
7.33403275
 20
7.94669359
  0
VERTEX
  8
0
 10
7.42828072
 20
7.80991260
  0
VERTEX
  8
0
 10
7.51842916
 20
7.65138287
  0
VERTEX
  8
0
 10
7.55083183
 20
7.56445598
  0
VERTEX
  8
0
 10
7.56884853
 20
7.47268442
  0
VERTEX
  8
0
 10
7.56802559
 20
7.37626569
  0
VERTEX
  8
0
 10
7.54390929
 20
7.27539730
  0
SEQEND
  0
POLYLINE
  8
Default_Layer
 66
   1
 39
0.000000
 70
    0
  0
VERTEX
  8
0
 10
6.89216032
 20
7.26716684
  0
VERTEX
  8
0
 10
6.94097376
 20
7.14290453
  0
VERTEX
  8
0
 10
6.97459747
 20
7.01475940
  0
VERTEX
  8
0
 10
7.01973234
 20
6.75327795
  0
SEQEND
  0
POLYLINE
  8
Default_Layer
 66
   1
 39
0.000000
 70
    0
  0
VERTEX
  8
0
 10
7.01973234
 20
6.75327795
  0
VERTEX
  8
0
 10
7.05793275
 20
6.77106147
  0
VERTEX
  8
0
 10
7.08557596
 20
6.80317507
  0
SEQEND
  0
POLYLINE
  8
Default_Layer
 66
   1
 39
0.000000
 70
    0
  0
VERTEX
  8
0
 10
7.08557596
 20
6.80317507
  0
VERTEX
  8
0
 10
7.11706110
 20
6.94284218
  0
VERTEX
  8
0
 10
7.15759242
 20
7.08095285
  0
SEQEND
  0
POLYLINE
  8
Default_Layer
 66
   1
 39
0.000000
 70
    0
  0
VERTEX
  8
0
 10
6.35666649
 20
6.89833968
  0
VERTEX
  8
0
 10
6.49612529
 20
6.84461790
  0
VERTEX
  8
0
 10
6.63116148
 20
6.77761609
  0
VERTEX
  8
0
 10
6.75626499
 20
6.69342978
  0
VERTEX
  8
0
 10
6.86592575
 20
6.58815450
  0
SEQEND
  0
POLYLINE
  8
Default_Layer
 66
   1
 39
0.000000
 70
    0
  0
VERTEX
  8
0
 10
6.86592575
 20
6.58815450
  0
VERTEX
  8
0
 10
6.89133441
 20
6.61556145
  0
VERTEX
  8
0
 10
6.90399160
 20
6.64731088
  0
SEQEND
  0
POLYLINE
  8
Default_Layer
 66
   1
 39
0.000000
 70
    0
  0
VERTEX
  8
0
 10
6.90399160
 20
6.64731088
  0
VERTEX
  8
0
 10
6.78786319
 20
6.82665277
  0
VERTEX
  8
0
 10
6.72087777
 20
6.90869222
  0
VERTEX
  8
0
 10
6.63650188
 20
6.97704339
  0
SEQEND
  0
POLYLINE
  8
Default_Layer
 66
   1
 39
0.000000
 70
    0
  0
VERTEX
  8
0
 10
7.34946485
 20
6.93537672
  0
VERTEX
  8
0
 10
7.39713540
 20
6.83095813
  0
VERTEX
  8
0
 10
7.47261438
 20
6.74446338
  0
VERTEX
  8
0
 10
7.54580357
 20
6.65646028
  0
VERTEX
  8
0
 10
7.57213381
 20
6.60582054
  0
VERTEX
  8
0
 10
7.58660476
 20
6.54751664
  0
SEQEND
  0
POLYLINE
  8
Default_Layer
 66
   1
 39
0.000000
 70
    0
  0
VERTEX
  8
0
 10
8.06499983
 20
6.23630265
  0
VERTEX
  8
0
 10
8.07382470
 20
6.26055977
  0
VERTEX
  8
0
 10
8.09497034
 20
6.28074846
  0
VERTEX
  8
0
 10
8.13958830
 20
6.32580882
  0
VERTEX
  8
0
 10
8.15660714
 20
6.38982065
  0
VERTEX
  8
0
 10
8.15958533
 20
6.47715727
  0
VERTEX
  8
0
 10
8.13292094
 20
6.68777613
  0
VERTEX
  8
0
 10
8.07859743
 20
6.88960783
  0
VERTEX
  8
0
 10
8.01561711
 20
7.01459483
  0
VERTEX
  8
0
 10
7.93349814
 20
7.10881742
  0
VERTEX
  8
0
 10
7.83437043
 20
7.20681427
  0
VERTEX
  8
0
 10
7.77521115
 20
7.24638949
  0
VERTEX
  8
0
 10
7.70793911
 20
7.27390202
  0
VERTEX
  8
0
 10
7.63126744
 20
7.28501643
  0
VERTEX
  8
0
 10
7.54390929
 20
7.27539730
  0
SEQEND
  0
POLYLINE
  8
Default_Layer
 66
   1
 39
0.000000
 70
    0
  0
VERTEX
  8
0
 10
7.54390929
 20
7.27539730
  0
VERTEX
  8
0
 10
7.53272897
 20
7.23771595
  0
VERTEX
  8
0
 10
7.51516340
 20
7.21965235
  0
VERTEX
  8
0
 10
7.46603663
 20
7.22213983
  0
VERTEX
  8
0
 10
7.40684927
 20
7.24238259
  0
VERTEX
  8
0
 10
7.34792164
 20
7.23990347
  0
VERTEX
  8
0
 10
7.31259402
 20
7.21529400
  0
VERTEX
  8
0
 10
7.29685092
 20
7.18704731
  0
VERTEX
  8
0
 10
7.30524670
 20
7.11922736
  0
VERTEX
  8
0
 10
7.33536574
 20
7.03561378
  0
VERTEX
  8
0
 10
7.34946485
 20
6.93537672
  0
SEQEND
  0
POLYLINE
  8
Default_Layer
 66
   1
 39
0.000000
 70
    0
  0
VERTEX
  8
0
 10
7.01973234
 20
6.75327795
  0
VERTEX
  8
0
 10
6.96747013
 20
6.69387948
  0
VERTEX
  8
0
 10
6.90399160
 20
6.64731088
  0
SEQEND
  0
POLYLINE
  8
Default_Layer
 66
   1
 39
0.000000
 70
    0
  0
VERTEX
  8
0
 10
6.80574057
 20
6.27333968
  0
VERTEX
  8
0
 10
6.91232872
 20
6.39498467
  0
VERTEX
  8
0
 10
6.96885560
 20
6.45169990
  0
VERTEX
  8
0
 10
7.04648131
 20
6.49093228
  0
SEQEND
  0
POLYLINE
  8
Default_Layer
 66
   1
 39
0.000000
 70
    0
  0
VERTEX
  8
0
 10
6.92611094
 20
6.09278413
  0
VERTEX
  8
0
 10
6.97446485
 20
6.06706396
  0
SEQEND
  0
POLYLINE
  8
Default_Layer
 66
   1
 39
0.000000
 70
    0
  0
VERTEX
  8
0
 10
6.97446485
 20
6.06706396
  0
VERTEX
  8
0
 10
7.02102422
 20
6.06082508
  0
VERTEX
  8
0
 10
7.06397102
 20
6.04134380
  0
SEQEND
  0
POLYLINE
  8
Default_Layer
 66
   1
 39
0.000000
 70
    0
  0
VERTEX
  8
0
 10
7.06397102
 20
6.04134380
  0
VERTEX
  8
0
 10
7.23886814
 20
6.01922446
  0
SEQEND
  0
POLYLINE
  8
Default_Layer
 66
   1
 39
0.000000
 70
    0
  0
VERTEX
  8
0
 10
7.35872411
 20
6.03928618
  0
VERTEX
  8
0
 10
7.46646285
 20
6.11591627
  0
VERTEX
  8
0
 10
7.58167471
 20
6.17833942
  0
VERTEX
  8
0
 10
7.81139900
 20
6.29494462
  0
SEQEND
  0
POLYLINE
  8
Default_Layer
 66
   1
 39
0.000000
 70
    0
  0
VERTEX
  8
0
 10
7.81139900
 20
6.29494462
  0
VERTEX
  8
0
 10
7.64473234
 20
6.42251664
  0
SEQEND
  0
POLYLINE
  8
Default_Layer
 66
   1
 39
0.000000
 70
    0
  0
VERTEX
  8
0
 10
7.64473234
 20
6.42251664
  0
VERTEX
  8
0
 10
7.48897263
 20
6.31050140
  0
VERTEX
  8
0
 10
7.31705744
 20
6.22704339
  0
SEQEND
  0
POLYLINE
  8
Default_Layer
 66
   1
 39
0.000000
 70
    0
  0
VERTEX
  8
0
 10
7.64473234
 20
6.42251664
  0
VERTEX
  8
0
 10
7.58660476
 20
6.54751664
  0
SEQEND
  0
POLYLINE
  8
Default_Layer
 66
   1
 39
0.000000
 70
    0
  0
VERTEX
  8
0
 10
7.58660476
 20
6.54751664
  0
VERTEX
  8
0
 10
7.50878073
 20
6.49871133
  0
VERTEX
  8
0
 10
7.43614418
 20
6.43999776
  0
VERTEX
  8
0
 10
7.36093442
 20
6.38617532
  0
VERTEX
  8
0
 10
7.27539077
 20
6.35204339
  0
SEQEND
  0
POLYLINE
  8
Default_Layer
 66
   1
 39
0.000000
 70
    0
  0
VERTEX
  8
0
 10
7.34946485
 20
6.93537672
  0
VERTEX
  8
0
 10
7.28547460
 20
6.89835025
  0
VERTEX
  8
0
 10
7.22593421
 20
6.85264621
  0
VERTEX
  8
0
 10
7.16218692
 20
6.81525701
  0
VERTEX
  8
0
 10
7.08557596
 20
6.80317507
  0
SEQEND
  0
POLYLINE
  8
Default_Layer
 66
   1
 39
0.000000
 70
    0
  0
VERTEX
  8
0
 10
5.78927966
 20
6.42817507
  0
VERTEX
  8
0
 10
5.87091464
 20
6.46577134
  0
VERTEX
  8
0
 10
5.93748776
 20
6.51666198
  0
VERTEX
  8
0
 10
6.04441739
 20
6.64152242
  0
VERTEX
  8
0
 10
6.14800656
 20
6.76914850
  0
VERTEX
  8
0
 10
6.21040409
 20
6.82349617
  0
VERTEX
  8
0
 10
6.28619324
 20
6.86593228
  0
SEQEND
  0
POLYLINE
  8
Default_Layer
 66
   1
 39
0.000000
 70
    0
  0
VERTEX
  8
0
 10
6.68485579
 20
6.19720800
  0
VERTEX
  8
0
 10
6.79648131
 20
6.24093228
  0
SEQEND
  0
POLYLINE
  8
Default_Layer
 66
   1
 39
0.000000
 70
    0
  0
VERTEX
  8
0
 10
6.79648131
 20
6.24093228
  0
VERTEX
  8
0
 10
6.80574057
 20
6.27333968
  0
SEQEND
  0
POLYLINE
  8
Default_Layer
 66
   1
 39
0.000000
 70
    0
  0
VERTEX
  8
0
 10
6.80574057
 20
6.27333968
  0
VERTEX
  8
0
 10
6.78862123
 20
6.33929864
  0
VERTEX
  8
0
 10
6.78927966
 20
6.40965656
  0
SEQEND
  0
POLYLINE
  8
Default_Layer
 66
   1
 39
0.000000
 70
    0
  0
VERTEX
  8
0
 10
6.78927966
 20
6.40965656
  0
VERTEX
  8
0
 10
6.67622218
 20
6.45560720
  0
VERTEX
  8
0
 10
6.56706570
 20
6.51133192
  0
VERTEX
  8
0
 10
6.45443286
 20
6.55389899
  0
VERTEX
  8
0
 10
6.33094633
 20
6.56037672
  0
SEQEND
  0
POLYLINE
  8
Default_Layer
 66
   1
 39
0.000000
 70
    0
  0
VERTEX
  8
0
 10
6.78927966
 20
6.40965656
  0
VERTEX
  8
0
 10
6.83958083
 20
6.49242445
  0
VERTEX
  8
0
 10
6.86592575
 20
6.58815450
  0
SEQEND
  0
POLYLINE
  8
Default_Layer
 66
   1
 39
0.000000
 70
    0
  0
VERTEX
  8
0
 10
4.68279818
 20
6.49761952
  0
VERTEX
  8
0
 10
4.78336728
 20
6.50312340
  0
VERTEX
  8
0
 10
4.88341546
 20
6.49453310
  0
SEQEND
  0
POLYLINE
  8
Default_Layer
 66
   1
 39
0.000000
 70
    0
  0
VERTEX
  8
0
 10
4.88341546
 20
6.49453310
  0
VERTEX
  8
0
 10
5.02249888
 20
6.53018386
  0
VERTEX
  8
0
 10
5.13743684
 20
6.61301410
  0
VERTEX
  8
0
 10
5.21641350
 20
6.72919643
  0
VERTEX
  8
0
 10
5.24761300
 20
6.86490347
  0
VERTEX
  8
0
 10
4.92778036
 20
6.74421942
  0
VERTEX
  8
0
 10
4.78195356
 20
6.66133386
  0
VERTEX
  8
0
 10
4.65656361
 20
6.54545902
  0
SEQEND
  0
POLYLINE
  8
Default_Layer
 66
   1
 39
0.000000
 70
    0
  0
VERTEX
  8
0
 10
3.19874468
 20
3.99247549
  0
VERTEX
  8
0
 10
3.35976862
 20
3.77108412
  0
VERTEX
  8
0
 10
3.56022794
 20
3.57944088
  0
VERTEX
  8
0
 10
3.78908327
 20
3.40966279
  0
VERTEX
  8
0
 10
4.03529522
 20
3.25386688
  0
VERTEX
  8
0
 10
4.53563147
 20
2.95268978
  0
VERTEX
  8
0
 10
4.76767700
 20
2.79154265
  0
VERTEX
  8
0
 10
4.97292164
 20
2.61284586
  0
VERTEX
  8
0
 10
5.17014418
 20
2.38760354
  0
VERTEX
  8
0
 10
5.32621775
 20
2.16055404
  0
VERTEX
  8
0
 10
5.45507742
 20
1.93061238
  0
VERTEX
  8
0
 10
5.57065826
 20
1.69669359
  0
VERTEX
  8
0
 10
5.69112255
 20
1.39734758
  0
VERTEX
  8
0
 10
5.75512670
 20
1.10454913
  0
VERTEX
  8
0
 10
5.76510508
 20
0.95563578
  0
VERTEX
  8
0
 10
5.75994704
 20
0.80239596
  0
VERTEX
  8
0
 10
5.70285991
 20
0.47498577
  0
VERTEX
  8
0
 10
5.66839650
 20
0.34830941
  0
VERTEX
  8
0
 10
5.65470501
 20
0.27080960
  0
VERTEX
  8
0
 10
5.65965003
 20
0.21778413
  0
VERTEX
  8
0
 10
5.69636460
 20
0.19937151
  0
VERTEX
  8
0
 10
5.74761300
 20
0.19257837
  0
VERTEX
  8
0
 10
5.86037189
 20
0.15613412
  0
VERTEX
  8
0
 10
5.92003629
 20
0.15702014
  0
VERTEX
  8
0
 10
5.96036146
 20
0.20912149
  0
VERTEX
  8
0
 10
6.01510271
 20
0.32632322
  0
VERTEX
  8
0
 10
6.07733902
 20
0.47861174
  0
VERTEX
  8
0
 10
6.12219946
 20
0.62661000
  0
VERTEX
  8
0
 10
6.18223924
 20
0.90625015
  0
VERTEX
  8
0
 10
6.24011508
 20
1.15827251
  0
VERTEX
  8
0
 10
6.28227059
 20
1.27174854
  0
VERTEX
  8
0
 10
6.34071999
 20
1.37570594
  0
VERTEX
  8
0
 10
6.46976201
 20
1.52436808
  0
VERTEX
  8
0
 10
6.62625640
 20
1.66365014
  0
VERTEX
  8
0
 10
6.78941674
 20
1.80144980
  0
VERTEX
  8
0
 10
6.93845662
 20
1.94566479
  0
VERTEX
  8
0
 10
7.13094603
 20
2.18710384
  0
VERTEX
  8
0
 10
7.31270325
 20
2.47550638
  0
VERTEX
  8
0
 10
7.47799044
 20
2.80891611
  0
VERTEX
  8
0
 10
7.62106979
 20
3.18537672
  0
SEQEND
  0
POLYLINE
  8
Default_Layer
 66
   1
 39
0.000000
 70
    0
  0
VERTEX
  8
0
 10
7.62106979
 20
3.18537672
  0
VERTEX
  8
0
 10
7.64291258
 20
3.27286774
  0
VERTEX
  8
0
 10
7.67148131
 20
3.35873063
  0
SEQEND
  0
POLYLINE
  8
Default_Layer
 66
   1
 39
0.000000
 70
    0
  0
VERTEX
  8
0
 10
7.67148131
 20
3.35873063
  0
VERTEX
  8
0
 10
7.50321691
 20
3.31564133
  0
VERTEX
  8
0
 10
7.35023695
 20
3.25280857
  0
VERTEX
  8
0
 10
7.21122800
 20
3.17218708
  0
VERTEX
  8
0
 10
7.08487660
 20
3.07573161
  0
VERTEX
  8
0
 10
6.96986935
 20
2.96539689
  0
VERTEX
  8
0
 10
6.86489278
 20
2.84313765
  0
VERTEX
  8
0
 10
6.67977802
 20
2.57066457
  0
VERTEX
  8
0
 10
6.51902482
 20
2.27395026
  0
VERTEX
  8
0
 10
6.37212572
 20
1.96863261
  0
VERTEX
  8
0
 10
6.22857325
 20
1.67034952
  0
VERTEX
  8
0
 10
6.07785991
 20
1.39473886
  0
VERTEX
  8
0
 10
6.05937090
 20
1.79621839
  0
VERTEX
  8
0
 10
6.05685279
 20
2.22625367
  0
VERTEX
  8
0
 10
6.08228413
 20
3.13211947
  0
VERTEX
  8
0
 10
6.11926365
 20
4.03259229
  0
VERTEX
  8
0
 10
6.13290106
 20
4.84792816
  0
VERTEX
  8
0
 10
6.13225664
 20
4.98288995
  0
VERTEX
  8
0
 10
6.14656554
 20
5.09601426
  0
VERTEX
  8
0
 10
6.19442286
 20
5.19646384
  0
VERTEX
  8
0
 10
6.29442370
 20
5.29340141
  0
VERTEX
  8
0
 10
6.43262842
 20
5.40093309
  0
VERTEX
  8
0
 10
6.48685323
 20
5.46471208
  0
VERTEX
  8
0
 10
6.52899160
 20
5.54854544
  0
VERTEX
  8
0
 10
6.59328103
 20
5.78556383
  0
VERTEX
  8
0
 10
6.65558641
 20
5.89043662
  0
VERTEX
  8
0
 10
6.70688605
 20
5.93273999
  0
VERTEX
  8
0
 10
6.77641958
 20
5.96572651
  0
SEQEND
  0
POLYLINE
  8
Default_Layer
 66
   1
 39
0.000000
 70
    0
  0
VERTEX
  8
0
 10
6.77641958
 20
5.96572651
  0
VERTEX
  8
0
 10
6.85516574
 20
6.02458377
  0
VERTEX
  8
0
 10
6.92611094
 20
6.09278413
  0
SEQEND
  0
POLYLINE
  8
Default_Layer
 66
   1
 39
0.000000
 70
    0
  0
VERTEX
  8
0
 10
6.92611094
 20
6.09278413
  0
VERTEX
  8
0
 10
6.85479429
 20
6.16229179
  0
VERTEX
  8
0
 10
6.82036510
 20
6.19772501
  0
VERTEX
  8
0
 10
6.79648131
 20
6.24093228
  0
SEQEND
  0
POLYLINE
  8
Default_Layer
 66
   1
 39
0.000000
 70
    0
  0
VERTEX
  8
0
 10
7.71983522
 20
5.73373063
  0
VERTEX
  8
0
 10
7.89800703
 20
5.67129326
  0
VERTEX
  8
0
 10
8.09481187
 20
5.63537446
  0
VERTEX
  8
0
 10
8.29612941
 20
5.64130349
  0
VERTEX
  8
0
 10
8.39406784
 20
5.66475134
  0
VERTEX
  8
0
 10
8.48783933
 20
5.70440964
  0
VERTEX
  8
0
 10
8.43342749
 20
5.87473664
  0
VERTEX
  8
0
 10
8.35054338
 20
6.03504908
  0
VERTEX
  8
0
 10
8.29573997
 20
6.10447112
  0
VERTEX
  8
0
 10
8.23059738
 20
6.16301505
  0
VERTEX
  8
0
 10
8.15404190
 20
6.20788939
  0
VERTEX
  8
0
 10
8.06499983
 20
6.23630265
  0
SEQEND
  0
POLYLINE
  8
Default_Layer
 66
   1
 39
0.000000
 70
    0
  0
VERTEX
  8
0
 10
8.06499983
 20
6.23630265
  0
VERTEX
  8
0
 10
8.02992416
 20
6.21066130
  0
VERTEX
  8
0
 10
7.99774167
 20
6.20611560
  0
VERTEX
  8
0
 10
7.93819876
 20
6.23696075
  0
VERTEX
  8
0
 10
7.87865618
 20
6.28213734
  0
VERTEX
  8
0
 10
7.84647410
 20
6.29550594
  0
VERTEX
  8
0
 10
7.81139900
 20
6.29494462
  0
SEQEND
  0
POLYLINE
  8
Default_Layer
 66
   1
 39
0.000000
 70
    0
  0
VERTEX
  8
0
 10
6.77641958
 20
5.96572651
  0
VERTEX
  8
0
 10
6.72073291
 20
5.73671299
  0
VERTEX
  8
0
 10
6.68235513
 20
5.50171748
  0
VERTEX
  8
0
 10
6.63429661
 20
5.26943122
  0
VERTEX
  8
0
 10
6.54956773
 20
5.04854544
  0
VERTEX
  8
0
 10
6.59866250
 20
5.04751664
  0
VERTEX
  8
0
 10
6.64370353
 20
5.07426561
  0
SEQEND
  0
POLYLINE
  8
Default_Layer
 66
   1
 39
0.000000
 70
    0
  0
VERTEX
  8
0
 10
6.64370353
 20
5.07426561
  0
VERTEX
  8
0
 10
6.73994981
 20
5.18023483
  0
VERTEX
  8
0
 10
6.79638039
 20
5.29935028
  0
VERTEX
  8
0
 10
6.82506012
 20
5.42762891
  0
VERTEX
  8
0
 10
6.83805381
 20
5.56108770
  0
VERTEX
  8
0
 10
6.86524241
 20
5.82761367
  0
VERTEX
  8
0
 10
6.90356699
 20
5.95271479
  0
VERTEX
  8
0
 10
6.97446485
 20
6.06706396
  0
SEQEND
  0
POLYLINE
  8
Default_Layer
 66
   1
 39
0.000000
 70
    0
  0
VERTEX
  8
0
 10
6.64370353
 20
5.07426561
  0
VERTEX
  8
0
 10
6.80716079
 20
5.08285615
  0
VERTEX
  8
0
 10
6.95943344
 20
5.12947325
  0
VERTEX
  8
0
 10
7.09787405
 20
5.20841452
  0
VERTEX
  8
0
 10
7.21983522
 20
5.31397754
  0
SEQEND
  0
POLYLINE
  8
Default_Layer
 66
   1
 39
0.000000
 70
    0
  0
VERTEX
  8
0
 10
7.21983522
 20
5.31397754
  0
VERTEX
  8
0
 10
7.19136416
 20
5.38915103
  0
VERTEX
  8
0
 10
7.17801040
 20
5.46588422
  0
VERTEX
  8
0
 10
7.17872108
 20
5.62281732
  0
VERTEX
  8
0
 10
7.18609994
 20
5.78235214
  0
VERTEX
  8
0
 10
7.16427966
 20
5.94206396
  0
SEQEND
  0
POLYLINE
  8
Default_Layer
 66
   1
 39
0.000000
 70
    0
  0
VERTEX
  8
0
 10
7.21983522
 20
5.31397754
  0
VERTEX
  8
0
 10
7.24427764
 20
5.20460104
  0
VERTEX
  8
0
 10
7.28827807
 20
5.10849444
  0
VERTEX
  8
0
 10
7.34894567
 20
5.02470900
  0
VERTEX
  8
0
 10
7.42338957
 20
4.95229597
  0
VERTEX
  8
0
 10
7.60204282
 20
4.83779220
  0
VERTEX
  8
0
 10
7.80111094
 20
4.75739318
  0
VERTEX
  8
0
 10
7.80791385
 20
4.86494954
  0
VERTEX
  8
0
 10
7.82523283
 20
4.98899425
  0
VERTEX
  8
0
 10
7.82933346
 20
5.10899255
  0
VERTEX
  8
0
 10
7.81900988
 20
5.16105717
  0
VERTEX
  8
0
 10
7.79648131
 20
5.20440964
  0
VERTEX
  8
0
 10
7.75710943
 20
5.26703288
  0
VERTEX
  8
0
 10
7.73553114
 20
5.32738809
  0
VERTEX
  8
0
 10
7.72796326
 20
5.44355547
  0
VERTEX
  8
0
 10
7.73819350
 20
5.55743389
  0
VERTEX
  8
0
 10
7.73063769
 20
5.67354544
  0
VERTEX
  8
0
 10
7.71983522
 20
5.73373063
  0
SEQEND
  0
POLYLINE
  8
Default_Layer
 66
   1
 39
0.000000
 70
    0
  0
VERTEX
  8
0
 10
7.71983522
 20
5.73373063
  0
VERTEX
  8
0
 10
7.55723393
 20
5.90604705
  0
VERTEX
  8
0
 10
7.46174994
 20
5.97922426
  0
VERTEX
  8
0
 10
7.35872411
 20
6.03928618
  0
SEQEND
  0
POLYLINE
  8
Default_Layer
 66
   1
 39
0.000000
 70
    0
  0
VERTEX
  8
0
 10
7.35872411
 20
6.03928618
  0
VERTEX
  8
0
 10
7.29515262
 20
6.04321242
  0
VERTEX
  8
0
 10
7.23886814
 20
6.01922446
  0
SEQEND
  0
POLYLINE
  8
Default_Layer
 66
   1
 39
0.000000
 70
    0
  0
VERTEX
  8
0
 10
7.23886814
 20
6.01922446
  0
VERTEX
  8
0
 10
7.39298720
 20
5.82928985
  0
VERTEX
  8
0
 10
7.45882380
 20
5.72709701
  0
VERTEX
  8
0
 10
7.49092575
 20
5.60873063
  0
SEQEND
  0
POLYLINE
  8
Default_Layer
 66
   1
 39
0.000000
 70
    0
  0
VERTEX
  8
0
 10
7.06397102
 20
6.04134380
  0
VERTEX
  8
0
 10
7.07643909
 20
5.93398298
  0
VERTEX
  8
0
 10
7.06046132
 20
5.83141709
  0
VERTEX
  8
0
 10
6.98372411
 20
5.63650841
  0
SEQEND
  0
POLYLINE
  8
Default_Layer
 66
   1
 39
0.000000
 70
    0
  0
VERTEX
  8
0
 10
1.67251011
 20
3.93640553
  0
VERTEX
  8
0
 10
1.74274453
 20
3.92255842
  0
VERTEX
  8
0
 10
1.80869861
 20
3.94051478
  0
VERTEX
  8
0
 10
1.95131670
 20
4.01459483
  0
VERTEX
  8
0
 10
2.10213049
 20
4.06657191
  0
VERTEX
  8
0
 10
2.25595223
 20
4.09397216
  0
VERTEX
  8
0
 10
2.41200863
 20
4.10126370
  0
VERTEX
  8
0
 10
2.56952637
 20
4.09291467
  0
VERTEX
  8
0
 10
2.88585267
 20
4.04716743
  0
VERTEX
  8
0
 10
3.19874468
 20
3.99247549
  0
SEQEND
  0
POLYLINE
  8
Default_Layer
 66
   1
 39
0.000000
 70
    0
  0
VERTEX
  8
0
 10
3.19874468
 20
3.99247549
  0
VERTEX
  8
0
 10
3.15643839
 20
4.07667905
  0
VERTEX
  8
0
 10
3.09543923
 20
4.14820348
  0
VERTEX
  8
0
 10
3.03259486
 20
4.21876721
  0
VERTEX
  8
0
 10
2.98475291
 20
4.30008865
  0
SEQEND
  0
POLYLINE
  8
Default_Layer
 66
   1
 39
0.000000
 70
    1
  0
VERTEX
  8
0
 10
1.59277760
 20
3.84741376
  0
VERTEX
  8
0
 10
1.52945969
 20
3.76506116
  0
VERTEX
  8
0
 10
1.49494017
 20
3.65588707
  0
VERTEX
  8
0
 10
1.49750809
 20
3.54345368
  0
VERTEX
  8
0
 10
1.51529017
 20
3.49337795
  0
VERTEX
  8
0
 10
1.54545250
 20
3.45132322
  0
VERTEX
  8
0
 10
1.57520535
 20
3.54385036
  0
VERTEX
  8
0
 10
1.59017975
 20
3.64587717
  0
VERTEX
  8
0
 10
1.59277760
 20
3.84741376
  0
SEQEND
  0
POLYLINE
  8
Default_Layer
 66
   1
 39
0.000000
 70
    0
  0
VERTEX
  8
0
 10
7.62106979
 20
3.18537672
  0
VERTEX
  8
0
 10
7.73025130
 20
3.25312769
  0
VERTEX
  8
0
 10
7.84223709
 20
3.29284320
  0
VERTEX
  8
0
 10
7.95588231
 20
3.30775997
  0
VERTEX
  8
0
 10
8.07004209
 20
3.30111474
  0
VERTEX
  8
0
 10
8.18357159
 20
3.27614423
  0
VERTEX
  8
0
 10
8.29532596
 20
3.23608518
  0
VERTEX
  8
0
 10
8.50892987
 20
3.12364832
  0
VERTEX
  8
0
 10
8.47096216
 20
3.24755549
  0
VERTEX
  8
0
 10
8.39628590
 20
3.35214930
  0
VERTEX
  8
0
 10
8.29372488
 20
3.43358331
  0
VERTEX
  8
0
 10
8.17210291
 20
3.48801106
  0
VERTEX
  8
0
 10
8.04024376
 20
3.51158612
  0
VERTEX
  8
0
 10
7.90697125
 20
3.50046203
  0
VERTEX
  8
0
 10
7.78110917
 20
3.45079235
  0
VERTEX
  8
0
 10
7.67148131
 20
3.35873063
  0
SEQEND
  0
ENDSEC
  0
EOF
