999
\"DXF R12 Output\" (www.mydxf.blogspot.com)
 0 
SECTION
 2 
HEADER
 9 
$ACADVER
 1 
AC1009
 9 
$EXTMIN
 10 
 0 
 20 
 0 
 9 
$EXTMAX
 10 
 8.5 
 20 
 11 
 0 
ENDSEC
 0 
SECTION
 2 
ENTITIES
0
LINE
8
Layer 1
10
169.333347
20
188.559722
11
163.256009
21
188.442829
0
LINE
8
Layer 1
10
163.256009
20
188.442829
11
157.258126
21
188.095922
0
LINE
8
Layer 1
10
157.258126
20
188.095922
11
151.347141
21
187.524653
0
LINE
8
Layer 1
10
151.347141
20
187.524653
11
145.530495
21
186.734678
0
LINE
8
Layer 1
10
145.530495
20
186.734678
11
139.815629
21
185.731652
0
LINE
8
Layer 1
10
139.815629
20
185.731652
11
134.209986
21
184.521228
0
LINE
8
Layer 1
10
134.209986
20
184.521228
11
128.721007
21
183.109061
0
LINE
8
Layer 1
10
128.721007
20
183.109061
11
123.356133
21
181.500805
0
LINE
8
Layer 1
10
123.356133
20
181.500805
11
118.122807
21
179.702116
0
LINE
8
Layer 1
10
118.122807
20
179.702116
11
113.028470
21
177.718647
0
LINE
8
Layer 1
10
113.028470
20
177.718647
11
108.080564
21
175.556053
0
LINE
8
Layer 1
10
108.080564
20
175.556053
11
103.286531
21
173.219989
0
LINE
8
Layer 1
10
103.286531
20
173.219989
11
98.653811
21
170.716108
0
LINE
8
Layer 1
10
98.653811
20
170.716108
11
94.189847
21
168.050066
0
LINE
8
Layer 1
10
94.189847
20
168.050066
11
89.902081
21
165.227517
0
LINE
8
Layer 1
10
89.902081
20
165.227517
11
85.797953
21
162.254115
0
LINE
8
Layer 1
10
85.797953
20
162.254115
11
81.884907
21
159.135515
0
LINE
8
Layer 1
10
81.884907
20
159.135515
11
78.170383
21
155.877371
0
LINE
8
Layer 1
10
78.170383
20
155.877371
11
74.661823
21
152.485339
0
LINE
8
Layer 1
10
74.661823
20
152.485339
11
71.366669
21
148.965071
0
LINE
8
Layer 1
10
71.366669
20
148.965071
11
68.292363
21
145.322223
0
LINE
8
Layer 1
10
68.292363
20
145.322223
11
65.446345
21
141.562449
0
LINE
8
Layer 1
10
65.446345
20
141.562449
11
62.836059
21
137.691404
0
LINE
8
Layer 1
10
62.836059
20
137.691404
11
60.468945
21
133.714742
0
LINE
8
Layer 1
10
60.468945
20
133.714742
11
58.352445
21
129.638118
0
LINE
8
Layer 1
10
58.352445
20
129.638118
11
56.494001
21
125.467186
0
LINE
8
Layer 1
10
56.494001
20
125.467186
11
54.901055
21
121.207600
0
LINE
8
Layer 1
10
54.901055
20
121.207600
11
53.581047
21
116.865016
0
LINE
8
Layer 1
10
53.581047
20
116.865016
11
52.541421
21
112.445087
0
LINE
8
Layer 1
10
52.541421
20
112.445087
11
51.789618
21
107.953468
0
LINE
8
Layer 1
10
51.789618
20
107.953468
11
51.333078
21
103.395813
0
LINE
8
Layer 1
10
51.333078
20
103.395813
11
51.179245
21
98.777778
0
LINE
8
Layer 1
10
51.179245
20
98.777778
11
51.333078
21
94.159742
0
LINE
8
Layer 1
10
51.333078
20
94.159742
11
51.789618
21
89.602087
0
LINE
8
Layer 1
10
51.789618
20
89.602087
11
52.541421
21
85.110468
0
LINE
8
Layer 1
10
52.541421
20
85.110468
11
53.581047
21
80.690539
0
LINE
8
Layer 1
10
53.581047
20
80.690539
11
54.901055
21
76.347954
0
LINE
8
Layer 1
10
54.901055
20
76.347954
11
56.494001
21
72.088368
0
LINE
8
Layer 1
10
56.494001
20
72.088368
11
58.352445
21
67.917436
0
LINE
8
Layer 1
10
58.352445
20
67.917436
11
60.468945
21
63.840812
0
LINE
8
Layer 1
10
60.468945
20
63.840812
11
62.836059
21
59.864150
0
LINE
8
Layer 1
10
62.836059
20
59.864150
11
65.446345
21
55.993105
0
LINE
8
Layer 1
10
65.446345
20
55.993105
11
68.292363
21
52.233331
0
LINE
8
Layer 1
10
68.292363
20
52.233331
11
71.366669
21
48.590483
0
LINE
8
Layer 1
10
71.366669
20
48.590483
11
74.661823
21
45.070216
0
LINE
8
Layer 1
10
74.661823
20
45.070216
11
78.170383
21
41.678183
0
LINE
8
Layer 1
10
78.170383
20
41.678183
11
81.884907
21
38.420039
0
LINE
8
Layer 1
10
81.884907
20
38.420039
11
85.797953
21
35.301439
0
LINE
8
Layer 1
10
85.797953
20
35.301439
11
89.902081
21
32.328038
0
LINE
8
Layer 1
10
89.902081
20
32.328038
11
94.189847
21
29.505488
0
LINE
8
Layer 1
10
94.189847
20
29.505488
11
98.653811
21
26.839446
0
LINE
8
Layer 1
10
98.653811
20
26.839446
11
103.286531
21
24.335566
0
LINE
8
Layer 1
10
103.286531
20
24.335566
11
108.080564
21
21.999502
0
LINE
8
Layer 1
10
108.080564
20
21.999502
11
113.028470
21
19.836908
0
LINE
8
Layer 1
10
113.028470
20
19.836908
11
118.122807
21
17.853439
0
LINE
8
Layer 1
10
118.122807
20
17.853439
11
123.356133
21
16.054750
0
LINE
8
Layer 1
10
123.356133
20
16.054750
11
128.721007
21
14.446494
0
LINE
8
Layer 1
10
128.721007
20
14.446494
11
134.209986
21
13.034328
0
LINE
8
Layer 1
10
134.209986
20
13.034328
11
139.815629
21
11.823903
0
LINE
8
Layer 1
10
139.815629
20
11.823903
11
145.530495
21
10.820877
0
LINE
8
Layer 1
10
145.530495
20
10.820877
11
151.347141
21
10.030902
0
LINE
8
Layer 1
10
151.347141
20
10.030902
11
157.258126
21
9.459634
0
LINE
8
Layer 1
10
157.258126
20
9.459634
11
163.256009
21
9.112726
0
LINE
8
Layer 1
10
163.256009
20
9.112726
11
169.333347
21
8.995833
0
LINE
8
Layer 1
10
169.333347
20
8.995833
11
175.410685
21
9.112726
0
LINE
8
Layer 1
10
175.410685
20
9.112726
11
181.408568
21
9.459634
0
LINE
8
Layer 1
10
181.408568
20
9.459634
11
187.319552
21
10.030902
0
LINE
8
Layer 1
10
187.319552
20
10.030902
11
193.136198
21
10.820877
0
LINE
8
Layer 1
10
193.136198
20
10.820877
11
198.851063
21
11.823903
0
LINE
8
Layer 1
10
198.851063
20
11.823903
11
204.456705
21
13.034328
0
LINE
8
Layer 1
10
204.456705
20
13.034328
11
209.945683
21
14.446494
0
LINE
8
Layer 1
10
209.945683
20
14.446494
11
215.310555
21
16.054750
0
LINE
8
Layer 1
10
215.310555
20
16.054750
11
220.543880
21
17.853439
0
LINE
8
Layer 1
10
220.543880
20
17.853439
11
225.638215
21
19.836908
0
LINE
8
Layer 1
10
225.638215
20
19.836908
11
230.586120
21
21.999502
0
LINE
8
Layer 1
10
230.586120
20
21.999502
11
235.380152
21
24.335566
0
LINE
8
Layer 1
10
235.380152
20
24.335566
11
240.012871
21
26.839446
0
LINE
8
Layer 1
10
240.012871
20
26.839446
11
244.476833
21
29.505488
0
LINE
8
Layer 1
10
244.476833
20
29.505488
11
248.764598
21
32.328038
0
LINE
8
Layer 1
10
248.764598
20
32.328038
11
252.868724
21
35.301439
0
LINE
8
Layer 1
10
252.868724
20
35.301439
11
256.781768
21
38.420039
0
LINE
8
Layer 1
10
256.781768
20
38.420039
11
260.496291
21
41.678183
0
LINE
8
Layer 1
10
260.496291
20
41.678183
11
264.004849
21
45.070216
0
LINE
8
Layer 1
10
264.004849
20
45.070216
11
267.300002
21
48.590483
0
LINE
8
Layer 1
10
267.300002
20
48.590483
11
270.374307
21
52.233331
0
LINE
8
Layer 1
10
270.374307
20
52.233331
11
273.220323
21
55.993105
0
LINE
8
Layer 1
10
273.220323
20
55.993105
11
275.830608
21
59.864150
0
LINE
8
Layer 1
10
275.830608
20
59.864150
11
278.197721
21
63.840812
0
LINE
8
Layer 1
10
278.197721
20
63.840812
11
280.314220
21
67.917436
0
LINE
8
Layer 1
10
280.314220
20
67.917436
11
282.172663
21
72.088368
0
LINE
8
Layer 1
10
282.172663
20
72.088368
11
283.765608
21
76.347954
0
LINE
8
Layer 1
10
283.765608
20
76.347954
11
285.085615
21
80.690539
0
LINE
8
Layer 1
10
285.085615
20
80.690539
11
286.125241
21
85.110468
0
LINE
8
Layer 1
10
286.125241
20
85.110468
11
286.877044
21
89.602087
0
LINE
8
Layer 1
10
286.877044
20
89.602087
11
287.333583
21
94.159742
0
LINE
8
Layer 1
10
287.333583
20
94.159742
11
287.487416
21
98.777778
0
LINE
8
Layer 1
10
287.487416
20
98.777778
11
287.333583
21
103.395813
0
LINE
8
Layer 1
10
287.333583
20
103.395813
11
286.877044
21
107.953468
0
LINE
8
Layer 1
10
286.877044
20
107.953468
11
286.125241
21
112.445087
0
LINE
8
Layer 1
10
286.125241
20
112.445087
11
285.085615
21
116.865016
0
LINE
8
Layer 1
10
285.085615
20
116.865016
11
283.765608
21
121.207600
0
LINE
8
Layer 1
10
283.765608
20
121.207600
11
282.172663
21
125.467186
0
LINE
8
Layer 1
10
282.172663
20
125.467186
11
280.314220
21
129.638118
0
LINE
8
Layer 1
10
280.314220
20
129.638118
11
278.197721
21
133.714742
0
LINE
8
Layer 1
10
278.197721
20
133.714742
11
275.830608
21
137.691404
0
LINE
8
Layer 1
10
275.830608
20
137.691404
11
273.220323
21
141.562449
0
LINE
8
Layer 1
10
273.220323
20
141.562449
11
270.374307
21
145.322223
0
LINE
8
Layer 1
10
270.374307
20
145.322223
11
267.300002
21
148.965071
0
LINE
8
Layer 1
10
267.300002
20
148.965071
11
264.004849
21
152.485339
0
LINE
8
Layer 1
10
264.004849
20
152.485339
11
260.496291
21
155.877371
0
LINE
8
Layer 1
10
260.496291
20
155.877371
11
256.781768
21
159.135515
0
LINE
8
Layer 1
10
256.781768
20
159.135515
11
252.868724
21
162.254115
0
LINE
8
Layer 1
10
252.868724
20
162.254115
11
248.764598
21
165.227517
0
LINE
8
Layer 1
10
248.764598
20
165.227517
11
244.476833
21
168.050066
0
LINE
8
Layer 1
10
244.476833
20
168.050066
11
240.012871
21
170.716108
0
LINE
8
Layer 1
10
240.012871
20
170.716108
11
235.380152
21
173.219989
0
LINE
8
Layer 1
10
235.380152
20
173.219989
11
230.586120
21
175.556053
0
LINE
8
Layer 1
10
230.586120
20
175.556053
11
225.638215
21
177.718647
0
LINE
8
Layer 1
10
225.638215
20
177.718647
11
220.543880
21
179.702116
0
LINE
8
Layer 1
10
220.543880
20
179.702116
11
215.310555
21
181.500805
0
LINE
8
Layer 1
10
215.310555
20
181.500805
11
209.945683
21
183.109061
0
LINE
8
Layer 1
10
209.945683
20
183.109061
11
204.456705
21
184.521228
0
LINE
8
Layer 1
10
204.456705
20
184.521228
11
198.851063
21
185.731652
0
LINE
8
Layer 1
10
198.851063
20
185.731652
11
193.136198
21
186.734678
0
LINE
8
Layer 1
10
193.136198
20
186.734678
11
187.319552
21
187.524653
0
LINE
8
Layer 1
10
187.319552
20
187.524653
11
181.408568
21
188.095922
0
LINE
8
Layer 1
10
181.408568
20
188.095922
11
175.410685
21
188.442829
0
LINE
8
Layer 1
10
175.410685
20
188.442829
11
169.333347
21
188.559722
0
LINE
8
Layer 1
10
169.333347
20
188.559722
11
169.333347
21
188.559722
0
LINE
8
Layer 1
10
153.387789
20
160.302222
11
153.843425
21
160.217337
0
LINE
8
Layer 1
10
153.843425
20
160.217337
11
154.277507
21
159.962709
0
LINE
8
Layer 1
10
154.277507
20
159.962709
11
155.081122
21
158.944028
0
LINE
8
Layer 1
10
155.081122
20
158.944028
11
155.650511
21
157.382436
0
LINE
8
Layer 1
10
155.650511
20
157.382436
11
155.839597
21
155.416250
0
LINE
8
Layer 1
10
155.839597
20
155.416250
11
155.659185
21
153.519827
0
LINE
8
Layer 1
10
155.659185
20
153.519827
11
155.116400
21
151.941389
0
LINE
8
Layer 1
10
155.116400
20
151.941389
11
154.322054
21
150.881743
0
LINE
8
Layer 1
10
154.322054
20
150.881743
11
153.872482
21
150.617971
0
LINE
8
Layer 1
10
153.872482
20
150.617971
11
153.387789
21
150.530278
0
LINE
8
Layer 1
10
153.387789
20
150.530278
11
152.890916
21
150.620798
0
LINE
8
Layer 1
10
152.890916
20
150.620798
11
152.433933
21
150.892955
0
LINE
8
Layer 1
10
152.433933
20
150.892955
11
151.641539
21
151.985486
0
LINE
8
Layer 1
10
151.641539
20
151.985486
11
151.111159
21
153.580394
0
LINE
8
Layer 1
10
151.111159
20
153.580394
11
150.935984
21
155.442708
0
LINE
8
Layer 1
10
150.935984
20
155.442708
11
151.119004
21
157.314214
0
LINE
8
Layer 1
10
151.119004
20
157.314214
11
151.667997
21
158.882292
0
LINE
8
Layer 1
10
151.667997
20
158.882292
11
152.463306
21
159.946293
0
LINE
8
Layer 1
10
152.463306
20
159.946293
11
152.909177
21
160.213110
0
LINE
8
Layer 1
10
152.909177
20
160.213110
11
153.387789
21
160.302222
0
LINE
8
Layer 1
10
153.387789
20
160.302222
11
153.387789
21
160.302222
0
LINE
8
Layer 1
10
180.481125
20
160.302222
11
180.936762
21
160.217337
0
LINE
8
Layer 1
10
180.936762
20
160.217337
11
181.370844
21
159.962709
0
LINE
8
Layer 1
10
181.370844
20
159.962709
11
182.174459
21
158.944028
0
LINE
8
Layer 1
10
182.174459
20
158.944028
11
182.748259
21
157.382436
0
LINE
8
Layer 1
10
182.748259
20
157.382436
11
182.941750
21
155.416250
0
LINE
8
Layer 1
10
182.941750
20
155.416250
11
182.756925
21
153.519827
0
LINE
8
Layer 1
10
182.756925
20
153.519827
11
182.209736
21
151.941389
0
LINE
8
Layer 1
10
182.209736
20
151.941389
11
181.415390
21
150.881743
0
LINE
8
Layer 1
10
181.415390
20
150.881743
11
180.965818
21
150.617971
0
LINE
8
Layer 1
10
180.965818
20
150.617971
11
180.481125
21
150.530278
0
LINE
8
Layer 1
10
180.481125
20
150.530278
11
179.985634
21
150.620798
0
LINE
8
Layer 1
10
179.985634
20
150.620798
11
179.531681
21
150.892955
0
LINE
8
Layer 1
10
179.531681
20
150.892955
11
178.743695
21
151.985486
0
LINE
8
Layer 1
10
178.743695
20
151.985486
11
178.208906
21
153.580394
0
LINE
8
Layer 1
10
178.208906
20
153.580394
11
178.029320
21
155.442708
0
LINE
8
Layer 1
10
178.029320
20
155.442708
11
178.212342
21
157.314214
0
LINE
8
Layer 1
10
178.212342
20
157.314214
11
178.761334
21
158.882292
0
LINE
8
Layer 1
10
178.761334
20
158.882292
11
179.556646
21
159.946293
0
LINE
8
Layer 1
10
179.556646
20
159.946293
11
180.002514
21
160.213110
0
LINE
8
Layer 1
10
180.002514
20
160.213110
11
180.481125
21
160.302222
0
LINE
8
Layer 1
10
180.481125
20
160.302222
11
180.481125
21
160.302222
0
LINE
8
Layer 1
10
122.131678
20
159.631944
11
134.778761
21
159.631944
0
LINE
8
Layer 1
10
134.778761
20
159.631944
11
134.778761
21
151.456319
0
LINE
8
Layer 1
10
134.778761
20
151.456319
11
130.712997
21
151.456319
0
LINE
8
Layer 1
10
130.712997
20
151.456319
11
130.712997
21
119.309444
0
LINE
8
Layer 1
10
130.712997
20
119.309444
11
126.047511
21
119.309444
0
LINE
8
Layer 1
10
126.047511
20
119.309444
11
126.047511
21
151.456319
0
LINE
8
Layer 1
10
126.047511
20
151.456319
11
122.131678
21
151.456319
0
LINE
8
Layer 1
10
122.131678
20
151.456319
11
122.131678
21
159.631944
0
LINE
8
Layer 1
10
122.131678
20
159.631944
11
122.131678
21
159.631944
0
LINE
8
Layer 1
10
136.930706
20
159.631944
11
141.463900
21
159.631944
0
LINE
8
Layer 1
10
141.463900
20
159.631944
11
141.463900
21
144.462500
0
LINE
8
Layer 1
10
141.463900
20
144.462500
11
142.146129
21
145.799695
0
LINE
8
Layer 1
10
142.146129
20
145.799695
11
142.875011
21
146.746736
0
LINE
8
Layer 1
10
142.875011
20
146.746736
11
143.654253
21
147.309415
0
LINE
8
Layer 1
10
143.654253
20
147.309415
11
144.480150
21
147.496389
0
LINE
8
Layer 1
10
144.480150
20
147.496389
11
145.253500
21
147.339398
0
LINE
8
Layer 1
10
145.253500
20
147.339398
11
145.952779
21
146.869042
0
LINE
8
Layer 1
10
145.952779
20
146.869042
11
146.579407
21
146.086180
0
LINE
8
Layer 1
10
146.579407
20
146.086180
11
147.134803
21
144.991667
0
LINE
8
Layer 1
10
147.134803
20
144.991667
11
147.590039
21
143.670795
0
LINE
8
Layer 1
10
147.590039
20
143.670795
11
147.915260
21
142.207904
0
LINE
8
Layer 1
10
147.915260
20
142.207904
11
148.175497
21
138.853333
0
LINE
8
Layer 1
10
148.175497
20
138.853333
11
148.175497
21
119.309444
0
LINE
8
Layer 1
10
148.175497
20
119.309444
11
143.615845
21
119.309444
0
LINE
8
Layer 1
10
143.615845
20
119.309444
11
143.615845
21
137.433403
0
LINE
8
Layer 1
10
143.615845
20
137.433403
11
143.558665
21
138.407976
0
LINE
8
Layer 1
10
143.558665
20
138.407976
11
143.387674
21
139.105439
0
LINE
8
Layer 1
10
143.387674
20
139.105439
11
143.103667
21
139.524713
0
LINE
8
Layer 1
10
143.103667
20
139.524713
11
142.707442
21
139.664722
0
LINE
8
Layer 1
10
142.707442
20
139.664722
11
142.418777
21
139.588349
0
LINE
8
Layer 1
10
142.418777
20
139.588349
11
142.169068
21
139.359651
0
LINE
8
Layer 1
10
142.169068
20
139.359651
11
141.781400
21
138.447639
0
LINE
8
Layer 1
10
141.781400
20
138.447639
11
141.543711
21
136.929895
0
LINE
8
Layer 1
10
141.543711
20
136.929895
11
141.463900
21
134.805208
0
LINE
8
Layer 1
10
141.463900
20
134.805208
11
141.463900
21
119.309444
0
LINE
8
Layer 1
10
141.463900
20
119.309444
11
136.930706
21
119.309444
0
LINE
8
Layer 1
10
136.930706
20
119.309444
11
136.930706
21
159.631944
0
LINE
8
Layer 1
10
136.930706
20
159.631944
11
136.930706
21
159.631944
0
LINE
8
Layer 1
10
163.494875
20
147.496389
11
164.467073
21
147.384631
0
LINE
8
Layer 1
10
164.467073
20
147.384631
11
165.432679
21
147.049195
0
LINE
8
Layer 1
10
165.432679
20
147.049195
11
166.392907
21
146.489769
0
LINE
8
Layer 1
10
166.392907
20
146.489769
11
167.348972
21
145.706042
0
LINE
8
Layer 1
10
167.348972
20
145.706042
11
167.348972
21
137.521597
0
LINE
8
Layer 1
10
167.348972
20
137.521597
11
166.561361
21
138.736060
0
LINE
8
Layer 1
10
166.561361
20
138.736060
11
165.790907
21
139.604326
0
LINE
8
Layer 1
10
165.790907
20
139.604326
11
165.036604
21
140.125760
0
LINE
8
Layer 1
10
165.036604
20
140.125760
11
164.297445
21
140.299722
0
LINE
8
Layer 1
10
164.297445
20
140.299722
11
163.721026
21
140.192018
0
LINE
8
Layer 1
10
163.721026
20
140.192018
11
163.309667
21
139.867569
0
LINE
8
Layer 1
10
163.309667
20
139.867569
11
163.059573
21
139.317298
0
LINE
8
Layer 1
10
163.059573
20
139.317298
11
162.974528
21
138.535833
0
LINE
8
Layer 1
10
162.974528
20
138.535833
11
163.063185
21
137.946246
0
LINE
8
Layer 1
10
163.063185
20
137.946246
11
163.329284
21
137.391996
0
LINE
8
Layer 1
10
163.329284
20
137.391996
11
164.394459
21
136.392708
0
LINE
8
Layer 1
10
164.394459
20
136.392708
11
165.299376
21
135.701284
0
LINE
8
Layer 1
10
165.299376
20
135.701284
11
166.083817
21
134.913224
0
LINE
8
Layer 1
10
166.083817
20
134.913224
11
166.747726
21
134.028525
0
LINE
8
Layer 1
10
166.747726
20
134.028525
11
167.291049
21
133.047184
0
LINE
8
Layer 1
10
167.291049
20
133.047184
11
168.015715
21
130.794565
0
LINE
8
Layer 1
10
168.015715
20
130.794565
11
168.257375
21
128.155347
0
LINE
8
Layer 1
10
168.257375
20
128.155347
11
168.157994
21
126.239506
0
LINE
8
Layer 1
10
168.157994
20
126.239506
11
167.860078
21
124.480013
0
LINE
8
Layer 1
10
167.860078
20
124.480013
11
167.363935
21
122.875878
0
LINE
8
Layer 1
10
167.363935
20
122.875878
11
166.669875
21
121.426111
0
LINE
8
Layer 1
10
166.669875
20
121.426111
11
165.819924
21
120.223902
0
LINE
8
Layer 1
10
165.819924
20
120.223902
11
164.855994
21
119.363826
0
LINE
8
Layer 1
10
164.855994
20
119.363826
11
163.778154
21
118.846975
0
LINE
8
Layer 1
10
163.778154
20
118.846975
11
162.586472
21
118.674444
0
LINE
8
Layer 1
10
162.586472
20
118.674444
11
161.520424
21
118.824369
0
LINE
8
Layer 1
10
161.520424
20
118.824369
11
160.417262
21
119.274146
0
LINE
8
Layer 1
10
160.417262
20
119.274146
11
159.276431
21
120.023795
0
LINE
8
Layer 1
10
159.276431
20
120.023795
11
158.097375
21
121.073333
0
LINE
8
Layer 1
10
158.097375
20
121.073333
11
158.097375
21
129.460625
0
LINE
8
Layer 1
10
158.097375
20
129.460625
11
159.158185
21
127.867224
0
LINE
8
Layer 1
10
159.158185
20
127.867224
11
160.145069
21
126.728945
0
LINE
8
Layer 1
10
160.145069
20
126.728945
11
161.058400
21
126.045897
0
LINE
8
Layer 1
10
161.058400
20
126.045897
11
161.898556
21
125.818194
0
LINE
8
Layer 1
10
161.898556
20
125.818194
11
162.470770
21
125.981926
0
LINE
8
Layer 1
10
162.470770
20
125.981926
11
162.956889
21
126.470833
0
LINE
8
Layer 1
10
162.956889
20
126.470833
11
163.293000
21
127.225948
0
LINE
8
Layer 1
10
163.293000
20
127.225948
11
163.406681
21
128.190625
0
LINE
8
Layer 1
10
163.406681
20
128.190625
11
163.318186
21
128.935546
0
LINE
8
Layer 1
10
163.318186
20
128.935546
11
163.053903
21
129.557639
0
LINE
8
Layer 1
10
163.053903
20
129.557639
11
161.739806
21
130.871736
0
LINE
8
Layer 1
10
161.739806
20
130.871736
11
160.692821
21
131.788398
0
LINE
8
Layer 1
10
160.692821
20
131.788398
11
159.848295
21
132.745752
0
LINE
8
Layer 1
10
159.848295
20
132.745752
11
159.206485
21
133.742851
0
LINE
8
Layer 1
10
159.206485
20
133.742851
11
158.767653
21
134.778750
0
LINE
8
Layer 1
10
158.767653
20
134.778750
11
158.263880
21
136.880581
0
LINE
8
Layer 1
10
158.263880
20
136.880581
11
158.097375
21
138.967986
0
LINE
8
Layer 1
10
158.097375
20
138.967986
11
158.195338
21
140.795661
0
LINE
8
Layer 1
10
158.195338
20
140.795661
11
158.489430
21
142.434928
0
LINE
8
Layer 1
10
158.489430
20
142.434928
11
158.979960
21
143.886331
0
LINE
8
Layer 1
10
158.979960
20
143.886331
11
159.667236
21
145.150417
0
LINE
8
Layer 1
10
159.667236
20
145.150417
11
160.496043
21
146.175415
0
LINE
8
Layer 1
10
160.496043
20
146.175415
11
161.410622
21
146.908676
0
LINE
8
Layer 1
10
161.410622
20
146.908676
11
162.410417
21
147.349300
0
LINE
8
Layer 1
10
162.410417
20
147.349300
11
163.494875
21
147.496389
0
LINE
8
Layer 1
10
163.494875
20
147.496389
11
163.494875
21
147.496389
0
LINE
8
Layer 1
10
190.588209
20
147.496389
11
191.561785
21
147.384631
0
LINE
8
Layer 1
10
191.561785
20
147.384631
11
192.530423
21
147.049195
0
LINE
8
Layer 1
10
192.530423
20
147.049195
11
193.493682
21
146.489769
0
LINE
8
Layer 1
10
193.493682
20
146.489769
11
194.451125
21
145.706042
0
LINE
8
Layer 1
10
194.451125
20
145.706042
11
194.451125
21
137.521597
0
LINE
8
Layer 1
10
194.451125
20
137.521597
11
193.662137
21
138.736060
0
LINE
8
Layer 1
10
193.662137
20
138.736060
11
192.888651
21
139.604326
0
LINE
8
Layer 1
10
192.888651
20
139.604326
11
192.131315
21
140.125760
0
LINE
8
Layer 1
10
192.131315
20
140.125760
11
191.390778
21
140.299722
0
LINE
8
Layer 1
10
191.390778
20
140.299722
11
190.814362
21
140.192018
0
LINE
8
Layer 1
10
190.814362
20
140.192018
11
190.403000
21
139.867569
0
LINE
8
Layer 1
10
190.403000
20
139.867569
11
190.152901
21
139.317298
0
LINE
8
Layer 1
10
190.152901
20
139.317298
11
190.067861
21
138.535833
0
LINE
8
Layer 1
10
190.067861
20
138.535833
11
190.156522
21
137.946246
0
LINE
8
Layer 1
10
190.156522
20
137.946246
11
190.422620
21
137.391996
0
LINE
8
Layer 1
10
190.422620
20
137.391996
11
191.487792
21
136.392708
0
LINE
8
Layer 1
10
191.487792
20
136.392708
11
192.392710
21
135.701284
0
LINE
8
Layer 1
10
192.392710
20
135.701284
11
193.177152
21
134.913224
0
LINE
8
Layer 1
10
193.177152
20
134.913224
11
193.841061
21
134.028525
0
LINE
8
Layer 1
10
193.841061
20
134.028525
11
194.384384
21
133.047184
0
LINE
8
Layer 1
10
194.384384
20
133.047184
11
195.109049
21
130.794565
0
LINE
8
Layer 1
10
195.109049
20
130.794565
11
195.350709
21
128.155347
0
LINE
8
Layer 1
10
195.350709
20
128.155347
11
195.251328
21
126.239506
0
LINE
8
Layer 1
10
195.251328
20
126.239506
11
194.953410
21
124.480013
0
LINE
8
Layer 1
10
194.953410
20
124.480013
11
194.457267
21
122.875878
0
LINE
8
Layer 1
10
194.457267
20
122.875878
11
193.763209
21
121.426111
0
LINE
8
Layer 1
10
193.763209
20
121.426111
11
192.913261
21
120.223902
0
LINE
8
Layer 1
10
192.913261
20
120.223902
11
191.949330
21
119.363826
0
LINE
8
Layer 1
10
191.949330
20
119.363826
11
190.871488
21
118.846975
0
LINE
8
Layer 1
10
190.871488
20
118.846975
11
189.679806
21
118.674444
0
LINE
8
Layer 1
10
189.679806
20
118.674444
11
188.613758
21
118.824369
0
LINE
8
Layer 1
10
188.613758
20
118.824369
11
187.510596
21
119.274146
0
LINE
8
Layer 1
10
187.510596
20
119.274146
11
186.369764
21
120.023795
0
LINE
8
Layer 1
10
186.369764
20
120.023795
11
185.190709
21
121.073333
0
LINE
8
Layer 1
10
185.190709
20
121.073333
11
185.190709
21
129.460625
0
LINE
8
Layer 1
10
185.190709
20
129.460625
11
186.251512
21
127.867224
0
LINE
8
Layer 1
10
186.251512
20
127.867224
11
187.238397
21
126.728945
0
LINE
8
Layer 1
10
187.238397
20
126.728945
11
188.151732
21
126.045897
0
LINE
8
Layer 1
10
188.151732
20
126.045897
11
188.991889
21
125.818194
0
LINE
8
Layer 1
10
188.991889
20
125.818194
11
189.568513
21
125.981926
0
LINE
8
Layer 1
10
189.568513
20
125.981926
11
190.059042
21
126.470833
0
LINE
8
Layer 1
10
190.059042
20
126.470833
11
190.390746
21
127.225948
0
LINE
8
Layer 1
10
190.390746
20
127.225948
11
190.500014
21
128.190625
0
LINE
8
Layer 1
10
190.500014
20
128.190625
11
190.411521
21
128.935546
0
LINE
8
Layer 1
10
190.411521
20
128.935546
11
190.147236
21
129.557639
0
LINE
8
Layer 1
10
190.147236
20
129.557639
11
188.833139
21
130.871736
0
LINE
8
Layer 1
10
188.833139
20
130.871736
11
187.787534
21
131.788398
0
LINE
8
Layer 1
10
187.787534
20
131.788398
11
186.946040
21
132.745752
0
LINE
8
Layer 1
10
186.946040
20
132.745752
11
186.307262
21
133.742851
0
LINE
8
Layer 1
10
186.307262
20
133.742851
11
185.869806
21
134.778750
0
LINE
8
Layer 1
10
185.869806
20
134.778750
11
185.361628
21
136.880581
0
LINE
8
Layer 1
10
185.361628
20
136.880581
11
185.190709
21
138.967986
0
LINE
8
Layer 1
10
185.190709
20
138.967986
11
185.288666
21
140.795661
0
LINE
8
Layer 1
10
185.288666
20
140.795661
11
185.582758
21
142.434928
0
LINE
8
Layer 1
10
185.582758
20
142.434928
11
186.073291
21
143.886331
0
LINE
8
Layer 1
10
186.073291
20
143.886331
11
186.760570
21
145.150417
0
LINE
8
Layer 1
10
186.760570
20
145.150417
11
187.589380
21
146.175415
0
LINE
8
Layer 1
10
187.589380
20
146.175415
11
188.503958
21
146.908676
0
LINE
8
Layer 1
10
188.503958
20
146.908676
11
189.503752
21
147.349300
0
LINE
8
Layer 1
10
189.503752
20
147.349300
11
190.588209
21
147.496389
0
LINE
8
Layer 1
10
190.588209
20
147.496389
11
190.588209
21
147.496389
0
LINE
8
Layer 1
10
210.017445
20
147.496389
11
210.282028
21
147.496389
0
LINE
8
Layer 1
10
210.282028
20
147.496389
11
211.730065
21
147.219734
0
LINE
8
Layer 1
10
211.730065
20
147.219734
11
212.980778
21
146.393958
0
LINE
8
Layer 1
10
212.980778
20
146.393958
11
214.046800
21
144.956438
0
LINE
8
Layer 1
10
214.046800
20
144.956438
11
214.929875
21
142.839722
0
LINE
8
Layer 1
10
214.929875
20
142.839722
11
215.519657
21
140.044009
0
LINE
8
Layer 1
10
215.519657
20
140.044009
11
215.714806
21
136.569097
0
LINE
8
Layer 1
10
215.714806
20
136.569097
11
215.714806
21
127.317500
0
LINE
8
Layer 1
10
215.714806
20
127.317500
11
215.920387
21
123.306243
0
LINE
8
Layer 1
10
215.920387
20
123.306243
11
216.535014
21
119.309444
0
LINE
8
Layer 1
10
216.535014
20
119.309444
11
211.975361
21
119.309444
0
LINE
8
Layer 1
10
211.975361
20
119.309444
11
211.552028
21
121.946458
0
LINE
8
Layer 1
10
211.552028
20
121.946458
11
210.862608
21
120.526255
0
LINE
8
Layer 1
10
210.862608
20
120.526255
11
210.140917
21
119.503472
0
LINE
8
Layer 1
10
210.140917
20
119.503472
11
209.384529
21
118.883025
0
LINE
8
Layer 1
10
209.384529
20
118.883025
11
208.588695
21
118.674444
0
LINE
8
Layer 1
10
208.588695
20
118.674444
11
207.813276
21
118.834270
0
LINE
8
Layer 1
10
207.813276
20
118.834270
11
207.080033
21
119.313779
0
LINE
8
Layer 1
10
207.080033
20
119.313779
11
206.388951
21
120.113030
0
LINE
8
Layer 1
10
206.388951
20
120.113030
11
205.740014
21
121.232083
0
LINE
8
Layer 1
10
205.740014
20
121.232083
11
205.189768
21
122.581647
0
LINE
8
Layer 1
10
205.189768
20
122.581647
11
204.795480
21
124.071557
0
LINE
8
Layer 1
10
204.795480
20
124.071557
11
204.558164
21
125.700567
0
LINE
8
Layer 1
10
204.558164
20
125.700567
11
204.478834
21
127.467431
0
LINE
8
Layer 1
10
204.478834
20
127.467431
11
204.589290
21
129.433024
0
LINE
8
Layer 1
10
204.589290
20
129.433024
11
204.920703
21
131.196729
0
LINE
8
Layer 1
10
204.920703
20
131.196729
11
205.473120
21
132.758702
0
LINE
8
Layer 1
10
205.473120
20
132.758702
11
206.246593
21
134.119098
0
LINE
8
Layer 1
10
206.246593
20
134.119098
11
207.241170
21
135.278075
0
LINE
8
Layer 1
10
207.241170
20
135.278075
11
208.456902
21
136.235789
0
LINE
8
Layer 1
10
208.456902
20
136.235789
11
209.893838
21
136.992397
0
LINE
8
Layer 1
10
209.893838
20
136.992397
11
211.552028
21
137.548056
0
LINE
8
Layer 1
10
211.552028
20
137.548056
11
211.283188
21
138.864803
0
LINE
8
Layer 1
10
211.283188
20
138.864803
11
210.784736
21
139.805833
0
LINE
8
Layer 1
10
210.784736
20
139.805833
11
210.052867
21
140.368515
0
LINE
8
Layer 1
10
210.052867
20
140.368515
11
209.091403
21
140.555486
0
LINE
8
Layer 1
10
209.091403
20
140.555486
11
208.296343
21
140.392827
0
LINE
8
Layer 1
10
208.296343
20
140.392827
11
207.490137
21
139.904931
0
LINE
8
Layer 1
10
207.490137
20
139.904931
11
206.673175
21
139.091879
0
LINE
8
Layer 1
10
206.673175
20
139.091879
11
205.845847
21
137.953750
0
LINE
8
Layer 1
10
205.845847
20
137.953750
11
205.845847
21
145.265069
0
LINE
8
Layer 1
10
205.845847
20
145.265069
11
206.928940
21
146.188204
0
LINE
8
Layer 1
10
206.928940
20
146.188204
11
207.985183
21
146.869490
0
LINE
8
Layer 1
10
207.985183
20
146.869490
11
209.014658
21
147.306395
0
LINE
8
Layer 1
10
209.014658
20
147.306395
11
210.017445
21
147.496389
0
LINE
8
Layer 1
10
210.017445
20
147.496389
11
210.017445
21
147.496389
0
LINE
8
Layer 1
10
151.094734
20
146.861389
11
155.645570
21
146.861389
0
LINE
8
Layer 1
10
155.645570
20
146.861389
11
155.645570
21
119.309444
0
LINE
8
Layer 1
10
155.645570
20
119.309444
11
151.094734
21
119.309444
0
LINE
8
Layer 1
10
151.094734
20
119.309444
11
151.094734
21
146.861389
0
LINE
8
Layer 1
10
151.094734
20
146.861389
11
151.094734
21
146.861389
0
LINE
8
Layer 1
10
178.188070
20
146.861389
11
182.738903
21
146.861389
0
LINE
8
Layer 1
10
182.738903
20
146.861389
11
182.738903
21
119.309444
0
LINE
8
Layer 1
10
182.738903
20
119.309444
11
178.188070
21
119.309444
0
LINE
8
Layer 1
10
178.188070
20
119.309444
11
178.188070
21
146.861389
0
LINE
8
Layer 1
10
178.188070
20
146.861389
11
178.188070
21
146.861389
0
LINE
8
Layer 1
10
211.552028
20
132.988403
11
210.296880
21
132.523179
0
LINE
8
Layer 1
10
210.296880
20
132.523179
11
209.401281
21
131.648558
0
LINE
8
Layer 1
10
209.401281
20
131.648558
11
208.864476
21
130.365683
0
LINE
8
Layer 1
10
208.864476
20
130.365683
11
208.685709
21
128.675694
0
LINE
8
Layer 1
10
208.685709
20
128.675694
11
208.794140
21
127.367855
0
LINE
8
Layer 1
10
208.794140
20
127.367855
11
209.117861
21
126.276806
0
LINE
8
Layer 1
10
209.117861
20
126.276806
11
209.585506
21
125.541644
0
LINE
8
Layer 1
10
209.585506
20
125.541644
11
210.132097
21
125.297847
0
LINE
8
Layer 1
10
210.132097
20
125.297847
11
210.456896
21
125.371402
0
LINE
8
Layer 1
10
210.456896
20
125.371402
11
210.741984
21
125.592483
0
LINE
8
Layer 1
10
210.741984
20
125.592483
11
211.190431
21
126.479653
0
LINE
8
Layer 1
10
211.190431
20
126.479653
11
211.462719
21
127.818389
0
LINE
8
Layer 1
10
211.462719
20
127.818389
11
211.552028
21
129.460625
0
LINE
8
Layer 1
10
211.552028
20
129.460625
11
211.552028
21
132.988403
0
LINE
8
Layer 1
10
211.552028
20
132.988403
11
211.552028
21
132.988403
0
LINE
8
Layer 1
10
156.271750
20
105.648125
11
158.141362
21
105.510851
0
LINE
8
Layer 1
10
158.141362
20
105.510851
11
159.953219
21
105.109221
0
LINE
8
Layer 1
10
159.953219
20
105.109221
11
161.699835
21
104.458480
0
LINE
8
Layer 1
10
161.699835
20
104.458480
11
163.373722
21
103.573872
0
LINE
8
Layer 1
10
163.373722
20
103.573872
11
164.967393
21
102.470642
0
LINE
8
Layer 1
10
164.967393
20
102.470642
11
166.473361
21
101.164035
0
LINE
8
Layer 1
10
166.473361
20
101.164035
11
167.884138
21
99.669295
0
LINE
8
Layer 1
10
167.884138
20
99.669295
11
169.192236
21
98.001667
0
LINE
8
Layer 1
10
169.192236
20
98.001667
11
170.920821
21
95.313698
0
LINE
8
Layer 1
10
170.920821
20
95.313698
11
172.516762
21
92.270046
0
LINE
8
Layer 1
10
172.516762
20
92.270046
11
173.993842
21
88.873108
0
LINE
8
Layer 1
10
173.993842
20
88.873108
11
175.365847
21
85.125278
0
LINE
8
Layer 1
10
175.365847
20
85.125278
11
179.519806
21
89.817222
0
LINE
8
Layer 1
10
179.519806
20
89.817222
11
180.113421
21
90.366174
0
LINE
8
Layer 1
10
180.113421
20
90.366174
11
180.803215
21
90.770244
0
LINE
8
Layer 1
10
180.803215
20
90.770244
11
181.563475
21
91.019714
0
LINE
8
Layer 1
10
181.563475
20
91.019714
11
182.368486
21
91.104861
0
LINE
8
Layer 1
10
182.368486
20
91.104861
11
196.964667
21
91.104861
0
LINE
8
Layer 1
10
196.964667
20
91.104861
11
198.155729
21
90.909193
0
LINE
8
Layer 1
10
198.155729
20
90.909193
11
199.201641
21
90.363982
0
LINE
8
Layer 1
10
199.201641
20
90.363982
11
200.028649
21
89.523342
0
LINE
8
Layer 1
10
200.028649
20
89.523342
11
200.563000
21
88.441389
0
LINE
8
Layer 1
10
200.563000
20
88.441389
11
201.752284
21
89.207967
0
LINE
8
Layer 1
10
201.752284
20
89.207967
11
203.138278
21
89.482083
0
LINE
8
Layer 1
10
203.138278
20
89.482083
11
230.646125
21
89.482083
0
LINE
8
Layer 1
10
230.646125
20
89.482083
11
231.522163
21
89.380129
0
LINE
8
Layer 1
10
231.522163
20
89.380129
11
232.339370
21
89.083179
0
LINE
8
Layer 1
10
232.339370
20
89.083179
11
233.066223
21
88.606445
0
LINE
8
Layer 1
10
233.066223
20
88.606445
11
233.671195
21
87.965139
0
LINE
8
Layer 1
10
233.671195
20
87.965139
11
234.110899
21
87.197906
0
LINE
8
Layer 1
10
234.110899
20
87.197906
11
234.358703
21
86.358448
0
LINE
8
Layer 1
10
234.358703
20
86.358448
11
234.408273
21
85.484488
0
LINE
8
Layer 1
10
234.408273
20
85.484488
11
234.253278
21
84.613750
0
LINE
8
Layer 1
10
234.253278
20
84.613750
11
231.554528
21
75.670833
0
LINE
8
Layer 1
10
231.554528
20
75.670833
11
231.003620
21
74.554267
0
LINE
8
Layer 1
10
231.003620
20
74.554267
11
230.144360
21
73.696166
0
LINE
8
Layer 1
10
230.144360
20
73.696166
11
229.057528
21
73.155121
0
LINE
8
Layer 1
10
229.057528
20
73.155121
11
227.823903
21
72.989722
0
LINE
8
Layer 1
10
227.823903
20
72.989722
11
222.602792
21
73.077917
0
LINE
8
Layer 1
10
222.602792
20
73.077917
11
223.105633
21
72.291084
0
LINE
8
Layer 1
10
223.105633
20
72.291084
11
223.396861
21
71.420111
0
LINE
8
Layer 1
10
223.396861
20
71.420111
11
223.467443
21
70.504915
0
LINE
8
Layer 1
10
223.467443
20
70.504915
11
223.308347
21
69.585417
0
LINE
8
Layer 1
10
223.308347
20
69.585417
11
220.600778
21
60.695417
0
LINE
8
Layer 1
10
220.600778
20
60.695417
11
220.038069
21
59.571337
0
LINE
8
Layer 1
10
220.038069
20
59.571337
11
219.163033
21
58.718322
0
LINE
8
Layer 1
10
219.163033
20
58.718322
11
218.058779
21
58.192396
0
LINE
8
Layer 1
10
218.058779
20
58.192396
11
216.808417
21
58.049583
0
LINE
8
Layer 1
10
216.808417
20
58.049583
11
209.453000
21
58.278889
0
LINE
8
Layer 1
10
209.453000
20
58.278889
11
207.976851
21
52.134079
0
LINE
8
Layer 1
10
207.976851
20
52.134079
11
206.718972
21
45.861111
0
LINE
8
Layer 1
10
206.718972
20
45.861111
11
206.263145
21
44.617055
0
LINE
8
Layer 1
10
206.263145
20
44.617055
11
205.433009
21
43.634553
0
LINE
8
Layer 1
10
205.433009
20
43.634553
11
204.319812
21
42.989219
0
LINE
8
Layer 1
10
204.319812
20
42.989219
11
203.014806
21
42.756667
0
LINE
8
Layer 1
10
203.014806
20
42.756667
11
191.205570
21
42.756667
0
LINE
8
Layer 1
10
191.205570
20
42.756667
11
190.331515
21
42.857054
0
LINE
8
Layer 1
10
190.331515
20
42.857054
11
189.516953
21
43.150028
0
LINE
8
Layer 1
10
189.516953
20
43.150028
11
188.792638
21
43.621148
0
LINE
8
Layer 1
10
188.792638
20
43.621148
11
188.189320
21
44.255972
0
LINE
8
Layer 1
10
188.189320
20
44.255972
11
185.860748
21
43.916375
0
LINE
8
Layer 1
10
185.860748
20
43.916375
11
183.382722
21
43.797361
0
LINE
8
Layer 1
10
183.382722
20
43.797361
11
183.276889
21
43.797361
0
LINE
8
Layer 1
10
183.276889
20
43.797361
11
183.532653
21
41.416111
0
LINE
8
Layer 1
10
183.532653
20
41.416111
11
183.533254
21
40.624845
0
LINE
8
Layer 1
10
183.533254
20
40.624845
11
183.371018
21
39.860395
0
LINE
8
Layer 1
10
183.371018
20
39.860395
11
183.053678
21
39.146199
0
LINE
8
Layer 1
10
183.053678
20
39.146199
11
182.588972
21
38.505694
0
LINE
8
Layer 1
10
182.588972
20
38.505694
11
181.999600
21
37.974873
0
LINE
8
Layer 1
10
181.999600
20
37.974873
11
181.319435
21
37.581669
0
LINE
8
Layer 1
10
181.319435
20
37.581669
11
180.572893
21
37.337388
0
LINE
8
Layer 1
10
180.572893
20
37.337388
11
179.784389
21
37.253333
0
LINE
8
Layer 1
10
179.784389
20
37.253333
11
167.719389
21
37.253333
0
LINE
8
Layer 1
10
167.719389
20
37.253333
11
166.310341
21
37.525088
0
LINE
8
Layer 1
10
166.310341
20
37.525088
11
165.141255
21
38.272311
0
LINE
8
Layer 1
10
165.141255
20
38.272311
11
164.321966
21
39.391990
0
LINE
8
Layer 1
10
164.321966
20
39.391990
11
163.962306
21
40.781111
0
LINE
8
Layer 1
10
163.962306
20
40.781111
11
163.591889
21
46.019861
0
LINE
8
Layer 1
10
163.591889
20
46.019861
11
162.268972
21
44.238333
0
LINE
8
Layer 1
10
162.268972
20
44.238333
11
161.662275
21
43.572189
0
LINE
8
Layer 1
10
161.662275
20
43.572189
11
160.925744
21
43.072946
0
LINE
8
Layer 1
10
160.925744
20
43.072946
11
160.093536
21
42.759522
0
LINE
8
Layer 1
10
160.093536
20
42.759522
11
159.199806
21
42.650833
0
LINE
8
Layer 1
10
159.199806
20
42.650833
11
143.889247
21
42.650833
0
LINE
8
Layer 1
10
143.889247
20
42.650833
11
142.936882
21
42.775028
0
LINE
8
Layer 1
10
142.936882
20
42.775028
11
142.058075
21
43.128363
0
LINE
8
Layer 1
10
142.058075
20
43.128363
11
141.294489
21
43.688315
0
LINE
8
Layer 1
10
141.294489
20
43.688315
11
140.687789
21
44.432361
0
LINE
8
Layer 1
10
140.687789
20
44.432361
11
140.290121
21
45.304886
0
LINE
8
Layer 1
10
140.290121
20
45.304886
11
140.127015
21
46.234795
0
LINE
8
Layer 1
10
140.127015
20
46.234795
11
140.200199
21
47.176300
0
LINE
8
Layer 1
10
140.200199
20
47.176300
11
140.511400
21
48.083611
0
LINE
8
Layer 1
10
140.511400
20
48.083611
11
138.156609
21
46.637222
0
LINE
8
Layer 1
10
138.156609
20
46.637222
11
136.185415
21
45.690911
0
LINE
8
Layer 1
10
136.185415
20
45.690911
11
134.099553
21
44.882112
0
LINE
8
Layer 1
10
134.099553
20
44.882112
11
131.899669
21
44.207332
0
LINE
8
Layer 1
10
131.899669
20
44.207332
11
129.586405
21
43.663075
0
LINE
8
Layer 1
10
129.586405
20
43.663075
11
124.622317
21
42.952153
0
LINE
8
Layer 1
10
124.622317
20
42.952153
11
119.212442
21
42.721389
0
LINE
8
Layer 1
10
119.212442
20
42.721389
11
113.594512
21
42.928013
0
LINE
8
Layer 1
10
113.594512
20
42.928013
11
107.544317
21
43.532778
0
LINE
8
Layer 1
10
107.544317
20
43.532778
11
106.702008
21
43.738617
0
LINE
8
Layer 1
10
106.702008
20
43.738617
11
105.940102
21
44.124633
0
LINE
8
Layer 1
10
105.940102
20
44.124633
11
105.285772
21
44.673333
0
LINE
8
Layer 1
10
105.285772
20
44.673333
11
104.766192
21
45.367222
0
LINE
8
Layer 1
10
104.766192
20
45.367222
11
104.418244
21
46.163360
0
LINE
8
Layer 1
10
104.418244
20
46.163360
11
104.262390
21
47.007403
0
LINE
8
Layer 1
10
104.262390
20
47.007403
11
104.301110
21
47.864793
0
LINE
8
Layer 1
10
104.301110
20
47.864793
11
104.536886
21
48.700972
0
LINE
8
Layer 1
10
104.536886
20
48.700972
11
108.483947
21
59.004479
0
LINE
8
Layer 1
10
108.483947
20
59.004479
11
111.841481
21
69.273278
0
LINE
8
Layer 1
10
111.841481
20
69.273278
11
114.611475
21
79.508528
0
LINE
8
Layer 1
10
114.611475
20
79.508528
11
116.795914
21
89.711389
0
LINE
8
Layer 1
10
116.795914
20
89.711389
11
117.258603
21
90.945179
0
LINE
8
Layer 1
10
117.258603
20
90.945179
11
118.090382
21
91.916754
0
LINE
8
Layer 1
10
118.090382
20
91.916754
11
119.200968
21
92.552938
0
LINE
8
Layer 1
10
119.200968
20
92.552938
11
120.500081
21
92.780556
0
LINE
8
Layer 1
10
120.500081
20
92.780556
11
135.493136
21
92.780556
0
LINE
8
Layer 1
10
135.493136
20
92.780556
11
137.386346
21
92.585007
0
LINE
8
Layer 1
10
137.386346
20
92.585007
11
139.188484
21
92.092639
0
LINE
8
Layer 1
10
139.188484
20
92.092639
11
139.221241
21
93.159464
0
LINE
8
Layer 1
10
139.221241
20
93.159464
11
139.550081
21
94.174028
0
LINE
8
Layer 1
10
139.550081
20
94.174028
11
140.993691
21
96.702257
0
LINE
8
Layer 1
10
140.993691
20
96.702257
11
142.655211
21
98.957350
0
LINE
8
Layer 1
10
142.655211
20
98.957350
11
144.518056
21
100.919594
0
LINE
8
Layer 1
10
144.518056
20
100.919594
11
146.565644
21
102.569275
0
LINE
8
Layer 1
10
146.565644
20
102.569275
11
148.781390
21
103.886682
0
LINE
8
Layer 1
10
148.781390
20
103.886682
11
151.148713
21
104.852101
0
LINE
8
Layer 1
10
151.148713
20
104.852101
11
153.651027
21
105.445820
0
LINE
8
Layer 1
10
153.651027
20
105.445820
11
156.271750
21
105.648125
0
LINE
8
Layer 1
10
156.271750
20
105.648125
11
156.271750
21
105.648125
0
LINE
8
Layer 1
10
156.271750
20
101.882222
11
154.170075
21
101.735078
0
LINE
8
Layer 1
10
154.170075
20
101.735078
11
152.191891
21
101.293832
0
LINE
8
Layer 1
10
152.191891
20
101.293832
11
150.337253
21
100.558671
0
LINE
8
Layer 1
10
150.337253
20
100.558671
11
148.606214
21
99.529784
0
LINE
8
Layer 1
10
148.606214
20
99.529784
11
146.998826
21
98.207355
0
LINE
8
Layer 1
10
146.998826
20
98.207355
11
145.515144
21
96.591573
0
LINE
8
Layer 1
10
145.515144
20
96.591573
11
144.155220
21
94.682624
0
LINE
8
Layer 1
10
144.155220
20
94.682624
11
142.919109
21
92.480694
0
LINE
8
Layer 1
10
142.919109
20
92.480694
11
143.392381
21
92.986449
0
LINE
8
Layer 1
10
143.392381
20
92.986449
11
144.056110
21
93.425855
0
LINE
8
Layer 1
10
144.056110
20
93.425855
11
145.954332
21
94.104283
0
LINE
8
Layer 1
10
145.954332
20
94.104283
11
148.612563
21
94.513312
0
LINE
8
Layer 1
10
148.612563
20
94.513312
11
152.029595
21
94.650278
0
LINE
8
Layer 1
10
152.029595
20
94.650278
11
153.958223
21
94.494368
0
LINE
8
Layer 1
10
153.958223
20
94.494368
11
155.372167
21
94.032917
0
LINE
8
Layer 1
10
155.372167
20
94.032917
11
156.350829
21
93.341838
0
LINE
8
Layer 1
10
156.350829
20
93.341838
11
157.324888
21
92.297627
0
LINE
8
Layer 1
10
157.324888
20
92.297627
11
158.294930
21
90.899569
0
LINE
8
Layer 1
10
158.294930
20
90.899569
11
159.261542
21
89.146944
0
LINE
8
Layer 1
10
159.261542
20
89.146944
11
160.360841
21
86.665339
0
LINE
8
Layer 1
10
160.360841
20
86.665339
11
161.669250
21
83.202639
0
LINE
8
Layer 1
10
161.669250
20
83.202639
11
162.593484
21
80.267377
0
LINE
8
Layer 1
10
162.593484
20
80.267377
11
163.467112
21
76.771059
0
LINE
8
Layer 1
10
163.467112
20
76.771059
11
164.288476
21
72.715808
0
LINE
8
Layer 1
10
164.288476
20
72.715808
11
165.055917
21
68.103750
0
LINE
8
Layer 1
10
165.055917
20
68.103750
11
154.746014
21
57.312894
0
LINE
8
Layer 1
10
154.746014
20
57.312894
11
143.889247
21
46.425556
0
LINE
8
Layer 1
10
143.889247
20
46.425556
11
159.199806
21
46.425556
0
LINE
8
Layer 1
10
159.199806
20
46.425556
11
162.767753
21
51.256272
0
LINE
8
Layer 1
10
162.767753
20
51.256272
11
166.528764
21
56.038750
0
LINE
8
Layer 1
10
166.528764
20
56.038750
11
167.719389
21
41.010417
0
LINE
8
Layer 1
10
167.719389
20
41.010417
11
179.784389
21
41.010417
0
LINE
8
Layer 1
10
179.784389
20
41.010417
11
178.063810
21
54.997656
0
LINE
8
Layer 1
10
178.063810
20
54.997656
11
176.053764
21
67.151250
0
LINE
8
Layer 1
10
176.053764
20
67.151250
11
180.967749
21
72.321554
0
LINE
8
Layer 1
10
180.967749
20
72.321554
11
186.090981
21
77.410327
0
LINE
8
Layer 1
10
186.090981
20
77.410327
11
191.423330
21
82.418693
0
LINE
8
Layer 1
10
191.423330
20
82.418693
11
196.964667
21
87.347778
0
LINE
8
Layer 1
10
196.964667
20
87.347778
11
182.368486
21
87.347778
0
LINE
8
Layer 1
10
182.368486
20
87.347778
11
173.707792
21
77.558194
0
LINE
8
Layer 1
10
173.707792
20
77.558194
11
172.027924
21
83.258388
0
LINE
8
Layer 1
10
172.027924
20
83.258388
11
170.205299
21
88.198849
0
LINE
8
Layer 1
10
170.205299
20
88.198849
11
168.239918
21
92.379488
0
LINE
8
Layer 1
10
168.239918
20
92.379488
11
166.131783
21
95.800216
0
LINE
8
Layer 1
10
166.131783
20
95.800216
11
163.880896
21
98.460943
0
LINE
8
Layer 1
10
163.880896
20
98.460943
11
162.701922
21
99.506278
0
LINE
8
Layer 1
10
162.701922
20
99.506278
11
161.487261
21
100.361579
0
LINE
8
Layer 1
10
161.487261
20
100.361579
11
160.236912
21
101.026835
0
LINE
8
Layer 1
10
160.236912
20
101.026835
11
158.950878
21
101.502035
0
LINE
8
Layer 1
10
158.950878
20
101.502035
11
157.629157
21
101.787168
0
LINE
8
Layer 1
10
157.629157
20
101.787168
11
156.271750
21
101.882222
0
LINE
8
Layer 1
10
156.271750
20
101.882222
11
156.271750
21
101.882222
0
LINE
8
Layer 1
10
120.491261
20
89.023472
11
118.265254
21
78.621375
0
LINE
8
Layer 1
10
118.265254
20
78.621375
11
115.446188
21
68.196078
0
LINE
8
Layer 1
10
115.446188
20
68.196078
11
112.031984
21
57.746665
0
LINE
8
Layer 1
10
112.031984
20
57.746665
11
108.020567
21
47.272222
0
LINE
8
Layer 1
10
108.020567
20
47.272222
11
113.857770
21
46.691145
0
LINE
8
Layer 1
10
113.857770
20
46.691145
11
119.212442
21
46.496111
0
LINE
8
Layer 1
10
119.212442
20
46.496111
11
124.279202
21
46.712713
0
LINE
8
Layer 1
10
124.279202
20
46.712713
11
128.831358
21
47.362534
0
LINE
8
Layer 1
10
128.831358
20
47.362534
11
132.868874
21
48.445595
0
LINE
8
Layer 1
10
132.868874
20
48.445595
11
134.694631
21
49.149598
0
LINE
8
Layer 1
10
134.694631
20
49.149598
11
136.391716
21
49.961919
0
LINE
8
Layer 1
10
136.391716
20
49.961919
11
137.960123
21
50.882561
0
LINE
8
Layer 1
10
137.960123
20
50.882561
11
139.399848
21
51.911527
0
LINE
8
Layer 1
10
139.399848
20
51.911527
11
140.710887
21
53.048820
0
LINE
8
Layer 1
10
140.710887
20
53.048820
11
141.893235
21
54.294442
0
LINE
8
Layer 1
10
141.893235
20
54.294442
11
142.946889
21
55.648396
0
LINE
8
Layer 1
10
142.946889
20
55.648396
11
143.871843
21
57.110685
0
LINE
8
Layer 1
10
143.871843
20
57.110685
11
144.668094
21
58.681311
0
LINE
8
Layer 1
10
144.668094
20
58.681311
11
145.335636
21
60.360278
0
LINE
8
Layer 1
10
145.335636
20
60.360278
11
146.574166
21
64.342369
0
LINE
8
Layer 1
10
146.574166
20
64.342369
11
147.458867
21
68.148901
0
LINE
8
Layer 1
10
147.458867
20
68.148901
11
147.989712
21
71.778517
0
LINE
8
Layer 1
10
147.989712
20
71.778517
11
148.166678
21
75.229861
0
LINE
8
Layer 1
10
148.166678
20
75.229861
11
147.999109
21
78.404861
0
LINE
8
Layer 1
10
147.999109
20
78.404861
11
147.636370
21
80.220621
0
LINE
8
Layer 1
10
147.636370
20
80.220621
11
147.046750
21
81.871857
0
LINE
8
Layer 1
10
147.046750
20
81.871857
11
146.230144
21
83.358456
0
LINE
8
Layer 1
10
146.230144
20
83.358456
11
145.186449
21
84.680304
0
LINE
8
Layer 1
10
145.186449
20
84.680304
11
143.915560
21
85.837288
0
LINE
8
Layer 1
10
143.915560
20
85.837288
11
142.417374
21
86.829294
0
LINE
8
Layer 1
10
142.417374
20
86.829294
11
140.691786
21
87.656208
0
LINE
8
Layer 1
10
140.691786
20
87.656208
11
138.738692
21
88.317917
0
LINE
8
Layer 1
10
138.738692
20
88.317917
11
136.653060
21
88.847595
0
LINE
8
Layer 1
10
136.653060
20
88.847595
11
135.484317
21
89.023472
0
LINE
8
Layer 1
10
135.484317
20
89.023472
11
120.491261
21
89.023472
0
LINE
8
Layer 1
10
120.491261
20
89.023472
11
120.491261
21
89.023472
0
LINE
8
Layer 1
10
203.138278
20
85.707361
11
199.762820
21
73.343193
0
LINE
8
Layer 1
10
199.762820
20
73.343193
11
196.649158
21
62.693298
0
LINE
8
Layer 1
10
196.649158
20
62.693298
11
193.796879
21
53.756442
0
LINE
8
Layer 1
10
193.796879
20
53.756442
11
191.205570
21
46.531389
0
LINE
8
Layer 1
10
191.205570
20
46.531389
11
203.014806
21
46.531389
0
LINE
8
Layer 1
10
203.014806
20
46.531389
11
204.596560
21
54.406638
0
LINE
8
Layer 1
10
204.596560
20
54.406638
11
206.516125
21
62.088889
0
LINE
8
Layer 1
10
206.516125
20
62.088889
11
217.002445
21
61.806667
0
LINE
8
Layer 1
10
217.002445
20
61.806667
11
219.701195
21
70.679028
0
LINE
8
Layer 1
10
219.701195
20
70.679028
11
209.408903
21
70.396806
0
LINE
8
Layer 1
10
209.408903
20
70.396806
11
208.994389
21
70.396806
0
LINE
8
Layer 1
10
208.994389
20
70.396806
11
211.402097
21
77.046667
0
LINE
8
Layer 1
10
211.402097
20
77.046667
11
212.663278
21
77.046667
0
LINE
8
Layer 1
10
212.663278
20
77.046667
11
227.947375
21
76.764444
0
LINE
8
Layer 1
10
227.947375
20
76.764444
11
230.646125
21
85.707361
0
LINE
8
Layer 1
10
230.646125
20
85.707361
11
203.138278
21
85.707361
0
LINE
8
Layer 1
10
203.138278
20
85.707361
11
203.138278
21
85.707361
0
LINE
8
Layer 1
10
131.630220
20
80.539167
11
132.949546
21
80.440222
0
LINE
8
Layer 1
10
132.949546
20
80.440222
11
134.092747
21
80.143577
0
LINE
8
Layer 1
10
134.092747
20
80.143577
11
135.059888
21
79.649454
0
LINE
8
Layer 1
10
135.059888
20
79.649454
11
135.851035
21
78.958076
0
LINE
8
Layer 1
10
135.851035
20
78.958076
11
136.466256
21
78.069663
0
LINE
8
Layer 1
10
136.466256
20
78.069663
11
136.905617
21
76.984439
0
LINE
8
Layer 1
10
136.905617
20
76.984439
11
137.169185
21
75.702626
0
LINE
8
Layer 1
10
137.169185
20
75.702626
11
137.257025
21
74.224444
0
LINE
8
Layer 1
10
137.257025
20
74.224444
11
137.086182
21
71.512202
0
LINE
8
Layer 1
10
137.086182
20
71.512202
11
136.573609
21
68.844289
0
LINE
8
Layer 1
10
136.573609
20
68.844289
11
135.719237
21
66.220621
0
LINE
8
Layer 1
10
135.719237
20
66.220621
11
134.522997
21
63.641111
0
LINE
8
Layer 1
10
134.522997
20
63.641111
11
133.690260
21
62.231211
0
LINE
8
Layer 1
10
133.690260
20
62.231211
11
132.800487
21
61.009363
0
LINE
8
Layer 1
10
132.800487
20
61.009363
11
131.853591
21
59.975549
0
LINE
8
Layer 1
10
131.853591
20
59.975549
11
130.849483
21
59.129747
0
LINE
8
Layer 1
10
130.849483
20
59.129747
11
129.788075
21
58.471936
0
LINE
8
Layer 1
10
129.788075
20
58.471936
11
128.669280
21
58.002097
0
LINE
8
Layer 1
10
128.669280
20
58.002097
11
127.493011
21
57.720208
0
LINE
8
Layer 1
10
127.493011
20
57.720208
11
126.259178
21
57.626250
0
LINE
8
Layer 1
10
126.259178
20
57.626250
11
123.877928
21
57.926111
0
LINE
8
Layer 1
10
123.877928
20
57.926111
11
130.668900
21
80.486250
0
LINE
8
Layer 1
10
130.668900
20
80.486250
11
131.630220
21
80.539167
0
LINE
8
Layer 1
10
131.630220
20
80.539167
11
131.630220
21
80.539167
 0 
ENDSEC
 0 
EOF
