  0
SECTION
  2
HEADER
  9
$ACADVER
  1
AC1009
  9
$LIMMIN
 10
0.000000
 20
0.000000
  9
$LIMMAX
 10
7.414717
 20
8.646036
  0
ENDSEC
  0
SECTION
  2
TABLES
  0
TABLE
  2
LTYPE
 70
     4
  0
LTYPE
  2
CONTINUOUS
 70
     0
  3
Solid line
 72
    65
 73
     0
 40
0.000000
  0
LTYPE
  2
HIDDEN
 70
     0
  3
 _ _ _ _ _ _ _ _ _ _ _
 72
    65
 73
     2
 40
0.375000
 49
0.250000
 49
-0.125000
  0
LTYPE
  2
DASHED
 70
     0
  3
 ___ ___ ___ ___ ___ ___ ___ 
 72
    65
 73
     2
 40
0.750000
 49
0.500000
 49
-0.250000
  0
LTYPE
  2
CENTER
 70
     0
  3
___ _ ___ _ ___ _ ___
 72
    65
 73
     4
 40
2.000000
 49
1.250000
 49
-0.250000
 49
0.250000
 49
-0.250000
  0
LTYPE
  2
BORDER
 70
     0
  3
___ ___ . ___ ___ . ___ ___
 72
    65
 73
     6
 40
1.750000
 49
0.500000
 49
-0.250000
 49
0.500000
 49
-0.250000
 49
0.000000
 49
-0.250000
  0
LTYPE
  2
DOT
 70
     0
  3
.................
 72
    65
 73
     2
 40
0.250000
 49
0.000000
 49
-0.250000
  0
LTYPE
  2
DASHDOT
 70
     0
  3
__ . __ . __ . __
 72
    65
 73
     4
 40
1.000000
 49
0.500000
 49
-0.250000
 49
0.000000
 49
-0.250000
  0
LTYPE
  2
DIVIDE
 70
     0
  3
___ .. ___ .. ___ .. ___
 72
    65
 73
     6
 40
1.250000
 49
0.500000
 49
-0.250000
 49
0.000000
 49
-0.250000
 49
0.000000
 49
-0.250000
  0
ENDTAB
  0
TABLE
  2
LAYER
 70
     8
  0
LAYER
  2
BLACK
 70
     0
 62
     1
  6
CONTINUOUS
  0
LAYER
  2
WHITE
 70
     0
 62
     7
  6
CONTINUOUS
  0
LAYER
  2
RED
 70
     0
 62
     1
  6
CONTINUOUS
  0
LAYER
  2
YELLOW
 70
     0
 62
     2
  6
CONTINUOUS
  0
LAYER
  2
GREEN
 70
     0
 62
     3
  6
CONTINUOUS
  0
LAYER
  2
CYAN
 70
     0
 62
     4
  6
CONTINUOUS
  0
LAYER
  2
BLUE
 70
     0
 62
     5
  6
CONTINUOUS
  0
LAYER
  2
MAGENTA
 70
     0
 62
     6
  6
CONTINUOUS
  0
ENDTAB
  0
ENDSEC
  0
SECTION
  2
BLOCKS
  0
ENDSEC
  0
SECTION
  2
ENTITIES
  0
ARC
  8
WHITE
 10
3.232283
 20
6.409432
 30
0.000000
 40
0.743977
 50
110.832870
 51
138.216920
  6
CONTINUOUS
  0
ARC
  8
WHITE
 10
-15.166056
 20
20.396496
 30
0.000000
 40
22.369834
 50
-37.880351
 51
-37.092548
  6
CONTINUOUS
  0
ARC
  8
WHITE
 10
1.953595
 20
7.293309
 30
0.000000
 40
0.829330
 50
-140.369834
 51
-49.669362
  6
CONTINUOUS
  0
ARC
  8
WHITE
 10
1.309174
 20
6.749787
 30
0.000000
 40
0.015623
 50
68.643234
 51
207.998169
  6
CONTINUOUS
  0
ARC
  8
WHITE
 10
2.046225
 20
7.180511
 30
0.000000
 40
0.869289
 50
-149.739840
 51
-67.047013
  6
CONTINUOUS
  0
ARC
  8
WHITE
 10
2.231775
 20
6.374969
 30
0.000000
 40
0.153536
 50
-43.134694
 51
1.895828
  6
CONTINUOUS
  0
ARC
  8
WHITE
 10
2.934038
 20
5.772161
 30
0.000000
 40
0.772139
 50
139.853377
 51
150.606337
  6
CONTINUOUS
  0
ARC
  8
WHITE
 10
3.176762
 20
5.650795
 30
0.000000
 40
1.043270
 50
151.341649
 51
169.961101
  6
CONTINUOUS
  0
ARC
  8
WHITE
 10
4.303200
 20
5.428590
 30
0.000000
 40
2.191311
 50
169.374220
 51
177.018307
  6
CONTINUOUS
  0
ARC
  8
WHITE
 10
2.963337
 20
5.018219
 30
0.000000
 40
0.997431
 50
148.284163
 51
161.698907
  6
CONTINUOUS
  0
ARC
  8
WHITE
 10
3.724167
 20
4.802041
 30
0.000000
 40
1.787978
 50
162.777764
 51
175.111319
  6
CONTINUOUS
  0
LINE
  8
WHITE
 10
1.942694
 20
4.954412
 30
0.000000
 11
1.925736
 21
4.799176
 31
0.000000
  6
CONTINUOUS
  0
ARC
  8
WHITE
 10
0.059305
 20
4.938152
 30
0.000000
 40
1.871598
 50
-26.569824
 51
-4.258417
  6
CONTINUOUS
  0
LINE
  8
WHITE
 10
1.733243
 20
4.101008
 30
0.000000
 11
1.576148
 21
3.745274
 31
0.000000
  6
CONTINUOUS
  0
ARC
  8
WHITE
 10
3.043436
 20
3.135055
 30
0.000000
 40
1.589120
 50
157.418459
 51
171.366988
  6
CONTINUOUS
  0
ARC
  8
WHITE
 10
-1.706807
 20
3.735549
 30
0.000000
 40
3.199667
 50
-12.766777
 51
-6.495440
  6
CONTINUOUS
  0
ARC
  8
WHITE
 10
0.130810
 20
3.327653
 30
0.000000
 40
1.317367
 50
-22.580882
 51
-13.126464
  6
CONTINUOUS
  0
LINE
  8
WHITE
 10
1.347186
 20
2.821801
 30
0.000000
 11
1.324114
 21
2.772125
 31
0.000000
  6
CONTINUOUS
  0
ARC
  8
WHITE
 10
0.473881
 20
3.196675
 30
0.000000
 40
0.950336
 50
-36.656543
 51
-26.534472
  6
CONTINUOUS
  0
ARC
  8
WHITE
 10
0.359585
 20
3.299606
 30
0.000000
 40
1.103572
 50
-43.645165
 51
-37.400990
  6
CONTINUOUS
  0
ARC
  8
WHITE
 10
1.200328
 20
2.500234
 30
0.000000
 40
0.056561
 50
138.203366
 51
168.720789
  6
CONTINUOUS
  0
ARC
  8
WHITE
 10
1.208359
 20
2.500091
 30
0.000000
 40
0.064481
 50
169.991458
 51
217.609879
  6
CONTINUOUS
  0
ARC
  8
WHITE
 10
1.231840
 20
2.516721
 30
0.000000
 40
0.093238
 50
-143.100441
 51
-90.010294
  6
CONTINUOUS
  0
ARC
  8
WHITE
 10
1.230290
 20
2.494311
 30
0.000000
 40
0.070845
 50
-88.760077
 51
-40.479380
  6
CONTINUOUS
  0
ARC
  8
WHITE
 10
1.347591
 20
2.476118
 30
0.000000
 40
0.069239
 50
-156.329235
 51
-97.687530
  6
CONTINUOUS
  0
LINE
  8
WHITE
 10
1.338329
 20
2.407502
 30
0.000000
 11
1.367611
 21
2.401292
 31
0.000000
  6
CONTINUOUS
  0
LINE
  8
WHITE
 10
1.367611
 20
2.401292
 30
0.000000
 11
0.399648
 21
2.400440
 31
0.000000
  6
CONTINUOUS
  0
ARC
  8
WHITE
 10
0.400000
 20
2.000440
 30
0.000000
 40
0.400000
 50
90.050435
 51
180.000000
  6
CONTINUOUS
  0
LINE
  8
WHITE
 10
0.000000
 20
2.000440
 30
0.000000
 11
0.000000
 21
0.800000
 31
0.000000
  6
CONTINUOUS
  0
LINE
  8
WHITE
 10
0.000000
 20
0.800000
 30
0.000000
 11
1.764933
 21
0.800000
 31
0.000000
  6
CONTINUOUS
  0
LINE
  8
WHITE
 10
1.764933
 20
0.800000
 30
0.000000
 11
1.764933
 21
0.000000
 31
0.000000
  6
CONTINUOUS
  0
LINE
  8
WHITE
 10
1.764933
 20
0.000000
 30
0.000000
 11
5.587154
 21
0.000000
 31
0.000000
  6
CONTINUOUS
  0
LINE
  8
WHITE
 10
5.587154
 20
0.000000
 30
0.000000
 11
5.587154
 21
0.800000
 31
0.000000
  6
CONTINUOUS
  0
LINE
  8
WHITE
 10
5.587154
 20
0.800000
 30
0.000000
 11
7.414717
 21
0.800000
 31
0.000000
  6
CONTINUOUS
  0
LINE
  8
WHITE
 10
7.414717
 20
0.800000
 30
0.000000
 11
7.414717
 21
2.000000
 31
0.000000
  6
CONTINUOUS
  0
ARC
  8
WHITE
 10
7.014717
 20
2.000000
 30
0.000000
 40
0.400000
 50
0.000000
 51
90.000000
  6
CONTINUOUS
  0
LINE
  8
WHITE
 10
7.014717
 20
2.400000
 30
0.000000
 11
6.162276
 21
2.400000
 31
0.000000
  6
CONTINUOUS
  0
LINE
  8
WHITE
 10
6.162276
 20
2.400000
 30
0.000000
 11
6.090694
 21
2.550350
 31
0.000000
  6
CONTINUOUS
  0
ARC
  8
WHITE
 10
7.208220
 20
2.781251
 30
0.000000
 40
1.141131
 50
-178.250103
 51
-168.325946
  6
CONTINUOUS
  0
ARC
  8
WHITE
 10
-3.454721
 20
1.996244
 30
0.000000
 40
9.551846
 50
4.504399
 51
7.506435
  6
CONTINUOUS
  0
ARC
  8
WHITE
 10
8.818191
 20
3.535998
 30
0.000000
 40
2.818086
 50
174.799779
 51
185.945898
  6
CONTINUOUS
  0
LINE
  8
WHITE
 10
6.011705
 20
3.791419
 30
0.000000
 11
6.038339
 21
4.158658
 31
0.000000
  6
CONTINUOUS
  0
ARC
  8
WHITE
 10
4.092860
 20
4.307110
 30
0.000000
 40
1.951135
 50
-4.363542
 51
11.531244
  6
CONTINUOUS
  0
ARC
  8
WHITE
 10
5.301489
 20
5.023402
 30
0.000000
 40
0.775129
 50
-24.891747
 51
4.018246
  6
CONTINUOUS
  0
LINE
  8
WHITE
 10
6.074713
 20
5.077719
 30
0.000000
 11
6.072066
 21
5.125629
 31
0.000000
  6
CONTINUOUS
  0
ARC
  8
WHITE
 10
3.998865
 20
5.799737
 30
0.000000
 40
2.180042
 50
-18.012115
 51
-11.856683
  6
CONTINUOUS
  0
ARC
  8
WHITE
 10
4.716143
 20
5.663400
 30
0.000000
 40
1.450122
 50
-12.407709
 51
4.096764
  6
CONTINUOUS
  0
ARC
  8
WHITE
 10
5.157304
 20
5.689642
 30
0.000000
 40
1.008227
 50
4.400326
 51
17.788598
  6
CONTINUOUS
  0
ARC
  8
WHITE
 10
6.891965
 20
6.303695
 30
0.000000
 40
0.832897
 50
-169.196151
 51
-158.442641
  6
CONTINUOUS
  0
LINE
  8
WHITE
 10
6.073831
 20
6.147570
 30
0.000000
 11
6.010822
 21
6.448303
 31
0.000000
  6
CONTINUOUS
  0
ARC
  8
WHITE
 10
5.146641
 20
6.238045
 30
0.000000
 40
0.889392
 50
13.674534
 51
22.520960
  6
CONTINUOUS
  0
LINE
  8
WHITE
 10
5.968207
 20
6.578701
 30
0.000000
 11
5.919414
 21
6.704686
 31
0.000000
  6
CONTINUOUS
  0
ARC
  8
WHITE
 10
7.973387
 20
7.427494
 30
0.000000
 40
2.177442
 50
-165.879925
 51
-160.612666
  6
CONTINUOUS
  0
ARC
  8
WHITE
 10
6.839829
 20
7.151903
 30
0.000000
 40
1.010944
 50
-173.644621
 51
-165.354423
  6
CONTINUOUS
  0
ARC
  8
WHITE
 10
6.115319
 20
7.079922
 30
0.000000
 40
0.283050
 50
165.480897
 51
188.108930
  6
CONTINUOUS
  0
ARC
  8
WHITE
 10
5.913974
 20
7.130080
 30
0.000000
 40
0.075586
 50
124.215052
 51
164.024310
  6
CONTINUOUS
  0
ARC
  8
WHITE
 10
6.205358
 20
7.866357
 30
0.000000
 40
0.751963
 50
-116.360568
 51
-105.062794
  6
CONTINUOUS
  0
ARC
  8
WHITE
 10
6.190417
 20
7.865195
 30
0.000000
 40
0.747092
 50
-103.979431
 51
-94.796284
  6
CONTINUOUS
  0
LINE
  8
WHITE
 10
6.127951
 20
7.120719
 30
0.000000
 11
6.166121
 21
7.119836
 31
0.000000
  6
CONTINUOUS
  0
ARC
  8
WHITE
 10
6.168290
 20
7.393037
 30
0.000000
 40
0.273209
 50
-90.454710
 51
-52.694772
  6
CONTINUOUS
  0
LINE
  8
WHITE
 10
6.333871
 20
7.175721
 30
0.000000
 11
6.357826
 21
7.201442
 31
0.000000
  6
CONTINUOUS
  0
LINE
  8
WHITE
 10
6.357826
 20
7.201442
 30
0.000000
 11
6.377337
 21
7.232489
 31
0.000000
  6
CONTINUOUS
  0
LINE
  8
WHITE
 10
6.377337
 20
7.232489
 30
0.000000
 11
6.391552
 21
7.269777
 31
0.000000
  6
CONTINUOUS
  0
LINE
  8
WHITE
 10
6.391552
 20
7.269777
 30
0.000000
 11
6.443025
 21
7.207651
 31
0.000000
  6
CONTINUOUS
  0
LINE
  8
WHITE
 10
6.443025
 20
7.207651
 30
0.000000
 11
6.468745
 21
7.216540
 31
0.000000
  6
CONTINUOUS
  0
ARC
  8
WHITE
 10
6.418648
 20
7.323479
 30
0.000000
 40
0.118092
 50
-64.898510
 51
-31.502894
  6
CONTINUOUS
  0
ARC
  8
WHITE
 10
6.318720
 20
7.363819
 30
0.000000
 40
0.225078
 50
-26.961460
 51
-3.850909
  6
CONTINUOUS
  0
LINE
  8
WHITE
 10
6.543290
 20
7.348703
 30
0.000000
 11
6.553943
 21
7.446289
 31
0.000000
  6
CONTINUOUS
  0
ARC
  8
WHITE
 10
6.727721
 20
7.427322
 30
0.000000
 40
0.174809
 50
150.716027
 51
173.770997
  6
CONTINUOUS
  0
LINE
  8
WHITE
 10
6.575251
 20
7.512828
 30
0.000000
 11
6.587670
 21
7.532339
 31
0.000000
  6
CONTINUOUS
  0
LINE
  8
WHITE
 10
6.587670
 20
7.532339
 30
0.000000
 11
6.599206
 21
7.557176
 31
0.000000
  6
CONTINUOUS
  0
ARC
  8
WHITE
 10
6.520618
 20
7.574199
 30
0.000000
 40
0.080411
 50
-12.221949
 51
8.769207
  6
CONTINUOUS
  0
LINE
  8
WHITE
 10
6.600089
 20
7.586458
 30
0.000000
 11
6.595928
 21
7.601840
 31
0.000000
  6
CONTINUOUS
  0
ARC
  8
WHITE
 10
6.390330
 20
7.546280
 30
0.000000
 40
0.212973
 50
15.122148
 51
26.195670
  6
CONTINUOUS
  0
ARC
  8
WHITE
 10
6.093668
 20
7.400262
 30
0.000000
 40
0.543624
 50
26.202320
 51
38.312532
  6
CONTINUOUS
  0
ARC
  8
WHITE
 10
5.196175
 20
6.704037
 30
0.000000
 40
1.679489
 50
37.967449
 51
45.775720
  6
CONTINUOUS
  0
LINE
  8
WHITE
 10
6.367566
 20
7.907584
 30
0.000000
 11
6.288608
 21
7.984777
 31
0.000000
  6
CONTINUOUS
  0
LINE
  8
WHITE
 10
6.288608
 20
7.984777
 30
0.000000
 11
6.175010
 21
8.093899
 31
0.000000
  6
CONTINUOUS
  0
ARC
  8
WHITE
 10
5.987053
 20
8.192246
 30
0.000000
 40
0.212132
 50
-27.620339
 51
-2.607162
  6
CONTINUOUS
  0
ARC
  8
WHITE
 10
5.204031
 20
8.227402
 30
0.000000
 40
0.995943
 50
-2.578505
 51
2.578504
  6
CONTINUOUS
  0
ARC
  8
WHITE
 10
6.461546
 20
8.270996
 30
0.000000
 40
0.262583
 50
166.650752
 51
179.735618
  6
CONTINUOUS
  0
LINE
  8
WHITE
 10
6.206057
 20
8.331623
 30
0.000000
 11
6.207822
 21
8.346721
 31
0.000000
  6
CONTINUOUS
  0
ARC
  8
WHITE
 10
6.136281
 20
8.341915
 30
0.000000
 40
0.071703
 50
3.843436
 51
27.559093
  6
CONTINUOUS
  0
ARC
  8
WHITE
 10
5.940409
 20
8.376140
 30
0.000000
 40
0.259441
 50
-0.232089
 51
96.746245
  6
CONTINUOUS
  0
ARC
  8
WHITE
 10
5.692348
 20
6.707871
 30
0.000000
 40
1.938165
 50
83.554224
 51
114.561552
  6
CONTINUOUS
  0
LINE
  8
WHITE
 10
4.886710
 20
8.470662
 30
0.000000
 11
4.715729
 21
8.131817
 31
0.000000
  6
CONTINUOUS
  0
ARC
  8
WHITE
 10
7.022566
 20
7.195056
 30
0.000000
 40
2.489783
 50
157.898900
 51
168.590003
  6
CONTINUOUS
  0
ARC
  8
WHITE
 10
4.838451
 20
7.626116
 30
0.000000
 40
0.263730
 50
166.517025
 51
199.595785
  6
CONTINUOUS
  0
ARC
  8
WHITE
 10
4.398858
 20
7.465084
 30
0.000000
 40
0.204454
 50
0.704047
 51
20.793480
  6
CONTINUOUS
  0
ARC
  8
WHITE
 10
4.760088
 20
7.475663
 30
0.000000
 40
0.156998
 50
-177.054704
 51
-149.019154
  6
CONTINUOUS
  0
ARC
  8
WHITE
 10
2.682842
 20
8.331506
 30
0.000000
 40
2.156664
 50
-30.910496
 51
-25.741323
  6
CONTINUOUS
  0
ARC
  8
WHITE
 10
4.117087
 20
8.213185
 30
0.000000
 40
1.073481
 50
-88.205588
 51
-67.193131
  6
CONTINUOUS
  0
LINE
  8
WHITE
 10
4.150701
 20
7.140230
 30
0.000000
 11
4.052201
 21
7.138465
 31
0.000000
  6
CONTINUOUS
  0
LINE
  8
WHITE
 10
4.052201
 20
7.138465
 30
0.000000
 11
3.952787
 21
7.140230
 31
0.000000
  6
CONTINUOUS
  0
LINE
  8
WHITE
 10
3.952787
 20
7.140230
 30
0.000000
 11
3.753108
 21
7.152649
 31
0.000000
  6
CONTINUOUS
  0
ARC
  8
WHITE
 10
3.362265
 20
3.070299
 30
0.000000
 40
4.101017
 50
84.531184
 51
90.106636
  6
CONTINUOUS
  0
ARC
  8
WHITE
 10
3.356168
 20
6.004029
 30
0.000000
 40
1.167281
 50
90.075415
 51
109.439068
  6
CONTINUOUS
  0
ARC
  8
WHITE
 10
4.542415
 20
2.464255
 30
0.000000
 40
0.201095
 50
170.340813
 51
198.634146
  6
CONTINUOUS
  0
LINE
  8
WHITE
 10
4.351862
 20
2.400000
 30
0.000000
 11
1.574382
 21
2.401292
 31
0.000000
  6
CONTINUOUS
  0
LINE
  8
WHITE
 10
1.574382
 20
2.401292
 30
0.000000
 11
1.609874
 21
2.405737
 31
0.000000
  6
CONTINUOUS
  0
ARC
  8
WHITE
 10
1.603767
 20
2.480551
 30
0.000000
 40
0.075063
 50
-85.333488
 51
-27.687765
  6
CONTINUOUS
  0
LINE
  8
WHITE
 10
1.670235
 20
2.445672
 30
0.000000
 11
1.674679
 21
2.465183
 31
0.000000
  6
CONTINUOUS
  0
ARC
  8
WHITE
 10
1.497599
 20
2.490336
 30
0.000000
 40
0.178858
 50
-8.084347
 51
9.893874
  6
CONTINUOUS
  0
LINE
  8
WHITE
 10
1.673796
 20
2.521068
 30
0.000000
 11
1.668470
 21
2.559208
 31
0.000000
  6
CONTINUOUS
  0
ARC
  8
WHITE
 10
2.936401
 20
2.777691
 30
0.000000
 40
1.286617
 50
-179.632836
 51
-170.223101
  6
CONTINUOUS
  0
ARC
  8
WHITE
 10
3.095620
 20
2.801966
 30
0.000000
 40
1.446176
 50
163.962706
 51
181.288504
  6
CONTINUOUS
  0
ARC
  8
WHITE
 10
2.245320
 20
3.034356
 30
0.000000
 40
0.564885
 50
145.092999
 51
162.790052
  6
CONTINUOUS
  0
ARC
  8
WHITE
 10
1.322702
 20
3.631570
 30
0.000000
 40
0.534857
 50
-30.811355
 51
-3.407729
  6
CONTINUOUS
  0
ARC
  8
WHITE
 10
3.226116
 20
2.954171
 30
0.000000
 40
1.514051
 50
149.711522
 51
154.760045
  6
CONTINUOUS
  0
LINE
  8
WHITE
 10
1.918738
 20
3.717788
 30
0.000000
 11
2.114856
 21
4.045123
 31
0.000000
  6
CONTINUOUS
  0
ARC
  8
WHITE
 10
0.053330
 20
5.254908
 30
0.000000
 40
2.390286
 50
-30.406078
 51
-23.925613
  6
CONTINUOUS
  0
ARC
  8
WHITE
 10
0.426667
 20
5.093480
 30
0.000000
 40
1.983565
 50
-24.036833
 51
-14.868512
  6
CONTINUOUS
  0
ARC
  8
WHITE
 10
2.612964
 20
4.489525
 30
0.000000
 40
0.285410
 50
148.516451
 51
160.564647
  6
CONTINUOUS
  0
ARC
  8
WHITE
 10
-4.051893
 20
8.526586
 30
0.000000
 40
7.506781
 50
-31.193657
 51
-28.184724
  6
CONTINUOUS
  0
ARC
  8
WHITE
 10
1.754984
 20
6.102440
 30
0.000000
 40
1.383257
 50
-54.165632
 51
-42.535186
  6
CONTINUOUS
  0
LINE
  8
WHITE
 10
2.774254
 20
5.167298
 30
0.000000
 11
2.962366
 21
5.377568
 31
0.000000
  6
CONTINUOUS
  0
ARC
  8
WHITE
 10
3.027864
 20
5.458945
 30
0.000000
 40
0.104461
 50
-128.829648
 51
-90.864125
  6
CONTINUOUS
  0
ARC
  8
WHITE
 10
3.043648
 20
5.506172
 30
0.000000
 40
0.152666
 50
-96.529175
 51
-68.358624
  6
CONTINUOUS
  0
ARC
  8
WHITE
 10
3.061366
 20
5.468140
 30
0.000000
 40
0.110808
 50
-69.622387
 51
-46.179758
  6
CONTINUOUS
  0
LINE
  8
WHITE
 10
3.138090
 20
5.388191
 30
0.000000
 11
3.147861
 21
5.394400
 31
0.000000
  6
CONTINUOUS
  0
ARC
  8
WHITE
 10
3.158140
 20
5.336295
 30
0.000000
 40
0.059007
 50
59.828014
 51
100.032238
  6
CONTINUOUS
  0
ARC
  8
WHITE
 10
3.288368
 20
5.597353
 30
0.000000
 40
0.232881
 50
-115.585524
 51
-96.635278
  6
CONTINUOUS
  0
ARC
  8
WHITE
 10
2.644903
 20
4.750075
 30
0.000000
 40
0.871518
 50
32.119029
 51
44.972174
  6
CONTINUOUS
  0
ARC
  8
WHITE
 10
2.021263
 20
4.420487
 30
0.000000
 40
1.575815
 50
23.168177
 51
30.212216
  6
CONTINUOUS
  0
LINE
  8
WHITE
 10
3.469995
 20
5.040462
 30
0.000000
 11
3.575619
 21
4.768129
 31
0.000000
  6
CONTINUOUS
  0
ARC
  8
WHITE
 10
3.084375
 20
4.514797
 30
0.000000
 40
0.552718
 50
12.281962
 51
27.279985
  6
CONTINUOUS
  0
ARC
  8
WHITE
 10
3.106765
 20
4.579128
 30
0.000000
 40
0.520410
 50
-8.919112
 51
5.872328
  6
CONTINUOUS
  0
LINE
  8
WHITE
 10
3.620881
 20
4.498444
 30
0.000000
 11
3.605783
 21
4.420369
 31
0.000000
  6
CONTINUOUS
  0
ARC
  8
WHITE
 10
2.794136
 20
4.635726
 30
0.000000
 40
0.839732
 50
-26.121209
 51
-14.860040
  6
CONTINUOUS
  0
ARC
  8
WHITE
 10
3.146748
 20
4.459491
 30
0.000000
 40
0.445553
 50
-40.937882
 51
-25.736794
  6
CONTINUOUS
  0
ARC
  8
WHITE
 10
3.565461
 20
4.053893
 30
0.000000
 40
0.140225
 50
125.853964
 51
164.928659
  6
CONTINUOUS
  0
ARC
  8
WHITE
 10
3.640084
 20
4.030665
 30
0.000000
 40
0.218341
 50
164.134785
 51
193.085381
  6
CONTINUOUS
  0
ARC
  8
WHITE
 10
3.540991
 20
4.001581
 30
0.000000
 40
0.115388
 50
-169.842827
 51
-116.972863
  6
CONTINUOUS
  0
ARC
  8
WHITE
 10
4.337215
 20
3.880415
 30
0.000000
 40
0.848758
 50
178.762558
 51
187.044653
  6
CONTINUOUS
  0
ARC
  8
WHITE
 10
4.681743
 20
3.957902
 30
0.000000
 40
1.200688
 50
-171.301751
 51
-159.513809
  6
CONTINUOUS
  0
LINE
  8
WHITE
 10
3.556990
 20
3.537683
 30
0.000000
 11
3.600456
 21
3.418821
 31
0.000000
  6
CONTINUOUS
  0
LINE
  8
WHITE
 10
3.600456
 20
3.418821
 30
0.000000
 11
3.643072
 21
3.299959
 31
0.000000
  6
CONTINUOUS
  0
ARC
  8
WHITE
 10
2.349120
 20
2.834152
 30
0.000000
 40
1.375241
 50
11.952765
 51
19.798281
  6
CONTINUOUS
  0
ARC
  8
WHITE
 10
2.972891
 20
2.963207
 30
0.000000
 40
0.738272
 50
2.382663
 51
12.180044
  6
CONTINUOUS
  0
LINE
  8
WHITE
 10
3.710524
 20
2.993900
 30
0.000000
 11
3.710524
 21
2.930009
 31
0.000000
  6
CONTINUOUS
  0
ARC
  8
WHITE
 10
3.760527
 20
2.928449
 30
0.000000
 40
0.050027
 50
178.212965
 51
221.299695
  6
CONTINUOUS
  0
ARC
  8
WHITE
 10
3.838072
 20
2.977994
 30
0.000000
 40
0.141673
 50
-144.354642
 51
-124.202742
  6
CONTINUOUS
  0
ARC
  8
WHITE
 10
4.036809
 20
3.270685
 30
0.000000
 40
0.495459
 50
-124.183969
 51
-109.641632
  6
CONTINUOUS
  0
ARC
  8
WHITE
 10
3.999842
 20
3.151421
 30
0.000000
 40
0.370746
 50
-110.456471
 51
-92.333234
  6
CONTINUOUS
  0
ARC
  8
WHITE
 10
3.997765
 20
2.828724
 30
0.000000
 40
0.049485
 50
-105.250490
 51
-23.009229
  6
CONTINUOUS
  0
ARC
  8
WHITE
 10
4.123690
 20
3.023092
 30
0.000000
 40
0.228326
 50
-110.611606
 51
-96.150098
  6
CONTINUOUS
  0
ARC
  8
WHITE
 10
4.121053
 20
3.014200
 30
0.000000
 40
0.219209
 50
-95.713600
 51
-79.405697
  6
CONTINUOUS
  0
ARC
  8
WHITE
 10
4.153138
 20
2.892057
 30
0.000000
 40
0.093690
 50
-84.968320
 51
-51.121447
  6
CONTINUOUS
  0
ARC
  8
WHITE
 10
4.182332
 20
2.857361
 30
0.000000
 40
0.048365
 50
-52.246136
 51
4.104359
  6
CONTINUOUS
  0
ARC
  8
WHITE
 10
4.140807
 20
2.855336
 30
0.000000
 40
0.089933
 50
3.497642
 51
44.618926
  6
CONTINUOUS
  0
ARC
  8
WHITE
 10
4.083530
 20
2.804525
 30
0.000000
 40
0.166442
 50
43.219819
 51
87.654814
  6
CONTINUOUS
  0
ARC
  8
WHITE
 10
4.097313
 20
3.141043
 30
0.000000
 40
0.170359
 50
-140.081233
 51
-92.345865
  6
CONTINUOUS
  0
ARC
  8
WHITE
 10
4.130789
 20
3.169300
 30
0.000000
 40
0.214166
 50
-145.793855
 51
-140.030263
  6
CONTINUOUS
  0
ARC
  8
WHITE
 10
4.607502
 20
3.464028
 30
0.000000
 40
0.774484
 50
-170.906858
 51
-147.588066
  6
CONTINUOUS
  0
LINE
  8
WHITE
 10
3.842751
 20
3.341628
 30
0.000000
 11
3.831214
 21
3.409964
 31
0.000000
  6
CONTINUOUS
  0
ARC
  8
WHITE
 10
5.398824
 20
3.622620
 30
0.000000
 40
1.581968
 50
172.774793
 51
187.725373
  6
CONTINUOUS
  0
ARC
  8
WHITE
 10
5.585390
 20
3.623795
 30
0.000000
 40
1.767076
 50
163.854042
 51
173.573412
  6
CONTINUOUS
  0
ARC
  8
WHITE
 10
4.785378
 20
3.872240
 30
0.000000
 40
0.929672
 50
147.772722
 51
164.850912
  6
CONTINUOUS
  0
ARC
  8
WHITE
 10
2.779322
 20
5.183836
 30
0.000000
 40
1.467315
 50
-33.779357
 51
-25.099164
  6
CONTINUOUS
  0
ARC
  8
WHITE
 10
3.001166
 20
5.091570
 30
0.000000
 40
1.227327
 50
-25.591666
 51
-14.766376
  6
CONTINUOUS
  0
ARC
  8
WHITE
 10
3.304385
 20
5.017877
 30
0.000000
 40
0.915359
 50
-15.143457
 51
-5.535775
  6
CONTINUOUS
  0
LINE
  8
WHITE
 10
4.215475
 20
4.929575
 30
0.000000
 11
4.260737
 21
4.864801
 31
0.000000
  6
CONTINUOUS
  0
ARC
  8
WHITE
 10
4.817913
 20
4.729584
 30
0.000000
 40
0.573349
 50
166.359048
 51
183.508391
  6
CONTINUOUS
  0
ARC
  8
WHITE
 10
4.508287
 20
4.694083
 30
0.000000
 40
0.262648
 50
179.909335
 51
208.560801
  6
CONTINUOUS
  0
LINE
  8
WHITE
 10
4.277601
 20
4.568513
 30
0.000000
 11
4.265182
 21
4.548120
 31
0.000000
  6
CONTINUOUS
  0
ARC
  8
WHITE
 10
4.630085
 20
4.432909
 30
0.000000
 40
0.382659
 50
162.477522
 51
180.414546
  6
CONTINUOUS
  0
ARC
  8
WHITE
 10
6.827751
 20
4.431056
 30
0.000000
 40
2.580315
 50
-179.979659
 51
-174.376332
  6
CONTINUOUS
  0
LINE
  8
WHITE
 10
4.259855
 20
4.178201
 30
0.000000
 11
4.274039
 21
4.030939
 31
0.000000
  6
CONTINUOUS
  0
LINE
  8
WHITE
 10
4.274039
 20
4.030939
 30
0.000000
 11
4.350380
 21
3.339863
 31
0.000000
  6
CONTINUOUS
  0
LINE
  8
WHITE
 10
4.350380
 20
3.339863
 30
0.000000
 11
4.368126
 21
3.202373
 31
0.000000
  6
CONTINUOUS
  0
ARC
  8
WHITE
 10
0.831862
 20
2.767729
 30
0.000000
 40
3.562875
 50
2.553754
 51
7.007115
  6
CONTINUOUS
  0
LINE
  8
WHITE
 10
4.391199
 20
2.926479
 30
0.000000
 11
4.391199
 21
2.789871
 31
0.000000
  6
CONTINUOUS
  0
ARC
  8
WHITE
 10
3.213297
 20
2.838159
 30
0.000000
 40
1.178891
 50
-12.226882
 51
-2.347535
  6
CONTINUOUS
  0
LINE
  8
WHITE
 10
4.365447
 20
2.588490
 30
0.000000
 11
4.344171
 21
2.497996
 31
0.000000
  6
CONTINUOUS
  0
ARC
  8
WHITE
 10
5.545713
 20
2.573810
 30
0.000000
 40
0.227023
 50
22.650293
 51
43.006791
  6
CONTINUOUS
  0
ARC
  8
WHITE
 10
5.934000
 20
2.903235
 30
0.000000
 40
0.282632
 50
-179.133683
 51
-141.853180
  6
CONTINUOUS
  0
ARC
  8
WHITE
 10
6.629171
 20
2.900711
 30
0.000000
 40
0.977773
 50
169.066879
 51
180.102539
  6
CONTINUOUS
  0
LINE
  8
WHITE
 10
5.669146
 20
3.086159
 30
0.000000
 11
5.693101
 21
3.235185
 31
0.000000
  6
CONTINUOUS
  0
ARC
  8
WHITE
 10
4.743115
 20
3.306357
 30
0.000000
 40
0.952648
 50
-4.284520
 51
7.425520
  6
CONTINUOUS
  0
LINE
  8
WHITE
 10
5.687774
 20
3.429475
 30
0.000000
 11
5.598163
 21
4.059307
 31
0.000000
  6
CONTINUOUS
  0
ARC
  8
WHITE
 10
6.869923
 20
4.231861
 30
0.000000
 40
1.283413
 50
179.228056
 51
187.726784
  6
CONTINUOUS
  0
ARC
  8
WHITE
 10
6.252087
 20
4.599097
 30
0.000000
 40
0.751864
 50
-172.442360
 51
-152.261549
  6
CONTINUOUS
  0
LINE
  8
WHITE
 10
5.506755
 20
4.500209
 30
0.000000
 11
5.471232
 21
4.751266
 31
0.000000
  6
CONTINUOUS
  0
ARC
  8
WHITE
 10
5.157499
 20
4.724097
 30
0.000000
 40
0.314907
 50
4.949330
 51
29.278138
  6
CONTINUOUS
  0
LINE
  8
WHITE
 10
5.432178
 20
4.878102
 30
0.000000
 11
5.218315
 21
4.822217
 31
0.000000
  6
CONTINUOUS
  0
ARC
  8
WHITE
 10
5.005210
 20
5.583419
 30
0.000000
 40
0.790469
 50
-90.377087
 51
-74.359938
  6
CONTINUOUS
  0
ARC
  8
WHITE
 10
7.064474
 20
3.665529
 30
0.000000
 40
2.352262
 50
151.360346
 51
158.985341
  6
CONTINUOUS
  0
ARC
  8
WHITE
 10
6.182940
 20
4.031334
 30
0.000000
 40
1.398410
 50
160.024075
 51
176.015954
  6
CONTINUOUS
  0
LINE
  8
WHITE
 10
4.787909
 20
4.128494
 30
0.000000
 11
4.737320
 21
3.825114
 31
0.000000
  6
CONTINUOUS
  0
LINE
  8
WHITE
 10
4.737320
 20
3.825114
 30
0.000000
 11
4.721339
 21
3.705369
 31
0.000000
  6
CONTINUOUS
  0
ARC
  8
WHITE
 10
7.537478
 20
3.385349
 30
0.000000
 40
2.834263
 50
173.516836
 51
182.228861
  6
CONTINUOUS
  0
ARC
  8
WHITE
 10
-1.499459
 20
3.104000
 30
0.000000
 40
6.207177
 50
-2.851597
 51
1.579748
  6
CONTINUOUS
  0
ARC
  8
WHITE
 10
6.301698
 20
2.678818
 30
0.000000
 40
1.605889
 50
175.844086
 51
187.804848
  6
CONTINUOUS
  0
LINE
  8
WHITE
 10
4.710685
 20
2.460739
 30
0.000000
 11
4.722253
 21
2.400000
 31
0.000000
  6
CONTINUOUS
  0
LINE
  8
WHITE
 10
4.722253
 20
2.400000
 30
0.000000
 11
5.799891
 21
2.400000
 31
0.000000
  6
CONTINUOUS
  0
LINE
  8
WHITE
 10
5.799891
 20
2.400000
 30
0.000000
 11
5.755227
 21
2.661238
 31
0.000000
  6
CONTINUOUS
  0
ARC
  8
YELLOW
 10
5.600509
 20
8.079374
 30
0.000000
 40
0.090356
 50
152.924121
 51
213.716014
  6
CONTINUOUS
  0
ARC
  8
YELLOW
 10
5.547675
 20
8.271998
 30
0.000000
 40
0.243802
 50
-95.253538
 51
-75.261712
  6
CONTINUOUS
  0
ARC
  8
YELLOW
 10
5.553859
 20
8.082574
 30
0.000000
 40
0.072574
 50
-39.698962
 51
40.891776
  6
CONTINUOUS
  0
ARC
  8
YELLOW
 10
5.575549
 20
8.022020
 30
0.000000
 40
0.113040
 50
72.935062
 51
119.400925
  6
CONTINUOUS
  0
ARC
  8
YELLOW
 10
5.707852
 20
8.205376
 30
0.000000
 40
0.056058
 50
140.331204
 51
222.464352
  6
CONTINUOUS
  0
ARC
  8
YELLOW
 10
5.463954
 20
7.926128
 30
0.000000
 40
0.315117
 50
30.092723
 51
50.002326
  6
CONTINUOUS
  0
ARC
  8
YELLOW
 10
4.709948
 20
7.964142
 30
0.000000
 40
1.033638
 50
6.666002
 51
17.493763
  6
CONTINUOUS
  0
LINE
  8
YELLOW
 10
5.695780
 20
8.274855
 30
0.000000
 11
5.664701
 21
8.241160
 31
0.000000
  6
CONTINUOUS
  0
ARC
  8
YELLOW
 10
6.414976
 20
7.512421
 30
0.000000
 40
0.082736
 50
114.899155
 51
160.553466
  6
CONTINUOUS
  0
ARC
  8
YELLOW
 10
6.351826
 20
7.534723
 30
0.000000
 40
0.015764
 50
160.573831
 51
272.446850
  6
CONTINUOUS
  0
ARC
  8
YELLOW
 10
6.348922
 20
7.602679
 30
0.000000
 40
0.083782
 50
-87.553161
 51
-39.889326
  6
CONTINUOUS
  0
ARC
  8
YELLOW
 10
6.401146
 20
7.559048
 30
0.000000
 40
0.015730
 50
-39.940836
 51
-8.456759
  6
CONTINUOUS
  0
ARC
  8
YELLOW
 10
6.388738
 20
7.560578
 30
0.000000
 40
0.028230
 50
-7.823960
 51
107.728716
  6
CONTINUOUS
  0
ARC
  8
YELLOW
 10
6.529744
 20
7.565203
 30
0.000000
 40
0.029976
 50
-176.525110
 51
-134.642786
  6
CONTINUOUS
  0
ARC
  8
YELLOW
 10
6.539012
 20
7.574451
 30
0.000000
 40
0.043068
 50
-134.769850
 51
-86.655285
  6
CONTINUOUS
  0
ARC
  8
YELLOW
 10
6.544217
 20
7.548239
 30
0.000000
 40
0.016998
 50
-99.113909
 51
-27.674503
  6
CONTINUOUS
  0
ARC
  8
YELLOW
 10
6.521661
 20
7.554317
 30
0.000000
 40
0.040120
 50
-20.380262
 51
90.802310
  6
CONTINUOUS
  0
ARC
  8
YELLOW
 10
6.522943
 20
7.574278
 30
0.000000
 40
0.020239
 50
95.225997
 51
165.438187
  6
CONTINUOUS
  0
LINE
  8
YELLOW
 10
6.503354
 20
7.579366
 30
0.000000
 11
6.499824
 21
7.563386
 31
0.000000
  6
CONTINUOUS
  0
CIRCLE
  8
YELLOW
 10
6.386783
 20
7.573237
 30
0.000000
 40
0.015704
  6
CONTINUOUS
  0
ARC
  8
YELLOW
 10
1.444888
 20
2.481025
 30
0.000000
 40
0.161595
 50
132.108705
 51
180.274986
  6
CONTINUOUS
  0
ARC
  8
YELLOW
 10
1.573226
 20
2.488850
 30
0.000000
 40
0.132938
 50
143.339976
 51
196.528042
  6
CONTINUOUS
  0
LINE
  8
YELLOW
 10
1.466584
 20
2.568222
 30
0.000000
 11
1.487135
 21
2.599994
 31
0.000000
  6
CONTINUOUS
  0
LINE
  8
WHITE
 10
5.507154
 20
0.800000
 30
0.000000
 11
1.844933
 21
0.800000
 31
0.000000
  6
CONTINUOUS
  0
LINE
  8
YELLOW
 10
2.490259
 20
6.439414
 30
0.000000
 11
2.365471
 21
6.295021
 31
0.000000
  6
CONTINUOUS
  0
ARC
  8
YELLOW
 10
2.192852
 20
5.474277
 30
0.000000
 40
0.528730
 50
-11.740232
 51
8.584294
  6
CONTINUOUS
  0
ARC
  8
YELLOW
 10
1.534039
 20
5.606372
 30
0.000000
 40
1.200647
 50
-27.996698
 51
-11.514956
  6
CONTINUOUS
  0
ARC
  8
YELLOW
 10
3.313986
 20
5.078698
 30
0.000000
 40
0.459977
 50
104.093336
 51
135.684462
  6
CONTINUOUS
  0
ARC
  8
YELLOW
 10
3.313434
 20
4.991800
 30
0.000000
 40
0.544557
 50
70.995249
 51
101.810034
  6
CONTINUOUS
  0
ARC
  8
YELLOW
 10
3.178772
 20
4.536698
 30
0.000000
 40
1.018919
 50
53.963851
 51
72.169536
  6
CONTINUOUS
  0
ARC
  8
YELLOW
 10
2.736568
 20
3.867402
 30
0.000000
 40
1.820648
 50
37.197145
 51
55.101772
  6
CONTINUOUS
  0
ARC
  8
YELLOW
 10
3.726998
 20
6.097209
 30
0.000000
 40
0.484877
 50
-159.742528
 51
-116.008767
  6
CONTINUOUS
  0
LINE
  8
YELLOW
 10
3.281852
 20
5.480450
 30
0.000000
 11
3.361724
 21
5.434336
 31
0.000000
  6
CONTINUOUS
  0
ARC
  8
YELLOW
 10
3.800941
 20
5.356223
 30
0.000000
 40
0.091197
 50
-110.908468
 51
-42.988050
  6
CONTINUOUS
  0
ARC
  8
YELLOW
 10
3.843788
 20
5.711716
 30
0.000000
 40
0.447088
 50
-126.008109
 51
-99.708291
  6
CONTINUOUS
  0
ARC
  8
YELLOW
 10
3.619700
 20
5.419722
 30
0.000000
 40
0.079724
 50
-176.478729
 51
-119.085461
  6
CONTINUOUS
  0
ARC
  8
YELLOW
 10
3.474939
 20
5.644152
 30
0.000000
 40
0.238412
 50
-118.350881
 51
-74.131697
  6
CONTINUOUS
  0
ARC
  8
YELLOW
 10
3.259170
 20
5.476451
 30
0.000000
 40
0.110865
 50
-69.067580
 51
-22.326252
  6
CONTINUOUS
  0
ARC
  8
YELLOW
 10
3.790079
 20
5.857793
 30
0.000000
 40
0.294550
 50
-145.614723
 51
-99.652863
  6
CONTINUOUS
  0
ARC
  8
YELLOW
 10
4.345479
 20
6.272804
 30
0.000000
 40
0.987699
 50
-156.094435
 51
-143.942286
  6
CONTINUOUS
  0
ARC
  8
YELLOW
 10
4.256280
 20
3.887031
 30
0.000000
 40
0.682572
 50
176.856166
 51
199.732348
  6
CONTINUOUS
  0
ARC
  8
YELLOW
 10
3.287757
 20
4.117054
 30
0.000000
 40
0.345613
 50
-33.865235
 51
-5.905097
  6
CONTINUOUS
  0
ARC
  8
YELLOW
 10
4.050277
 20
5.857109
 30
0.000000
 40
0.424077
 50
-145.192914
 51
-110.564584
  6
CONTINUOUS
  0
ARC
  8
YELLOW
 10
4.373344
 20
6.107556
 30
0.000000
 40
0.832570
 50
-159.876694
 51
-143.732085
  6
CONTINUOUS
  0
ARC
  8
YELLOW
 10
4.266270
 20
4.887271
 30
0.000000
 40
0.679111
 50
-153.469188
 51
-138.391729
  6
CONTINUOUS
  0
ARC
  8
YELLOW
 10
3.941261
 20
2.871558
 30
0.000000
 40
0.105582
 50
-15.383598
 51
76.892050
  6
CONTINUOUS
  0
ARC
  8
YELLOW
 10
3.866262
 20
4.966081
 30
0.000000
 40
0.407805
 50
-8.342659
 51
16.187134
  6
CONTINUOUS
  0
LINE
  8
YELLOW
 10
4.257901
 20
5.079767
 30
0.000000
 11
4.237665
 21
5.141578
 31
0.000000
  6
CONTINUOUS
  0
LINE
  8
YELLOW
 10
4.237665
 20
5.141578
 30
0.000000
 11
4.195081
 21
5.240929
 31
0.000000
  6
CONTINUOUS
  0
ARC
  8
YELLOW
 10
4.034789
 20
5.166917
 30
0.000000
 40
0.176554
 50
24.784289
 51
53.250057
  6
CONTINUOUS
  0
LINE
  8
YELLOW
 10
4.140426
 20
5.308382
 30
0.000000
 11
4.082366
 21
5.354496
 31
0.000000
  6
CONTINUOUS
  0
ARC
  8
YELLOW
 10
4.209312
 20
5.561089
 30
0.000000
 40
0.242479
 50
-162.124277
 51
-121.569719
  6
CONTINUOUS
  0
ARC
  8
YELLOW
 10
4.211300
 20
4.765010
 30
0.000000
 40
0.212110
 50
-29.161439
 51
15.152217
  6
CONTINUOUS
  0
ARC
  8
YELLOW
 10
3.890354
 20
4.633299
 30
0.000000
 40
0.558004
 50
19.596700
 51
34.172361
  6
CONTINUOUS
  0
ARC
  8
YELLOW
 10
5.264357
 20
5.618716
 30
0.000000
 40
1.133110
 50
-154.651360
 51
-143.625989
  6
CONTINUOUS
  0
LINE
  8
YELLOW
 10
4.240344
 20
5.133604
 30
0.000000
 11
4.195081
 21
5.240929
 31
0.000000
  6
CONTINUOUS
  0
ARC
  8
YELLOW
 10
5.084032
 20
5.667869
 30
0.000000
 40
0.986160
 50
-166.990495
 51
-154.346220
  6
CONTINUOUS
  0
ARC
  8
YELLOW
 10
4.534475
 20
5.517722
 30
0.000000
 40
0.417519
 50
170.090786
 51
189.909214
  6
CONTINUOUS
  0
ARC
  8
YELLOW
 10
5.319105
 20
6.432172
 30
0.000000
 40
1.182891
 50
158.851372
 51
183.388641
  6
CONTINUOUS
  0
ARC
  8
YELLOW
 10
4.765045
 20
6.644548
 30
0.000000
 40
0.589528
 50
116.100969
 51
158.673900
  6
CONTINUOUS
  0
ARC
  8
YELLOW
 10
4.448429
 20
4.515582
 30
0.000000
 40
0.114109
 50
-164.988088
 51
-119.408871
  6
CONTINUOUS
  0
ARC
  8
YELLOW
 10
4.229446
 20
4.456351
 30
0.000000
 40
0.112743
 50
15.259898
 51
51.374934
  6
CONTINUOUS
  0
ARC
  8
YELLOW
 10
4.542359
 20
2.463930
 30
0.000000
 40
0.200880
 50
-151.630404
 51
-146.309229
  6
CONTINUOUS
  0
ARC
  8
YELLOW
 10
4.122647
 20
2.187178
 30
0.000000
 40
0.301867
 50
11.247524
 51
33.206913
  6
CONTINUOUS
  0
ARC
  8
YELLOW
 10
3.639931
 20
2.093537
 30
0.000000
 40
0.793579
 50
-2.247175
 51
11.080684
  6
CONTINUOUS
  0
LINE
  8
YELLOW
 10
4.432900
 20
2.062421
 30
0.000000
 11
4.431135
 21
2.000326
 31
0.000000
  6
CONTINUOUS
  0
LINE
  8
YELLOW
 10
4.431135
 20
2.000326
 30
0.000000
 11
4.428455
 21
1.884112
 31
0.000000
  6
CONTINUOUS
  0
LINE
  8
YELLOW
 10
4.428455
 20
1.884112
 30
0.000000
 11
4.424925
 21
1.853065
 31
0.000000
  6
CONTINUOUS
  0
ARC
  8
YELLOW
 10
4.544378
 20
1.829294
 30
0.000000
 40
0.121795
 50
168.745237
 51
199.216954
  6
CONTINUOUS
  0
ARC
  8
YELLOW
 10
4.502620
 20
1.826875
 30
0.000000
 40
0.082369
 50
-152.785263
 51
-95.290276
  6
CONTINUOUS
  0
ARC
  8
YELLOW
 10
4.515981
 20
1.872667
 30
0.000000
 40
0.129517
 50
-99.311051
 51
-71.421136
  6
CONTINUOUS
  0
LINE
  8
YELLOW
 10
4.557246
 20
1.749900
 30
0.000000
 11
4.569791
 21
1.754092
 31
0.000000
  6
CONTINUOUS
  0
ARC
  8
YELLOW
 10
4.556171
 20
1.794552
 30
0.000000
 40
0.042691
 50
-71.395633
 51
-1.210962
  6
CONTINUOUS
  0
ARC
  8
YELLOW
 10
4.674575
 20
1.817458
 30
0.000000
 40
0.079377
 50
-162.546026
 51
-88.415227
  6
CONTINUOUS
  0
ARC
  8
YELLOW
 10
4.682379
 20
1.525031
 30
0.000000
 40
0.213154
 50
87.329867
 51
91.507986
  6
CONTINUOUS
  0
ARC
  8
YELLOW
 10
4.697458
 20
1.851588
 30
0.000000
 40
0.113750
 50
-92.594476
 51
-38.796429
  6
CONTINUOUS
  0
ARC
  8
YELLOW
 10
4.868664
 20
1.850577
 30
0.000000
 40
0.108403
 50
-139.598578
 51
-90.466675
  6
CONTINUOUS
  0
ARC
  8
YELLOW
 10
4.860098
 20
1.832251
 30
0.000000
 40
0.090401
 50
-85.124682
 51
-38.557896
  6
CONTINUOUS
  0
ARC
  8
YELLOW
 10
4.858549
 20
1.830251
 30
0.000000
 40
0.090401
 50
-36.954286
 51
20.529597
  6
CONTINUOUS
  0
ARC
  8
YELLOW
 10
4.848297
 20
1.813975
 30
0.000000
 40
0.106349
 50
26.817292
 51
63.259512
  6
CONTINUOUS
  0
ARC
  8
YELLOW
 10
4.991637
 20
2.093245
 30
0.000000
 40
0.207564
 50
-171.960799
 51
-117.389670
  6
CONTINUOUS
  0
LINE
  8
YELLOW
 10
4.786113
 20
2.064217
 30
0.000000
 11
4.728242
 21
2.368480
 31
0.000000
  6
CONTINUOUS
  0
ARC
  8
YELLOW
 10
4.755125
 20
6.949387
 30
0.000000
 40
0.319556
 50
156.296070
 51
215.243979
  6
CONTINUOUS
  0
LINE
  8
YELLOW
 10
4.462528
 20
7.077852
 30
0.000000
 11
4.509336
 21
7.180166
 31
0.000000
  6
CONTINUOUS
  0
ARC
  8
YELLOW
 10
4.595179
 20
2.433868
 30
0.000000
 40
0.152118
 50
73.340756
 51
159.773839
  6
CONTINUOUS
  0
ARC
  8
YELLOW
 10
4.859249
 20
2.496656
 30
0.000000
 40
0.235548
 50
159.382009
 51
200.617992
  6
CONTINUOUS
  0
ARC
  8
YELLOW
 10
4.512786
 20
1.865112
 30
0.000000
 40
0.087520
 50
59.923745
 51
104.697209
  6
CONTINUOUS
  0
ARC
  8
YELLOW
 10
4.525089
 20
1.886290
 30
0.000000
 40
0.063028
 50
28.264880
 51
59.954042
  6
CONTINUOUS
  0
ARC
  8
YELLOW
 10
4.450961
 20
1.846553
 30
0.000000
 40
0.147135
 50
-8.393730
 51
28.224090
  6
CONTINUOUS
  0
ARC
  8
YELLOW
 10
5.549112
 20
8.138794
 30
0.000000
 40
0.454447
 50
164.212370
 51
173.457871
  6
CONTINUOUS
  0
ARC
  8
YELLOW
 10
5.481662
 20
8.136818
 30
0.000000
 40
0.387781
 50
172.032228
 51
195.171135
  6
CONTINUOUS
  0
ARC
  8
YELLOW
 10
5.688655
 20
8.208448
 30
0.000000
 40
0.606490
 50
-163.415213
 51
-141.655518
  6
CONTINUOUS
  0
ARC
  8
YELLOW
 10
4.133143
 20
6.944629
 30
0.000000
 40
1.397794
 50
27.047621
 51
39.417877
  6
CONTINUOUS
  0
ARC
  8
YELLOW
 10
4.931764
 20
7.363429
 30
0.000000
 40
0.496175
 50
10.967232
 51
25.911514
  6
CONTINUOUS
  0
ARC
  8
YELLOW
 10
4.982911
 20
7.365655
 30
0.000000
 40
0.445603
 50
-14.890314
 51
11.937489
  6
CONTINUOUS
  0
ARC
  8
YELLOW
 10
5.101196
 20
7.338902
 30
0.000000
 40
0.324447
 50
-43.320413
 51
-15.692247
  6
CONTINUOUS
  0
LINE
  8
YELLOW
 10
5.337240
 20
7.116306
 30
0.000000
 11
5.312371
 21
7.093233
 31
0.000000
  6
CONTINUOUS
  0
ARC
  8
YELLOW
 10
5.197728
 20
7.233770
 30
0.000000
 40
0.181366
 50
-89.381238
 51
-50.794171
  6
CONTINUOUS
  0
ARC
  8
YELLOW
 10
5.208336
 20
7.188098
 30
0.000000
 40
0.135958
 50
-144.518718
 51
-93.647564
  6
CONTINUOUS
  0
LINE
  8
YELLOW
 10
5.097625
 20
7.109183
 30
0.000000
 11
5.073670
 21
7.136700
 31
0.000000
  6
CONTINUOUS
  0
ARC
  8
YELLOW
 10
4.723939
 20
6.736012
 30
0.000000
 40
0.531848
 50
48.884643
 51
75.598958
  6
CONTINUOUS
  0
ARC
  8
YELLOW
 10
5.019852
 20
7.813979
 30
0.000000
 40
0.586136
 50
-126.448083
 51
-106.211420
  6
CONTINUOUS
  0
LINE
  8
YELLOW
 10
4.699149
 20
1.979933
 30
0.000000
 11
4.773694
 21
1.894766
 31
0.000000
  6
CONTINUOUS
  0
ARC
  8
YELLOW
 10
4.680993
 20
1.823122
 30
0.000000
 40
0.117159
 50
-5.310887
 51
37.698418
  6
CONTINUOUS
  0
ARC
  8
YELLOW
 10
5.897792
 20
6.074683
 30
0.000000
 40
0.872133
 50
-161.628760
 51
-146.624256
  6
CONTINUOUS
  0
ARC
  8
YELLOW
 10
4.907710
 20
5.738399
 30
0.000000
 40
0.173622
 50
20.714290
 51
64.904558
  6
CONTINUOUS
  0
LINE
  8
YELLOW
 10
4.981348
 20
5.895631
 30
0.000000
 11
4.897063
 21
5.926678
 31
0.000000
  6
CONTINUOUS
  0
ARC
  8
YELLOW
 10
4.924838
 20
6.009017
 30
0.000000
 40
0.086897
 50
-157.291746
 51
-108.640347
  6
CONTINUOUS
  0
ARC
  8
YELLOW
 10
4.981464
 20
6.837497
 30
0.000000
 40
0.175747
 50
11.729290
 51
106.158299
  6
CONTINUOUS
  0
ARC
  8
YELLOW
 10
5.208210
 20
8.147247
 30
0.000000
 40
0.252423
 50
147.027159
 51
200.392750
  6
CONTINUOUS
  0
ARC
  8
YELLOW
 10
5.901997
 20
8.440269
 30
0.000000
 40
1.005370
 50
-157.731684
 51
-142.430451
  6
CONTINUOUS
  0
LINE
  8
YELLOW
 10
5.105127
 20
7.827271
 30
0.000000
 11
5.171287
 21
7.723949
 31
0.000000
  6
CONTINUOUS
  0
ARC
  8
YELLOW
 10
4.852537
 20
7.518745
 30
0.000000
 40
0.379091
 50
0.449031
 51
32.772411
  6
CONTINUOUS
  0
ARC
  8
YELLOW
 10
9.591261
 20
1.976782
 30
0.000000
 40
5.386969
 50
145.716726
 51
148.085983
  6
CONTINUOUS
  0
ARC
  8
YELLOW
 10
4.680273
 20
5.325938
 30
0.000000
 40
0.557327
 50
-34.385879
 51
-8.403217
  6
CONTINUOUS
  0
ARC
  8
YELLOW
 10
5.848075
 20
7.825362
 30
0.000000
 40
0.807219
 50
147.440369
 51
158.214597
  6
CONTINUOUS
  0
ARC
  8
YELLOW
 10
5.243357
 20
5.335807
 30
0.000000
 40
0.176288
 50
-99.628727
 51
-57.141469
  6
CONTINUOUS
  0
LINE
  8
YELLOW
 10
5.339005
 20
5.187723
 30
0.000000
 11
5.400248
 21
5.229676
 31
0.000000
  6
CONTINUOUS
  0
ARC
  8
YELLOW
 10
5.606960
 20
4.996183
 30
0.000000
 40
0.311848
 50
106.012358
 51
131.518431
  6
CONTINUOUS
  0
ARC
  8
YELLOW
 10
5.228371
 20
7.853990
 30
0.000000
 40
0.168207
 50
56.118559
 51
92.524134
  6
CONTINUOUS
  0
LINE
  8
YELLOW
 10
5.322142
 20
7.993634
 30
0.000000
 11
5.455282
 21
7.895165
 31
0.000000
  6
CONTINUOUS
  0
ARC
  8
YELLOW
 10
5.526476
 20
7.998368
 30
0.000000
 40
0.125377
 50
-124.599566
 51
-52.629979
  6
CONTINUOUS
  0
LINE
  8
YELLOW
 10
5.339888
 20
6.429674
 30
0.000000
 11
5.340770
 21
6.288622
 31
0.000000
  6
CONTINUOUS
  0
ARC
  8
YELLOW
 10
4.296524
 20
6.300142
 30
0.000000
 40
1.044310
 50
-16.430722
 51
-0.632053
  6
CONTINUOUS
  0
ARC
  8
YELLOW
 10
4.779351
 20
6.176996
 30
0.000000
 40
0.546680
 50
-33.171135
 51
-18.365132
  6
CONTINUOUS
  0
LINE
  8
YELLOW
 10
5.236943
 20
5.877885
 30
0.000000
 11
5.283089
 21
5.903606
 31
0.000000
  6
CONTINUOUS
  0
ARC
  8
YELLOW
 10
5.352097
 20
5.895178
 30
0.000000
 40
0.069521
 50
173.037658
 51
219.153791
  6
CONTINUOUS
  0
LINE
  8
YELLOW
 10
5.298187
 20
5.851282
 30
0.000000
 11
5.333678
 21
5.814908
 31
0.000000
  6
CONTINUOUS
  0
ARC
  8
YELLOW
 10
5.296821
 20
5.765647
 30
0.000000
 40
0.061523
 50
-16.310052
 51
53.196234
  6
CONTINUOUS
  0
LINE
  8
YELLOW
 10
5.355868
 20
5.748370
 30
0.000000
 11
5.339888
 21
5.712878
 31
0.000000
  6
CONTINUOUS
  0
ARC
  8
YELLOW
 10
4.601132
 20
6.859990
 30
0.000000
 40
1.433623
 50
-57.549727
 51
-51.463184
  6
CONTINUOUS
  0
ARC
  8
YELLOW
 10
5.430539
 20
5.542571
 30
0.000000
 40
0.123321
 50
119.204337
 51
199.326709
  6
CONTINUOUS
  0
ARC
  8
YELLOW
 10
5.318600
 20
5.572021
 30
0.000000
 40
0.070404
 50
-93.609855
 51
-5.219481
  6
CONTINUOUS
  0
LINE
  8
YELLOW
 10
5.388712
 20
5.565617
 30
0.000000
 11
5.394228
 21
5.609713
 31
0.000000
  6
CONTINUOUS
  0
ARC
  8
YELLOW
 10
5.322902
 20
7.590002
 30
0.000000
 40
0.144190
 50
20.533735
 51
85.361954
  6
CONTINUOUS
  0
ARC
  8
YELLOW
 10
5.215814
 20
8.409970
 30
0.000000
 40
0.414393
 50
-60.937321
 51
-46.939563
  6
CONTINUOUS
  0
ARC
  8
YELLOW
 10
5.771092
 20
9.730107
 30
0.000000
 40
1.719190
 50
-101.882163
 51
-98.920206
  6
CONTINUOUS
  0
ARC
  8
YELLOW
 10
5.530259
 20
7.617787
 30
0.000000
 40
0.075834
 50
162.510204
 51
266.313579
  6
CONTINUOUS
  0
ARC
  8
YELLOW
 10
5.477856
 20
7.568524
 30
0.000000
 40
0.074759
 50
24.697215
 51
105.458234
  6
CONTINUOUS
  0
ARC
  8
YELLOW
 10
5.347456
 20
5.110783
 30
0.000000
 40
0.249580
 50
-62.649264
 51
-32.771261
  6
CONTINUOUS
  0
LINE
  8
YELLOW
 10
5.557313
 20
4.975688
 30
0.000000
 11
5.602922
 21
5.045946
 31
0.000000
  6
CONTINUOUS
  0
LINE
  8
YELLOW
 10
5.602922
 20
5.045946
 30
0.000000
 11
5.671573
 21
5.160931
 31
0.000000
  6
CONTINUOUS
  0
ARC
  8
YELLOW
 10
7.356718
 20
3.913592
 30
0.000000
 40
2.096562
 50
140.563574
 51
143.491274
  6
CONTINUOUS
  0
ARC
  8
YELLOW
 10
5.497016
 20
5.394312
 30
0.000000
 40
0.282853
 50
-31.773160
 51
-7.550865
  6
CONTINUOUS
  0
LINE
  8
YELLOW
 10
5.777417
 20
5.357143
 30
0.000000
 11
5.791096
 21
5.408300
 31
0.000000
  6
CONTINUOUS
  0
ARC
  8
YELLOW
 10
5.996848
 20
5.368514
 30
0.000000
 40
0.209563
 50
140.519625
 51
169.055795
  6
CONTINUOUS
  0
LINE
  8
YELLOW
 10
5.835981
 20
7.208565
 30
0.000000
 11
5.788953
 21
7.234285
 31
0.000000
  6
CONTINUOUS
  0
ARC
  8
YELLOW
 10
5.813928
 20
7.301946
 30
0.000000
 40
0.072123
 50
176.683027
 51
249.740363
  6
CONTINUOUS
  0
ARC
  8
YELLOW
 10
5.703514
 20
7.318150
 30
0.000000
 40
0.040251
 50
-106.297887
 51
-17.391319
  6
CONTINUOUS
  0
ARC
  8
YELLOW
 10
5.724365
 20
7.465694
 30
0.000000
 40
0.188932
 50
-112.428357
 51
-99.796626
  6
CONTINUOUS
  0
ARC
  8
YELLOW
 10
5.794589
 20
7.604531
 30
0.000000
 40
0.344267
 50
-138.457136
 51
-114.416161
  6
CONTINUOUS
  0
ARC
  8
YELLOW
 10
5.570686
 20
7.421538
 30
0.000000
 40
0.056515
 50
171.944593
 51
233.309588
  6
CONTINUOUS
  0
ARC
  8
YELLOW
 10
5.485037
 20
5.644332
 30
0.000000
 40
0.124304
 50
-54.946355
 51
25.482136
  6
CONTINUOUS
  0
ARC
  8
YELLOW
 10
3.296500
 20
4.695683
 30
0.000000
 40
2.328659
 50
-9.562172
 51
-5.802073
  6
CONTINUOUS
  0
LINE
  8
YELLOW
 10
5.628453
 20
8.121857
 30
0.000000
 11
5.690453
 21
8.089455
 31
0.000000
  6
CONTINUOUS
  0
ARC
  8
YELLOW
 10
5.575323
 20
8.174243
 30
0.000000
 40
0.142983
 50
-66.310173
 51
-36.370211
  6
CONTINUOUS
  0
ARC
  8
YELLOW
 10
5.899792
 20
6.058900
 30
0.000000
 40
0.199462
 50
137.929089
 51
166.901107
  6
CONTINUOUS
  0
LINE
  8
YELLOW
 10
5.751728
 20
6.192549
 30
0.000000
 11
5.773634
 21
6.228041
 31
0.000000
  6
CONTINUOUS
  0
ARC
  8
YELLOW
 10
5.718858
 20
6.259194
 30
0.000000
 40
0.063016
 50
-29.628180
 51
23.827005
  6
CONTINUOUS
  0
ARC
  8
YELLOW
 10
5.626461
 20
6.018592
 30
0.000000
 40
0.143944
 50
-19.295547
 51
24.930480
  6
CONTINUOUS
  0
LINE
  8
YELLOW
 10
5.762319
 20
5.971027
 30
0.000000
 11
5.752768
 21
5.943478
 31
0.000000
  6
CONTINUOUS
  0
ARC
  8
YELLOW
 10
5.813858
 20
5.928142
 30
0.000000
 40
0.062985
 50
165.907641
 51
181.934405
  6
CONTINUOUS
  0
ARC
  8
YELLOW
 10
5.995616
 20
5.934474
 30
0.000000
 40
0.244853
 50
-178.020404
 51
-162.326663
  6
CONTINUOUS
  0
LINE
  8
YELLOW
 10
5.762319
 20
5.860140
 30
0.000000
 11
5.774769
 21
5.822000
 31
0.000000
  6
CONTINUOUS
  0
ARC
  8
YELLOW
 10
5.604598
 20
5.761864
 30
0.000000
 40
0.180484
 50
-4.568896
 51
19.462790
  6
CONTINUOUS
  0
ARC
  8
YELLOW
 10
5.680476
 20
5.762699
 30
0.000000
 40
0.105139
 50
-54.235435
 51
-8.318915
  6
CONTINUOUS
  0
ARC
  8
YELLOW
 10
6.053642
 20
6.355602
 30
0.000000
 40
0.291647
 50
161.284034
 51
182.700836
  6
CONTINUOUS
  0
LINE
  8
YELLOW
 10
5.777417
 20
6.449185
 30
0.000000
 11
5.829772
 21
6.600008
 31
0.000000
  6
CONTINUOUS
  0
ARC
  8
YELLOW
 10
5.534640
 20
6.687956
 30
0.000000
 40
0.307957
 50
-16.593763
 51
2.943908
  6
CONTINUOUS
  0
ARC
  8
YELLOW
 10
5.616104
 20
6.681628
 30
0.000000
 40
0.227168
 50
5.594073
 51
19.852616
  6
CONTINUOUS
  0
ARC
  8
YELLOW
 10
6.122548
 20
2.778397
 30
0.000000
 40
0.335339
 50
156.636382
 51
184.107106
  6
CONTINUOUS
  0
ARC
  8
YELLOW
 10
5.933460
 20
2.858061
 30
0.000000
 40
0.130176
 50
111.947547
 51
155.820261
  6
CONTINUOUS
  0
ARC
  8
YELLOW
 10
5.854710
 20
3.018798
 30
0.000000
 40
0.050054
 50
-53.040657
 51
7.674614
  6
CONTINUOUS
  0
LINE
  8
YELLOW
 10
5.904316
 20
3.025483
 30
0.000000
 11
5.892780
 21
3.118089
 31
0.000000
  6
CONTINUOUS
  0
ARC
  8
YELLOW
 10
6.186227
 20
3.159757
 30
0.000000
 40
0.296391
 50
160.408372
 51
188.081709
  6
CONTINUOUS
  0
ARC
  8
YELLOW
 10
6.315231
 20
4.189875
 30
0.000000
 40
0.518709
 50
152.406272
 51
187.090596
  6
CONTINUOUS
  0
LINE
  8
YELLOW
 10
5.800489
 20
4.125846
 30
0.000000
 11
5.810166
 21
3.949208
 31
0.000000
  6
CONTINUOUS
  0
ARC
  8
YELLOW
 10
4.373995
 20
3.736173
 30
0.000000
 40
1.451886
 50
-8.883554
 51
8.437481
  6
CONTINUOUS
  0
ARC
  8
YELLOW
 10
6.242346
 20
2.438276
 30
0.000000
 40
0.444097
 50
-170.957756
 51
-156.494701
  6
CONTINUOUS
  0
ARC
  8
YELLOW
 10
6.032433
 20
2.355204
 30
0.000000
 40
0.218600
 50
-154.517607
 51
-111.019634
  6
CONTINUOUS
  0
ARC
  8
YELLOW
 10
6.073291
 20
2.166411
 30
0.000000
 40
0.120240
 50
-172.707983
 51
-153.633056
  6
CONTINUOUS
  0
ARC
  8
YELLOW
 10
6.067417
 20
2.159942
 30
0.000000
 40
0.112149
 50
-155.261500
 51
-117.710570
  6
CONTINUOUS
  0
ARC
  8
YELLOW
 10
6.172381
 20
2.396563
 30
0.000000
 40
0.370835
 50
-115.067005
 51
-94.673557
  6
CONTINUOUS
  0
LINE
  8
YELLOW
 10
6.142166
 20
2.026961
 30
0.000000
 11
6.245993
 21
2.018955
 31
0.000000
  6
CONTINUOUS
  0
ARC
  8
YELLOW
 10
6.251714
 20
2.070321
 30
0.000000
 40
0.051684
 50
-96.355115
 51
-13.782334
  6
CONTINUOUS
  0
ARC
  8
YELLOW
 10
6.412981
 20
2.305089
 30
0.000000
 40
0.270898
 50
-114.205449
 51
-99.076625
  6
CONTINUOUS
  0
ARC
  8
YELLOW
 10
6.388477
 20
2.133357
 30
0.000000
 40
0.097494
 50
-100.778396
 51
-44.436311
  6
CONTINUOUS
  0
ARC
  8
YELLOW
 10
6.401628
 20
2.118350
 30
0.000000
 40
0.077612
 50
-43.322301
 51
14.549955
  6
CONTINUOUS
  0
LINE
  8
YELLOW
 10
6.476751
 20
2.137848
 30
0.000000
 11
6.468745
 21
2.157359
 31
0.000000
  6
CONTINUOUS
  0
LINE
  8
YELLOW
 10
6.468745
 20
2.157359
 30
0.000000
 11
6.457209
 21
2.175987
 31
0.000000
  6
CONTINUOUS
  0
ARC
  8
YELLOW
 10
6.347488
 20
2.072182
 30
0.000000
 40
0.151044
 50
43.413291
 51
86.758297
  6
CONTINUOUS
  0
ARC
  8
YELLOW
 10
6.382341
 20
2.413676
 30
0.000000
 40
0.192499
 50
-141.881955
 51
-97.856181
  6
CONTINUOUS
  0
ARC
  8
YELLOW
 10
6.593173
 20
2.608051
 30
0.000000
 40
0.478896
 50
-149.982934
 51
-139.155448
  6
CONTINUOUS
  0
LINE
  8
YELLOW
 10
5.875917
 20
7.960821
 30
0.000000
 11
5.808464
 21
8.140895
 31
0.000000
  6
CONTINUOUS
  0
ARC
  8
YELLOW
 10
4.949346
 20
7.055985
 30
0.000000
 40
1.383877
 50
42.803685
 51
51.625030
  6
CONTINUOUS
  0
ARC
  8
YELLOW
 10
6.026900
 20
7.133182
 30
0.000000
 40
0.282530
 50
95.608996
 51
139.236697
  6
CONTINUOUS
  0
ARC
  8
YELLOW
 10
6.037060
 20
7.262902
 30
0.000000
 40
0.218189
 50
78.166084
 51
137.952800
  6
CONTINUOUS
  0
ARC
  8
YELLOW
 10
6.262751
 20
8.449782
 30
0.000000
 40
0.387371
 50
-175.493055
 51
-154.469620
  6
CONTINUOUS
  0
ARC
  8
YELLOW
 10
6.524162
 20
8.581947
 30
0.000000
 40
0.680250
 50
-153.914203
 51
-131.854769
  6
CONTINUOUS
  0
ARC
  8
YELLOW
 10
3.338302
 20
4.987607
 30
0.000000
 40
4.122780
 50
43.237205
 51
48.497569
  6
CONTINUOUS
  0
ARC
  8
YELLOW
 10
5.590588
 20
4.876833
 30
0.000000
 40
0.445704
 50
-49.877778
 51
-29.159229
  6
CONTINUOUS
  0
ARC
  8
YELLOW
 10
6.078578
 20
7.189757
 30
0.000000
 40
0.210468
 50
97.595563
 51
150.955943
  6
CONTINUOUS
  0
ARC
  8
YELLOW
 10
6.125693
 20
7.136609
 30
0.000000
 40
0.189408
 50
113.305069
 51
151.428876
  6
CONTINUOUS
  0
ARC
  8
YELLOW
 10
6.186350
 20
7.262330
 30
0.000000
 40
0.282345
 50
97.729400
 51
141.442834
  6
CONTINUOUS
  0
LINE
  8
YELLOW
 10
6.010350
 20
4.937581
 30
0.000000
 11
6.044864
 21
5.042700
 31
0.000000
  6
CONTINUOUS
  0
ARC
  8
YELLOW
 10
6.222367
 20
7.088231
 30
0.000000
 40
0.237900
 50
110.842602
 51
142.394602
  6
CONTINUOUS
  0
ARC
  8
YELLOW
 10
5.976679
 20
8.251124
 30
0.000000
 40
0.255974
 50
36.117645
 51
75.974046
  6
CONTINUOUS
  0
LINE
  8
YELLOW
 10
6.151780
 20
8.118169
 30
0.000000
 11
6.056085
 21
8.218088
 31
0.000000
  6
CONTINUOUS
  0
ARC
  8
YELLOW
 10
6.097042
 20
8.246513
 30
0.000000
 40
0.049855
 50
140.212471
 51
214.761656
  6
CONTINUOUS
  0
ARC
  8
YELLOW
 10
6.278630
 20
8.129991
 30
0.000000
 40
0.265302
 50
115.310485
 51
145.981442
  6
CONTINUOUS
  0
ARC
  8
YELLOW
 10
6.169250
 20
7.288375
 30
0.000000
 40
0.131822
 50
79.338325
 51
145.563810
  6
CONTINUOUS
  0
ARC
  8
YELLOW
 10
6.156182
 20
8.136585
 30
0.000000
 40
0.126406
 50
110.031238
 51
126.379714
  6
CONTINUOUS
  0
ARC
  8
YELLOW
 10
6.120276
 20
8.235027
 30
0.000000
 40
0.021620
 50
21.427858
 51
109.991253
  6
CONTINUOUS
  0
ARC
  8
YELLOW
 10
6.005227
 20
8.203976
 30
0.000000
 40
0.140673
 50
-12.241583
 51
16.073876
  6
CONTINUOUS
  0
ARC
  8
YELLOW
 10
6.228168
 20
7.220982
 30
0.000000
 40
0.069236
 50
92.125874
 51
166.680202
  6
CONTINUOUS
  0
ARC
  8
YELLOW
 10
6.153036
 20
2.076323
 30
0.000000
 40
0.154397
 50
14.083220
 51
78.146877
  6
CONTINUOUS
  0
ARC
  8
YELLOW
 10
6.400792
 20
7.658494
 30
0.000000
 40
0.209100
 50
-169.188228
 51
-143.506289
  6
CONTINUOUS
  0
LINE
  8
YELLOW
 10
6.195404
 20
7.619271
 30
0.000000
 11
6.192756
 21
7.661854
 31
0.000000
  6
CONTINUOUS
  0
ARC
  8
YELLOW
 10
6.300485
 20
7.657953
 30
0.000000
 40
0.107799
 50
135.343692
 51
177.925922
  6
CONTINUOUS
  0
ARC
  8
YELLOW
 10
6.306275
 20
7.643176
 30
0.000000
 40
0.122473
 50
89.962958
 51
132.328874
  6
CONTINUOUS
  0
LINE
  8
YELLOW
 10
6.306354
 20
7.765650
 30
0.000000
 11
6.373807
 21
7.771859
 31
0.000000
  6
CONTINUOUS
  0
ARC
  8
YELLOW
 10
6.432939
 20
7.493861
 30
0.000000
 40
0.284218
 50
85.458447
 51
102.008178
  6
CONTINUOUS
  0
ARC
  8
YELLOW
 10
6.357344
 20
7.573688
 30
0.000000
 40
0.110925
 50
-109.862857
 51
-78.688266
  6
CONTINUOUS
  0
ARC
  8
YELLOW
 10
6.377511
 20
7.634249
 30
0.000000
 40
0.174742
 50
-129.101796
 51
-109.334915
  6
CONTINUOUS
  0
LINE
  8
YELLOW
 10
6.267301
 20
7.498644
 30
0.000000
 11
6.248672
 21
7.515507
 31
0.000000
  6
CONTINUOUS
  0
LINE
  8
YELLOW
 10
6.248672
 20
7.515507
 30
0.000000
 11
6.232692
 21
7.534135
 31
0.000000
  6
CONTINUOUS
  0
ARC
  8
YELLOW
 10
6.323849
 20
7.584545
 30
0.000000
 40
0.104168
 50
128.295735
 51
208.942552
  6
CONTINUOUS
  0
ARC
  8
YELLOW
 10
6.335864
 20
7.569565
 30
0.000000
 40
0.123371
 50
91.350471
 51
128.363570
  6
CONTINUOUS
  0
LINE
  8
YELLOW
 10
6.332957
 20
7.692901
 30
0.000000
 11
6.355147
 21
7.692019
 31
0.000000
  6
CONTINUOUS
  0
LINE
  8
YELLOW
 10
6.355147
 20
7.692019
 30
0.000000
 11
6.379102
 21
7.687606
 31
0.000000
  6
CONTINUOUS
  0
ARC
  8
YELLOW
 10
6.422881
 20
7.855355
 30
0.000000
 40
0.173368
 50
-104.626694
 51
-83.327667
  6
CONTINUOUS
  0
LINE
  8
YELLOW
 10
6.443025
 20
7.683162
 30
0.000000
 11
6.469628
 21
7.687606
 31
0.000000
  6
CONTINUOUS
  0
ARC
  8
YELLOW
 10
6.623827
 20
7.141376
 30
0.000000
 40
0.567578
 50
101.156398
 51
105.764260
  6
CONTINUOUS
  0
LINE
  8
YELLOW
 10
6.395429
 20
7.314504
 30
0.000000
 11
6.401292
 21
7.382429
 31
0.000000
  6
CONTINUOUS
  0
LINE
  8
YELLOW
 10
6.401292
 20
7.382429
 30
0.000000
 11
6.328544
 21
7.465800
 31
0.000000
  6
CONTINUOUS
  0
LINE
  8
YELLOW
 10
6.490935
 20
7.480015
 30
0.000000
 11
6.401292
 21
7.382429
 31
0.000000
  6
CONTINUOUS
  0
LINE
  8
YELLOW
 10
6.401292
 20
7.382429
 30
0.000000
 11
6.427674
 21
7.271952
 31
0.000000
  6
CONTINUOUS
  0
ARC
  8
YELLOW
 10
6.487588
 20
7.614139
 30
0.000000
 40
0.135048
 50
-101.453927
 51
-71.757992
  6
CONTINUOUS
  0
ENDSEC
  0
EOF
