  0
SECTION
  2
ENTITIES
  0
POLYLINE
  5
3E8
  100
AcDbEntity
  8
Layer 1
  62
0
  100
AcDb2dPolyline
 66
     1
  10
0
  20
0
  30
0
  70
1
  0
VERTEX
  5
3E9
  100
AcDbEntity
  8
Layer 1
  62
0
  100
AcDb2dVertex
  10
254.75760
  20
288.26800
  30
0.00000
  42
0.1072
  70
32
  0
VERTEX
  5
3EA
  100
AcDbEntity
  8
Layer 1
  62
0
  100
AcDb2dVertex
  10
254.80060
  20
287.73710
  30
0.00000
  42
0.2734
  70
32
  0
VERTEX
  5
3EB
  100
AcDbEntity
  8
Layer 1
  62
0
  100
AcDb2dVertex
  10
255.10910
  20
287.53130
  30
0.00000
  42
-0.0059
  70
32
  0
VERTEX
  5
3EC
  100
AcDbEntity
  8
Layer 1
  62
0
  100
AcDb2dVertex
  10
264.29450
  20
287.27710
  30
0.00000
  42
-0.1614
  70
32
  0
VERTEX
  5
3ED
  100
AcDbEntity
  8
Layer 1
  62
0
  100
AcDb2dVertex
  10
264.46620
  20
287.21600
  30
0.00000
  42
-0.1873
  70
32
  0
VERTEX
  5
3EE
  100
AcDbEntity
  8
Layer 1
  62
0
  100
AcDb2dVertex
  10
264.53030
  20
287.05050
  30
0.00000
  70
32
  0
VERTEX
  5
3EF
  100
AcDbEntity
  8
Layer 1
  62
0
  100
AcDb2dVertex
  10
264.50340
  20
284.20450
  30
0.00000
  70
32
  0
VERTEX
  5
3F0
  100
AcDbEntity
  8
Layer 1
  62
0
  100
AcDb2dVertex
  10
264.47660
  20
282.94230
  30
0.00000
  42
-0.0514
  70
32
  0
VERTEX
  5
3F1
  100
AcDbEntity
  8
Layer 1
  62
0
  100
AcDb2dVertex
  10
264.44660
  20
282.39960
  30
0.00000
  42
-0.2731
  70
32
  0
VERTEX
  5
3F2
  100
AcDbEntity
  8
Layer 1
  62
0
  100
AcDb2dVertex
  10
264.31070
  20
282.23500
  30
0.00000
  70
32
  0
VERTEX
  5
3F3
  100
AcDbEntity
  8
Layer 1
  62
0
  100
AcDb2dVertex
  10
263.97680
  20
282.19700
  30
0.00000
  70
32
  0
VERTEX
  5
3F4
  100
AcDbEntity
  8
Layer 1
  62
0
  100
AcDb2dVertex
  10
248.69280
  20
282.56620
  30
0.00000
  42
-0.1067
  70
32
  0
VERTEX
  5
3F5
  100
AcDbEntity
  8
Layer 1
  62
0
  100
AcDb2dVertex
  10
248.27870
  20
282.61550
  30
0.00000
  42
-0.2623
  70
32
  0
VERTEX
  5
3F6
  100
AcDbEntity
  8
Layer 1
  62
0
  100
AcDb2dVertex
  10
248.16110
  20
282.84660
  30
0.00000
  70
32
  0
VERTEX
  5
3F7
  100
AcDbEntity
  8
Layer 1
  62
0
  100
AcDb2dVertex
  10
248.86650
  20
312.32120
  30
0.00000
  42
-0.0453
  70
32
  0
VERTEX
  5
3F8
  100
AcDbEntity
  8
Layer 1
  62
0
  100
AcDb2dVertex
  10
248.96640
  20
313.59290
  30
0.00000
  42
-0.0701
  70
32
  0
VERTEX
  5
3F9
  100
AcDbEntity
  8
Layer 1
  62
0
  100
AcDb2dVertex
  10
249.02580
  20
313.71490
  30
0.00000
  42
-0.1063
  70
32
  0
VERTEX
  5
3FA
  100
AcDbEntity
  8
Layer 1
  62
0
  100
AcDb2dVertex
  10
249.09080
  20
313.77710
  30
0.00000
  42
-0.1266
  70
32
  0
VERTEX
  5
3FB
  100
AcDbEntity
  8
Layer 1
  62
0
  100
AcDb2dVertex
  10
249.35300
  20
313.83850
  30
0.00000
  42
0.0077
  70
32
  0
VERTEX
  5
3FC
  100
AcDbEntity
  8
Layer 1
  62
0
  100
AcDb2dVertex
  10
255.13320
  20
313.67940
  30
0.00000
  42
-0.1555
  70
32
  0
VERTEX
  5
3FD
  100
AcDbEntity
  8
Layer 1
  62
0
  100
AcDb2dVertex
  10
255.30260
  20
313.62460
  30
0.00000
  42
-0.1950
  70
32
  0
VERTEX
  5
3FE
  100
AcDbEntity
  8
Layer 1
  62
0
  100
AcDb2dVertex
  10
255.36480
  20
313.46570
  30
0.00000
  70
32
  0
VERTEX
  5
3FF
  100
AcDbEntity
  8
Layer 1
  62
0
  100
AcDb2dVertex
  10
254.75760
  20
288.26800
  30
0.00000
  70
32
  0
SEQEND
  5
400
  100
AcDbEntity
  8
Layer 1
  62
0
  0
POLYLINE
  5
401
  100
AcDbEntity
  8
Layer 1
  62
0
  100
AcDb2dPolyline
 66
     1
  10
0
  20
0
  30
0
  70
1
  0
VERTEX
  5
402
  100
AcDbEntity
  8
Layer 1
  62
0
  100
AcDb2dVertex
  10
234.82050
  20
288.07070
  30
0.00000
  42
0.1105
  70
32
  0
VERTEX
  5
403
  100
AcDbEntity
  8
Layer 1
  62
0
  100
AcDb2dVertex
  10
235.80830
  20
292.08710
  30
0.00000
  42
0.0384
  70
32
  0
VERTEX
  5
404
  100
AcDbEntity
  8
Layer 1
  62
0
  100
AcDb2dVertex
  10
235.45830
  20
304.86450
  30
0.00000
  42
0.1500
  70
32
  0
VERTEX
  5
405
  100
AcDbEntity
  8
Layer 1
  62
0
  100
AcDb2dVertex
  10
233.94210
  20
308.68110
  30
0.00000
  42
0.2748
  70
32
  0
VERTEX
  5
406
  100
AcDbEntity
  8
Layer 1
  62
0
  100
AcDb2dVertex
  10
230.32190
  20
309.40150
  30
0.00000
  42
0.2748
  70
32
  0
VERTEX
  5
407
  100
AcDbEntity
  8
Layer 1
  62
0
  100
AcDb2dVertex
  10
227.95910
  20
306.56540
  30
0.00000
  42
0.0578
  70
32
  0
VERTEX
  5
408
  100
AcDbEntity
  8
Layer 1
  62
0
  100
AcDb2dVertex
  10
227.47600
  20
297.41290
  30
0.00000
  42
0.0520
  70
32
  0
VERTEX
  5
409
  100
AcDbEntity
  8
Layer 1
  62
0
  100
AcDb2dVertex
  10
228.29230
  20
289.53640
  30
0.00000
  42
0.3048
  70
32
  0
VERTEX
  5
40A
  100
AcDbEntity
  8
Layer 1
  62
0
  100
AcDb2dVertex
  10
231.06390
  20
286.61040
  30
0.00000
  42
0.3048
  70
32
  0
VERTEX
  5
40B
  100
AcDbEntity
  8
Layer 1
  62
0
  100
AcDb2dVertex
  10
234.82050
  20
288.07070
  30
0.00000
  70
32
  0
SEQEND
  5
40C
  100
AcDbEntity
  8
Layer 1
  62
0
  0
POLYLINE
  5
40D
  100
AcDbEntity
  8
Layer 1
  62
0
  100
AcDb2dPolyline
 66
     1
  10
0
  20
0
  30
0
  70
1
  0
VERTEX
  5
40E
  100
AcDbEntity
  8
Layer 1
  62
0
  100
AcDb2dVertex
  10
242.38370
  20
300.60840
  30
0.00000
  42
-0.0525
  70
32
  0
VERTEX
  5
40F
  100
AcDbEntity
  8
Layer 1
  62
0
  100
AcDb2dVertex
  10
242.07420
  20
289.53900
  30
0.00000
  42
-0.2712
  70
32
  0
VERTEX
  5
410
  100
AcDbEntity
  8
Layer 1
  62
0
  100
AcDb2dVertex
  10
236.94830
  20
282.78720
  30
0.00000
  42
-0.1579
  70
32
  0
VERTEX
  5
411
  100
AcDbEntity
  8
Layer 1
  62
0
  100
AcDb2dVertex
  10
226.92510
  20
282.63850
  30
0.00000
  42
-0.2641
  70
32
  0
VERTEX
  5
412
  100
AcDbEntity
  8
Layer 1
  62
0
  100
AcDb2dVertex
  10
221.68540
  20
289.11080
  30
0.00000
  42
-0.0487
  70
32
  0
VERTEX
  5
413
  100
AcDbEntity
  8
Layer 1
  62
0
  100
AcDb2dVertex
  10
220.92530
  20
296.56090
  30
0.00000
  42
-0.0464
  70
32
  0
VERTEX
  5
414
  100
AcDbEntity
  8
Layer 1
  62
0
  100
AcDb2dVertex
  10
221.29600
  20
306.56500
  30
0.00000
  42
-0.2419
  70
32
  0
VERTEX
  5
415
  100
AcDbEntity
  8
Layer 1
  62
0
  100
AcDb2dVertex
  10
225.63700
  20
312.98150
  30
0.00000
  42
-0.1357
  70
32
  0
VERTEX
  5
416
  100
AcDbEntity
  8
Layer 1
  62
0
  100
AcDb2dVertex
  10
233.96920
  20
314.08730
  30
0.00000
  42
-0.2854
  70
32
  0
VERTEX
  5
417
  100
AcDbEntity
  8
Layer 1
  62
0
  100
AcDb2dVertex
  10
241.00090
  20
309.14460
  30
0.00000
  42
-0.0927
  70
32
  0
VERTEX
  5
418
  100
AcDbEntity
  8
Layer 1
  62
0
  100
AcDb2dVertex
  10
242.38370
  20
300.60840
  30
0.00000
  70
32
  0
SEQEND
  5
419
  100
AcDbEntity
  8
Layer 1
  62
0
  0
POLYLINE
  5
41A
  100
AcDbEntity
  8
Layer 1
  62
0
  100
AcDb2dPolyline
 66
     1
  10
0
  20
0
  30
0
  70
1
  0
VERTEX
  5
41B
  100
AcDbEntity
  8
Layer 1
  62
0
  100
AcDb2dVertex
  10
202.51580
  20
307.12380
  30
0.00000
  70
32
  0
VERTEX
  5
41C
  100
AcDbEntity
  8
Layer 1
  62
0
  100
AcDb2dVertex
  10
195.88650
  20
306.72010
  30
0.00000
  42
-0.1787
  70
32
  0
VERTEX
  5
41D
  100
AcDbEntity
  8
Layer 1
  62
0
  100
AcDb2dVertex
  10
195.65240
  20
306.81140
  30
0.00000
  42
-0.1545
  70
32
  0
VERTEX
  5
41E
  100
AcDbEntity
  8
Layer 1
  62
0
  100
AcDb2dVertex
  10
195.56590
  20
307.05280
  30
0.00000
  70
32
  0
VERTEX
  5
41F
  100
AcDbEntity
  8
Layer 1
  62
0
  100
AcDb2dVertex
  10
195.29810
  20
311.23240
  30
0.00000
  42
-0.1084
  70
32
  0
VERTEX
  5
420
  100
AcDbEntity
  8
Layer 1
  62
0
  100
AcDb2dVertex
  10
195.31320
  20
311.65100
  30
0.00000
  42
-0.2623
  70
32
  0
VERTEX
  5
421
  100
AcDbEntity
  8
Layer 1
  62
0
  100
AcDb2dVertex
  10
195.53880
  20
311.79040
  30
0.00000
  70
32
  0
VERTEX
  5
422
  100
AcDbEntity
  8
Layer 1
  62
0
  100
AcDb2dVertex
  10
216.00880
  20
313.22640
  30
0.00000
  42
-0.1872
  70
32
  0
VERTEX
  5
423
  100
AcDbEntity
  8
Layer 1
  62
0
  100
AcDb2dVertex
  10
216.22840
  20
313.13550
  30
0.00000
  42
-0.1448
  70
32
  0
VERTEX
  5
424
  100
AcDbEntity
  8
Layer 1
  62
0
  100
AcDb2dVertex
  10
216.30550
  20
312.90450
  30
0.00000
  42
0.0095
  70
32
  0
VERTEX
  5
425
  100
AcDbEntity
  8
Layer 1
  62
0
  100
AcDb2dVertex
  10
216.58120
  20
308.73160
  30
0.00000
  42
-0.0860
  70
32
  0
VERTEX
  5
426
  100
AcDbEntity
  8
Layer 1
  62
0
  100
AcDb2dVertex
  10
216.56630
  20
308.30700
  30
0.00000
  42
-0.2874
  70
32
  0
VERTEX
  5
427
  100
AcDbEntity
  8
Layer 1
  62
0
  100
AcDb2dVertex
  10
216.36030
  20
308.14700
  30
0.00000
  42
-0.0100
  70
32
  0
VERTEX
  5
428
  100
AcDbEntity
  8
Layer 1
  62
0
  100
AcDb2dVertex
  10
212.66540
  20
307.85490
  30
0.00000
  42
0.0206
  70
32
  0
VERTEX
  5
429
  100
AcDbEntity
  8
Layer 1
  62
0
  100
AcDb2dVertex
  10
209.59630
  20
307.61140
  30
0.00000
  42
0.3550
  70
32
  0
VERTEX
  5
42A
  100
AcDbEntity
  8
Layer 1
  62
0
  100
AcDb2dVertex
  10
209.36560
  20
307.29590
  30
0.00000
  70
32
  0
VERTEX
  5
42B
  100
AcDbEntity
  8
Layer 1
  62
0
  100
AcDb2dVertex
  10
211.07380
  20
282.50620
  30
0.00000
  70
32
  0
VERTEX
  5
42C
  100
AcDbEntity
  8
Layer 1
  62
0
  100
AcDb2dVertex
  10
211.12000
  20
281.77140
  30
0.00000
  42
-0.2680
  70
32
  0
VERTEX
  5
42D
  100
AcDbEntity
  8
Layer 1
  62
0
  100
AcDb2dVertex
  10
211.03860
  20
281.60760
  30
0.00000
  70
32
  0
VERTEX
  5
42E
  100
AcDbEntity
  8
Layer 1
  62
0
  100
AcDb2dVertex
  10
210.81850
  20
281.55050
  30
0.00000
  42
-0.0088
  70
32
  0
VERTEX
  5
42F
  100
AcDbEntity
  8
Layer 1
  62
0
  100
AcDb2dVertex
  10
204.91590
  20
281.13290
  30
0.00000
  42
-0.1875
  70
32
  0
VERTEX
  5
430
  100
AcDbEntity
  8
Layer 1
  62
0
  100
AcDb2dVertex
  10
204.75230
  20
281.19040
  30
0.00000
  42
-0.1601
  70
32
  0
VERTEX
  5
431
  100
AcDbEntity
  8
Layer 1
  62
0
  100
AcDb2dVertex
  10
204.69010
  20
281.35790
  30
0.00000
  70
32
  0
VERTEX
  5
432
  100
AcDbEntity
  8
Layer 1
  62
0
  100
AcDb2dVertex
  10
202.97410
  20
305.93290
  30
0.00000
  42
0.0474
  70
32
  0
VERTEX
  5
433
  100
AcDbEntity
  8
Layer 1
  62
0
  100
AcDb2dVertex
  10
202.88460
  20
306.87640
  30
0.00000
  42
0.1782
  70
32
  0
VERTEX
  5
434
  100
AcDbEntity
  8
Layer 1
  62
0
  100
AcDb2dVertex
  10
202.74870
  20
307.06180
  30
0.00000
  42
0.0725
  70
32
  0
VERTEX
  5
435
  100
AcDbEntity
  8
Layer 1
  62
0
  100
AcDb2dVertex
  10
202.51580
  20
307.12380
  30
0.00000
  70
32
  0
SEQEND
  5
436
  100
AcDbEntity
  8
Layer 1
  62
0
  0
POLYLINE
  5
437
  100
AcDbEntity
  8
Layer 1
  62
0
  100
AcDb2dPolyline
 66
     1
  10
0
  20
0
  30
0
  70
1
  0
VERTEX
  5
438
  100
AcDbEntity
  8
Layer 1
  62
0
  100
AcDb2dVertex
  10
283.38730
  20
311.02790
  30
0.00000
  42
-0.1602
  70
32
  0
VERTEX
  5
439
  100
AcDbEntity
  8
Layer 1
  62
0
  100
AcDb2dVertex
  10
291.27380
  20
312.03130
  30
0.00000
  42
-0.2154
  70
32
  0
VERTEX
  5
43A
  100
AcDbEntity
  8
Layer 1
  62
0
  100
AcDb2dVertex
  10
297.26830
  20
308.71300
  30
0.00000
  42
-0.1774
  70
32
  0
VERTEX
  5
43B
  100
AcDbEntity
  8
Layer 1
  62
0
  100
AcDb2dVertex
  10
298.43590
  20
301.32000
  30
0.00000
  42
-0.1564
  70
32
  0
VERTEX
  5
43C
  100
AcDbEntity
  8
Layer 1
  62
0
  100
AcDb2dVertex
  10
298.29720
  20
301.09970
  30
0.00000
  42
-0.1705
  70
32
  0
VERTEX
  5
43D
  100
AcDbEntity
  8
Layer 1
  62
0
  100
AcDb2dVertex
  10
298.05630
  20
301.06820
  30
0.00000
  70
32
  0
VERTEX
  5
43E
  100
AcDbEntity
  8
Layer 1
  62
0
  100
AcDb2dVertex
  10
292.78530
  20
301.55770
  30
0.00000
  42
-0.0856
  70
32
  0
VERTEX
  5
43F
  100
AcDbEntity
  8
Layer 1
  62
0
  100
AcDb2dVertex
  10
292.26660
  20
301.64100
  30
0.00000
  42
-0.2974
  70
32
  0
VERTEX
  5
440
  100
AcDbEntity
  8
Layer 1
  62
0
  100
AcDb2dVertex
  10
292.15020
  20
301.79670
  30
0.00000
  70
32
  0
VERTEX
  5
441
  100
AcDbEntity
  8
Layer 1
  62
0
  100
AcDb2dVertex
  10
292.16830
  20
302.11930
  30
0.00000
  42
0.0284
  70
32
  0
VERTEX
  5
442
  100
AcDbEntity
  8
Layer 1
  62
0
  100
AcDb2dVertex
  10
292.22270
  20
304.01660
  30
0.00000
  42
0.2181
  70
32
  0
VERTEX
  5
443
  100
AcDbEntity
  8
Layer 1
  62
0
  100
AcDb2dVertex
  10
291.04370
  20
307.15060
  30
0.00000
  42
0.4870
  70
32
  0
VERTEX
  5
444
  100
AcDbEntity
  8
Layer 1
  62
0
  100
AcDb2dVertex
  10
286.18150
  20
305.07670
  30
0.00000
  42
0.0605
  70
32
  0
VERTEX
  5
445
  100
AcDbEntity
  8
Layer 1
  62
0
  100
AcDb2dVertex
  10
284.75100
  20
297.20070
  30
0.00000
  42
0.0526
  70
32
  0
VERTEX
  5
446
  100
AcDbEntity
  8
Layer 1
  62
0
  100
AcDb2dVertex
  10
284.48880
  20
288.24900
  30
0.00000
  42
0.2292
  70
32
  0
VERTEX
  5
447
  100
AcDbEntity
  8
Layer 1
  62
0
  100
AcDb2dVertex
  10
286.17350
  20
285.09710
  30
0.00000
  42
0.4168
  70
32
  0
VERTEX
  5
448
  100
AcDbEntity
  8
Layer 1
  62
0
  100
AcDb2dVertex
  10
290.15300
  20
285.68790
  30
0.00000
  42
0.1036
  70
32
  0
VERTEX
  5
449
  100
AcDbEntity
  8
Layer 1
  62
0
  100
AcDb2dVertex
  10
291.40820
  20
290.32760
  30
0.00000
  42
-0.1697
  70
32
  0
VERTEX
  5
44A
  100
AcDbEntity
  8
Layer 1
  62
0
  100
AcDb2dVertex
  10
291.51030
  20
290.55620
  30
0.00000
  42
-0.1785
  70
32
  0
VERTEX
  5
44B
  100
AcDbEntity
  8
Layer 1
  62
0
  100
AcDb2dVertex
  10
291.74740
  20
290.61310
  30
0.00000
  70
32
  0
VERTEX
  5
44C
  100
AcDbEntity
  8
Layer 1
  62
0
  100
AcDb2dVertex
  10
297.52710
  20
290.05810
  30
0.00000
  42
-0.1612
  70
32
  0
VERTEX
  5
44D
  100
AcDbEntity
  8
Layer 1
  62
0
  100
AcDb2dVertex
  10
297.69390
  20
289.98830
  30
0.00000
  42
-0.1820
  70
32
  0
VERTEX
  5
44E
  100
AcDbEntity
  8
Layer 1
  62
0
  100
AcDb2dVertex
  10
297.74890
  20
289.82020
  30
0.00000
  42
-0.1313
  70
32
  0
VERTEX
  5
44F
  100
AcDbEntity
  8
Layer 1
  62
0
  100
AcDb2dVertex
  10
295.48580
  20
282.69240
  30
0.00000
  42
-0.1160
  70
32
  0
VERTEX
  5
450
  100
AcDbEntity
  8
Layer 1
  62
0
  100
AcDb2dVertex
  10
293.21140
  20
280.77710
  30
0.00000
  42
-0.1569
  70
32
  0
VERTEX
  5
451
  100
AcDbEntity
  8
Layer 1
  62
0
  100
AcDb2dVertex
  10
285.94020
  20
280.16080
  30
0.00000
  42
-0.2141
  70
32
  0
VERTEX
  5
452
  100
AcDbEntity
  8
Layer 1
  62
0
  100
AcDb2dVertex
  10
279.33390
  20
284.00060
  30
0.00000
  42
-0.1398
  70
32
  0
VERTEX
  5
453
  100
AcDbEntity
  8
Layer 1
  62
0
  100
AcDb2dVertex
  10
277.76930
  20
291.23480
  30
0.00000
  42
-0.0412
  70
32
  0
VERTEX
  5
454
  100
AcDbEntity
  8
Layer 1
  62
0
  100
AcDb2dVertex
  10
279.20600
  20
304.64850
  30
0.00000
  42
-0.2081
  70
32
  0
VERTEX
  5
455
  100
AcDbEntity
  8
Layer 1
  62
0
  100
AcDb2dVertex
  10
283.38730
  20
311.02790
  30
0.00000
  70
32
  0
SEQEND
  5
456
  100
AcDbEntity
  8
Layer 1
  62
0
  0
POLYLINE
  5
457
  100
AcDbEntity
  8
Layer 1
  62
0
  100
AcDb2dPolyline
 66
     1
  10
0
  20
0
  30
0
  70
1
  0
VERTEX
  5
458
  100
AcDbEntity
  8
Layer 1
  62
0
  100
AcDb2dVertex
  10
194.02010
  20
280.17700
  30
0.00000
  42
-0.0064
  70
32
  0
VERTEX
  5
459
  100
AcDbEntity
  8
Layer 1
  62
0
  100
AcDb2dVertex
  10
188.08550
  20
279.59950
  30
0.00000
  42
-0.2287
  70
32
  0
VERTEX
  5
45A
  100
AcDbEntity
  8
Layer 1
  62
0
  100
AcDb2dVertex
  10
187.91930
  20
279.67110
  30
0.00000
  70
32
  0
VERTEX
  5
45B
  100
AcDbEntity
  8
Layer 1
  62
0
  100
AcDb2dVertex
  10
187.88220
  20
279.76180
  30
0.00000
  42
-0.0411
  70
32
  0
VERTEX
  5
45C
  100
AcDbEntity
  8
Layer 1
  62
0
  100
AcDb2dVertex
  10
187.80870
  20
280.18810
  30
0.00000
  70
32
  0
VERTEX
  5
45D
  100
AcDbEntity
  8
Layer 1
  62
0
  100
AcDb2dVertex
  10
184.71780
  20
310.35020
  30
0.00000
  42
-0.1830
  70
32
  0
VERTEX
  5
45E
  100
AcDbEntity
  8
Layer 1
  62
0
  100
AcDb2dVertex
  10
184.78440
  20
310.59610
  30
0.00000
  42
-0.1687
  70
32
  0
VERTEX
  5
45F
  100
AcDbEntity
  8
Layer 1
  62
0
  100
AcDb2dVertex
  10
185.01960
  20
310.69070
  30
0.00000
  70
32
  0
VERTEX
  5
460
  100
AcDbEntity
  8
Layer 1
  62
0
  100
AcDb2dVertex
  10
190.86500
  20
311.28990
  30
0.00000
  42
-0.1920
  70
32
  0
VERTEX
  5
461
  100
AcDbEntity
  8
Layer 1
  62
0
  100
AcDb2dVertex
  10
191.09340
  20
311.21430
  30
0.00000
  42
-0.1513
  70
32
  0
VERTEX
  5
462
  100
AcDbEntity
  8
Layer 1
  62
0
  100
AcDb2dVertex
  10
191.17790
  20
310.98720
  30
0.00000
  70
32
  0
VERTEX
  5
463
  100
AcDbEntity
  8
Layer 1
  62
0
  100
AcDb2dVertex
  10
194.20630
  20
281.22810
  30
0.00000
  70
32
  0
VERTEX
  5
464
  100
AcDbEntity
  8
Layer 1
  62
0
  100
AcDb2dVertex
  10
194.25210
  20
280.48910
  30
0.00000
  42
-0.3561
  70
32
  0
VERTEX
  5
465
  100
AcDbEntity
  8
Layer 1
  62
0
  100
AcDb2dVertex
  10
194.02010
  20
280.17700
  30
0.00000
  70
32
  0
SEQEND
  5
466
  100
AcDbEntity
  8
Layer 1
  62
0
  0
POLYLINE
  5
467
  100
AcDbEntity
  8
Layer 1
  62
0
  100
AcDb2dPolyline
 66
     1
  10
0
  20
0
  30
0
  70
1
  0
VERTEX
  5
468
  100
AcDbEntity
  8
Layer 1
  62
0
  100
AcDb2dVertex
  10
301.08990
  20
279.22520
  30
0.00000
  70
32
  0
VERTEX
  5
469
  100
AcDbEntity
  8
Layer 1
  62
0
  100
AcDb2dVertex
  10
305.06400
  20
309.71050
  30
0.00000
  42
-0.1679
  70
32
  0
VERTEX
  5
46A
  100
AcDbEntity
  8
Layer 1
  62
0
  100
AcDb2dVertex
  10
305.15940
  20
309.93480
  30
0.00000
  42
-0.1916
  70
32
  0
VERTEX
  5
46B
  100
AcDbEntity
  8
Layer 1
  62
0
  100
AcDb2dVertex
  10
305.39420
  20
309.98930
  30
0.00000
  70
32
  0
VERTEX
  5
46C
  100
AcDbEntity
  8
Layer 1
  62
0
  100
AcDb2dVertex
  10
310.85520
  20
309.26730
  30
0.00000
  42
-0.0705
  70
32
  0
VERTEX
  5
46D
  100
AcDbEntity
  8
Layer 1
  62
0
  100
AcDb2dVertex
  10
311.37180
  20
309.16470
  30
0.00000
  42
-0.3021
  70
32
  0
VERTEX
  5
46E
  100
AcDbEntity
  8
Layer 1
  62
0
  100
AcDb2dVertex
  10
311.48680
  20
309.00320
  30
0.00000
  70
32
  0
VERTEX
  5
46F
  100
AcDbEntity
  8
Layer 1
  62
0
  100
AcDb2dVertex
  10
311.45660
  20
308.68040
  30
0.00000
  70
32
  0
VERTEX
  5
470
  100
AcDbEntity
  8
Layer 1
  62
0
  100
AcDb2dVertex
  10
308.44910
  20
285.69850
  30
0.00000
  70
32
  0
VERTEX
  5
471
  100
AcDbEntity
  8
Layer 1
  62
0
  100
AcDb2dVertex
  10
307.55800
  20
278.89470
  30
0.00000
  42
-0.0665
  70
32
  0
VERTEX
  5
472
  100
AcDbEntity
  8
Layer 1
  62
0
  100
AcDb2dVertex
  10
307.48260
  20
278.37300
  30
0.00000
  42
-0.3314
  70
32
  0
VERTEX
  5
473
  100
AcDbEntity
  8
Layer 1
  62
0
  100
AcDb2dVertex
  10
307.19370
  20
278.21170
  30
0.00000
  70
32
  0
VERTEX
  5
474
  100
AcDbEntity
  8
Layer 1
  62
0
  100
AcDb2dVertex
  10
303.83830
  20
278.64000
  30
0.00000
  42
-0.0283
  70
32
  0
VERTEX
  5
475
  100
AcDbEntity
  8
Layer 1
  62
0
  100
AcDb2dVertex
  10
301.20860
  20
279.05000
  30
0.00000
  42
-0.2821
  70
32
  0
VERTEX
  5
476
  100
AcDbEntity
  8
Layer 1
  62
0
  100
AcDb2dVertex
  10
301.08990
  20
279.22520
  30
0.00000
  70
32
  0
SEQEND
  5
477
  100
AcDbEntity
  8
Layer 1
  62
0
  0
POLYLINE
  5
478
  100
AcDbEntity
  8
Layer 1
  62
0
  100
AcDb2dPolyline
 66
     1
  10
0
  20
0
  30
0
  70
1
  0
VERTEX
  5
479
  100
AcDbEntity
  8
Layer 1
  62
0
  100
AcDb2dVertex
  10
172.96740
  20
303.30850
  30
0.00000
  42
0.2479
  70
32
  0
VERTEX
  5
47A
  100
AcDbEntity
  8
Layer 1
  62
0
  100
AcDb2dVertex
  10
169.19670
  20
303.97550
  30
0.00000
  42
0.0130
  70
32
  0
VERTEX
  5
47B
  100
AcDbEntity
  8
Layer 1
  62
0
  100
AcDb2dVertex
  10
167.13110
  20
303.68150
  30
0.00000
  42
0.2851
  70
32
  0
VERTEX
  5
47C
  100
AcDbEntity
  8
Layer 1
  62
0
  100
AcDb2dVertex
  10
166.86140
  20
303.46120
  30
0.00000
  42
0.0935
  70
32
  0
VERTEX
  5
47D
  100
AcDbEntity
  8
Layer 1
  62
0
  100
AcDb2dVertex
  10
166.89690
  20
302.93970
  30
0.00000
  42
0.0062
  70
32
  0
VERTEX
  5
47E
  100
AcDbEntity
  8
Layer 1
  62
0
  100
AcDb2dVertex
  10
167.99980
  20
294.98930
  30
0.00000
  42
0.2554
  70
32
  0
VERTEX
  5
47F
  100
AcDbEntity
  8
Layer 1
  62
0
  100
AcDb2dVertex
  10
168.16560
  20
294.76950
  30
0.00000
  42
0.1282
  70
32
  0
VERTEX
  5
480
  100
AcDbEntity
  8
Layer 1
  62
0
  100
AcDb2dVertex
  10
168.59040
  20
294.78080
  30
0.00000
  42
0.0261
  70
32
  0
VERTEX
  5
481
  100
AcDbEntity
  8
Layer 1
  62
0
  100
AcDb2dVertex
  10
172.19350
  20
295.38750
  30
0.00000
  42
0.2682
  70
32
  0
VERTEX
  5
482
  100
AcDbEntity
  8
Layer 1
  62
0
  100
AcDb2dVertex
  10
174.37730
  20
298.48340
  30
0.00000
  42
0.2000
  70
32
  0
VERTEX
  5
483
  100
AcDbEntity
  8
Layer 1
  62
0
  100
AcDb2dVertex
  10
172.96740
  20
303.30850
  30
0.00000
  70
32
  0
SEQEND
  5
484
  100
AcDbEntity
  8
Layer 1
  62
0
  0
POLYLINE
  5
485
  100
AcDbEntity
  8
Layer 1
  62
0
  100
AcDb2dPolyline
 66
     1
  10
0
  20
0
  30
0
  70
1
  0
VERTEX
  5
486
  100
AcDbEntity
  8
Layer 1
  62
0
  100
AcDb2dVertex
  10
178.97960
  20
306.35870
  30
0.00000
  42
-0.1463
  70
32
  0
VERTEX
  5
487
  100
AcDbEntity
  8
Layer 1
  62
0
  100
AcDb2dVertex
  10
181.00620
  20
298.47800
  30
0.00000
  42
-0.3445
  70
32
  0
VERTEX
  5
488
  100
AcDbEntity
  8
Layer 1
  62
0
  100
AcDb2dVertex
  10
175.80580
  20
291.20470
  30
0.00000
  42
-0.0335
  70
32
  0
VERTEX
  5
489
  100
AcDbEntity
  8
Layer 1
  62
0
  100
AcDb2dVertex
  10
169.43510
  20
290.10650
  30
0.00000
  42
0.0763
  70
32
  0
VERTEX
  5
48A
  100
AcDbEntity
  8
Layer 1
  62
0
  100
AcDb2dVertex
  10
168.89780
  20
290.00980
  30
0.00000
  42
0.1987
  70
32
  0
VERTEX
  5
48B
  100
AcDbEntity
  8
Layer 1
  62
0
  100
AcDb2dVertex
  10
168.73200
  20
289.85360
  30
0.00000
  70
32
  0
VERTEX
  5
48C
  100
AcDbEntity
  8
Layer 1
  62
0
  100
AcDb2dVertex
  10
168.71090
  20
289.73970
  30
0.00000
  42
0.0362
  70
32
  0
VERTEX
  5
48D
  100
AcDbEntity
  8
Layer 1
  62
0
  100
AcDb2dVertex
  10
168.80960
  20
288.89410
  30
0.00000
  70
32
  0
VERTEX
  5
48E
  100
AcDbEntity
  8
Layer 1
  62
0
  100
AcDb2dVertex
  10
170.19800
  20
278.66960
  30
0.00000
  42
-0.0090
  70
32
  0
VERTEX
  5
48F
  100
AcDbEntity
  8
Layer 1
  62
0
  100
AcDb2dVertex
  10
170.31410
  20
277.84080
  30
0.00000
  42
-0.1092
  70
32
  0
VERTEX
  5
490
  100
AcDbEntity
  8
Layer 1
  62
0
  100
AcDb2dVertex
  10
170.31380
  20
277.49700
  30
0.00000
  42
-0.2853
  70
32
  0
VERTEX
  5
491
  100
AcDbEntity
  8
Layer 1
  62
0
  100
AcDb2dVertex
  10
170.16050
  20
277.34080
  30
0.00000
  70
32
  0
VERTEX
  5
492
  100
AcDbEntity
  8
Layer 1
  62
0
  100
AcDb2dVertex
  10
164.74210
  20
276.58710
  30
0.00000
  42
-0.0699
  70
32
  0
VERTEX
  5
493
  100
AcDbEntity
  8
Layer 1
  62
0
  100
AcDb2dVertex
  10
164.21880
  20
276.52170
  30
0.00000
  42
-0.2440
  70
32
  0
VERTEX
  5
494
  100
AcDbEntity
  8
Layer 1
  62
0
  100
AcDb2dVertex
  10
164.02500
  20
276.65510
  30
0.00000
  42
-0.0908
  70
32
  0
VERTEX
  5
495
  100
AcDbEntity
  8
Layer 1
  62
0
  100
AcDb2dVertex
  10
163.90310
  20
276.98850
  30
0.00000
  70
32
  0
VERTEX
  5
496
  100
AcDbEntity
  8
Layer 1
  62
0
  100
AcDb2dVertex
  10
159.77490
  20
307.16170
  30
0.00000
  42
-0.1846
  70
32
  0
VERTEX
  5
497
  100
AcDbEntity
  8
Layer 1
  62
0
  100
AcDb2dVertex
  10
159.84900
  20
307.40580
  30
0.00000
  42
-0.1549
  70
32
  0
VERTEX
  5
498
  100
AcDbEntity
  8
Layer 1
  62
0
  100
AcDb2dVertex
  10
160.09120
  20
307.50810
  30
0.00000
  70
32
  0
VERTEX
  5
499
  100
AcDbEntity
  8
Layer 1
  62
0
  100
AcDb2dVertex
  10
171.54610
  20
309.08390
  30
0.00000
  42
-0.2910
  70
32
  0
VERTEX
  5
49A
  100
AcDbEntity
  8
Layer 1
  62
0
  100
AcDb2dVertex
  10
178.97960
  20
306.35870
  30
0.00000
  70
32
  0
SEQEND
  5
49B
  100
AcDbEntity
  8
Layer 1
  62
0
  0
POLYLINE
  5
49C
  100
AcDbEntity
  8
Layer 1
  62
0
  100
AcDb2dPolyline
 66
     1
  10
0
  20
0
  30
0
  70
1
  0
VERTEX
  5
49D
  100
AcDbEntity
  8
Layer 1
  62
0
  100
AcDb2dVertex
  10
322.04750
  20
301.85170
  30
0.00000
  42
0.1380
  70
32
  0
VERTEX
  5
49E
  100
AcDbEntity
  8
Layer 1
  62
0
  100
AcDb2dVertex
  10
322.05030
  20
302.28310
  30
0.00000
  42
0.2408
  70
32
  0
VERTEX
  5
49F
  100
AcDbEntity
  8
Layer 1
  62
0
  100
AcDb2dVertex
  10
321.81830
  20
302.44590
  30
0.00000
  70
32
  0
VERTEX
  5
4A0
  100
AcDbEntity
  8
Layer 1
  62
0
  100
AcDb2dVertex
  10
315.78680
  20
303.48740
  30
0.00000
  42
-0.0512
  70
32
  0
VERTEX
  5
4A1
  100
AcDbEntity
  8
Layer 1
  62
0
  100
AcDb2dVertex
  10
315.26340
  20
303.57900
  30
0.00000
  42
-0.3525
  70
32
  0
VERTEX
  5
4A2
  100
AcDbEntity
  8
Layer 1
  62
0
  100
AcDb2dVertex
  10
315.02920
  20
303.93010
  30
0.00000
  42
-0.0092
  70
32
  0
VERTEX
  5
4A3
  100
AcDbEntity
  8
Layer 1
  62
0
  100
AcDb2dVertex
  10
315.65960
  20
307.82850
  30
0.00000
  42
-0.0451
  70
32
  0
VERTEX
  5
4A4
  100
AcDbEntity
  8
Layer 1
  62
0
  100
AcDb2dVertex
  10
315.75480
  20
308.36680
  30
0.00000
  42
-0.3613
  70
32
  0
VERTEX
  5
4A5
  100
AcDbEntity
  8
Layer 1
  62
0
  100
AcDb2dVertex
  10
316.11020
  20
308.60910
  30
0.00000
  70
32
  0
VERTEX
  5
4A6
  100
AcDbEntity
  8
Layer 1
  62
0
  100
AcDb2dVertex
  10
334.30170
  20
305.56220
  30
0.00000
  42
-0.0249
  70
32
  0
VERTEX
  5
4A7
  100
AcDbEntity
  8
Layer 1
  62
0
  100
AcDb2dVertex
  10
336.40200
  20
305.16340
  30
0.00000
  42
-0.3202
  70
32
  0
VERTEX
  5
4A8
  100
AcDbEntity
  8
Layer 1
  62
0
  100
AcDb2dVertex
  10
336.52750
  20
304.94590
  30
0.00000
  70
32
  0
VERTEX
  5
4A9
  100
AcDbEntity
  8
Layer 1
  62
0
  100
AcDb2dVertex
  10
335.82680
  20
300.63950
  30
0.00000
  42
-0.1215
  70
32
  0
VERTEX
  5
4AA
  100
AcDbEntity
  8
Layer 1
  62
0
  100
AcDb2dVertex
  10
335.69800
  20
300.23050
  30
0.00000
  42
-0.2766
  70
32
  0
VERTEX
  5
4AB
  100
AcDbEntity
  8
Layer 1
  62
0
  100
AcDb2dVertex
  10
335.45360
  20
300.14720
  30
0.00000
  70
32
  0
VERTEX
  5
4AC
  100
AcDbEntity
  8
Layer 1
  62
0
  100
AcDb2dVertex
  10
328.88780
  20
301.25800
  30
0.00000
  42
0.1431
  70
32
  0
VERTEX
  5
4AD
  100
AcDbEntity
  8
Layer 1
  62
0
  100
AcDb2dVertex
  10
328.68560
  20
301.24110
  30
0.00000
  42
0.2091
  70
32
  0
VERTEX
  5
4AE
  100
AcDbEntity
  8
Layer 1
  62
0
  100
AcDb2dVertex
  10
328.48730
  20
300.96850
  30
0.00000
  70
32
  0
VERTEX
  5
4AF
  100
AcDbEntity
  8
Layer 1
  62
0
  100
AcDb2dVertex
  10
324.55710
  20
277.81890
  30
0.00000
  42
-0.0244
  70
32
  0
VERTEX
  5
4B0
  100
AcDbEntity
  8
Layer 1
  62
0
  100
AcDb2dVertex
  10
324.15960
  20
275.71960
  30
0.00000
  42
-0.3194
  70
32
  0
VERTEX
  5
4B1
  100
AcDbEntity
  8
Layer 1
  62
0
  100
AcDb2dVertex
  10
323.94380
  20
275.59820
  30
0.00000
  70
32
  0
VERTEX
  5
4B2
  100
AcDbEntity
  8
Layer 1
  62
0
  100
AcDb2dVertex
  10
319.18920
  20
276.38450
  30
0.00000
  42
-0.0619
  70
32
  0
VERTEX
  5
4B3
  100
AcDbEntity
  8
Layer 1
  62
0
  100
AcDb2dVertex
  10
317.95270
  20
276.64060
  30
0.00000
  42
-0.2929
  70
32
  0
VERTEX
  5
4B4
  100
AcDbEntity
  8
Layer 1
  62
0
  100
AcDb2dVertex
  10
317.83000
  20
276.88300
  30
0.00000
  70
32
  0
VERTEX
  5
4B5
  100
AcDbEntity
  8
Layer 1
  62
0
  100
AcDb2dVertex
  10
322.04750
  20
301.85170
  30
0.00000
  70
32
  0
SEQEND
  5
4B6
  100
AcDbEntity
  8
Layer 1
  62
0
  0
POLYLINE
  5
4B7
  100
AcDbEntity
  8
Layer 1
  62
0
  100
AcDb2dPolyline
 66
     1
  10
0
  20
0
  30
0
  70
1
  0
VERTEX
  5
4B8
  100
AcDbEntity
  8
Layer 1
  62
0
  100
AcDb2dVertex
  10
148.08460
  20
285.59780
  30
0.00000
  42
0.1122
  70
32
  0
VERTEX
  5
4B9
  100
AcDbEntity
  8
Layer 1
  62
0
  100
AcDb2dVertex
  10
148.53540
  20
285.72920
  30
0.00000
  42
0.2760
  70
32
  0
VERTEX
  5
4BA
  100
AcDbEntity
  8
Layer 1
  62
0
  100
AcDb2dVertex
  10
148.70370
  20
286.03170
  30
0.00000
  42
0.0653
  70
32
  0
VERTEX
  5
4BB
  100
AcDbEntity
  8
Layer 1
  62
0
  100
AcDb2dVertex
  10
148.50580
  20
286.54960
  30
0.00000
  70
32
  0
VERTEX
  5
4BC
  100
AcDbEntity
  8
Layer 1
  62
0
  100
AcDb2dVertex
  10
148.22710
  20
287.18790
  30
0.00000
  70
32
  0
VERTEX
  5
4BD
  100
AcDbEntity
  8
Layer 1
  62
0
  100
AcDb2dVertex
  10
143.55930
  20
297.83590
  30
0.00000
  42
0.0516
  70
32
  0
VERTEX
  5
4BE
  100
AcDbEntity
  8
Layer 1
  62
0
  100
AcDb2dVertex
  10
143.28490
  20
298.34340
  30
0.00000
  42
0.3549
  70
32
  0
VERTEX
  5
4BF
  100
AcDbEntity
  8
Layer 1
  62
0
  100
AcDb2dVertex
  10
143.20480
  20
298.35730
  30
0.00000
  42
0.1970
  70
32
  0
VERTEX
  5
4C0
  100
AcDbEntity
  8
Layer 1
  62
0
  100
AcDb2dVertex
  10
143.12130
  20
298.25240
  30
0.00000
  42
0.0325
  70
32
  0
VERTEX
  5
4C1
  100
AcDbEntity
  8
Layer 1
  62
0
  100
AcDb2dVertex
  10
143.06610
  20
296.98640
  30
0.00000
  70
32
  0
VERTEX
  5
4C2
  100
AcDbEntity
  8
Layer 1
  62
0
  100
AcDb2dVertex
  10
142.65770
  20
284.97060
  30
0.00000
  42
0.1472
  70
32
  0
VERTEX
  5
4C3
  100
AcDbEntity
  8
Layer 1
  62
0
  100
AcDb2dVertex
  10
142.73350
  20
284.76330
  30
0.00000
  42
0.2273
  70
32
  0
VERTEX
  5
4C4
  100
AcDbEntity
  8
Layer 1
  62
0
  100
AcDb2dVertex
  10
142.91740
  20
284.68190
  30
0.00000
  42
0.0291
  70
32
  0
VERTEX
  5
4C5
  100
AcDbEntity
  8
Layer 1
  62
0
  100
AcDb2dVertex
  10
144.27980
  20
284.89990
  30
0.00000
  70
32
  0
VERTEX
  5
4C6
  100
AcDbEntity
  8
Layer 1
  62
0
  100
AcDb2dVertex
  10
148.08460
  20
285.59780
  30
0.00000
  70
32
  0
SEQEND
  5
4C7
  100
AcDbEntity
  8
Layer 1
  62
0
  0
POLYLINE
  5
4C8
  100
AcDbEntity
  8
Layer 1
  62
0
  100
AcDb2dPolyline
 66
     1
  10
0
  20
0
  30
0
  70
1
  0
VERTEX
  5
4C9
  100
AcDbEntity
  8
Layer 1
  62
0
  100
AcDb2dVertex
  10
138.22010
  20
302.93690
  30
0.00000
  42
-0.0687
  70
32
  0
VERTEX
  5
4CA
  100
AcDbEntity
  8
Layer 1
  62
0
  100
AcDb2dVertex
  10
138.28020
  20
303.47680
  30
0.00000
  42
-0.2333
  70
32
  0
VERTEX
  5
4CB
  100
AcDbEntity
  8
Layer 1
  62
0
  100
AcDb2dVertex
  10
138.57350
  20
303.74140
  30
0.00000
  42
-0.0078
  70
32
  0
VERTEX
  5
4CC
  100
AcDbEntity
  8
Layer 1
  62
0
  100
AcDb2dVertex
  10
146.49320
  20
305.19750
  30
0.00000
  42
-0.1540
  70
32
  0
VERTEX
  5
4CD
  100
AcDbEntity
  8
Layer 1
  62
0
  100
AcDb2dVertex
  10
146.71410
  20
305.13550
  30
0.00000
  70
32
  0
VERTEX
  5
4CE
  100
AcDbEntity
  8
Layer 1
  62
0
  100
AcDb2dVertex
  10
146.79770
  20
305.04710
  30
0.00000
  42
-0.0608
  70
32
  0
VERTEX
  5
4CF
  100
AcDbEntity
  8
Layer 1
  62
0
  100
AcDb2dVertex
  10
147.04180
  20
304.62290
  30
0.00000
  70
32
  0
VERTEX
  5
4D0
  100
AcDbEntity
  8
Layer 1
  62
0
  100
AcDb2dVertex
  10
160.51130
  20
276.57410
  30
0.00000
  42
-0.1023
  70
32
  0
VERTEX
  5
4D1
  100
AcDbEntity
  8
Layer 1
  62
0
  100
AcDb2dVertex
  10
160.64620
  20
276.19490
  30
0.00000
  42
-0.1802
  70
32
  0
VERTEX
  5
4D2
  100
AcDbEntity
  8
Layer 1
  62
0
  100
AcDb2dVertex
  10
160.62510
  20
276.11760
  30
0.00000
  42
-0.1371
  70
32
  0
VERTEX
  5
4D3
  100
AcDbEntity
  8
Layer 1
  62
0
  100
AcDb2dVertex
  10
160.54460
  20
276.05260
  30
0.00000
  42
-0.0097
  70
32
  0
VERTEX
  5
4D4
  100
AcDbEntity
  8
Layer 1
  62
0
  100
AcDb2dVertex
  10
154.33280
  20
274.87070
  30
0.00000
  42
-0.1716
  70
32
  0
VERTEX
  5
4D5
  100
AcDbEntity
  8
Layer 1
  62
0
  100
AcDb2dVertex
  10
154.09040
  20
274.89090
  30
0.00000
  42
-0.1259
  70
32
  0
VERTEX
  5
4D6
  100
AcDbEntity
  8
Layer 1
  62
0
  100
AcDb2dVertex
  10
153.92820
  20
275.09370
  30
0.00000
  70
32
  0
VERTEX
  5
4D7
  100
AcDbEntity
  8
Layer 1
  62
0
  100
AcDb2dVertex
  10
151.15150
  20
281.08310
  30
0.00000
  42
0.3380
  70
32
  0
VERTEX
  5
4D8
  100
AcDbEntity
  8
Layer 1
  62
0
  100
AcDb2dVertex
  10
150.75250
  20
281.26070
  30
0.00000
  70
32
  0
VERTEX
  5
4D9
  100
AcDbEntity
  8
Layer 1
  62
0
  100
AcDb2dVertex
  10
142.61550
  20
279.76100
  30
0.00000
  42
0.3425
  70
32
  0
VERTEX
  5
4DA
  100
AcDbEntity
  8
Layer 1
  62
0
  100
AcDb2dVertex
  10
142.22690
  20
279.37900
  30
0.00000
  70
32
  0
VERTEX
  5
4DB
  100
AcDbEntity
  8
Layer 1
  62
0
  100
AcDb2dVertex
  10
141.80770
  20
273.76690
  30
0.00000
  70
32
  0
VERTEX
  5
4DC
  100
AcDbEntity
  8
Layer 1
  62
0
  100
AcDb2dVertex
  10
141.76830
  20
272.95210
  30
0.00000
  42
-0.2183
  70
32
  0
VERTEX
  5
4DD
  100
AcDbEntity
  8
Layer 1
  62
0
  100
AcDb2dVertex
  10
141.61960
  20
272.58350
  30
0.00000
  70
32
  0
VERTEX
  5
4DE
  100
AcDbEntity
  8
Layer 1
  62
0
  100
AcDb2dVertex
  10
141.50300
  20
272.52600
  30
0.00000
  42
-0.0435
  70
32
  0
VERTEX
  5
4DF
  100
AcDbEntity
  8
Layer 1
  62
0
  100
AcDb2dVertex
  10
140.64530
  20
272.33210
  30
0.00000
  70
32
  0
VERTEX
  5
4E0
  100
AcDbEntity
  8
Layer 1
  62
0
  100
AcDb2dVertex
  10
135.68350
  20
271.42970
  30
0.00000
  42
-0.3268
  70
32
  0
VERTEX
  5
4E1
  100
AcDbEntity
  8
Layer 1
  62
0
  100
AcDb2dVertex
  10
135.52280
  20
271.54560
  30
0.00000
  42
-0.0850
  70
32
  0
VERTEX
  5
4E2
  100
AcDbEntity
  8
Layer 1
  62
0
  100
AcDb2dVertex
  10
135.49770
  20
272.07520
  30
0.00000
  70
32
  0
VERTEX
  5
4E3
  100
AcDbEntity
  8
Layer 1
  62
0
  100
AcDb2dVertex
  10
138.22010
  20
302.93690
  30
0.00000
  70
32
  0
SEQEND
  5
4E4
  100
AcDbEntity
  8
Layer 1
  62
0
  0
POLYLINE
  5
4E5
  100
AcDbEntity
  8
Layer 1
  62
0
  100
AcDb2dPolyline
 66
     1
  10
0
  20
0
  30
0
  70
1
  0
VERTEX
  5
4E6
  100
AcDbEntity
  8
Layer 1
  62
0
  100
AcDb2dVertex
  10
342.33790
  20
283.13910
  30
0.00000
  70
32
  0
VERTEX
  5
4E7
  100
AcDbEntity
  8
Layer 1
  62
0
  100
AcDb2dVertex
  10
338.96890
  20
304.20150
  30
0.00000
  42
-0.0595
  70
32
  0
VERTEX
  5
4E8
  100
AcDbEntity
  8
Layer 1
  62
0
  100
AcDb2dVertex
  10
338.94830
  20
304.54710
  30
0.00000
  42
-0.1896
  70
32
  0
VERTEX
  5
4E9
  100
AcDbEntity
  8
Layer 1
  62
0
  100
AcDb2dVertex
  10
338.99640
  20
304.62160
  30
0.00000
  42
-0.1365
  70
32
  0
VERTEX
  5
4EA
  100
AcDbEntity
  8
Layer 1
  62
0
  100
AcDb2dVertex
  10
339.11020
  20
304.66360
  30
0.00000
  70
32
  0
VERTEX
  5
4EB
  100
AcDbEntity
  8
Layer 1
  62
0
  100
AcDb2dVertex
  10
339.43610
  20
304.62420
  30
0.00000
  70
32
  0
VERTEX
  5
4EC
  100
AcDbEntity
  8
Layer 1
  62
0
  100
AcDb2dVertex
  10
345.14450
  20
303.34790
  30
0.00000
  42
-0.0758
  70
32
  0
VERTEX
  5
4ED
  100
AcDbEntity
  8
Layer 1
  62
0
  100
AcDb2dVertex
  10
345.66170
  20
303.18300
  30
0.00000
  42
-0.2316
  70
32
  0
VERTEX
  5
4EE
  100
AcDbEntity
  8
Layer 1
  62
0
  100
AcDb2dVertex
  10
345.83940
  20
302.88470
  30
0.00000
  70
32
  0
VERTEX
  5
4EF
  100
AcDbEntity
  8
Layer 1
  62
0
  100
AcDb2dVertex
  10
347.39160
  20
289.98460
  30
0.00000
  42
0.0720
  70
32
  0
VERTEX
  5
4F0
  100
AcDbEntity
  8
Layer 1
  62
0
  100
AcDb2dVertex
  10
347.44760
  20
289.56710
  30
0.00000
  42
0.2512
  70
32
  0
VERTEX
  5
4F1
  100
AcDbEntity
  8
Layer 1
  62
0
  100
AcDb2dVertex
  10
347.51840
  20
289.50720
  30
0.00000
  42
0.2119
  70
32
  0
VERTEX
  5
4F2
  100
AcDbEntity
  8
Layer 1
  62
0
  100
AcDb2dVertex
  10
347.62420
  20
289.52940
  30
0.00000
  42
0.0699
  70
32
  0
VERTEX
  5
4F3
  100
AcDbEntity
  8
Layer 1
  62
0
  100
AcDb2dVertex
  10
347.99020
  20
289.96590
  30
0.00000
  70
32
  0
VERTEX
  5
4F4
  100
AcDbEntity
  8
Layer 1
  62
0
  100
AcDb2dVertex
  10
354.84620
  20
300.39640
  30
0.00000
  42
-0.0787
  70
32
  0
VERTEX
  5
4F5
  100
AcDbEntity
  8
Layer 1
  62
0
  100
AcDb2dVertex
  10
355.24350
  20
300.91840
  30
0.00000
  42
-0.2362
  70
32
  0
VERTEX
  5
4F6
  100
AcDbEntity
  8
Layer 1
  62
0
  100
AcDb2dVertex
  10
355.65260
  20
300.99740
  30
0.00000
  70
32
  0
VERTEX
  5
4F7
  100
AcDbEntity
  8
Layer 1
  62
0
  100
AcDb2dVertex
  10
361.11440
  20
299.78930
  30
0.00000
  42
-0.0941
  70
32
  0
VERTEX
  5
4F8
  100
AcDbEntity
  8
Layer 1
  62
0
  100
AcDb2dVertex
  10
361.52840
  20
299.65100
  30
0.00000
  42
-0.2916
  70
32
  0
VERTEX
  5
4F9
  100
AcDbEntity
  8
Layer 1
  62
0
  100
AcDb2dVertex
  10
361.60530
  20
299.52490
  30
0.00000
  70
32
  0
VERTEX
  5
4FA
  100
AcDbEntity
  8
Layer 1
  62
0
  100
AcDb2dVertex
  10
361.52160
  20
299.33720
  30
0.00000
  70
32
  0
VERTEX
  5
4FB
  100
AcDbEntity
  8
Layer 1
  62
0
  100
AcDb2dVertex
  10
348.84750
  20
281.65210
  30
0.00000
  42
0.0256
  70
32
  0
VERTEX
  5
4FC
  100
AcDbEntity
  8
Layer 1
  62
0
  100
AcDb2dVertex
  10
347.99130
  20
278.23390
  30
0.00000
  70
32
  0
VERTEX
  5
4FD
  100
AcDbEntity
  8
Layer 1
  62
0
  100
AcDb2dVertex
  10
346.49020
  20
271.48870
  30
0.00000
  42
-0.1994
  70
32
  0
VERTEX
  5
4FE
  100
AcDbEntity
  8
Layer 1
  62
0
  100
AcDb2dVertex
  10
346.31960
  20
271.17870
  30
0.00000
  42
-0.1842
  70
32
  0
VERTEX
  5
4FF
  100
AcDbEntity
  8
Layer 1
  62
0
  100
AcDb2dVertex
  10
345.96660
  20
271.12290
  30
0.00000
  70
32
  0
VERTEX
  5
500
  100
AcDbEntity
  8
Layer 1
  62
0
  100
AcDb2dVertex
  10
340.71950
  20
272.29120
  30
0.00000
  42
-0.0801
  70
32
  0
VERTEX
  5
501
  100
AcDbEntity
  8
Layer 1
  62
0
  100
AcDb2dVertex
  10
340.21200
  20
272.45270
  30
0.00000
  42
-0.3027
  70
32
  0
VERTEX
  5
502
  100
AcDbEntity
  8
Layer 1
  62
0
  100
AcDb2dVertex
  10
340.12380
  20
272.62420
  30
0.00000
  42
-0.0256
  70
32
  0
VERTEX
  5
503
  100
AcDbEntity
  8
Layer 1
  62
0
  100
AcDb2dVertex
  10
340.21270
  20
273.13890
  30
0.00000
  70
32
  0
VERTEX
  5
504
  100
AcDbEntity
  8
Layer 1
  62
0
  100
AcDb2dVertex
  10
341.15450
  20
277.37660
  30
0.00000
  42
0.0185
  70
32
  0
VERTEX
  5
505
  100
AcDbEntity
  8
Layer 1
  62
0
  100
AcDb2dVertex
  10
342.33790
  20
283.13910
  30
0.00000
  70
32
  0
SEQEND
  5
506
  100
AcDbEntity
  8
Layer 1
  62
0
  0
POLYLINE
  5
507
  100
AcDbEntity
  8
Layer 1
  62
0
  100
AcDb2dPolyline
 66
     1
  10
0
  20
0
  30
0
  70
1
  0
VERTEX
  5
508
  100
AcDbEntity
  8
Layer 1
  62
0
  100
AcDb2dVertex
  10
111.44290
  20
297.00620
  30
0.00000
  42
-0.1429
  70
32
  0
VERTEX
  5
509
  100
AcDbEntity
  8
Layer 1
  62
0
  100
AcDb2dVertex
  10
118.71370
  20
300.04090
  30
0.00000
  42
-0.2188
  70
32
  0
VERTEX
  5
50A
  100
AcDbEntity
  8
Layer 1
  62
0
  100
AcDb2dVertex
  10
125.12060
  20
298.47830
  30
0.00000
  42
-0.1525
  70
32
  0
VERTEX
  5
50B
  100
AcDbEntity
  8
Layer 1
  62
0
  100
AcDb2dVertex
  10
128.28420
  20
292.32890
  30
0.00000
  42
-0.1123
  70
32
  0
VERTEX
  5
50C
  100
AcDbEntity
  8
Layer 1
  62
0
  100
AcDb2dVertex
  10
128.34670
  20
291.90410
  30
0.00000
  42
-0.2548
  70
32
  0
VERTEX
  5
50D
  100
AcDbEntity
  8
Layer 1
  62
0
  100
AcDb2dVertex
  10
128.15260
  20
291.71410
  30
0.00000
  70
32
  0
VERTEX
  5
50E
  100
AcDbEntity
  8
Layer 1
  62
0
  100
AcDb2dVertex
  10
123.82660
  20
290.69000
  30
0.00000
  42
-0.0262
  70
32
  0
VERTEX
  5
50F
  100
AcDbEntity
  8
Layer 1
  62
0
  100
AcDb2dVertex
  10
122.44380
  20
290.40500
  30
0.00000
  42
-0.2481
  70
32
  0
VERTEX
  5
510
  100
AcDbEntity
  8
Layer 1
  62
0
  100
AcDb2dVertex
  10
122.22670
  20
290.52790
  30
0.00000
  42
-0.0642
  70
32
  0
VERTEX
  5
511
  100
AcDbEntity
  8
Layer 1
  62
0
  100
AcDb2dVertex
  10
122.03540
  20
291.04340
  30
0.00000
  42
0.0330
  70
32
  0
VERTEX
  5
512
  100
AcDbEntity
  8
Layer 1
  62
0
  100
AcDb2dVertex
  10
121.23970
  20
293.35530
  30
0.00000
  42
0.2478
  70
32
  0
VERTEX
  5
513
  100
AcDbEntity
  8
Layer 1
  62
0
  100
AcDb2dVertex
  10
119.14240
  20
295.32040
  30
0.00000
  42
0.4484
  70
32
  0
VERTEX
  5
514
  100
AcDbEntity
  8
Layer 1
  62
0
  100
AcDb2dVertex
  10
115.46600
  20
291.66360
  30
0.00000
  42
0.0560
  70
32
  0
VERTEX
  5
515
  100
AcDbEntity
  8
Layer 1
  62
0
  100
AcDb2dVertex
  10
116.46980
  20
284.42270
  30
0.00000
  42
0.0485
  70
32
  0
VERTEX
  5
516
  100
AcDbEntity
  8
Layer 1
  62
0
  100
AcDb2dVertex
  10
119.16070
  20
275.27010
  30
0.00000
  42
0.2275
  70
32
  0
VERTEX
  5
517
  100
AcDbEntity
  8
Layer 1
  62
0
  100
AcDb2dVertex
  10
121.68820
  20
272.79250
  30
0.00000
  42
0.3838
  70
32
  0
VERTEX
  5
518
  100
AcDbEntity
  8
Layer 1
  62
0
  100
AcDb2dVertex
  10
125.29620
  20
274.40220
  30
0.00000
  42
0.1182
  70
32
  0
VERTEX
  5
519
  100
AcDbEntity
  8
Layer 1
  62
0
  100
AcDb2dVertex
  10
125.12640
  20
279.07050
  30
0.00000
  42
-0.1030
  70
32
  0
VERTEX
  5
51A
  100
AcDbEntity
  8
Layer 1
  62
0
  100
AcDb2dVertex
  10
125.06290
  20
279.50910
  30
0.00000
  42
-0.2880
  70
32
  0
VERTEX
  5
51B
  100
AcDbEntity
  8
Layer 1
  62
0
  100
AcDb2dVertex
  10
125.24570
  20
279.74140
  30
0.00000
  70
32
  0
VERTEX
  5
51C
  100
AcDbEntity
  8
Layer 1
  62
0
  100
AcDb2dVertex
  10
130.93890
  20
281.06450
  30
0.00000
  42
-0.3621
  70
32
  0
VERTEX
  5
51D
  100
AcDbEntity
  8
Layer 1
  62
0
  100
AcDb2dVertex
  10
131.28810
  20
280.86510
  30
0.00000
  42
-0.0514
  70
32
  0
VERTEX
  5
51E
  100
AcDbEntity
  8
Layer 1
  62
0
  100
AcDb2dVertex
  10
131.80550
  20
276.74820
  30
0.00000
  42
-0.3519
  70
32
  0
VERTEX
  5
51F
  100
AcDbEntity
  8
Layer 1
  62
0
  100
AcDb2dVertex
  10
126.82220
  20
269.00320
  30
0.00000
  42
-0.0794
  70
32
  0
VERTEX
  5
520
  100
AcDbEntity
  8
Layer 1
  62
0
  100
AcDb2dVertex
  10
121.69410
  20
267.88410
  30
0.00000
  42
-0.3171
  70
32
  0
VERTEX
  5
521
  100
AcDbEntity
  8
Layer 1
  62
0
  100
AcDb2dVertex
  10
113.40990
  20
272.27820
  30
0.00000
  42
-0.0658
  70
32
  0
VERTEX
  5
522
  100
AcDbEntity
  8
Layer 1
  62
0
  100
AcDb2dVertex
  10
110.56400
  20
280.78910
  30
0.00000
  42
-0.0490
  70
32
  0
VERTEX
  5
523
  100
AcDbEntity
  8
Layer 1
  62
0
  100
AcDb2dVertex
  10
108.98090
  20
289.95650
  30
0.00000
  42
-0.2252
  70
32
  0
VERTEX
  5
524
  100
AcDbEntity
  8
Layer 1
  62
0
  100
AcDb2dVertex
  10
111.44290
  20
297.00620
  30
0.00000
  70
32
  0
SEQEND
  5
525
  100
AcDbEntity
  8
Layer 1
  62
0
  0
POLYLINE
  5
526
  100
AcDbEntity
  8
Layer 1
  62
0
  100
AcDb2dPolyline
 66
     1
  10
0
  20
0
  30
0
  70
1
  0
VERTEX
  5
527
  100
AcDbEntity
  8
Layer 1
  62
0
  100
AcDb2dVertex
  10
256.96150
  20
221.56920
  30
0.00000
  42
-0.0056
  70
32
  0
VERTEX
  5
528
  100
AcDbEntity
  8
Layer 1
  62
0
  100
AcDb2dVertex
  10
253.32410
  20
225.16250
  30
0.00000
  42
-0.0390
  70
32
  0
VERTEX
  5
529
  100
AcDbEntity
  8
Layer 1
  62
0
  100
AcDb2dVertex
  10
252.20160
  20
226.34080
  30
0.00000
  42
-0.2370
  70
32
  0
VERTEX
  5
52A
  100
AcDbEntity
  8
Layer 1
  62
0
  100
AcDb2dVertex
  10
252.19540
  20
226.46500
  30
0.00000
  42
-0.2085
  70
32
  0
VERTEX
  5
52B
  100
AcDbEntity
  8
Layer 1
  62
0
  100
AcDb2dVertex
  10
252.29770
  20
226.55940
  30
0.00000
  42
-0.0449
  70
32
  0
VERTEX
  5
52C
  100
AcDbEntity
  8
Layer 1
  62
0
  100
AcDb2dVertex
  10
252.73950
  20
226.61760
  30
0.00000
  42
-0.0398
  70
32
  0
VERTEX
  5
52D
  100
AcDbEntity
  8
Layer 1
  62
0
  100
AcDb2dVertex
  10
260.58700
  20
226.69900
  30
0.00000
  70
32
  0
VERTEX
  5
52E
  100
AcDbEntity
  8
Layer 1
  62
0
  100
AcDb2dVertex
  10
261.63190
  20
226.61310
  30
0.00000
  42
-0.0749
  70
32
  0
VERTEX
  5
52F
  100
AcDbEntity
  8
Layer 1
  62
0
  100
AcDb2dVertex
  10
262.06570
  20
226.56470
  30
0.00000
  42
-0.4563
  70
32
  0
VERTEX
  5
530
  100
AcDbEntity
  8
Layer 1
  62
0
  100
AcDb2dVertex
  10
262.12640
  20
226.37000
  30
0.00000
  70
32
  0
VERTEX
  5
531
  100
AcDbEntity
  8
Layer 1
  62
0
  100
AcDb2dVertex
  10
261.93660
  20
226.14980
  30
0.00000
  70
32
  0
VERTEX
  5
532
  100
AcDbEntity
  8
Layer 1
  62
0
  100
AcDb2dVertex
  10
257.81510
  20
222.03770
  30
0.00000
  42
-0.0398
  70
32
  0
VERTEX
  5
533
  100
AcDbEntity
  8
Layer 1
  62
0
  100
AcDb2dVertex
  10
257.29150
  20
221.54220
  30
0.00000
  42
-0.2986
  70
32
  0
VERTEX
  5
534
  100
AcDbEntity
  8
Layer 1
  62
0
  100
AcDb2dVertex
  10
256.96150
  20
221.56920
  30
0.00000
  70
32
  0
SEQEND
  5
535
  100
AcDbEntity
  8
Layer 1
  62
0
  0
POLYLINE
  5
536
  100
AcDbEntity
  8
Layer 1
  62
0
  100
AcDb2dPolyline
 66
     1
  10
0
  20
0
  30
0
  70
1
  0
VERTEX
  5
537
  100
AcDbEntity
  8
Layer 1
  62
0
  100
AcDb2dVertex
  10
250.50660
  20
211.87020
  30
0.00000
  70
32
  0
VERTEX
  5
538
  100
AcDbEntity
  8
Layer 1
  62
0
  100
AcDb2dVertex
  10
256.69990
  20
218.10570
  30
0.00000
  42
-0.1053
  70
32
  0
VERTEX
  5
539
  100
AcDbEntity
  8
Layer 1
  62
0
  100
AcDb2dVertex
  10
257.06890
  20
218.39620
  30
0.00000
  42
-0.2277
  70
32
  0
VERTEX
  5
53A
  100
AcDbEntity
  8
Layer 1
  62
0
  100
AcDb2dVertex
  10
257.24160
  20
218.39640
  30
0.00000
  70
32
  0
VERTEX
  5
53B
  100
AcDbEntity
  8
Layer 1
  62
0
  100
AcDb2dVertex
  10
257.41760
  20
218.24970
  30
0.00000
  70
32
  0
VERTEX
  5
53C
  100
AcDbEntity
  8
Layer 1
  62
0
  100
AcDb2dVertex
  10
260.06540
  20
215.60970
  30
0.00000
  70
32
  0
VERTEX
  5
53D
  100
AcDbEntity
  8
Layer 1
  62
0
  100
AcDb2dVertex
  10
263.77120
  20
211.88490
  30
0.00000
  42
-0.1113
  70
32
  0
VERTEX
  5
53E
  100
AcDbEntity
  8
Layer 1
  62
0
  100
AcDb2dVertex
  10
263.91420
  20
211.68940
  30
0.00000
  42
-0.2109
  70
32
  0
VERTEX
  5
53F
  100
AcDbEntity
  8
Layer 1
  62
0
  100
AcDb2dVertex
  10
263.91310
  20
211.62250
  30
0.00000
  42
-0.2843
  70
32
  0
VERTEX
  5
540
  100
AcDbEntity
  8
Layer 1
  62
0
  100
AcDb2dVertex
  10
263.87030
  20
211.59410
  30
0.00000
  42
0.0798
  70
32
  0
VERTEX
  5
541
  100
AcDbEntity
  8
Layer 1
  62
0
  100
AcDb2dVertex
  10
250.70900
  20
211.63740
  30
0.00000
  42
-0.1805
  70
32
  0
VERTEX
  5
542
  100
AcDbEntity
  8
Layer 1
  62
0
  100
AcDb2dVertex
  10
250.51470
  20
211.69280
  30
0.00000
  42
-0.2193
  70
32
  0
VERTEX
  5
543
  100
AcDbEntity
  8
Layer 1
  62
0
  100
AcDb2dVertex
  10
250.47720
  20
211.76500
  30
0.00000
  42
-0.1596
  70
32
  0
VERTEX
  5
544
  100
AcDbEntity
  8
Layer 1
  62
0
  100
AcDb2dVertex
  10
250.50660
  20
211.87020
  30
0.00000
  70
32
  0
SEQEND
  5
545
  100
AcDbEntity
  8
Layer 1
  62
0
  0
POLYLINE
  5
546
  100
AcDbEntity
  8
Layer 1
  62
0
  100
AcDb2dPolyline
 66
     1
  10
0
  20
0
  30
0
  70
1
  0
VERTEX
  5
547
  100
AcDbEntity
  8
Layer 1
  62
0
  100
AcDb2dVertex
  10
49.92740
  20
230.86220
  30
0.00000
  70
32
  0
VERTEX
  5
548
  100
AcDbEntity
  8
Layer 1
  62
0
  100
AcDb2dVertex
  10
49.59761
  20
230.95800
  30
0.00000
  42
0.1761
  70
32
  0
VERTEX
  5
549
  100
AcDbEntity
  8
Layer 1
  62
0
  100
AcDb2dVertex
  10
49.36498
  20
230.94400
  30
0.00000
  42
-0.0058
  70
32
  0
VERTEX
  5
54A
  100
AcDbEntity
  8
Layer 1
  62
0
  100
AcDb2dVertex
  10
48.84303
  20
230.76710
  30
0.00000
  42
-0.1508
  70
32
  0
VERTEX
  5
54B
  100
AcDbEntity
  8
Layer 1
  62
0
  100
AcDb2dVertex
  10
48.66792
  20
230.77630
  30
0.00000
  42
-0.2231
  70
32
  0
VERTEX
  5
54C
  100
AcDbEntity
  8
Layer 1
  62
0
  100
AcDb2dVertex
  10
48.58270
  20
230.86240
  30
0.00000
  70
32
  0
VERTEX
  5
54D
  100
AcDbEntity
  8
Layer 1
  62
0
  100
AcDb2dVertex
  10
43.85219
  20
266.38900
  30
0.00000
  42
0.2525
  70
32
  0
VERTEX
  5
54E
  100
AcDbEntity
  8
Layer 1
  62
0
  100
AcDb2dVertex
  10
43.69284
  20
266.62290
  30
0.00000
  42
0.1400
  70
32
  0
VERTEX
  5
54F
  100
AcDbEntity
  8
Layer 1
  62
0
  100
AcDb2dVertex
  10
43.26463
  20
266.61570
  30
0.00000
  42
0.1132
  70
32
  0
VERTEX
  5
550
  100
AcDbEntity
  8
Layer 1
  62
0
  100
AcDb2dVertex
  10
29.87691
  20
261.58540
  30
0.00000
  42
-0.0752
  70
32
  0
VERTEX
  5
551
  100
AcDbEntity
  8
Layer 1
  62
0
  100
AcDb2dVertex
  10
21.63191
  20
258.07110
  30
0.00000
  42
0.1037
  70
32
  0
VERTEX
  5
552
  100
AcDbEntity
  8
Layer 1
  62
0
  100
AcDb2dVertex
  10
21.31001
  20
257.87260
  30
0.00000
  42
0.1577
  70
32
  0
VERTEX
  5
553
  100
AcDbEntity
  8
Layer 1
  62
0
  100
AcDb2dVertex
  10
21.26953
  20
257.77800
  30
0.00000
  42
0.1239
  70
32
  0
VERTEX
  5
554
  100
AcDbEntity
  8
Layer 1
  62
0
  100
AcDb2dVertex
  10
21.28956
  20
257.65000
  30
0.00000
  42
0.0244
  70
32
  0
VERTEX
  5
555
  100
AcDbEntity
  8
Layer 1
  62
0
  100
AcDb2dVertex
  10
22.25143
  20
256.29500
  30
0.00000
  70
32
  0
VERTEX
  5
556
  100
AcDbEntity
  8
Layer 1
  62
0
  100
AcDb2dVertex
  10
35.98215
  20
237.61630
  30
0.00000
  42
-0.2706
  70
32
  0
VERTEX
  5
557
  100
AcDbEntity
  8
Layer 1
  62
0
  100
AcDb2dVertex
  10
36.03072
  20
237.04130
  30
0.00000
  70
32
  0
VERTEX
  5
558
  100
AcDbEntity
  8
Layer 1
  62
0
  100
AcDb2dVertex
  10
23.28466
  20
212.47800
  30
0.00000
  70
32
  0
VERTEX
  5
559
  100
AcDbEntity
  8
Layer 1
  62
0
  100
AcDb2dVertex
  10
23.20861
  20
212.23090
  30
0.00000
  42
0.3331
  70
32
  0
VERTEX
  5
55A
  100
AcDbEntity
  8
Layer 1
  62
0
  100
AcDb2dVertex
  10
23.30192
  20
212.10930
  30
0.00000
  42
0.1227
  70
32
  0
VERTEX
  5
55B
  100
AcDbEntity
  8
Layer 1
  62
0
  100
AcDb2dVertex
  10
23.53988
  20
212.11080
  30
0.00000
  42
0.0063
  70
32
  0
VERTEX
  5
55C
  100
AcDbEntity
  8
Layer 1
  62
0
  100
AcDb2dVertex
  10
31.15513
  20
214.04640
  30
0.00000
  42
-0.0174
  70
32
  0
VERTEX
  5
55D
  100
AcDbEntity
  8
Layer 1
  62
0
  100
AcDb2dVertex
  10
58.63766
  20
220.78870
  30
0.00000
  42
-0.0244
  70
32
  0
VERTEX
  5
55E
  100
AcDbEntity
  8
Layer 1
  62
0
  100
AcDb2dVertex
  10
87.16365
  20
224.67150
  30
0.00000
  42
0.0410
  70
32
  0
VERTEX
  5
55F
  100
AcDbEntity
  8
Layer 1
  62
0
  100
AcDb2dVertex
  10
87.69263
  20
224.74350
  30
0.00000
  42
0.3099
  70
32
  0
VERTEX
  5
560
  100
AcDbEntity
  8
Layer 1
  62
0
  100
AcDb2dVertex
  10
87.72224
  20
224.78550
  30
0.00000
  42
0.2633
  70
32
  0
VERTEX
  5
561
  100
AcDbEntity
  8
Layer 1
  62
0
  100
AcDb2dVertex
  10
87.69412
  20
224.83660
  30
0.00000
  42
0.0829
  70
32
  0
VERTEX
  5
562
  100
AcDbEntity
  8
Layer 1
  62
0
  100
AcDb2dVertex
  10
86.32471
  20
225.16020
  30
0.00000
  70
32
  0
VERTEX
  5
563
  100
AcDbEntity
  8
Layer 1
  62
0
  100
AcDb2dVertex
  10
49.92740
  20
230.86220
  30
0.00000
  70
32
  0
SEQEND
  5
564
  100
AcDbEntity
  8
Layer 1
  62
0
  0
POLYLINE
  5
565
  100
AcDbEntity
  8
Layer 1
  62
0
  100
AcDb2dPolyline
 66
     1
  10
0
  20
0
  30
0
  70
1
  0
VERTEX
  5
566
  100
AcDbEntity
  8
Layer 1
  62
0
  100
AcDb2dVertex
  10
428.98390
  20
266.08090
  30
0.00000
  70
32
  0
VERTEX
  5
567
  100
AcDbEntity
  8
Layer 1
  62
0
  100
AcDb2dVertex
  10
424.94640
  20
230.22690
  30
0.00000
  42
-0.0613
  70
32
  0
VERTEX
  5
568
  100
AcDbEntity
  8
Layer 1
  62
0
  100
AcDb2dVertex
  10
424.86750
  20
230.00940
  30
0.00000
  42
-0.3476
  70
32
  0
VERTEX
  5
569
  100
AcDbEntity
  8
Layer 1
  62
0
  100
AcDb2dVertex
  10
424.71090
  20
229.94690
  30
0.00000
  42
-0.0235
  70
32
  0
VERTEX
  5
56A
  100
AcDbEntity
  8
Layer 1
  62
0
  100
AcDb2dVertex
  10
424.19880
  20
230.23690
  30
0.00000
  42
0.0110
  70
32
  0
VERTEX
  5
56B
  100
AcDbEntity
  8
Layer 1
  62
0
  100
AcDb2dVertex
  10
423.56780
  20
230.56940
  30
0.00000
  42
0.1221
  70
32
  0
VERTEX
  5
56C
  100
AcDbEntity
  8
Layer 1
  62
0
  100
AcDb2dVertex
  10
422.49580
  20
230.57540
  30
0.00000
  70
32
  0
VERTEX
  5
56D
  100
AcDbEntity
  8
Layer 1
  62
0
  100
AcDb2dVertex
  10
386.53480
  20
224.94630
  30
0.00000
  42
0.0347
  70
32
  0
VERTEX
  5
56E
  100
AcDbEntity
  8
Layer 1
  62
0
  100
AcDb2dVertex
  10
386.21160
  20
224.81630
  30
0.00000
  42
0.2644
  70
32
  0
VERTEX
  5
56F
  100
AcDbEntity
  8
Layer 1
  62
0
  100
AcDb2dVertex
  10
386.18600
  20
224.77400
  30
0.00000
  42
0.3346
  70
32
  0
VERTEX
  5
570
  100
AcDbEntity
  8
Layer 1
  62
0
  100
AcDb2dVertex
  10
386.21010
  20
224.74070
  30
0.00000
  42
-0.0172
  70
32
  0
VERTEX
  5
571
  100
AcDbEntity
  8
Layer 1
  62
0
  100
AcDb2dVertex
  10
408.01200
  20
222.01640
  30
0.00000
  42
-0.0299
  70
32
  0
VERTEX
  5
572
  100
AcDbEntity
  8
Layer 1
  62
0
  100
AcDb2dVertex
  10
436.99300
  20
215.06710
  30
0.00000
  42
0.0060
  70
32
  0
VERTEX
  5
573
  100
AcDbEntity
  8
Layer 1
  62
0
  100
AcDb2dVertex
  10
448.22800
  20
212.11820
  30
0.00000
  42
0.1173
  70
32
  0
VERTEX
  5
574
  100
AcDbEntity
  8
Layer 1
  62
0
  100
AcDb2dVertex
  10
448.46980
  20
212.11120
  30
0.00000
  42
0.2889
  70
32
  0
VERTEX
  5
575
  100
AcDbEntity
  8
Layer 1
  62
0
  100
AcDb2dVertex
  10
448.58420
  20
212.22580
  30
0.00000
  42
0.1526
  70
32
  0
VERTEX
  5
576
  100
AcDbEntity
  8
Layer 1
  62
0
  100
AcDb2dVertex
  10
448.52840
  20
212.46330
  30
0.00000
  70
32
  0
VERTEX
  5
577
  100
AcDbEntity
  8
Layer 1
  62
0
  100
AcDb2dVertex
  10
444.89460
  20
219.45080
  30
0.00000
  70
32
  0
VERTEX
  5
578
  100
AcDbEntity
  8
Layer 1
  62
0
  100
AcDb2dVertex
  10
435.76570
  20
237.07430
  30
0.00000
  42
-0.2641
  70
32
  0
VERTEX
  5
579
  100
AcDbEntity
  8
Layer 1
  62
0
  100
AcDb2dVertex
  10
435.83580
  20
237.62820
  30
0.00000
  70
32
  0
VERTEX
  5
57A
  100
AcDbEntity
  8
Layer 1
  62
0
  100
AcDb2dVertex
  10
451.09830
  20
257.65890
  30
0.00000
  42
0.1310
  70
32
  0
VERTEX
  5
57B
  100
AcDbEntity
  8
Layer 1
  62
0
  100
AcDb2dVertex
  10
451.18070
  20
257.88280
  30
0.00000
  42
0.2812
  70
32
  0
VERTEX
  5
57C
  100
AcDbEntity
  8
Layer 1
  62
0
  100
AcDb2dVertex
  10
451.09140
  20
258.03620
  30
0.00000
  42
0.0688
  70
32
  0
VERTEX
  5
57D
  100
AcDbEntity
  8
Layer 1
  62
0
  100
AcDb2dVertex
  10
450.59360
  20
258.20620
  30
0.00000
  42
-0.1033
  70
32
  0
VERTEX
  5
57E
  100
AcDbEntity
  8
Layer 1
  62
0
  100
AcDb2dVertex
  10
441.46850
  20
262.73430
  30
0.00000
  42
0.1081
  70
32
  0
VERTEX
  5
57F
  100
AcDbEntity
  8
Layer 1
  62
0
  100
AcDb2dVertex
  10
431.44320
  20
266.47970
  30
0.00000
  70
32
  0
VERTEX
  5
580
  100
AcDbEntity
  8
Layer 1
  62
0
  100
AcDb2dVertex
  10
429.77380
  20
266.78460
  30
0.00000
  42
0.1014
  70
32
  0
VERTEX
  5
581
  100
AcDbEntity
  8
Layer 1
  62
0
  100
AcDb2dVertex
  10
429.32490
  20
266.81930
  30
0.00000
  70
32
  0
VERTEX
  5
582
  100
AcDbEntity
  8
Layer 1
  62
0
  100
AcDb2dVertex
  10
429.21030
  20
266.79310
  30
0.00000
  42
0.1964
  70
32
  0
VERTEX
  5
583
  100
AcDbEntity
  8
Layer 1
  62
0
  100
AcDb2dVertex
  10
429.06010
  20
266.61760
  30
0.00000
  42
0.0785
  70
32
  0
VERTEX
  5
584
  100
AcDbEntity
  8
Layer 1
  62
0
  100
AcDb2dVertex
  10
428.98390
  20
266.08090
  30
0.00000
  70
32
  0
SEQEND
  5
585
  100
AcDbEntity
  8
Layer 1
  62
0
  0
POLYLINE
  5
586
  100
AcDbEntity
  8
Layer 1
  62
0
  100
AcDb2dPolyline
 66
     1
  10
0
  20
0
  30
0
  70
1
  0
VERTEX
  5
587
  100
AcDbEntity
  8
Layer 1
  62
0
  100
AcDb2dVertex
  10
51.64469
  20
231.88900
  30
0.00000
  70
32
  0
VERTEX
  5
588
  100
AcDbEntity
  8
Layer 1
  62
0
  100
AcDb2dVertex
  10
51.31108
  20
231.68770
  30
0.00000
  42
0.3255
  70
32
  0
VERTEX
  5
589
  100
AcDbEntity
  8
Layer 1
  62
0
  100
AcDb2dVertex
  10
51.29382
  20
231.59410
  30
0.00000
  42
0.2088
  70
32
  0
VERTEX
  5
58A
  100
AcDbEntity
  8
Layer 1
  62
0
  100
AcDb2dVertex
  10
51.40013
  20
231.50250
  30
0.00000
  70
32
  0
VERTEX
  5
58B
  100
AcDbEntity
  8
Layer 1
  62
0
  100
AcDb2dVertex
  10
91.20456
  20
225.31140
  30
0.00000
  42
0.0519
  70
32
  0
VERTEX
  5
58C
  100
AcDbEntity
  8
Layer 1
  62
0
  100
AcDb2dVertex
  10
91.52241
  20
225.28840
  30
0.00000
  42
0.3082
  70
32
  0
VERTEX
  5
58D
  100
AcDbEntity
  8
Layer 1
  62
0
  100
AcDb2dVertex
  10
91.75057
  20
225.43330
  30
0.00000
  42
0.1092
  70
32
  0
VERTEX
  5
58E
  100
AcDbEntity
  8
Layer 1
  62
0
  100
AcDb2dVertex
  10
91.77252
  20
225.85960
  30
0.00000
  70
32
  0
VERTEX
  5
58F
  100
AcDbEntity
  8
Layer 1
  62
0
  100
AcDb2dVertex
  10
91.27806
  20
232.21940
  30
0.00000
  70
32
  0
VERTEX
  5
590
  100
AcDbEntity
  8
Layer 1
  62
0
  100
AcDb2dVertex
  10
90.21372
  20
245.80310
  30
0.00000
  42
0.2029
  70
32
  0
VERTEX
  5
591
  100
AcDbEntity
  8
Layer 1
  62
0
  100
AcDb2dVertex
  10
90.04776
  20
246.12950
  30
0.00000
  42
0.1763
  70
32
  0
VERTEX
  5
592
  100
AcDbEntity
  8
Layer 1
  62
0
  100
AcDb2dVertex
  10
89.82386
  20
246.17300
  30
0.00000
  42
0.0166
  70
32
  0
VERTEX
  5
593
  100
AcDbEntity
  8
Layer 1
  62
0
  100
AcDb2dVertex
  10
88.45296
  20
245.73730
  30
0.00000
  42
0.0171
  70
32
  0
VERTEX
  5
594
  100
AcDbEntity
  8
Layer 1
  62
0
  100
AcDb2dVertex
  10
51.64469
  20
231.88900
  30
0.00000
  70
32
  0
SEQEND
  5
595
  100
AcDbEntity
  8
Layer 1
  62
0
  0
POLYLINE
  5
596
  100
AcDbEntity
  8
Layer 1
  62
0
  100
AcDb2dPolyline
 66
     1
  10
0
  20
0
  30
0
  70
1
  0
VERTEX
  5
597
  100
AcDbEntity
  8
Layer 1
  62
0
  100
AcDb2dVertex
  10
421.53050
  20
231.34830
  30
0.00000
  42
0.1606
  70
32
  0
VERTEX
  5
598
  100
AcDbEntity
  8
Layer 1
  62
0
  100
AcDb2dVertex
  10
421.72610
  20
231.48720
  30
0.00000
  42
0.3736
  70
32
  0
VERTEX
  5
599
  100
AcDbEntity
  8
Layer 1
  62
0
  100
AcDb2dVertex
  10
421.71390
  20
231.67870
  30
0.00000
  42
0.0380
  70
32
  0
VERTEX
  5
59A
  100
AcDbEntity
  8
Layer 1
  62
0
  100
AcDb2dVertex
  10
421.19990
  20
232.01190
  30
0.00000
  42
0.0380
  70
32
  0
VERTEX
  5
59B
  100
AcDbEntity
  8
Layer 1
  62
0
  100
AcDb2dVertex
  10
384.41780
  20
248.80230
  30
0.00000
  70
32
  0
VERTEX
  5
59C
  100
AcDbEntity
  8
Layer 1
  62
0
  100
AcDb2dVertex
  10
384.18070
  20
248.86940
  30
0.00000
  42
0.2933
  70
32
  0
VERTEX
  5
59D
  100
AcDbEntity
  8
Layer 1
  62
0
  100
AcDb2dVertex
  10
384.05650
  20
248.79530
  30
0.00000
  42
0.1089
  70
32
  0
VERTEX
  5
59E
  100
AcDbEntity
  8
Layer 1
  62
0
  100
AcDb2dVertex
  10
383.95100
  20
248.36830
  30
0.00000
  70
32
  0
VERTEX
  5
59F
  100
AcDbEntity
  8
Layer 1
  62
0
  100
AcDb2dVertex
  10
382.23030
  20
226.04490
  30
0.00000
  42
0.0519
  70
32
  0
VERTEX
  5
5A0
  100
AcDbEntity
  8
Layer 1
  62
0
  100
AcDb2dVertex
  10
382.22860
  20
225.49850
  30
0.00000
  42
0.1185
  70
32
  0
VERTEX
  5
5A1
  100
AcDbEntity
  8
Layer 1
  62
0
  100
AcDb2dVertex
  10
382.28850
  20
225.38030
  30
0.00000
  42
0.1476
  70
32
  0
VERTEX
  5
5A2
  100
AcDbEntity
  8
Layer 1
  62
0
  100
AcDb2dVertex
  10
382.37860
  20
225.32210
  30
0.00000
  42
0.1151
  70
32
  0
VERTEX
  5
5A3
  100
AcDbEntity
  8
Layer 1
  62
0
  100
AcDb2dVertex
  10
382.69310
  20
225.30910
  30
0.00000
  70
32
  0
VERTEX
  5
5A4
  100
AcDbEntity
  8
Layer 1
  62
0
  100
AcDb2dVertex
  10
390.12300
  20
226.45930
  30
0.00000
  70
32
  0
VERTEX
  5
5A5
  100
AcDbEntity
  8
Layer 1
  62
0
  100
AcDb2dVertex
  10
421.53050
  20
231.34830
  30
0.00000
  70
32
  0
SEQEND
  5
5A6
  100
AcDbEntity
  8
Layer 1
  62
0
  0
POLYLINE
  5
5A7
  100
AcDbEntity
  8
Layer 1
  62
0
  100
AcDb2dPolyline
 66
     1
  10
0
  20
0
  30
0
  70
1
  0
VERTEX
  5
5A8
  100
AcDbEntity
  8
Layer 1
  62
0
  100
AcDb2dVertex
  10
429.84070
  20
284.28440
  30
0.00000
  42
0.0635
  70
32
  0
VERTEX
  5
5A9
  100
AcDbEntity
  8
Layer 1
  62
0
  100
AcDb2dVertex
  10
326.42590
  20
316.98760
  30
0.00000
  42
0.0095
  70
32
  0
VERTEX
  5
5AA
  100
AcDbEntity
  8
Layer 1
  62
0
  100
AcDb2dVertex
  10
325.36370
  20
317.17380
  30
0.00000
  42
0.0556
  70
32
  0
VERTEX
  5
5AB
  100
AcDbEntity
  8
Layer 1
  62
0
  100
AcDb2dVertex
  10
221.18280
  20
323.94010
  30
0.00000
  70
32
  0
VERTEX
  5
5AC
  100
AcDbEntity
  8
Layer 1
  62
0
  100
AcDb2dVertex
  10
220.75680
  20
323.92690
  30
0.00000
  42
0.0492
  70
32
  0
VERTEX
  5
5AD
  100
AcDbEntity
  8
Layer 1
  62
0
  100
AcDb2dVertex
  10
116.36900
  20
308.71320
  30
0.00000
  70
32
  0
VERTEX
  5
5AE
  100
AcDbEntity
  8
Layer 1
  62
0
  100
AcDb2dVertex
  10
112.32660
  20
307.69340
  30
0.00000
  42
0.0372
  70
32
  0
VERTEX
  5
5AF
  100
AcDbEntity
  8
Layer 1
  62
0
  100
AcDb2dVertex
  10
46.06928
  20
285.79700
  30
0.00000
  70
32
  0
VERTEX
  5
5B0
  100
AcDbEntity
  8
Layer 1
  62
0
  100
AcDb2dVertex
  10
42.75356
  20
284.32790
  30
0.00000
  42
0.3268
  70
32
  0
VERTEX
  5
5B1
  100
AcDbEntity
  8
Layer 1
  62
0
  100
AcDb2dVertex
  10
42.51304
  20
283.93180
  30
0.00000
  70
32
  0
VERTEX
  5
5B2
  100
AcDbEntity
  8
Layer 1
  62
0
  100
AcDb2dVertex
  10
49.24802
  20
232.49300
  30
0.00000
  42
0.0576
  70
32
  0
VERTEX
  5
5B3
  100
AcDbEntity
  8
Layer 1
  62
0
  100
AcDb2dVertex
  10
49.34282
  20
232.24050
  30
0.00000
  70
32
  0
VERTEX
  5
5B4
  100
AcDbEntity
  8
Layer 1
  62
0
  100
AcDb2dVertex
  10
49.40588
  20
232.14020
  30
0.00000
  42
0.2388
  70
32
  0
VERTEX
  5
5B5
  100
AcDbEntity
  8
Layer 1
  62
0
  100
AcDb2dVertex
  10
49.60571
  20
232.07580
  30
0.00000
  42
0.0735
  70
32
  0
VERTEX
  5
5B6
  100
AcDbEntity
  8
Layer 1
  62
0
  100
AcDb2dVertex
  10
50.11615
  20
232.25410
  30
0.00000
  42
-0.0489
  70
32
  0
VERTEX
  5
5B7
  100
AcDbEntity
  8
Layer 1
  62
0
  100
AcDb2dVertex
  10
153.65560
  20
264.28500
  30
0.00000
  70
32
  0
VERTEX
  5
5B8
  100
AcDbEntity
  8
Layer 1
  62
0
  100
AcDb2dVertex
  10
154.72330
  20
264.49360
  30
0.00000
  42
-0.0564
  70
32
  0
VERTEX
  5
5B9
  100
AcDbEntity
  8
Layer 1
  62
0
  100
AcDb2dVertex
  10
258.25080
  20
273.49870
  30
0.00000
  42
0.0054
  70
32
  0
VERTEX
  5
5BA
  100
AcDbEntity
  8
Layer 1
  62
0
  100
AcDb2dVertex
  10
259.31660
  20
273.45950
  30
0.00000
  42
-0.0661
  70
32
  0
VERTEX
  5
5BB
  100
AcDbEntity
  8
Layer 1
  62
0
  100
AcDb2dVertex
  10
363.49190
  20
256.81720
  30
0.00000
  70
32
  0
VERTEX
  5
5BC
  100
AcDbEntity
  8
Layer 1
  62
0
  100
AcDb2dVertex
  10
363.90990
  20
256.68940
  30
0.00000
  42
-0.0456
  70
32
  0
VERTEX
  5
5BD
  100
AcDbEntity
  8
Layer 1
  62
0
  100
AcDb2dVertex
  10
416.53330
  20
235.60460
  30
0.00000
  42
-0.0131
  70
32
  0
VERTEX
  5
5BE
  100
AcDbEntity
  8
Layer 1
  62
0
  100
AcDb2dVertex
  10
423.72650
  20
231.59010
  30
0.00000
  42
0.1336
  70
32
  0
VERTEX
  5
5BF
  100
AcDbEntity
  8
Layer 1
  62
0
  100
AcDb2dVertex
  10
423.98790
  20
231.51020
  30
0.00000
  42
0.3236
  70
32
  0
VERTEX
  5
5C0
  100
AcDbEntity
  8
Layer 1
  62
0
  100
AcDb2dVertex
  10
424.22250
  20
231.71540
  30
0.00000
  42
0.0495
  70
32
  0
VERTEX
  5
5C1
  100
AcDbEntity
  8
Layer 1
  62
0
  100
AcDb2dVertex
  10
424.34070
  20
232.65040
  30
0.00000
  70
32
  0
VERTEX
  5
5C2
  100
AcDbEntity
  8
Layer 1
  62
0
  100
AcDb2dVertex
  10
425.04860
  20
239.03430
  30
0.00000
  70
32
  0
VERTEX
  5
5C3
  100
AcDbEntity
  8
Layer 1
  62
0
  100
AcDb2dVertex
  10
430.02940
  20
283.54960
  30
0.00000
  42
0.0389
  70
32
  0
VERTEX
  5
5C4
  100
AcDbEntity
  8
Layer 1
  62
0
  100
AcDb2dVertex
  10
430.04540
  20
283.93930
  30
0.00000
  42
0.2426
  70
32
  0
VERTEX
  5
5C5
  100
AcDbEntity
  8
Layer 1
  62
0
  100
AcDb2dVertex
  10
429.84070
  20
284.28440
  30
0.00000
  70
32
  0
SEQEND
  5
5C6
  100
AcDbEntity
  8
Layer 1
  62
0
  0
POLYLINE
  5
5C7
  100
AcDbEntity
  8
Layer 1
  62
0
  100
AcDb2dPolyline
 66
     1
  10
0
  20
0
  30
0
  70
1
  0
VERTEX
  5
5C8
  100
AcDbEntity
  8
Layer 1
  62
0
  100
AcDb2dVertex
  10
441.88440
  20
263.55840
  30
0.00000
  42
0.1117
  70
32
  0
VERTEX
  5
5C9
  100
AcDbEntity
  8
Layer 1
  62
0
  100
AcDb2dVertex
  10
452.05520
  20
258.73430
  30
0.00000
  42
-0.2671
  70
32
  0
VERTEX
  5
5CA
  100
AcDbEntity
  8
Layer 1
  62
0
  100
AcDb2dVertex
  10
452.55650
  20
258.33170
  30
0.00000
  42
-0.1840
  70
32
  0
VERTEX
  5
5CB
  100
AcDbEntity
  8
Layer 1
  62
0
  100
AcDb2dVertex
  10
452.45890
  20
257.94400
  30
0.00000
  70
32
  0
VERTEX
  5
5CC
  100
AcDbEntity
  8
Layer 1
  62
0
  100
AcDb2dVertex
  10
436.93120
  20
237.60310
  30
0.00000
  42
0.2832
  70
32
  0
VERTEX
  5
5CD
  100
AcDbEntity
  8
Layer 1
  62
0
  100
AcDb2dVertex
  10
436.81430
  20
236.97850
  30
0.00000
  70
32
  0
VERTEX
  5
5CE
  100
AcDbEntity
  8
Layer 1
  62
0
  100
AcDb2dVertex
  10
448.47960
  20
214.53640
  30
0.00000
  42
-0.0134
  70
32
  0
VERTEX
  5
5CF
  100
AcDbEntity
  8
Layer 1
  62
0
  100
AcDb2dVertex
  10
450.01670
  20
211.48610
  30
0.00000
  42
-0.5735
  70
32
  0
VERTEX
  5
5D0
  100
AcDbEntity
  8
Layer 1
  62
0
  100
AcDb2dVertex
  10
449.50470
  20
210.90540
  30
0.00000
  42
-0.0097
  70
32
  0
VERTEX
  5
5D1
  100
AcDbEntity
  8
Layer 1
  62
0
  100
AcDb2dVertex
  10
437.83860
  20
213.89730
  30
0.00000
  42
0.0236
  70
32
  0
VERTEX
  5
5D2
  100
AcDbEntity
  8
Layer 1
  62
0
  100
AcDb2dVertex
  10
412.05840
  20
220.37980
  30
0.00000
  42
0.0249
  70
32
  0
VERTEX
  5
5D3
  100
AcDbEntity
  8
Layer 1
  62
0
  100
AcDb2dVertex
  10
381.65220
  20
224.26270
  30
0.00000
  42
-0.4509
  70
32
  0
VERTEX
  5
5D4
  100
AcDbEntity
  8
Layer 1
  62
0
  100
AcDb2dVertex
  10
381.22070
  20
224.81850
  30
0.00000
  70
32
  0
VERTEX
  5
5D5
  100
AcDbEntity
  8
Layer 1
  62
0
  100
AcDb2dVertex
  10
383.03200
  20
248.60970
  30
0.00000
  42
0.0744
  70
32
  0
VERTEX
  5
5D6
  100
AcDbEntity
  8
Layer 1
  62
0
  100
AcDb2dVertex
  10
383.02880
  20
249.13160
  30
0.00000
  42
0.2483
  70
32
  0
VERTEX
  5
5D7
  100
AcDbEntity
  8
Layer 1
  62
0
  100
AcDb2dVertex
  10
382.80600
  20
249.38170
  30
0.00000
  42
0.0560
  70
32
  0
VERTEX
  5
5D8
  100
AcDbEntity
  8
Layer 1
  62
0
  100
AcDb2dVertex
  10
300.85450
  20
269.26420
  30
0.00000
  42
0.0071
  70
32
  0
VERTEX
  5
5D9
  100
AcDbEntity
  8
Layer 1
  62
0
  100
AcDb2dVertex
  10
295.32600
  20
269.94760
  30
0.00000
  42
0.0569
  70
32
  0
VERTEX
  5
5DA
  100
AcDbEntity
  8
Layer 1
  62
0
  100
AcDb2dVertex
  10
196.25890
  20
270.01850
  30
0.00000
  42
0.0067
  70
32
  0
VERTEX
  5
5DB
  100
AcDbEntity
  8
Layer 1
  62
0
  100
AcDb2dVertex
  10
195.62250
  20
269.93500
  30
0.00000
  42
0.0526
  70
32
  0
VERTEX
  5
5DC
  100
AcDbEntity
  8
Layer 1
  62
0
  100
AcDb2dVertex
  10
91.66557
  20
246.79990
  30
0.00000
  42
0.1217
  70
32
  0
VERTEX
  5
5DD
  100
AcDbEntity
  8
Layer 1
  62
0
  100
AcDb2dVertex
  10
91.19220
  20
246.56650
  30
0.00000
  42
0.1953
  70
32
  0
VERTEX
  5
5DE
  100
AcDbEntity
  8
Layer 1
  62
0
  100
AcDb2dVertex
  10
91.09314
  20
246.22500
  30
0.00000
  70
32
  0
VERTEX
  5
5DF
  100
AcDbEntity
  8
Layer 1
  62
0
  100
AcDb2dVertex
  10
92.76634
  20
224.81230
  30
0.00000
  42
-0.2057
  70
32
  0
VERTEX
  5
5E0
  100
AcDbEntity
  8
Layer 1
  62
0
  100
AcDb2dVertex
  10
92.63575
  20
224.42350
  30
0.00000
  42
-0.1801
  70
32
  0
VERTEX
  5
5E1
  100
AcDbEntity
  8
Layer 1
  62
0
  100
AcDb2dVertex
  10
92.24120
  20
224.25820
  30
0.00000
  42
0.0274
  70
32
  0
VERTEX
  5
5E2
  100
AcDbEntity
  8
Layer 1
  62
0
  100
AcDb2dVertex
  10
56.92803
  20
219.54220
  30
0.00000
  42
0.0135
  70
32
  0
VERTEX
  5
5E3
  100
AcDbEntity
  8
Layer 1
  62
0
  100
AcDb2dVertex
  10
29.88202
  20
212.78270
  30
0.00000
  42
-0.0103
  70
32
  0
VERTEX
  5
5E4
  100
AcDbEntity
  8
Layer 1
  62
0
  100
AcDb2dVertex
  10
22.27188
  20
210.90130
  30
0.00000
  42
-0.3735
  70
32
  0
VERTEX
  5
5E5
  100
AcDbEntity
  8
Layer 1
  62
0
  100
AcDb2dVertex
  10
21.76421
  20
211.22960
  30
0.00000
  42
-0.1618
  70
32
  0
VERTEX
  5
5E6
  100
AcDbEntity
  8
Layer 1
  62
0
  100
AcDb2dVertex
  10
21.82130
  20
211.61950
  30
0.00000
  70
32
  0
VERTEX
  5
5E7
  100
AcDbEntity
  8
Layer 1
  62
0
  100
AcDb2dVertex
  10
32.53349
  20
232.23300
  30
0.00000
  70
32
  0
VERTEX
  5
5E8
  100
AcDbEntity
  8
Layer 1
  62
0
  100
AcDb2dVertex
  10
35.04755
  20
237.12060
  30
0.00000
  42
0.2520
  70
32
  0
VERTEX
  5
5E9
  100
AcDbEntity
  8
Layer 1
  62
0
  100
AcDb2dVertex
  10
34.99173
  20
237.44610
  30
0.00000
  70
32
  0
VERTEX
  5
5EA
  100
AcDbEntity
  8
Layer 1
  62
0
  100
AcDb2dVertex
  10
33.98470
  20
238.82660
  30
0.00000
  70
32
  0
VERTEX
  5
5EB
  100
AcDbEntity
  8
Layer 1
  62
0
  100
AcDb2dVertex
  10
21.60741
  20
255.62950
  30
0.00000
  42
-0.0234
  70
32
  0
VERTEX
  5
5EC
  100
AcDbEntity
  8
Layer 1
  62
0
  100
AcDb2dVertex
  10
19.92164
  20
258.02110
  30
0.00000
  42
-0.2510
  70
32
  0
VERTEX
  5
5ED
  100
AcDbEntity
  8
Layer 1
  62
0
  100
AcDb2dVertex
  10
19.92526
  20
258.33940
  30
0.00000
  42
-0.1494
  70
32
  0
VERTEX
  5
5EE
  100
AcDbEntity
  8
Layer 1
  62
0
  100
AcDb2dVertex
  10
20.29680
  20
258.62500
  30
0.00000
  42
0.0747
  70
32
  0
VERTEX
  5
5EF
  100
AcDbEntity
  8
Layer 1
  62
0
  100
AcDb2dVertex
  10
29.01943
  20
262.13190
  30
0.00000
  42
-0.1129
  70
32
  0
VERTEX
  5
5F0
  100
AcDbEntity
  8
Layer 1
  62
0
  100
AcDb2dVertex
  10
42.43038
  20
267.38050
  30
0.00000
  42
0.0283
  70
32
  0
VERTEX
  5
5F1
  100
AcDbEntity
  8
Layer 1
  62
0
  100
AcDb2dVertex
  10
43.37946
  20
267.56300
  30
0.00000
  42
0.3131
  70
32
  0
VERTEX
  5
5F2
  100
AcDbEntity
  8
Layer 1
  62
0
  100
AcDb2dVertex
  10
43.63958
  20
267.92650
  30
0.00000
  70
32
  0
VERTEX
  5
5F3
  100
AcDbEntity
  8
Layer 1
  62
0
  100
AcDb2dVertex
  10
42.16941
  20
279.29800
  30
0.00000
  42
-0.0053
  70
32
  0
VERTEX
  5
5F4
  100
AcDbEntity
  8
Layer 1
  62
0
  100
AcDb2dVertex
  10
41.51133
  20
284.50190
  30
0.00000
  42
-0.2364
  70
32
  0
VERTEX
  5
5F5
  100
AcDbEntity
  8
Layer 1
  62
0
  100
AcDb2dVertex
  10
41.69391
  20
284.81210
  30
0.00000
  42
-0.0145
  70
32
  0
VERTEX
  5
5F6
  100
AcDbEntity
  8
Layer 1
  62
0
  100
AcDb2dVertex
  10
49.04031
  20
288.02090
  30
0.00000
  42
-0.0364
  70
32
  0
VERTEX
  5
5F7
  100
AcDbEntity
  8
Layer 1
  62
0
  100
AcDb2dVertex
  10
117.22220
  20
309.86090
  30
0.00000
  42
-0.0074
  70
32
  0
VERTEX
  5
5F8
  100
AcDbEntity
  8
Layer 1
  62
0
  100
AcDb2dVertex
  10
119.77660
  20
310.48380
  30
0.00000
  42
-0.0481
  70
32
  0
VERTEX
  5
5F9
  100
AcDbEntity
  8
Layer 1
  62
0
  100
AcDb2dVertex
  10
221.60910
  20
324.82960
  30
0.00000
  42
-0.0133
  70
32
  0
VERTEX
  5
5FA
  100
AcDbEntity
  8
Layer 1
  62
0
  100
AcDb2dVertex
  10
224.16540
  20
324.96650
  30
0.00000
  42
-0.0542
  70
32
  0
VERTEX
  5
5FB
  100
AcDbEntity
  8
Layer 1
  62
0
  100
AcDb2dVertex
  10
326.21330
  20
317.94230
  30
0.00000
  70
32
  0
VERTEX
  5
5FC
  100
AcDbEntity
  8
Layer 1
  62
0
  100
AcDb2dVertex
  10
327.06670
  20
317.78440
  30
0.00000
  42
-0.0636
  70
32
  0
VERTEX
  5
5FD
  100
AcDbEntity
  8
Layer 1
  62
0
  100
AcDb2dVertex
  10
430.76830
  20
284.85750
  30
0.00000
  42
-0.3472
  70
32
  0
VERTEX
  5
5FE
  100
AcDbEntity
  8
Layer 1
  62
0
  100
AcDb2dVertex
  10
431.02280
  20
284.37750
  30
0.00000
  70
32
  0
VERTEX
  5
5FF
  100
AcDbEntity
  8
Layer 1
  62
0
  100
AcDb2dVertex
  10
429.34560
  20
269.28760
  30
0.00000
  42
0.0718
  70
32
  0
VERTEX
  5
600
  100
AcDbEntity
  8
Layer 1
  62
0
  100
AcDb2dVertex
  10
429.23910
  20
268.02320
  30
0.00000
  42
0.2796
  70
32
  0
VERTEX
  5
601
  100
AcDbEntity
  8
Layer 1
  62
0
  100
AcDb2dVertex
  10
429.44850
  20
267.76670
  30
0.00000
  42
0.0075
  70
32
  0
VERTEX
  5
602
  100
AcDbEntity
  8
Layer 1
  62
0
  100
AcDb2dVertex
  10
431.23650
  20
267.43440
  30
0.00000
  42
-0.1068
  70
32
  0
VERTEX
  5
603
  100
AcDbEntity
  8
Layer 1
  62
0
  100
AcDb2dVertex
  10
441.88440
  20
263.55840
  30
0.00000
  70
32
  0
SEQEND
  5
604
  100
AcDbEntity
  8
Layer 1
  62
0
  0
POLYLINE
  5
605
  100
AcDbEntity
  8
Layer 1
  62
0
  100
AcDb2dPolyline
 66
     1
  10
0
  20
0
  30
0
  70
1
  0
VERTEX
  5
606
  100
AcDbEntity
  8
Layer 1
  62
0
  100
AcDb2dVertex
  10
276.78870
  20
203.02510
  30
0.00000
  42
0.2029
  70
32
  0
VERTEX
  5
607
  100
AcDbEntity
  8
Layer 1
  62
0
  100
AcDb2dVertex
  10
275.51560
  20
203.73260
  30
0.00000
  42
-0.0064
  70
32
  0
VERTEX
  5
608
  100
AcDbEntity
  8
Layer 1
  62
0
  100
AcDb2dVertex
  10
275.00110
  20
203.69510
  30
0.00000
  42
-0.1540
  70
32
  0
VERTEX
  5
609
  100
AcDbEntity
  8
Layer 1
  62
0
  100
AcDb2dVertex
  10
274.73440
  20
203.80870
  30
0.00000
  70
32
  0
VERTEX
  5
60A
  100
AcDbEntity
  8
Layer 1
  62
0
  100
AcDb2dVertex
  10
271.89080
  20
206.62400
  30
0.00000
  42
-0.0746
  70
32
  0
VERTEX
  5
60B
  100
AcDbEntity
  8
Layer 1
  62
0
  100
AcDb2dVertex
  10
271.51410
  20
207.04810
  30
0.00000
  42
-0.2382
  70
32
  0
VERTEX
  5
60C
  100
AcDbEntity
  8
Layer 1
  62
0
  100
AcDb2dVertex
  10
271.51280
  20
207.15100
  30
0.00000
  42
-0.2873
  70
32
  0
VERTEX
  5
60D
  100
AcDbEntity
  8
Layer 1
  62
0
  100
AcDb2dVertex
  10
271.58720
  20
207.19730
  30
0.00000
  70
32
  0
VERTEX
  5
60E
  100
AcDbEntity
  8
Layer 1
  62
0
  100
AcDb2dVertex
  10
271.80700
  20
207.13870
  30
0.00000
  42
-0.0946
  70
32
  0
VERTEX
  5
60F
  100
AcDbEntity
  8
Layer 1
  62
0
  100
AcDb2dVertex
  10
282.77510
  20
199.43970
  30
0.00000
  42
-0.0608
  70
32
  0
VERTEX
  5
610
  100
AcDbEntity
  8
Layer 1
  62
0
  100
AcDb2dVertex
  10
288.10040
  20
192.40430
  30
0.00000
  42
-0.1045
  70
32
  0
VERTEX
  5
611
  100
AcDbEntity
  8
Layer 1
  62
0
  100
AcDb2dVertex
  10
288.31510
  20
191.96590
  30
0.00000
  42
-0.3207
  70
32
  0
VERTEX
  5
612
  100
AcDbEntity
  8
Layer 1
  62
0
  100
AcDb2dVertex
  10
288.27270
  20
191.88960
  30
0.00000
  42
-0.2627
  70
32
  0
VERTEX
  5
613
  100
AcDbEntity
  8
Layer 1
  62
0
  100
AcDb2dVertex
  10
288.17030
  20
191.89690
  30
0.00000
  70
32
  0
VERTEX
  5
614
  100
AcDbEntity
  8
Layer 1
  62
0
  100
AcDb2dVertex
  10
276.78870
  20
203.02510
  30
0.00000
  70
32
  0
SEQEND
  5
615
  100
AcDbEntity
  8
Layer 1
  62
0
  0
POLYLINE
  5
616
  100
AcDbEntity
  8
Layer 1
  62
0
  100
AcDb2dPolyline
 66
     1
  10
0
  20
0
  30
0
  70
1
  0
VERTEX
  5
617
  100
AcDbEntity
  8
Layer 1
  62
0
  100
AcDb2dVertex
  10
239.43360
  20
203.74330
  30
0.00000
  42
-0.1595
  70
32
  0
VERTEX
  5
618
  100
AcDbEntity
  8
Layer 1
  62
0
  100
AcDb2dVertex
  10
239.04410
  20
203.71130
  30
0.00000
  42
0.2128
  70
32
  0
VERTEX
  5
619
  100
AcDbEntity
  8
Layer 1
  62
0
  100
AcDb2dVertex
  10
237.84730
  20
203.37130
  30
0.00000
  70
32
  0
VERTEX
  5
61A
  100
AcDbEntity
  8
Layer 1
  62
0
  100
AcDb2dVertex
  10
232.92380
  20
198.53960
  30
0.00000
  70
32
  0
VERTEX
  5
61B
  100
AcDbEntity
  8
Layer 1
  62
0
  100
AcDb2dVertex
  10
226.73740
  20
192.49830
  30
0.00000
  42
-0.0371
  70
32
  0
VERTEX
  5
61C
  100
AcDbEntity
  8
Layer 1
  62
0
  100
AcDb2dVertex
  10
226.00960
  20
191.83400
  30
0.00000
  42
-0.2883
  70
32
  0
VERTEX
  5
61D
  100
AcDbEntity
  8
Layer 1
  62
0
  100
AcDb2dVertex
  10
225.96480
  20
191.83650
  30
0.00000
  42
-0.2882
  70
32
  0
VERTEX
  5
61E
  100
AcDbEntity
  8
Layer 1
  62
0
  100
AcDb2dVertex
  10
225.94760
  20
191.87790
  30
0.00000
  42
-0.0649
  70
32
  0
VERTEX
  5
61F
  100
AcDbEntity
  8
Layer 1
  62
0
  100
AcDb2dVertex
  10
226.31190
  20
192.60500
  30
0.00000
  42
-0.1480
  70
32
  0
VERTEX
  5
620
  100
AcDbEntity
  8
Layer 1
  62
0
  100
AcDb2dVertex
  10
241.43890
  20
206.64490
  30
0.00000
  42
-0.0322
  70
32
  0
VERTEX
  5
621
  100
AcDbEntity
  8
Layer 1
  62
0
  100
AcDb2dVertex
  10
242.77230
  20
207.24500
  30
0.00000
  42
-0.2909
  70
32
  0
VERTEX
  5
622
  100
AcDbEntity
  8
Layer 1
  62
0
  100
AcDb2dVertex
  10
242.81730
  20
207.22750
  30
0.00000
  42
-0.2373
  70
32
  0
VERTEX
  5
623
  100
AcDbEntity
  8
Layer 1
  62
0
  100
AcDb2dVertex
  10
242.82680
  20
207.17000
  30
0.00000
  42
-0.1116
  70
32
  0
VERTEX
  5
624
  100
AcDbEntity
  8
Layer 1
  62
0
  100
AcDb2dVertex
  10
242.70970
  20
206.97970
  30
0.00000
  70
32
  0
VERTEX
  5
625
  100
AcDbEntity
  8
Layer 1
  62
0
  100
AcDb2dVertex
  10
239.71290
  20
203.97700
  30
0.00000
  42
-0.0914
  70
32
  0
VERTEX
  5
626
  100
AcDbEntity
  8
Layer 1
  62
0
  100
AcDb2dVertex
  10
239.43360
  20
203.74330
  30
0.00000
  70
32
  0
SEQEND
  5
627
  100
AcDbEntity
  8
Layer 1
  62
0
  0
POLYLINE
  5
628
  100
AcDbEntity
  8
Layer 1
  62
0
  100
AcDb2dPolyline
 66
     1
  10
0
  20
0
  30
0
  70
1
  0
VERTEX
  5
629
  100
AcDbEntity
  8
Layer 1
  62
0
  100
AcDb2dVertex
  10
266.26400
  20
183.65320
  30
0.00000
  70
32
  0
VERTEX
  5
62A
  100
AcDbEntity
  8
Layer 1
  62
0
  100
AcDb2dVertex
  10
259.57290
  20
190.32910
  30
0.00000
  42
-0.0576
  70
32
  0
VERTEX
  5
62B
  100
AcDbEntity
  8
Layer 1
  62
0
  100
AcDb2dVertex
  10
259.50470
  20
190.43350
  30
0.00000
  42
-0.1189
  70
32
  0
VERTEX
  5
62C
  100
AcDbEntity
  8
Layer 1
  62
0
  100
AcDb2dVertex
  10
259.49090
  20
190.49300
  30
0.00000
  42
-0.1493
  70
32
  0
VERTEX
  5
62D
  100
AcDbEntity
  8
Layer 1
  62
0
  100
AcDb2dVertex
  10
259.57060
  20
190.68680
  30
0.00000
  42
-0.0352
  70
32
  0
VERTEX
  5
62E
  100
AcDbEntity
  8
Layer 1
  62
0
  100
AcDb2dVertex
  10
260.38440
  20
191.50810
  30
0.00000
  42
-0.0526
  70
32
  0
VERTEX
  5
62F
  100
AcDbEntity
  8
Layer 1
  62
0
  100
AcDb2dVertex
  10
260.80810
  20
191.83340
  30
0.00000
  70
32
  0
VERTEX
  5
630
  100
AcDbEntity
  8
Layer 1
  62
0
  100
AcDb2dVertex
  10
261.02090
  20
191.87320
  30
0.00000
  42
-0.0682
  70
32
  0
VERTEX
  5
631
  100
AcDbEntity
  8
Layer 1
  62
0
  100
AcDb2dVertex
  10
261.66090
  20
191.79740
  30
0.00000
  42
-0.1946
  70
32
  0
VERTEX
  5
632
  100
AcDbEntity
  8
Layer 1
  62
0
  100
AcDb2dVertex
  10
272.35070
  20
183.86450
  30
0.00000
  42
-0.1135
  70
32
  0
VERTEX
  5
633
  100
AcDbEntity
  8
Layer 1
  62
0
  100
AcDb2dVertex
  10
274.89010
  20
176.34020
  30
0.00000
  42
-0.1172
  70
32
  0
VERTEX
  5
634
  100
AcDbEntity
  8
Layer 1
  62
0
  100
AcDb2dVertex
  10
274.88860
  20
176.11160
  30
0.00000
  42
-0.2416
  70
32
  0
VERTEX
  5
635
  100
AcDbEntity
  8
Layer 1
  62
0
  100
AcDb2dVertex
  10
274.84300
  20
176.06160
  30
0.00000
  42
-0.1997
  70
32
  0
VERTEX
  5
636
  100
AcDbEntity
  8
Layer 1
  62
0
  100
AcDb2dVertex
  10
274.76290
  20
176.06450
  30
0.00000
  70
32
  0
VERTEX
  5
637
  100
AcDbEntity
  8
Layer 1
  62
0
  100
AcDb2dVertex
  10
274.55010
  20
176.22090
  30
0.00000
  70
32
  0
VERTEX
  5
638
  100
AcDbEntity
  8
Layer 1
  62
0
  100
AcDb2dVertex
  10
268.16680
  20
182.56900
  30
0.00000
  42
0.1212
  70
32
  0
VERTEX
  5
639
  100
AcDbEntity
  8
Layer 1
  62
0
  100
AcDb2dVertex
  10
267.88220
  20
182.78120
  30
0.00000
  70
32
  0
VERTEX
  5
63A
  100
AcDbEntity
  8
Layer 1
  62
0
  100
AcDb2dVertex
  10
267.68240
  20
182.82590
  30
0.00000
  42
-0.0961
  70
32
  0
VERTEX
  5
63B
  100
AcDbEntity
  8
Layer 1
  62
0
  100
AcDb2dVertex
  10
267.43980
  20
182.92730
  30
0.00000
  42
-0.0136
  70
32
  0
VERTEX
  5
63C
  100
AcDbEntity
  8
Layer 1
  62
0
  100
AcDb2dVertex
  10
267.06630
  20
183.21370
  30
0.00000
  42
-0.0130
  70
32
  0
VERTEX
  5
63D
  100
AcDbEntity
  8
Layer 1
  62
0
  100
AcDb2dVertex
  10
266.26400
  20
183.65320
  30
0.00000
  70
32
  0
SEQEND
  5
63E
  100
AcDbEntity
  8
Layer 1
  62
0
  0
POLYLINE
  5
63F
  100
AcDbEntity
  8
Layer 1
  62
0
  100
AcDb2dPolyline
 66
     1
  10
0
  20
0
  30
0
  70
1
  0
VERTEX
  5
640
  100
AcDbEntity
  8
Layer 1
  62
0
  100
AcDb2dVertex
  10
253.13660
  20
191.90050
  30
0.00000
  42
-0.1385
  70
32
  0
VERTEX
  5
641
  100
AcDbEntity
  8
Layer 1
  62
0
  100
AcDb2dVertex
  10
253.51770
  20
191.83170
  30
0.00000
  42
-0.0333
  70
32
  0
VERTEX
  5
642
  100
AcDbEntity
  8
Layer 1
  62
0
  100
AcDb2dVertex
  10
254.51130
  20
190.89330
  30
0.00000
  42
-0.0783
  70
32
  0
VERTEX
  5
643
  100
AcDbEntity
  8
Layer 1
  62
0
  100
AcDb2dVertex
  10
254.75650
  20
190.58070
  30
0.00000
  42
-0.1345
  70
32
  0
VERTEX
  5
644
  100
AcDbEntity
  8
Layer 1
  62
0
  100
AcDb2dVertex
  10
254.77340
  20
190.46850
  30
0.00000
  42
-0.1174
  70
32
  0
VERTEX
  5
645
  100
AcDbEntity
  8
Layer 1
  62
0
  100
AcDb2dVertex
  10
254.72860
  20
190.34660
  30
0.00000
  42
-0.0057
  70
32
  0
VERTEX
  5
646
  100
AcDbEntity
  8
Layer 1
  62
0
  100
AcDb2dVertex
  10
250.18520
  20
185.75180
  30
0.00000
  42
-0.0819
  70
32
  0
VERTEX
  5
647
  100
AcDbEntity
  8
Layer 1
  62
0
  100
AcDb2dVertex
  10
247.03670
  20
183.03750
  30
0.00000
  70
32
  0
VERTEX
  5
648
  100
AcDbEntity
  8
Layer 1
  62
0
  100
AcDb2dVertex
  10
246.88070
  20
182.91010
  30
0.00000
  42
-0.1271
  70
32
  0
VERTEX
  5
649
  100
AcDbEntity
  8
Layer 1
  62
0
  100
AcDb2dVertex
  10
246.62000
  20
182.81780
  30
0.00000
  70
32
  0
VERTEX
  5
64A
  100
AcDbEntity
  8
Layer 1
  62
0
  100
AcDb2dVertex
  10
246.50300
  20
182.80480
  30
0.00000
  70
32
  0
VERTEX
  5
64B
  100
AcDbEntity
  8
Layer 1
  62
0
  100
AcDb2dVertex
  10
246.13600
  20
182.54560
  30
0.00000
  70
32
  0
VERTEX
  5
64C
  100
AcDbEntity
  8
Layer 1
  62
0
  100
AcDb2dVertex
  10
240.18260
  20
176.60780
  30
0.00000
  42
-0.0343
  70
32
  0
VERTEX
  5
64D
  100
AcDbEntity
  8
Layer 1
  62
0
  100
AcDb2dVertex
  10
239.65130
  20
176.09670
  30
0.00000
  42
-0.1758
  70
32
  0
VERTEX
  5
64E
  100
AcDbEntity
  8
Layer 1
  62
0
  100
AcDb2dVertex
  10
239.55500
  20
176.07280
  30
0.00000
  42
-0.1984
  70
32
  0
VERTEX
  5
64F
  100
AcDbEntity
  8
Layer 1
  62
0
  100
AcDb2dVertex
  10
239.47750
  20
176.11520
  30
0.00000
  42
-0.1698
  70
32
  0
VERTEX
  5
650
  100
AcDbEntity
  8
Layer 1
  62
0
  100
AcDb2dVertex
  10
239.40500
  20
176.31930
  30
0.00000
  42
-0.3219
  70
32
  0
VERTEX
  5
651
  100
AcDbEntity
  8
Layer 1
  62
0
  100
AcDb2dVertex
  10
253.13660
  20
191.90050
  30
0.00000
  70
32
  0
SEQEND
  5
652
  100
AcDbEntity
  8
Layer 1
  62
0
  0
POLYLINE
  5
653
  100
AcDbEntity
  8
Layer 1
  62
0
  100
AcDb2dPolyline
 66
     1
  10
0
  20
0
  30
0
  70
1
  0
VERTEX
  5
654
  100
AcDbEntity
  8
Layer 1
  62
0
  100
AcDb2dVertex
  10
221.76910
  20
187.68750
  30
0.00000
  70
32
  0
VERTEX
  5
655
  100
AcDbEntity
  8
Layer 1
  62
0
  100
AcDb2dVertex
  10
212.27380
  20
178.28670
  30
0.00000
  42
0.0060
  70
32
  0
VERTEX
  5
656
  100
AcDbEntity
  8
Layer 1
  62
0
  100
AcDb2dVertex
  10
211.22310
  20
177.23650
  30
0.00000
  42
0.0712
  70
32
  0
VERTEX
  5
657
  100
AcDbEntity
  8
Layer 1
  62
0
  100
AcDb2dVertex
  10
210.57400
  20
176.19430
  30
0.00000
  70
32
  0
VERTEX
  5
658
  100
AcDbEntity
  8
Layer 1
  62
0
  100
AcDb2dVertex
  10
210.51750
  20
175.96930
  30
0.00000
  42
-0.1036
  70
32
  0
VERTEX
  5
659
  100
AcDbEntity
  8
Layer 1
  62
0
  100
AcDb2dVertex
  10
210.26930
  20
175.56710
  30
0.00000
  70
32
  0
VERTEX
  5
65A
  100
AcDbEntity
  8
Layer 1
  62
0
  100
AcDb2dVertex
  10
205.31360
  20
170.61330
  30
0.00000
  42
-0.1484
  70
32
  0
VERTEX
  5
65B
  100
AcDbEntity
  8
Layer 1
  62
0
  100
AcDb2dVertex
  10
205.21580
  20
170.58120
  30
0.00000
  42
-0.1822
  70
32
  0
VERTEX
  5
65C
  100
AcDbEntity
  8
Layer 1
  62
0
  100
AcDb2dVertex
  10
205.13570
  20
170.60910
  30
0.00000
  42
-0.1900
  70
32
  0
VERTEX
  5
65D
  100
AcDbEntity
  8
Layer 1
  62
0
  100
AcDb2dVertex
  10
205.03990
  20
170.78610
  30
0.00000
  42
-0.3689
  70
32
  0
VERTEX
  5
65E
  100
AcDbEntity
  8
Layer 1
  62
0
  100
AcDb2dVertex
  10
245.25890
  20
225.45630
  30
0.00000
  42
-0.0349
  70
32
  0
VERTEX
  5
65F
  100
AcDbEntity
  8
Layer 1
  62
0
  100
AcDb2dVertex
  10
249.29320
  20
226.16130
  30
0.00000
  42
-0.1898
  70
32
  0
VERTEX
  5
660
  100
AcDbEntity
  8
Layer 1
  62
0
  100
AcDb2dVertex
  10
249.59890
  20
226.02410
  30
0.00000
  70
32
  0
VERTEX
  5
661
  100
AcDbEntity
  8
Layer 1
  62
0
  100
AcDb2dVertex
  10
255.16260
  20
220.51210
  30
0.00000
  42
-0.0797
  70
32
  0
VERTEX
  5
662
  100
AcDbEntity
  8
Layer 1
  62
0
  100
AcDb2dVertex
  10
255.56030
  20
220.05280
  30
0.00000
  42
-0.3043
  70
32
  0
VERTEX
  5
663
  100
AcDbEntity
  8
Layer 1
  62
0
  100
AcDb2dVertex
  10
255.50370
  20
219.75460
  30
0.00000
  70
32
  0
VERTEX
  5
664
  100
AcDbEntity
  8
Layer 1
  62
0
  100
AcDb2dVertex
  10
248.20310
  20
212.44630
  30
0.00000
  42
-0.0684
  70
32
  0
VERTEX
  5
665
  100
AcDbEntity
  8
Layer 1
  62
0
  100
AcDb2dVertex
  10
246.06860
  20
210.53360
  30
0.00000
  42
0.1903
  70
32
  0
VERTEX
  5
666
  100
AcDbEntity
  8
Layer 1
  62
0
  100
AcDb2dVertex
  10
224.38270
  20
193.03430
  30
0.00000
  42
0.0186
  70
32
  0
VERTEX
  5
667
  100
AcDbEntity
  8
Layer 1
  62
0
  100
AcDb2dVertex
  10
221.76910
  20
187.68750
  30
0.00000
  70
32
  0
SEQEND
  5
668
  100
AcDbEntity
  8
Layer 1
  62
0
  0
POLYLINE
  5
669
  100
AcDbEntity
  8
Layer 1
  62
0
  100
AcDb2dPolyline
 66
     1
  10
0
  20
0
  30
0
  70
1
  0
VERTEX
  5
66A
  100
AcDbEntity
  8
Layer 1
  62
0
  100
AcDb2dVertex
  10
292.38440
  20
187.91200
  30
0.00000
  42
0.2106
  70
32
  0
VERTEX
  5
66B
  100
AcDbEntity
  8
Layer 1
  62
0
  100
AcDb2dVertex
  10
270.60100
  20
209.68170
  30
0.00000
  42
-0.0232
  70
32
  0
VERTEX
  5
66C
  100
AcDbEntity
  8
Layer 1
  62
0
  100
AcDb2dVertex
  10
267.83130
  20
210.74310
  30
0.00000
  70
32
  0
VERTEX
  5
66D
  100
AcDbEntity
  8
Layer 1
  62
0
  100
AcDb2dVertex
  10
259.09870
  20
219.39690
  30
0.00000
  42
-0.1034
  70
32
  0
VERTEX
  5
66E
  100
AcDbEntity
  8
Layer 1
  62
0
  100
AcDb2dVertex
  10
258.72460
  20
219.84430
  30
0.00000
  42
-0.2739
  70
32
  0
VERTEX
  5
66F
  100
AcDbEntity
  8
Layer 1
  62
0
  100
AcDb2dVertex
  10
258.81810
  20
220.20660
  30
0.00000
  42
-0.0061
  70
32
  0
VERTEX
  5
670
  100
AcDbEntity
  8
Layer 1
  62
0
  100
AcDb2dVertex
  10
264.64060
  20
225.99740
  30
0.00000
  42
-0.2124
  70
32
  0
VERTEX
  5
671
  100
AcDbEntity
  8
Layer 1
  62
0
  100
AcDb2dVertex
  10
265.28130
  20
226.15210
  30
0.00000
  42
-0.3488
  70
32
  0
VERTEX
  5
672
  100
AcDbEntity
  8
Layer 1
  62
0
  100
AcDb2dVertex
  10
309.28640
  20
178.32530
  30
0.00000
  42
-0.0395
  70
32
  0
VERTEX
  5
673
  100
AcDbEntity
  8
Layer 1
  62
0
  100
AcDb2dVertex
  10
309.31170
  20
171.51320
  30
0.00000
  42
-0.0429
  70
32
  0
VERTEX
  5
674
  100
AcDbEntity
  8
Layer 1
  62
0
  100
AcDb2dVertex
  10
309.26170
  20
170.66510
  30
0.00000
  42
-0.2148
  70
32
  0
VERTEX
  5
675
  100
AcDbEntity
  8
Layer 1
  62
0
  100
AcDb2dVertex
  10
309.16920
  20
170.55600
  30
0.00000
  42
-0.2507
  70
32
  0
VERTEX
  5
676
  100
AcDbEntity
  8
Layer 1
  62
0
  100
AcDb2dVertex
  10
309.04460
  20
170.56180
  30
0.00000
  70
32
  0
VERTEX
  5
677
  100
AcDbEntity
  8
Layer 1
  62
0
  100
AcDb2dVertex
  10
308.69920
  20
170.86280
  30
0.00000
  70
32
  0
VERTEX
  5
678
  100
AcDbEntity
  8
Layer 1
  62
0
  100
AcDb2dVertex
  10
304.25990
  20
175.29550
  30
0.00000
  42
-0.1303
  70
32
  0
VERTEX
  5
679
  100
AcDbEntity
  8
Layer 1
  62
0
  100
AcDb2dVertex
  10
303.80890
  20
175.88560
  30
0.00000
  42
0.1089
  70
32
  0
VERTEX
  5
67A
  100
AcDbEntity
  8
Layer 1
  62
0
  100
AcDb2dVertex
  10
303.44550
  20
176.81360
  30
0.00000
  70
32
  0
VERTEX
  5
67B
  100
AcDbEntity
  8
Layer 1
  62
0
  100
AcDb2dVertex
  10
295.92740
  20
184.25820
  30
0.00000
  42
-0.0264
  70
32
  0
VERTEX
  5
67C
  100
AcDbEntity
  8
Layer 1
  62
0
  100
AcDb2dVertex
  10
292.38440
  20
187.91200
  30
0.00000
  70
32
  0
SEQEND
  5
67D
  100
AcDbEntity
  8
Layer 1
  62
0
  0
POLYLINE
  5
67E
  100
AcDbEntity
  8
Layer 1
  62
0
  100
AcDb2dPolyline
 66
     1
  10
0
  20
0
  30
0
  70
1
  0
VERTEX
  5
67F
  100
AcDbEntity
  8
Layer 1
  62
0
  100
AcDb2dVertex
  10
265.25990
  20
172.99470
  30
0.00000
  42
-0.3294
  70
32
  0
VERTEX
  5
680
  100
AcDbEntity
  8
Layer 1
  62
0
  100
AcDb2dVertex
  10
266.79000
  20
173.38770
  30
0.00000
  42
-0.0728
  70
32
  0
VERTEX
  5
681
  100
AcDbEntity
  8
Layer 1
  62
0
  100
AcDb2dVertex
  10
267.88900
  20
172.35790
  30
0.00000
  42
-0.2686
  70
32
  0
VERTEX
  5
682
  100
AcDbEntity
  8
Layer 1
  62
0
  100
AcDb2dVertex
  10
267.93570
  20
172.02280
  30
0.00000
  42
-0.2171
  70
32
  0
VERTEX
  5
683
  100
AcDbEntity
  8
Layer 1
  62
0
  100
AcDb2dVertex
  10
266.37840
  20
170.54690
  30
0.00000
  42
0.0606
  70
32
  0
VERTEX
  5
684
  100
AcDbEntity
  8
Layer 1
  62
0
  100
AcDb2dVertex
  10
265.93800
  20
170.40110
  30
0.00000
  42
0.1650
  70
32
  0
VERTEX
  5
685
  100
AcDbEntity
  8
Layer 1
  62
0
  100
AcDb2dVertex
  10
265.82020
  20
170.25480
  30
0.00000
  42
0.2302
  70
32
  0
VERTEX
  5
686
  100
AcDbEntity
  8
Layer 1
  62
0
  100
AcDb2dVertex
  10
265.83410
  20
170.11740
  30
0.00000
  42
0.2218
  70
32
  0
VERTEX
  5
687
  100
AcDbEntity
  8
Layer 1
  62
0
  100
AcDb2dVertex
  10
266.18200
  20
169.91970
  30
0.00000
  42
0.2529
  70
32
  0
VERTEX
  5
688
  100
AcDbEntity
  8
Layer 1
  62
0
  100
AcDb2dVertex
  10
268.27640
  20
171.06010
  30
0.00000
  42
-0.0577
  70
32
  0
VERTEX
  5
689
  100
AcDbEntity
  8
Layer 1
  62
0
  100
AcDb2dVertex
  10
268.60120
  20
171.45650
  30
0.00000
  42
-0.2782
  70
32
  0
VERTEX
  5
68A
  100
AcDbEntity
  8
Layer 1
  62
0
  100
AcDb2dVertex
  10
268.74890
  20
171.49300
  30
0.00000
  70
32
  0
VERTEX
  5
68B
  100
AcDbEntity
  8
Layer 1
  62
0
  100
AcDb2dVertex
  10
268.91890
  20
171.36900
  30
0.00000
  42
-0.1263
  70
32
  0
VERTEX
  5
68C
  100
AcDbEntity
  8
Layer 1
  62
0
  100
AcDb2dVertex
  10
269.57630
  20
170.44780
  30
0.00000
  42
-0.1898
  70
32
  0
VERTEX
  5
68D
  100
AcDbEntity
  8
Layer 1
  62
0
  100
AcDb2dVertex
  10
269.50880
  20
170.01260
  30
0.00000
  42
-0.1255
  70
32
  0
VERTEX
  5
68E
  100
AcDbEntity
  8
Layer 1
  62
0
  100
AcDb2dVertex
  10
268.27190
  20
168.74240
  30
0.00000
  42
-0.3418
  70
32
  0
VERTEX
  5
68F
  100
AcDbEntity
  8
Layer 1
  62
0
  100
AcDb2dVertex
  10
266.96530
  20
168.76270
  30
0.00000
  42
-0.0367
  70
32
  0
VERTEX
  5
690
  100
AcDbEntity
  8
Layer 1
  62
0
  100
AcDb2dVertex
  10
264.86140
  20
170.84340
  30
0.00000
  42
-0.1824
  70
32
  0
VERTEX
  5
691
  100
AcDbEntity
  8
Layer 1
  62
0
  100
AcDb2dVertex
  10
264.44760
  20
171.71320
  30
0.00000
  42
-0.2086
  70
32
  0
VERTEX
  5
692
  100
AcDbEntity
  8
Layer 1
  62
0
  100
AcDb2dVertex
  10
265.25990
  20
172.99470
  30
0.00000
  70
32
  0
SEQEND
  5
693
  100
AcDbEntity
  8
Layer 1
  62
0
  0
POLYLINE
  5
694
  100
AcDbEntity
  8
Layer 1
  62
0
  100
AcDb2dPolyline
 66
     1
  10
0
  20
0
  30
0
  70
1
  0
VERTEX
  5
695
  100
AcDbEntity
  8
Layer 1
  62
0
  100
AcDb2dVertex
  10
249.61810
  20
171.07370
  30
0.00000
  42
-0.0425
  70
32
  0
VERTEX
  5
696
  100
AcDbEntity
  8
Layer 1
  62
0
  100
AcDb2dVertex
  10
247.60140
  20
168.97780
  30
0.00000
  42
-0.2885
  70
32
  0
VERTEX
  5
697
  100
AcDbEntity
  8
Layer 1
  62
0
  100
AcDb2dVertex
  10
246.34470
  20
168.57920
  30
0.00000
  42
-0.1164
  70
32
  0
VERTEX
  5
698
  100
AcDbEntity
  8
Layer 1
  62
0
  100
AcDb2dVertex
  10
245.03840
  20
169.57200
  30
0.00000
  42
-0.4372
  70
32
  0
VERTEX
  5
699
  100
AcDbEntity
  8
Layer 1
  62
0
  100
AcDb2dVertex
  10
245.06990
  20
171.03660
  30
0.00000
  42
-0.1038
  70
32
  0
VERTEX
  5
69A
  100
AcDbEntity
  8
Layer 1
  62
0
  100
AcDb2dVertex
  10
245.48510
  20
171.43590
  30
0.00000
  42
-0.2876
  70
32
  0
VERTEX
  5
69B
  100
AcDbEntity
  8
Layer 1
  62
0
  100
AcDb2dVertex
  10
245.68730
  20
171.43910
  30
0.00000
  42
-0.0812
  70
32
  0
VERTEX
  5
69C
  100
AcDbEntity
  8
Layer 1
  62
0
  100
AcDb2dVertex
  10
245.88840
  20
171.22410
  30
0.00000
  42
0.2612
  70
32
  0
VERTEX
  5
69D
  100
AcDbEntity
  8
Layer 1
  62
0
  100
AcDb2dVertex
  10
248.00340
  20
169.91160
  30
0.00000
  42
0.2565
  70
32
  0
VERTEX
  5
69E
  100
AcDbEntity
  8
Layer 1
  62
0
  100
AcDb2dVertex
  10
248.48530
  20
170.13290
  30
0.00000
  42
0.4050
  70
32
  0
VERTEX
  5
69F
  100
AcDbEntity
  8
Layer 1
  62
0
  100
AcDb2dVertex
  10
248.43290
  20
170.37560
  30
0.00000
  42
0.0991
  70
32
  0
VERTEX
  5
6A0
  100
AcDbEntity
  8
Layer 1
  62
0
  100
AcDb2dVertex
  10
248.19880
  20
170.47360
  30
0.00000
  42
-0.2567
  70
32
  0
VERTEX
  5
6A1
  100
AcDbEntity
  8
Layer 1
  62
0
  100
AcDb2dVertex
  10
246.34050
  20
172.03220
  30
0.00000
  42
-0.1888
  70
32
  0
VERTEX
  5
6A2
  100
AcDbEntity
  8
Layer 1
  62
0
  100
AcDb2dVertex
  10
246.32220
  20
172.25160
  30
0.00000
  42
-0.1029
  70
32
  0
VERTEX
  5
6A3
  100
AcDbEntity
  8
Layer 1
  62
0
  100
AcDb2dVertex
  10
246.47020
  20
172.47530
  30
0.00000
  42
-0.0289
  70
32
  0
VERTEX
  5
6A4
  100
AcDbEntity
  8
Layer 1
  62
0
  100
AcDb2dVertex
  10
247.17900
  20
173.14190
  30
0.00000
  42
-0.2270
  70
32
  0
VERTEX
  5
6A5
  100
AcDbEntity
  8
Layer 1
  62
0
  100
AcDb2dVertex
  10
248.02030
  20
173.49380
  30
0.00000
  42
-0.1601
  70
32
  0
VERTEX
  5
6A6
  100
AcDbEntity
  8
Layer 1
  62
0
  100
AcDb2dVertex
  10
249.27590
  20
172.77630
  30
0.00000
  42
-0.4005
  70
32
  0
VERTEX
  5
6A7
  100
AcDbEntity
  8
Layer 1
  62
0
  100
AcDb2dVertex
  10
249.61810
  20
171.07370
  30
0.00000
  70
32
  0
SEQEND
  5
6A8
  100
AcDbEntity
  8
Layer 1
  62
0
  0
POLYLINE
  5
6A9
  100
AcDbEntity
  8
Layer 1
  62
0
  100
AcDb2dPolyline
 66
     1
  10
0
  20
0
  30
0
  70
1
  0
VERTEX
  5
6AA
  100
AcDbEntity
  8
Layer 1
  62
0
  100
AcDb2dVertex
  10
307.38480
  20
162.10080
  30
0.00000
  42
-0.4074
  70
32
  0
VERTEX
  5
6AB
  100
AcDbEntity
  8
Layer 1
  62
0
  100
AcDb2dVertex
  10
307.75160
  20
161.44310
  30
0.00000
  42
-0.0159
  70
32
  0
VERTEX
  5
6AC
  100
AcDbEntity
  8
Layer 1
  62
0
  100
AcDb2dVertex
  10
307.24650
  20
159.60350
  30
0.00000
  42
-0.0644
  70
32
  0
VERTEX
  5
6AD
  100
AcDbEntity
  8
Layer 1
  62
0
  100
AcDb2dVertex
  10
307.07140
  20
159.10250
  30
0.00000
  70
32
  0
VERTEX
  5
6AE
  100
AcDbEntity
  8
Layer 1
  62
0
  100
AcDb2dVertex
  10
307.00470
  20
159.03680
  30
0.00000
  42
-0.2529
  70
32
  0
VERTEX
  5
6AF
  100
AcDbEntity
  8
Layer 1
  62
0
  100
AcDb2dVertex
  10
306.82660
  20
159.06010
  30
0.00000
  42
-0.0596
  70
32
  0
VERTEX
  5
6B0
  100
AcDbEntity
  8
Layer 1
  62
0
  100
AcDb2dVertex
  10
306.58310
  20
159.26140
  30
0.00000
  42
-0.0127
  70
32
  0
VERTEX
  5
6B1
  100
AcDbEntity
  8
Layer 1
  62
0
  100
AcDb2dVertex
  10
305.85160
  20
160.02530
  30
0.00000
  42
-0.3811
  70
32
  0
VERTEX
  5
6B2
  100
AcDbEntity
  8
Layer 1
  62
0
  100
AcDb2dVertex
  10
305.69290
  20
161.74670
  30
0.00000
  42
-0.3811
  70
32
  0
VERTEX
  5
6B3
  100
AcDbEntity
  8
Layer 1
  62
0
  100
AcDb2dVertex
  10
307.38480
  20
162.10080
  30
0.00000
  70
32
  0
SEQEND
  5
6B4
  100
AcDbEntity
  8
Layer 1
  62
0
  0
POLYLINE
  5
6B5
  100
AcDbEntity
  8
Layer 1
  62
0
  100
AcDb2dPolyline
 66
     1
  10
0
  20
0
  30
0
  70
1
  0
VERTEX
  5
6B6
  100
AcDbEntity
  8
Layer 1
  62
0
  100
AcDb2dVertex
  10
208.83940
  20
160.65230
  30
0.00000
  42
-0.0992
  70
32
  0
VERTEX
  5
6B7
  100
AcDbEntity
  8
Layer 1
  62
0
  100
AcDb2dVertex
  10
207.47750
  20
159.05690
  30
0.00000
  42
-0.1516
  70
32
  0
VERTEX
  5
6B8
  100
AcDbEntity
  8
Layer 1
  62
0
  100
AcDb2dVertex
  10
207.37070
  20
159.03430
  30
0.00000
  42
-0.1881
  70
32
  0
VERTEX
  5
6B9
  100
AcDbEntity
  8
Layer 1
  62
0
  100
AcDb2dVertex
  10
207.29130
  20
159.07390
  30
0.00000
  42
-0.0769
  70
32
  0
VERTEX
  5
6BA
  100
AcDbEntity
  8
Layer 1
  62
0
  100
AcDb2dVertex
  10
207.10570
  20
159.43840
  30
0.00000
  42
-0.0337
  70
32
  0
VERTEX
  5
6BB
  100
AcDbEntity
  8
Layer 1
  62
0
  100
AcDb2dVertex
  10
206.53330
  20
161.59200
  30
0.00000
  42
-0.2059
  70
32
  0
VERTEX
  5
6BC
  100
AcDbEntity
  8
Layer 1
  62
0
  100
AcDb2dVertex
  10
206.60320
  20
161.83000
  30
0.00000
  42
-0.3434
  70
32
  0
VERTEX
  5
6BD
  100
AcDbEntity
  8
Layer 1
  62
0
  100
AcDb2dVertex
  10
208.17980
  20
162.11200
  30
0.00000
  42
-0.3435
  70
32
  0
VERTEX
  5
6BE
  100
AcDbEntity
  8
Layer 1
  62
0
  100
AcDb2dVertex
  10
208.83940
  20
160.65230
  30
0.00000
  70
32
  0
SEQEND
  5
6BF
  100
AcDbEntity
  8
Layer 1
  62
0
  0
POLYLINE
  5
6C0
  100
AcDbEntity
  8
Layer 1
  62
0
  100
AcDb2dPolyline
 66
     1
  10
0
  20
0
  30
0
  70
1
  0
VERTEX
  5
6C1
  100
AcDbEntity
  8
Layer 1
  62
0
  100
AcDb2dVertex
  10
309.31850
  20
159.87880
  30
0.00000
  42
-0.1334
  70
32
  0
VERTEX
  5
6C2
  100
AcDbEntity
  8
Layer 1
  62
0
  100
AcDb2dVertex
  10
309.39910
  20
159.96990
  30
0.00000
  42
-0.1860
  70
32
  0
VERTEX
  5
6C3
  100
AcDbEntity
  8
Layer 1
  62
0
  100
AcDb2dVertex
  10
309.48600
  20
159.98890
  30
0.00000
  42
-0.1983
  70
32
  0
VERTEX
  5
6C4
  100
AcDbEntity
  8
Layer 1
  62
0
  100
AcDb2dVertex
  10
309.69450
  20
159.86320
  30
0.00000
  42
-0.1052
  70
32
  0
VERTEX
  5
6C5
  100
AcDbEntity
  8
Layer 1
  62
0
  100
AcDb2dVertex
  10
309.99830
  20
159.16530
  30
0.00000
  42
-0.3763
  70
32
  0
VERTEX
  5
6C6
  100
AcDbEntity
  8
Layer 1
  62
0
  100
AcDb2dVertex
  10
309.00300
  20
157.74770
  30
0.00000
  42
-0.1599
  70
32
  0
VERTEX
  5
6C7
  100
AcDbEntity
  8
Layer 1
  62
0
  100
AcDb2dVertex
  10
308.77230
  20
157.75290
  30
0.00000
  42
-0.2974
  70
32
  0
VERTEX
  5
6C8
  100
AcDbEntity
  8
Layer 1
  62
0
  100
AcDb2dVertex
  10
308.69860
  20
157.88320
  30
0.00000
  70
32
  0
VERTEX
  5
6C9
  100
AcDbEntity
  8
Layer 1
  62
0
  100
AcDb2dVertex
  10
308.76460
  20
158.13480
  30
0.00000
  42
-0.0092
  70
32
  0
VERTEX
  5
6CA
  100
AcDbEntity
  8
Layer 1
  62
0
  100
AcDb2dVertex
  10
309.31850
  20
159.87880
  30
0.00000
  70
32
  0
SEQEND
  5
6CB
  100
AcDbEntity
  8
Layer 1
  62
0
  0
POLYLINE
  5
6CC
  100
AcDbEntity
  8
Layer 1
  62
0
  100
AcDb2dPolyline
 66
     1
  10
0
  20
0
  30
0
  70
1
  0
VERTEX
  5
6CD
  100
AcDbEntity
  8
Layer 1
  62
0
  100
AcDb2dVertex
  10
204.63020
  20
159.90840
  30
0.00000
  42
-0.4020
  70
32
  0
VERTEX
  5
6CE
  100
AcDbEntity
  8
Layer 1
  62
0
  100
AcDb2dVertex
  10
204.90840
  20
159.95700
  30
0.00000
  42
-0.1349
  70
32
  0
VERTEX
  5
6CF
  100
AcDbEntity
  8
Layer 1
  62
0
  100
AcDb2dVertex
  10
205.03140
  20
159.74540
  30
0.00000
  70
32
  0
VERTEX
  5
6D0
  100
AcDbEntity
  8
Layer 1
  62
0
  100
AcDb2dVertex
  10
205.28360
  20
158.93780
  30
0.00000
  70
32
  0
VERTEX
  5
6D1
  100
AcDbEntity
  8
Layer 1
  62
0
  100
AcDb2dVertex
  10
205.40950
  20
158.52530
  30
0.00000
  42
-0.0637
  70
32
  0
VERTEX
  5
6D2
  100
AcDbEntity
  8
Layer 1
  62
0
  100
AcDb2dVertex
  10
205.55520
  20
157.99210
  30
0.00000
  42
-0.5248
  70
32
  0
VERTEX
  5
6D3
  100
AcDbEntity
  8
Layer 1
  62
0
  100
AcDb2dVertex
  10
205.29850
  20
157.73990
  30
0.00000
  42
-0.5726
  70
32
  0
VERTEX
  5
6D4
  100
AcDbEntity
  8
Layer 1
  62
0
  100
AcDb2dVertex
  10
204.63020
  20
159.90840
  30
0.00000
  70
32
  0
SEQEND
  5
6D5
  100
AcDbEntity
  8
Layer 1
  62
0
  0
POLYLINE
  5
6D6
  100
AcDbEntity
  8
Layer 1
  62
0
  100
AcDb2dPolyline
 66
     1
  10
0
  20
0
  30
0
  70
1
  0
VERTEX
  5
6D7
  100
AcDbEntity
  8
Layer 1
  62
0
  100
AcDb2dVertex
  10
269.84490
  20
164.05410
  30
0.00000
  42
-0.1838
  70
32
  0
VERTEX
  5
6D8
  100
AcDbEntity
  8
Layer 1
  62
0
  100
AcDb2dVertex
  10
267.24820
  20
161.22730
  30
0.00000
  42
0.0931
  70
32
  0
VERTEX
  5
6D9
  100
AcDbEntity
  8
Layer 1
  62
0
  100
AcDb2dVertex
  10
266.99960
  20
161.07110
  30
0.00000
  42
0.2294
  70
32
  0
VERTEX
  5
6DA
  100
AcDbEntity
  8
Layer 1
  62
0
  100
AcDb2dVertex
  10
266.93210
  20
160.86360
  30
0.00000
  42
0.1297
  70
32
  0
VERTEX
  5
6DB
  100
AcDbEntity
  8
Layer 1
  62
0
  100
AcDb2dVertex
  10
267.05840
  20
160.60880
  30
0.00000
  42
-0.0356
  70
32
  0
VERTEX
  5
6DC
  100
AcDbEntity
  8
Layer 1
  62
0
  100
AcDb2dVertex
  10
267.31580
  20
160.22560
  30
0.00000
  42
-0.2361
  70
32
  0
VERTEX
  5
6DD
  100
AcDbEntity
  8
Layer 1
  62
0
  100
AcDb2dVertex
  10
267.33070
  20
160.01940
  30
0.00000
  42
-0.1095
  70
32
  0
VERTEX
  5
6DE
  100
AcDbEntity
  8
Layer 1
  62
0
  100
AcDb2dVertex
  10
267.13110
  20
159.79330
  30
0.00000
  42
-0.0638
  70
32
  0
VERTEX
  5
6DF
  100
AcDbEntity
  8
Layer 1
  62
0
  100
AcDb2dVertex
  10
263.35500
  20
157.81550
  30
0.00000
  42
-0.2443
  70
32
  0
VERTEX
  5
6E0
  100
AcDbEntity
  8
Layer 1
  62
0
  100
AcDb2dVertex
  10
246.99490
  20
159.88770
  30
0.00000
  42
-0.2123
  70
32
  0
VERTEX
  5
6E1
  100
AcDbEntity
  8
Layer 1
  62
0
  100
AcDb2dVertex
  10
246.91080
  20
160.03750
  30
0.00000
  42
-0.1740
  70
32
  0
VERTEX
  5
6E2
  100
AcDbEntity
  8
Layer 1
  62
0
  100
AcDb2dVertex
  10
246.98490
  20
160.24670
  30
0.00000
  42
-0.0063
  70
32
  0
VERTEX
  5
6E3
  100
AcDbEntity
  8
Layer 1
  62
0
  100
AcDb2dVertex
  10
247.32360
  20
160.72690
  30
0.00000
  42
0.3113
  70
32
  0
VERTEX
  5
6E4
  100
AcDbEntity
  8
Layer 1
  62
0
  100
AcDb2dVertex
  10
247.32260
  20
161.02360
  30
0.00000
  42
0.1135
  70
32
  0
VERTEX
  5
6E5
  100
AcDbEntity
  8
Layer 1
  62
0
  100
AcDb2dVertex
  10
247.10210
  20
161.19470
  30
0.00000
  42
-0.0349
  70
32
  0
VERTEX
  5
6E6
  100
AcDbEntity
  8
Layer 1
  62
0
  100
AcDb2dVertex
  10
246.10170
  20
161.76860
  30
0.00000
  42
-0.0848
  70
32
  0
VERTEX
  5
6E7
  100
AcDbEntity
  8
Layer 1
  62
0
  100
AcDb2dVertex
  10
244.10830
  20
164.69730
  30
0.00000
  42
-0.3373
  70
32
  0
VERTEX
  5
6E8
  100
AcDbEntity
  8
Layer 1
  62
0
  100
AcDb2dVertex
  10
244.30210
  20
168.59880
  30
0.00000
  42
-0.2999
  70
32
  0
VERTEX
  5
6E9
  100
AcDbEntity
  8
Layer 1
  62
0
  100
AcDb2dVertex
  10
244.83600
  20
168.81080
  30
0.00000
  42
-0.1022
  70
32
  0
VERTEX
  5
6EA
  100
AcDbEntity
  8
Layer 1
  62
0
  100
AcDb2dVertex
  10
245.50200
  20
168.34960
  30
0.00000
  42
0.3263
  70
32
  0
VERTEX
  5
6EB
  100
AcDbEntity
  8
Layer 1
  62
0
  100
AcDb2dVertex
  10
247.17750
  20
168.01680
  30
0.00000
  42
0.0928
  70
32
  0
VERTEX
  5
6EC
  100
AcDbEntity
  8
Layer 1
  62
0
  100
AcDb2dVertex
  10
249.90270
  20
170.45060
  30
0.00000
  42
0.4154
  70
32
  0
VERTEX
  5
6ED
  100
AcDbEntity
  8
Layer 1
  62
0
  100
AcDb2dVertex
  10
250.09160
  20
172.55670
  30
0.00000
  42
-0.0713
  70
32
  0
VERTEX
  5
6EE
  100
AcDbEntity
  8
Layer 1
  62
0
  100
AcDb2dVertex
  10
249.27660
  20
173.79080
  30
0.00000
  42
-0.3023
  70
32
  0
VERTEX
  5
6EF
  100
AcDbEntity
  8
Layer 1
  62
0
  100
AcDb2dVertex
  10
249.40890
  20
174.29160
  30
0.00000
  42
0.0080
  70
32
  0
VERTEX
  5
6F0
  100
AcDbEntity
  8
Layer 1
  62
0
  100
AcDb2dVertex
  10
251.44510
  20
176.34170
  30
0.00000
  42
0.1215
  70
32
  0
VERTEX
  5
6F1
  100
AcDbEntity
  8
Layer 1
  62
0
  100
AcDb2dVertex
  10
251.61830
  20
176.58580
  30
0.00000
  42
0.2225
  70
32
  0
VERTEX
  5
6F2
  100
AcDbEntity
  8
Layer 1
  62
0
  100
AcDb2dVertex
  10
251.60020
  20
176.80720
  30
0.00000
  70
32
  0
VERTEX
  5
6F3
  100
AcDbEntity
  8
Layer 1
  62
0
  100
AcDb2dVertex
  10
251.41800
  20
176.98590
  30
0.00000
  42
-0.2970
  70
32
  0
VERTEX
  5
6F4
  100
AcDbEntity
  8
Layer 1
  62
0
  100
AcDb2dVertex
  10
250.63810
  20
179.33510
  30
0.00000
  42
0.1178
  70
32
  0
VERTEX
  5
6F5
  100
AcDbEntity
  8
Layer 1
  62
0
  100
AcDb2dVertex
  10
250.65940
  20
179.57560
  30
0.00000
  70
32
  0
VERTEX
  5
6F6
  100
AcDbEntity
  8
Layer 1
  62
0
  100
AcDb2dVertex
  10
250.61790
  20
179.64570
  30
0.00000
  42
0.0471
  70
32
  0
VERTEX
  5
6F7
  100
AcDbEntity
  8
Layer 1
  62
0
  100
AcDb2dVertex
  10
250.54650
  20
179.78080
  30
0.00000
  42
-0.2540
  70
32
  0
VERTEX
  5
6F8
  100
AcDbEntity
  8
Layer 1
  62
0
  100
AcDb2dVertex
  10
250.55630
  20
179.92030
  30
0.00000
  42
-0.0318
  70
32
  0
VERTEX
  5
6F9
  100
AcDbEntity
  8
Layer 1
  62
0
  100
AcDb2dVertex
  10
250.87780
  20
180.27460
  30
0.00000
  70
32
  0
VERTEX
  5
6FA
  100
AcDbEntity
  8
Layer 1
  62
0
  100
AcDb2dVertex
  10
254.22290
  20
183.61990
  30
0.00000
  42
0.0291
  70
32
  0
VERTEX
  5
6FB
  100
AcDbEntity
  8
Layer 1
  62
0
  100
AcDb2dVertex
  10
255.05460
  20
184.46850
  30
0.00000
  42
0.1620
  70
32
  0
VERTEX
  5
6FC
  100
AcDbEntity
  8
Layer 1
  62
0
  100
AcDb2dVertex
  10
255.12890
  20
184.71110
  30
0.00000
  70
32
  0
VERTEX
  5
6FD
  100
AcDbEntity
  8
Layer 1
  62
0
  100
AcDb2dVertex
  10
255.09930
  20
184.84700
  30
0.00000
  42
-0.0747
  70
32
  0
VERTEX
  5
6FE
  100
AcDbEntity
  8
Layer 1
  62
0
  100
AcDb2dVertex
  10
254.96380
  20
185.78120
  30
0.00000
  42
-0.0755
  70
32
  0
VERTEX
  5
6FF
  100
AcDbEntity
  8
Layer 1
  62
0
  100
AcDb2dVertex
  10
255.12810
  20
186.20750
  30
0.00000
  42
-0.0220
  70
32
  0
VERTEX
  5
700
  100
AcDbEntity
  8
Layer 1
  62
0
  100
AcDb2dVertex
  10
256.70290
  20
187.85110
  30
0.00000
  42
-0.1040
  70
32
  0
VERTEX
  5
701
  100
AcDbEntity
  8
Layer 1
  62
0
  100
AcDb2dVertex
  10
257.06970
  20
188.14060
  30
0.00000
  42
-0.2326
  70
32
  0
VERTEX
  5
702
  100
AcDbEntity
  8
Layer 1
  62
0
  100
AcDb2dVertex
  10
257.23780
  20
188.14100
  30
0.00000
  70
32
  0
VERTEX
  5
703
  100
AcDbEntity
  8
Layer 1
  62
0
  100
AcDb2dVertex
  10
257.41250
  20
187.99360
  30
0.00000
  42
-0.0117
  70
32
  0
VERTEX
  5
704
  100
AcDbEntity
  8
Layer 1
  62
0
  100
AcDb2dVertex
  10
259.09970
  20
186.28420
  30
0.00000
  70
32
  0
VERTEX
  5
705
  100
AcDbEntity
  8
Layer 1
  62
0
  100
AcDb2dVertex
  10
259.21270
  20
186.17210
  30
0.00000
  42
-0.2152
  70
32
  0
VERTEX
  5
706
  100
AcDbEntity
  8
Layer 1
  62
0
  100
AcDb2dVertex
  10
259.28230
  20
185.17430
  30
0.00000
  42
-0.0465
  70
32
  0
VERTEX
  5
707
  100
AcDbEntity
  8
Layer 1
  62
0
  100
AcDb2dVertex
  10
259.18370
  20
184.84380
  30
0.00000
  42
0.2915
  70
32
  0
VERTEX
  5
708
  100
AcDbEntity
  8
Layer 1
  62
0
  100
AcDb2dVertex
  10
259.30230
  20
184.39540
  30
0.00000
  70
32
  0
VERTEX
  5
709
  100
AcDbEntity
  8
Layer 1
  62
0
  100
AcDb2dVertex
  10
263.54970
  20
180.12460
  30
0.00000
  42
-0.0964
  70
32
  0
VERTEX
  5
70A
  100
AcDbEntity
  8
Layer 1
  62
0
  100
AcDb2dVertex
  10
263.67280
  20
179.91560
  30
0.00000
  42
-0.1072
  70
32
  0
VERTEX
  5
70B
  100
AcDbEntity
  8
Layer 1
  62
0
  100
AcDb2dVertex
  10
263.70030
  20
179.69850
  30
0.00000
  42
0.0398
  70
32
  0
VERTEX
  5
70C
  100
AcDbEntity
  8
Layer 1
  62
0
  100
AcDb2dVertex
  10
263.68050
  20
179.37260
  30
0.00000
  42
-0.3176
  70
32
  0
VERTEX
  5
70D
  100
AcDbEntity
  8
Layer 1
  62
0
  100
AcDb2dVertex
  10
262.76530
  20
176.93310
  30
0.00000
  42
0.0846
  70
32
  0
VERTEX
  5
70E
  100
AcDbEntity
  8
Layer 1
  62
0
  100
AcDb2dVertex
  10
262.65040
  20
176.80970
  30
0.00000
  42
0.1526
  70
32
  0
VERTEX
  5
70F
  100
AcDbEntity
  8
Layer 1
  62
0
  100
AcDb2dVertex
  10
262.62450
  20
176.71860
  30
0.00000
  42
0.1662
  70
32
  0
VERTEX
  5
710
  100
AcDbEntity
  8
Layer 1
  62
0
  100
AcDb2dVertex
  10
262.71270
  20
176.51040
  30
0.00000
  70
32
  0
VERTEX
  5
711
  100
AcDbEntity
  8
Layer 1
  62
0
  100
AcDb2dVertex
  10
264.94810
  20
174.21690
  30
0.00000
  42
-0.2634
  70
32
  0
VERTEX
  5
712
  100
AcDbEntity
  8
Layer 1
  62
0
  100
AcDb2dVertex
  10
265.01110
  20
173.79910
  30
0.00000
  42
-0.0790
  70
32
  0
VERTEX
  5
713
  100
AcDbEntity
  8
Layer 1
  62
0
  100
AcDb2dVertex
  10
264.56370
  20
173.04520
  30
0.00000
  42
0.2612
  70
32
  0
VERTEX
  5
714
  100
AcDbEntity
  8
Layer 1
  62
0
  100
AcDb2dVertex
  10
263.95530
  20
171.08970
  30
0.00000
  42
0.0760
  70
32
  0
VERTEX
  5
715
  100
AcDbEntity
  8
Layer 1
  62
0
  100
AcDb2dVertex
  10
264.92780
  20
169.82230
  30
0.00000
  42
0.1452
  70
32
  0
VERTEX
  5
716
  100
AcDbEntity
  8
Layer 1
  62
0
  100
AcDb2dVertex
  10
267.39540
  20
167.93610
  30
0.00000
  42
0.1495
  70
32
  0
VERTEX
  5
717
  100
AcDbEntity
  8
Layer 1
  62
0
  100
AcDb2dVertex
  10
268.04950
  20
167.90800
  30
0.00000
  42
0.0796
  70
32
  0
VERTEX
  5
718
  100
AcDbEntity
  8
Layer 1
  62
0
  100
AcDb2dVertex
  10
269.25250
  20
168.69210
  30
0.00000
  42
-0.3933
  70
32
  0
VERTEX
  5
719
  100
AcDbEntity
  8
Layer 1
  62
0
  100
AcDb2dVertex
  10
269.89270
  20
168.70340
  30
0.00000
  42
-0.0986
  70
32
  0
VERTEX
  5
71A
  100
AcDbEntity
  8
Layer 1
  62
0
  100
AcDb2dVertex
  10
270.59480
  20
167.46740
  30
0.00000
  42
-0.2228
  70
32
  0
VERTEX
  5
71B
  100
AcDbEntity
  8
Layer 1
  62
0
  100
AcDb2dVertex
  10
269.84490
  20
164.05410
  30
0.00000
  70
32
  0
SEQEND
  5
71C
  100
AcDbEntity
  8
Layer 1
  62
0
  0
POLYLINE
  5
71D
  100
AcDbEntity
  8
Layer 1
  62
0
  100
AcDb2dPolyline
 66
     1
  10
0
  20
0
  30
0
  70
1
  0
VERTEX
  5
71E
  100
AcDbEntity
  8
Layer 1
  62
0
  100
AcDb2dVertex
  10
237.39670
  20
174.91880
  30
0.00000
  42
-0.0990
  70
32
  0
VERTEX
  5
71F
  100
AcDbEntity
  8
Layer 1
  62
0
  100
AcDb2dVertex
  10
237.19090
  20
174.38450
  30
0.00000
  70
32
  0
VERTEX
  5
720
  100
AcDbEntity
  8
Layer 1
  62
0
  100
AcDb2dVertex
  10
237.11210
  20
174.22840
  30
0.00000
  42
0.2493
  70
32
  0
VERTEX
  5
721
  100
AcDbEntity
  8
Layer 1
  62
0
  100
AcDb2dVertex
  10
237.18030
  20
173.79400
  30
0.00000
  70
32
  0
VERTEX
  5
722
  100
AcDbEntity
  8
Layer 1
  62
0
  100
AcDb2dVertex
  10
237.24480
  20
173.68940
  30
0.00000
  42
-0.1735
  70
32
  0
VERTEX
  5
723
  100
AcDbEntity
  8
Layer 1
  62
0
  100
AcDb2dVertex
  10
237.27660
  20
173.54600
  30
0.00000
  42
-0.1160
  70
32
  0
VERTEX
  5
724
  100
AcDbEntity
  8
Layer 1
  62
0
  100
AcDb2dVertex
  10
237.20140
  20
173.34360
  30
0.00000
  70
32
  0
VERTEX
  5
725
  100
AcDbEntity
  8
Layer 1
  62
0
  100
AcDb2dVertex
  10
237.13830
  20
173.26310
  30
0.00000
  42
0.2386
  70
32
  0
VERTEX
  5
726
  100
AcDbEntity
  8
Layer 1
  62
0
  100
AcDb2dVertex
  10
237.13130
  20
173.08860
  30
0.00000
  42
0.0612
  70
32
  0
VERTEX
  5
727
  100
AcDbEntity
  8
Layer 1
  62
0
  100
AcDb2dVertex
  10
237.27640
  20
172.86000
  30
0.00000
  42
-0.1522
  70
32
  0
VERTEX
  5
728
  100
AcDbEntity
  8
Layer 1
  62
0
  100
AcDb2dVertex
  10
237.56970
  20
171.84660
  30
0.00000
  42
-0.2603
  70
32
  0
VERTEX
  5
729
  100
AcDbEntity
  8
Layer 1
  62
0
  100
AcDb2dVertex
  10
237.46830
  20
171.68190
  30
0.00000
  70
32
  0
VERTEX
  5
72A
  100
AcDbEntity
  8
Layer 1
  62
0
  100
AcDb2dVertex
  10
237.36180
  20
171.65470
  30
0.00000
  42
-0.0143
  70
32
  0
VERTEX
  5
72B
  100
AcDbEntity
  8
Layer 1
  62
0
  100
AcDb2dVertex
  10
236.51880
  20
171.62550
  30
0.00000
  42
0.1765
  70
32
  0
VERTEX
  5
72C
  100
AcDbEntity
  8
Layer 1
  62
0
  100
AcDb2dVertex
  10
234.93780
  20
170.78120
  30
0.00000
  42
0.2510
  70
32
  0
VERTEX
  5
72D
  100
AcDbEntity
  8
Layer 1
  62
0
  100
AcDb2dVertex
  10
234.90760
  20
170.47190
  30
0.00000
  42
0.3980
  70
32
  0
VERTEX
  5
72E
  100
AcDbEntity
  8
Layer 1
  62
0
  100
AcDb2dVertex
  10
235.15600
  20
170.40130
  30
0.00000
  70
32
  0
VERTEX
  5
72F
  100
AcDbEntity
  8
Layer 1
  62
0
  100
AcDb2dVertex
  10
235.30830
  20
170.50280
  30
0.00000
  42
-0.2617
  70
32
  0
VERTEX
  5
730
  100
AcDbEntity
  8
Layer 1
  62
0
  100
AcDb2dVertex
  10
237.14260
  20
170.98760
  30
0.00000
  42
-0.2756
  70
32
  0
VERTEX
  5
731
  100
AcDbEntity
  8
Layer 1
  62
0
  100
AcDb2dVertex
  10
237.68690
  20
170.52580
  30
0.00000
  42
-0.2371
  70
32
  0
VERTEX
  5
732
  100
AcDbEntity
  8
Layer 1
  62
0
  100
AcDb2dVertex
  10
236.42870
  20
167.03050
  30
0.00000
  42
0.0294
  70
32
  0
VERTEX
  5
733
  100
AcDbEntity
  8
Layer 1
  62
0
  100
AcDb2dVertex
  10
235.97940
  20
166.40390
  30
0.00000
  42
0.1534
  70
32
  0
VERTEX
  5
734
  100
AcDbEntity
  8
Layer 1
  62
0
  100
AcDb2dVertex
  10
235.92120
  20
164.91050
  30
0.00000
  42
0.0922
  70
32
  0
VERTEX
  5
735
  100
AcDbEntity
  8
Layer 1
  62
0
  100
AcDb2dVertex
  10
240.09510
  20
155.73880
  30
0.00000
  42
0.0307
  70
32
  0
VERTEX
  5
736
  100
AcDbEntity
  8
Layer 1
  62
0
  100
AcDb2dVertex
  10
240.85790
  20
154.71340
  30
0.00000
  42
0.3224
  70
32
  0
VERTEX
  5
737
  100
AcDbEntity
  8
Layer 1
  62
0
  100
AcDb2dVertex
  10
241.13850
  20
154.64190
  30
0.00000
  42
0.0962
  70
32
  0
VERTEX
  5
738
  100
AcDbEntity
  8
Layer 1
  62
0
  100
AcDb2dVertex
  10
242.03410
  20
155.36020
  30
0.00000
  70
32
  0
VERTEX
  5
739
  100
AcDbEntity
  8
Layer 1
  62
0
  100
AcDb2dVertex
  10
245.24030
  20
158.48270
  30
0.00000
  42
-0.2774
  70
32
  0
VERTEX
  5
73A
  100
AcDbEntity
  8
Layer 1
  62
0
  100
AcDb2dVertex
  10
245.58740
  20
158.51470
  30
0.00000
  42
0.0160
  70
32
  0
VERTEX
  5
73B
  100
AcDbEntity
  8
Layer 1
  62
0
  100
AcDb2dVertex
  10
247.81750
  20
157.16620
  30
0.00000
  42
0.0053
  70
32
  0
VERTEX
  5
73C
  100
AcDbEntity
  8
Layer 1
  62
0
  100
AcDb2dVertex
  10
248.24630
  20
156.93800
  30
0.00000
  42
0.2787
  70
32
  0
VERTEX
  5
73D
  100
AcDbEntity
  8
Layer 1
  62
0
  100
AcDb2dVertex
  10
268.62830
  20
158.47610
  30
0.00000
  42
-0.2798
  70
32
  0
VERTEX
  5
73E
  100
AcDbEntity
  8
Layer 1
  62
0
  100
AcDb2dVertex
  10
269.00490
  20
158.49150
  30
0.00000
  42
-0.0818
  70
32
  0
VERTEX
  5
73F
  100
AcDbEntity
  8
Layer 1
  62
0
  100
AcDb2dVertex
  10
269.51470
  20
158.02620
  30
0.00000
  42
0.0203
  70
32
  0
VERTEX
  5
740
  100
AcDbEntity
  8
Layer 1
  62
0
  100
AcDb2dVertex
  10
272.92930
  20
154.76610
  30
0.00000
  42
0.1062
  70
32
  0
VERTEX
  5
741
  100
AcDbEntity
  8
Layer 1
  62
0
  100
AcDb2dVertex
  10
273.17410
  20
154.63720
  30
0.00000
  42
0.2101
  70
32
  0
VERTEX
  5
742
  100
AcDbEntity
  8
Layer 1
  62
0
  100
AcDb2dVertex
  10
273.39080
  20
154.70600
  30
0.00000
  42
0.0588
  70
32
  0
VERTEX
  5
743
  100
AcDbEntity
  8
Layer 1
  62
0
  100
AcDb2dVertex
  10
274.05690
  20
155.53640
  30
0.00000
  42
0.0940
  70
32
  0
VERTEX
  5
744
  100
AcDbEntity
  8
Layer 1
  62
0
  100
AcDb2dVertex
  10
278.37880
  20
164.90690
  30
0.00000
  42
0.2766
  70
32
  0
VERTEX
  5
745
  100
AcDbEntity
  8
Layer 1
  62
0
  100
AcDb2dVertex
  10
277.69580
  20
167.24920
  30
0.00000
  42
-0.2205
  70
32
  0
VERTEX
  5
746
  100
AcDbEntity
  8
Layer 1
  62
0
  100
AcDb2dVertex
  10
276.56800
  20
170.53130
  30
0.00000
  42
-0.2124
  70
32
  0
VERTEX
  5
747
  100
AcDbEntity
  8
Layer 1
  62
0
  100
AcDb2dVertex
  10
276.84620
  20
170.85430
  30
0.00000
  42
-0.3502
  70
32
  0
VERTEX
  5
748
  100
AcDbEntity
  8
Layer 1
  62
0
  100
AcDb2dVertex
  10
278.87010
  20
170.57600
  30
0.00000
  42
0.0493
  70
32
  0
VERTEX
  5
749
  100
AcDbEntity
  8
Layer 1
  62
0
  100
AcDb2dVertex
  10
279.12400
  20
170.39710
  30
0.00000
  42
0.2989
  70
32
  0
VERTEX
  5
74A
  100
AcDbEntity
  8
Layer 1
  62
0
  100
AcDb2dVertex
  10
279.38030
  20
170.40670
  30
0.00000
  42
0.3097
  70
32
  0
VERTEX
  5
74B
  100
AcDbEntity
  8
Layer 1
  62
0
  100
AcDb2dVertex
  10
279.42140
  20
170.65870
  30
0.00000
  42
0.1545
  70
32
  0
VERTEX
  5
74C
  100
AcDbEntity
  8
Layer 1
  62
0
  100
AcDb2dVertex
  10
279.07990
  20
171.04130
  30
0.00000
  42
0.2255
  70
32
  0
VERTEX
  5
74D
  100
AcDbEntity
  8
Layer 1
  62
0
  100
AcDb2dVertex
  10
277.05820
  20
171.63460
  30
0.00000
  42
-0.0782
  70
32
  0
VERTEX
  5
74E
  100
AcDbEntity
  8
Layer 1
  62
0
  100
AcDb2dVertex
  10
276.81850
  20
171.65210
  30
0.00000
  42
-0.2545
  70
32
  0
VERTEX
  5
74F
  100
AcDbEntity
  8
Layer 1
  62
0
  100
AcDb2dVertex
  10
276.70540
  20
171.75780
  30
0.00000
  42
-0.1260
  70
32
  0
VERTEX
  5
750
  100
AcDbEntity
  8
Layer 1
  62
0
  100
AcDb2dVertex
  10
276.71460
  20
172.16720
  30
0.00000
  42
-0.1266
  70
32
  0
VERTEX
  5
751
  100
AcDbEntity
  8
Layer 1
  62
0
  100
AcDb2dVertex
  10
277.03430
  20
172.88580
  30
0.00000
  42
0.1237
  70
32
  0
VERTEX
  5
752
  100
AcDbEntity
  8
Layer 1
  62
0
  100
AcDb2dVertex
  10
277.14280
  20
173.10610
  30
0.00000
  42
0.1232
  70
32
  0
VERTEX
  5
753
  100
AcDbEntity
  8
Layer 1
  62
0
  100
AcDb2dVertex
  10
277.13450
  20
173.16760
  30
0.00000
  42
0.0283
  70
32
  0
VERTEX
  5
754
  100
AcDbEntity
  8
Layer 1
  62
0
  100
AcDb2dVertex
  10
277.02200
  20
173.41030
  30
0.00000
  70
32
  0
VERTEX
  5
755
  100
AcDbEntity
  8
Layer 1
  62
0
  100
AcDb2dVertex
  10
276.95620
  20
173.51450
  30
0.00000
  42
-0.2810
  70
32
  0
VERTEX
  5
756
  100
AcDbEntity
  8
Layer 1
  62
0
  100
AcDb2dVertex
  10
276.96380
  20
173.67490
  30
0.00000
  70
32
  0
VERTEX
  5
757
  100
AcDbEntity
  8
Layer 1
  62
0
  100
AcDb2dVertex
  10
277.03800
  20
173.73650
  30
0.00000
  42
-0.0290
  70
32
  0
VERTEX
  5
758
  100
AcDbEntity
  8
Layer 1
  62
0
  100
AcDb2dVertex
  10
277.17710
  20
173.87660
  30
0.00000
  70
32
  0
VERTEX
  5
759
  100
AcDbEntity
  8
Layer 1
  62
0
  100
AcDb2dVertex
  10
277.23840
  20
173.96060
  30
0.00000
  42
0.2157
  70
32
  0
VERTEX
  5
75A
  100
AcDbEntity
  8
Layer 1
  62
0
  100
AcDb2dVertex
  10
277.21580
  20
174.17940
  30
0.00000
  42
-0.0270
  70
32
  0
VERTEX
  5
75B
  100
AcDbEntity
  8
Layer 1
  62
0
  100
AcDb2dVertex
  10
276.95060
  20
174.70260
  30
0.00000
  70
32
  0
VERTEX
  5
75C
  100
AcDbEntity
  8
Layer 1
  62
0
  100
AcDb2dVertex
  10
276.74780
  20
176.61970
  30
0.00000
  42
0.3013
  70
32
  0
VERTEX
  5
75D
  100
AcDbEntity
  8
Layer 1
  62
0
  100
AcDb2dVertex
  10
262.87610
  20
193.43220
  30
0.00000
  42
-0.0725
  70
32
  0
VERTEX
  5
75E
  100
AcDbEntity
  8
Layer 1
  62
0
  100
AcDb2dVertex
  10
262.67840
  20
193.57560
  30
0.00000
  42
-0.2585
  70
32
  0
VERTEX
  5
75F
  100
AcDbEntity
  8
Layer 1
  62
0
  100
AcDb2dVertex
  10
262.65560
  20
193.68150
  30
0.00000
  42
-0.0993
  70
32
  0
VERTEX
  5
760
  100
AcDbEntity
  8
Layer 1
  62
0
  100
AcDb2dVertex
  10
262.78100
  20
193.91690
  30
0.00000
  42
-0.0251
  70
32
  0
VERTEX
  5
761
  100
AcDbEntity
  8
Layer 1
  62
0
  100
AcDb2dVertex
  10
262.98960
  20
194.18040
  30
0.00000
  42
0.3047
  70
32
  0
VERTEX
  5
762
  100
AcDbEntity
  8
Layer 1
  62
0
  100
AcDb2dVertex
  10
263.02160
  20
194.48590
  30
0.00000
  42
0.0310
  70
32
  0
VERTEX
  5
763
  100
AcDbEntity
  8
Layer 1
  62
0
  100
AcDb2dVertex
  10
261.98000
  20
195.58120
  30
0.00000
  42
0.0172
  70
32
  0
VERTEX
  5
764
  100
AcDbEntity
  8
Layer 1
  62
0
  100
AcDb2dVertex
  10
261.28740
  20
196.24800
  30
0.00000
  42
0.1365
  70
32
  0
VERTEX
  5
765
  100
AcDbEntity
  8
Layer 1
  62
0
  100
AcDb2dVertex
  10
261.11440
  20
196.30800
  30
0.00000
  70
32
  0
VERTEX
  5
766
  100
AcDbEntity
  8
Layer 1
  62
0
  100
AcDb2dVertex
  10
261.01090
  20
196.30060
  30
0.00000
  42
-0.0206
  70
32
  0
VERTEX
  5
767
  100
AcDbEntity
  8
Layer 1
  62
0
  100
AcDb2dVertex
  10
260.76740
  20
196.30140
  30
0.00000
  42
-0.0585
  70
32
  0
VERTEX
  5
768
  100
AcDbEntity
  8
Layer 1
  62
0
  100
AcDb2dVertex
  10
260.68240
  20
196.31530
  30
0.00000
  70
32
  0
VERTEX
  5
769
  100
AcDbEntity
  8
Layer 1
  62
0
  100
AcDb2dVertex
  10
260.42230
  20
196.39580
  30
0.00000
  42
0.3007
  70
32
  0
VERTEX
  5
76A
  100
AcDbEntity
  8
Layer 1
  62
0
  100
AcDb2dVertex
  10
259.90840
  20
196.27950
  30
0.00000
  42
0.0792
  70
32
  0
VERTEX
  5
76B
  100
AcDbEntity
  8
Layer 1
  62
0
  100
AcDb2dVertex
  10
259.47280
  20
195.78270
  30
0.00000
  70
32
  0
VERTEX
  5
76C
  100
AcDbEntity
  8
Layer 1
  62
0
  100
AcDb2dVertex
  10
259.43720
  20
195.59410
  30
0.00000
  42
0.0506
  70
32
  0
VERTEX
  5
76D
  100
AcDbEntity
  8
Layer 1
  62
0
  100
AcDb2dVertex
  10
259.44190
  20
195.28080
  30
0.00000
  42
-0.1436
  70
32
  0
VERTEX
  5
76E
  100
AcDbEntity
  8
Layer 1
  62
0
  100
AcDb2dVertex
  10
259.41100
  20
195.02090
  30
0.00000
  42
-0.0491
  70
32
  0
VERTEX
  5
76F
  100
AcDbEntity
  8
Layer 1
  62
0
  100
AcDb2dVertex
  10
259.11700
  20
194.70980
  30
0.00000
  42
-0.0830
  70
32
  0
VERTEX
  5
770
  100
AcDbEntity
  8
Layer 1
  62
0
  100
AcDb2dVertex
  10
258.69390
  20
194.32720
  30
0.00000
  42
-0.1531
  70
32
  0
VERTEX
  5
771
  100
AcDbEntity
  8
Layer 1
  62
0
  100
AcDb2dVertex
  10
258.22670
  20
194.23840
  30
0.00000
  70
32
  0
VERTEX
  5
772
  100
AcDbEntity
  8
Layer 1
  62
0
  100
AcDb2dVertex
  10
255.90350
  20
194.26670
  30
0.00000
  42
-0.1640
  70
32
  0
VERTEX
  5
773
  100
AcDbEntity
  8
Layer 1
  62
0
  100
AcDb2dVertex
  10
254.97700
  20
194.92610
  30
0.00000
  42
-0.2594
  70
32
  0
VERTEX
  5
774
  100
AcDbEntity
  8
Layer 1
  62
0
  100
AcDb2dVertex
  10
254.86820
  20
195.22790
  30
0.00000
  42
0.0246
  70
32
  0
VERTEX
  5
775
  100
AcDbEntity
  8
Layer 1
  62
0
  100
AcDb2dVertex
  10
254.89290
  20
195.45930
  30
0.00000
  42
0.2962
  70
32
  0
VERTEX
  5
776
  100
AcDbEntity
  8
Layer 1
  62
0
  100
AcDb2dVertex
  10
254.41100
  20
196.23540
  30
0.00000
  42
0.1545
  70
32
  0
VERTEX
  5
777
  100
AcDbEntity
  8
Layer 1
  62
0
  100
AcDb2dVertex
  10
253.95870
  20
196.42410
  30
0.00000
  70
32
  0
VERTEX
  5
778
  100
AcDbEntity
  8
Layer 1
  62
0
  100
AcDb2dVertex
  10
253.83830
  20
196.39790
  30
0.00000
  42
-0.0373
  70
32
  0
VERTEX
  5
779
  100
AcDbEntity
  8
Layer 1
  62
0
  100
AcDb2dVertex
  10
253.27100
  20
196.30100
  30
0.00000
  70
32
  0
VERTEX
  5
77A
  100
AcDbEntity
  8
Layer 1
  62
0
  100
AcDb2dVertex
  10
253.14550
  20
196.28800
  30
0.00000
  42
0.0934
  70
32
  0
VERTEX
  5
77B
  100
AcDbEntity
  8
Layer 1
  62
0
  100
AcDb2dVertex
  10
252.90250
  20
196.13420
  30
0.00000
  42
0.0179
  70
32
  0
VERTEX
  5
77C
  100
AcDbEntity
  8
Layer 1
  62
0
  100
AcDb2dVertex
  10
251.29640
  20
194.47890
  30
0.00000
  42
0.2971
  70
32
  0
VERTEX
  5
77D
  100
AcDbEntity
  8
Layer 1
  62
0
  100
AcDb2dVertex
  10
251.27680
  20
194.17230
  30
0.00000
  70
32
  0
VERTEX
  5
77E
  100
AcDbEntity
  8
Layer 1
  62
0
  100
AcDb2dVertex
  10
251.35920
  20
194.07630
  30
0.00000
  42
0.0116
  70
32
  0
VERTEX
  5
77F
  100
AcDbEntity
  8
Layer 1
  62
0
  100
AcDb2dVertex
  10
251.60290
  20
193.79910
  30
0.00000
  70
32
  0
VERTEX
  5
780
  100
AcDbEntity
  8
Layer 1
  62
0
  100
AcDb2dVertex
  10
251.66770
  20
193.72030
  30
0.00000
  42
-0.2957
  70
32
  0
VERTEX
  5
781
  100
AcDbEntity
  8
Layer 1
  62
0
  100
AcDb2dVertex
  10
251.67030
  20
193.58800
  30
0.00000
  42
-0.1444
  70
32
  0
VERTEX
  5
782
  100
AcDbEntity
  8
Layer 1
  62
0
  100
AcDb2dVertex
  10
251.52240
  20
193.46800
  30
0.00000
  42
0.3244
  70
32
  0
VERTEX
  5
783
  100
AcDbEntity
  8
Layer 1
  62
0
  100
AcDb2dVertex
  10
237.39670
  20
174.91880
  30
0.00000
  70
32
  0
SEQEND
  5
784
  100
AcDbEntity
  8
Layer 1
  62
0
  0
POLYLINE
  5
785
  100
AcDbEntity
  8
Layer 1
  62
0
  100
AcDb2dPolyline
 66
     1
  10
0
  20
0
  30
0
  70
1
  0
VERTEX
  5
786
  100
AcDbEntity
  8
Layer 1
  62
0
  100
AcDb2dVertex
  10
292.63230
  20
178.54880
  30
0.00000
  42
-0.4032
  70
32
  0
VERTEX
  5
787
  100
AcDbEntity
  8
Layer 1
  62
0
  100
AcDb2dVertex
  10
262.51620
  20
139.21410
  30
0.00000
  42
-0.1388
  70
32
  0
VERTEX
  5
788
  100
AcDbEntity
  8
Layer 1
  62
0
  100
AcDb2dVertex
  10
243.34150
  20
141.58030
  30
0.00000
  42
-0.3345
  70
32
  0
VERTEX
  5
789
  100
AcDbEntity
  8
Layer 1
  62
0
  100
AcDb2dVertex
  10
221.68840
  20
178.54640
  30
0.00000
  42
-0.1254
  70
32
  0
VERTEX
  5
78A
  100
AcDbEntity
  8
Layer 1
  62
0
  100
AcDb2dVertex
  10
221.85280
  20
178.98170
  30
0.00000
  70
32
  0
VERTEX
  5
78B
  100
AcDbEntity
  8
Layer 1
  62
0
  100
AcDb2dVertex
  10
240.58910
  20
198.97550
  30
0.00000
  42
0.1396
  70
32
  0
VERTEX
  5
78C
  100
AcDbEntity
  8
Layer 1
  62
0
  100
AcDb2dVertex
  10
241.67450
  20
200.48890
  30
0.00000
  42
0.2381
  70
32
  0
VERTEX
  5
78D
  100
AcDbEntity
  8
Layer 1
  62
0
  100
AcDb2dVertex
  10
241.13490
  20
201.85430
  30
0.00000
  42
-0.0690
  70
32
  0
VERTEX
  5
78E
  100
AcDbEntity
  8
Layer 1
  62
0
  100
AcDb2dVertex
  10
240.96850
  20
202.08290
  30
0.00000
  42
-0.2794
  70
32
  0
VERTEX
  5
78F
  100
AcDbEntity
  8
Layer 1
  62
0
  100
AcDb2dVertex
  10
241.02670
  20
202.40480
  30
0.00000
  70
32
  0
VERTEX
  5
790
  100
AcDbEntity
  8
Layer 1
  62
0
  100
AcDb2dVertex
  10
246.31830
  20
207.72640
  30
0.00000
  42
-0.0863
  70
32
  0
VERTEX
  5
791
  100
AcDbEntity
  8
Layer 1
  62
0
  100
AcDb2dVertex
  10
247.80700
  20
208.98830
  30
0.00000
  42
-0.1266
  70
32
  0
VERTEX
  5
792
  100
AcDbEntity
  8
Layer 1
  62
0
  100
AcDb2dVertex
  10
265.50220
  20
209.29210
  30
0.00000
  42
-0.1019
  70
32
  0
VERTEX
  5
793
  100
AcDbEntity
  8
Layer 1
  62
0
  100
AcDb2dVertex
  10
266.85470
  20
208.78550
  30
0.00000
  70
32
  0
VERTEX
  5
794
  100
AcDbEntity
  8
Layer 1
  62
0
  100
AcDb2dVertex
  10
273.05560
  20
202.61520
  30
0.00000
  42
-0.0400
  70
32
  0
VERTEX
  5
795
  100
AcDbEntity
  8
Layer 1
  62
0
  100
AcDb2dVertex
  10
273.32770
  20
202.30760
  30
0.00000
  42
-0.2192
  70
32
  0
VERTEX
  5
796
  100
AcDbEntity
  8
Layer 1
  62
0
  100
AcDb2dVertex
  10
273.36010
  20
202.13380
  30
0.00000
  70
32
  0
VERTEX
  5
797
  100
AcDbEntity
  8
Layer 1
  62
0
  100
AcDb2dVertex
  10
273.30810
  20
202.04750
  30
0.00000
  42
-0.0196
  70
32
  0
VERTEX
  5
798
  100
AcDbEntity
  8
Layer 1
  62
0
  100
AcDb2dVertex
  10
273.14360
  20
201.85210
  30
0.00000
  42
0.4007
  70
32
  0
VERTEX
  5
799
  100
AcDbEntity
  8
Layer 1
  62
0
  100
AcDb2dVertex
  10
272.94510
  20
199.83720
  30
0.00000
  70
32
  0
VERTEX
  5
79A
  100
AcDbEntity
  8
Layer 1
  62
0
  100
AcDb2dVertex
  10
291.90030
  20
179.60800
  30
0.00000
  42
-0.1400
  70
32
  0
VERTEX
  5
79B
  100
AcDbEntity
  8
Layer 1
  62
0
  100
AcDb2dVertex
  10
292.63230
  20
178.54880
  30
0.00000
  70
32
  0
SEQEND
  5
79C
  100
AcDbEntity
  8
Layer 1
  62
0
  0
POLYLINE
  5
79D
  100
AcDbEntity
  8
Layer 1
  62
0
  100
AcDb2dPolyline
 66
     1
  10
0
  20
0
  30
0
  70
1
  0
VERTEX
  5
79E
  100
AcDbEntity
  8
Layer 1
  62
0
  100
AcDb2dVertex
  10
213.50860
  20
168.95460
  30
0.00000
  42
0.2035
  70
32
  0
VERTEX
  5
79F
  100
AcDbEntity
  8
Layer 1
  62
0
  100
AcDb2dVertex
  10
215.09230
  20
171.79890
  30
0.00000
  42
-0.1433
  70
32
  0
VERTEX
  5
7A0
  100
AcDbEntity
  8
Layer 1
  62
0
  100
AcDb2dVertex
  10
215.18430
  20
171.99810
  30
0.00000
  42
0.0168
  70
32
  0
VERTEX
  5
7A1
  100
AcDbEntity
  8
Layer 1
  62
0
  100
AcDb2dVertex
  10
218.38950
  20
175.35530
  30
0.00000
  42
-0.0449
  70
32
  0
VERTEX
  5
7A2
  100
AcDbEntity
  8
Layer 1
  62
0
  100
AcDb2dVertex
  10
219.33940
  20
176.28820
  30
0.00000
  42
-0.2468
  70
32
  0
VERTEX
  5
7A3
  100
AcDbEntity
  8
Layer 1
  62
0
  100
AcDb2dVertex
  10
219.46210
  20
176.29210
  30
0.00000
  42
-0.2156
  70
32
  0
VERTEX
  5
7A4
  100
AcDbEntity
  8
Layer 1
  62
0
  100
AcDb2dVertex
  10
219.55070
  20
176.18550
  30
0.00000
  42
-0.0569
  70
32
  0
VERTEX
  5
7A5
  100
AcDbEntity
  8
Layer 1
  62
0
  100
AcDb2dVertex
  10
219.56930
  20
175.74140
  30
0.00000
  42
0.0308
  70
32
  0
VERTEX
  5
7A6
  100
AcDbEntity
  8
Layer 1
  62
0
  100
AcDb2dVertex
  10
219.76530
  20
170.44930
  30
0.00000
  70
32
  0
VERTEX
  5
7A7
  100
AcDbEntity
  8
Layer 1
  62
0
  100
AcDb2dVertex
  10
219.80790
  20
170.01790
  30
0.00000
  42
0.4024
  70
32
  0
VERTEX
  5
7A8
  100
AcDbEntity
  8
Layer 1
  62
0
  100
AcDb2dVertex
  10
260.18790
  20
137.05540
  30
0.00000
  42
0.4024
  70
32
  0
VERTEX
  5
7A9
  100
AcDbEntity
  8
Layer 1
  62
0
  100
AcDb2dVertex
  10
294.75800
  20
176.06770
  30
0.00000
  42
-0.1679
  70
32
  0
VERTEX
  5
7AA
  100
AcDbEntity
  8
Layer 1
  62
0
  100
AcDb2dVertex
  10
294.82240
  20
176.26460
  30
0.00000
  42
-0.2146
  70
32
  0
VERTEX
  5
7AB
  100
AcDbEntity
  8
Layer 1
  62
0
  100
AcDb2dVertex
  10
294.89520
  20
176.30210
  30
0.00000
  42
-0.1604
  70
32
  0
VERTEX
  5
7AC
  100
AcDbEntity
  8
Layer 1
  62
0
  100
AcDb2dVertex
  10
294.99920
  20
176.27350
  30
0.00000
  70
32
  0
VERTEX
  5
7AD
  100
AcDbEntity
  8
Layer 1
  62
0
  100
AcDb2dVertex
  10
295.33000
  20
175.95520
  30
0.00000
  42
0.0086
  70
32
  0
VERTEX
  5
7AE
  100
AcDbEntity
  8
Layer 1
  62
0
  100
AcDb2dVertex
  10
299.03820
  20
172.08050
  30
0.00000
  42
-0.1291
  70
32
  0
VERTEX
  5
7AF
  100
AcDbEntity
  8
Layer 1
  62
0
  100
AcDb2dVertex
  10
299.19580
  20
171.82760
  30
0.00000
  42
0.1221
  70
32
  0
VERTEX
  5
7B0
  100
AcDbEntity
  8
Layer 1
  62
0
  100
AcDb2dVertex
  10
299.83980
  20
170.00300
  30
0.00000
  42
0.0125
  70
32
  0
VERTEX
  5
7B1
  100
AcDbEntity
  8
Layer 1
  62
0
  100
AcDb2dVertex
  10
305.98390
  20
163.66360
  30
0.00000
  42
-0.0421
  70
32
  0
VERTEX
  5
7B2
  100
AcDbEntity
  8
Layer 1
  62
0
  100
AcDb2dVertex
  10
306.48810
  20
163.12350
  30
0.00000
  42
-0.2706
  70
32
  0
VERTEX
  5
7B3
  100
AcDbEntity
  8
Layer 1
  62
0
  100
AcDb2dVertex
  10
306.49190
  20
163.00380
  30
0.00000
  42
-0.1403
  70
32
  0
VERTEX
  5
7B4
  100
AcDbEntity
  8
Layer 1
  62
0
  100
AcDb2dVertex
  10
306.33790
  20
162.84700
  30
0.00000
  42
0.0831
  70
32
  0
VERTEX
  5
7B5
  100
AcDbEntity
  8
Layer 1
  62
0
  100
AcDb2dVertex
  10
305.56820
  20
162.30780
  30
0.00000
  42
0.4782
  70
32
  0
VERTEX
  5
7B6
  100
AcDbEntity
  8
Layer 1
  62
0
  100
AcDb2dVertex
  10
305.38610
  20
159.81460
  30
0.00000
  42
-0.0217
  70
32
  0
VERTEX
  5
7B7
  100
AcDbEntity
  8
Layer 1
  62
0
  100
AcDb2dVertex
  10
306.66540
  20
158.43670
  30
0.00000
  42
-0.1981
  70
32
  0
VERTEX
  5
7B8
  100
AcDbEntity
  8
Layer 1
  62
0
  100
AcDb2dVertex
  10
306.73050
  20
158.02730
  30
0.00000
  42
-0.2875
  70
32
  0
VERTEX
  5
7B9
  100
AcDbEntity
  8
Layer 1
  62
0
  100
AcDb2dVertex
  10
263.78760
  20
122.68660
  30
0.00000
  42
-0.3536
  70
32
  0
VERTEX
  5
7BA
  100
AcDbEntity
  8
Layer 1
  62
0
  100
AcDb2dVertex
  10
207.81900
  20
157.22920
  30
0.00000
  42
-0.0645
  70
32
  0
VERTEX
  5
7BB
  100
AcDbEntity
  8
Layer 1
  62
0
  100
AcDb2dVertex
  10
207.54880
  20
158.17850
  30
0.00000
  42
-0.1823
  70
32
  0
VERTEX
  5
7BC
  100
AcDbEntity
  8
Layer 1
  62
0
  100
AcDb2dVertex
  10
207.61720
  20
158.41520
  30
0.00000
  42
-0.0339
  70
32
  0
VERTEX
  5
7BD
  100
AcDbEntity
  8
Layer 1
  62
0
  100
AcDb2dVertex
  10
208.29550
  20
159.14980
  30
0.00000
  42
0.2685
  70
32
  0
VERTEX
  5
7BE
  100
AcDbEntity
  8
Layer 1
  62
0
  100
AcDb2dVertex
  10
209.36520
  20
161.28250
  30
0.00000
  42
0.2304
  70
32
  0
VERTEX
  5
7BF
  100
AcDbEntity
  8
Layer 1
  62
0
  100
AcDb2dVertex
  10
207.91670
  20
162.84020
  30
0.00000
  42
-0.0961
  70
32
  0
VERTEX
  5
7C0
  100
AcDbEntity
  8
Layer 1
  62
0
  100
AcDb2dVertex
  10
207.74610
  20
162.93760
  30
0.00000
  42
-0.3233
  70
32
  0
VERTEX
  5
7C1
  100
AcDbEntity
  8
Layer 1
  62
0
  100
AcDb2dVertex
  10
207.74210
  20
163.04660
  30
0.00000
  70
32
  0
VERTEX
  5
7C2
  100
AcDbEntity
  8
Layer 1
  62
0
  100
AcDb2dVertex
  10
207.89200
  20
163.21300
  30
0.00000
  70
32
  0
VERTEX
  5
7C3
  100
AcDbEntity
  8
Layer 1
  62
0
  100
AcDb2dVertex
  10
213.50860
  20
168.95460
  30
0.00000
  70
32
  0
SEQEND
  5
7C4
  100
AcDbEntity
  8
Layer 1
  62
0
  0
POLYLINE
  5
7C5
  100
AcDbEntity
  8
Layer 1
  62
0
  100
AcDb2dPolyline
 66
     1
  10
0
  20
0
  30
0
  70
1
  0
VERTEX
  5
7C6
  100
AcDbEntity
  8
Layer 1
  62
0
  100
AcDb2dVertex
  10
182.63940
  20
143.15890
  30
0.00000
  42
0.2021
  70
32
  0
VERTEX
  5
7C7
  100
AcDbEntity
  8
Layer 1
  62
0
  100
AcDb2dVertex
  10
181.21800
  20
140.61370
  30
0.00000
  42
-0.1719
  70
32
  0
VERTEX
  5
7C8
  100
AcDbEntity
  8
Layer 1
  62
0
  100
AcDb2dVertex
  10
180.93700
  20
139.97700
  30
0.00000
  70
32
  0
VERTEX
  5
7C9
  100
AcDbEntity
  8
Layer 1
  62
0
  100
AcDb2dVertex
  10
177.97130
  20
136.57690
  30
0.00000
  42
0.0784
  70
32
  0
VERTEX
  5
7CA
  100
AcDbEntity
  8
Layer 1
  62
0
  100
AcDb2dVertex
  10
177.65510
  20
135.94030
  30
0.00000
  42
0.2753
  70
32
  0
VERTEX
  5
7CB
  100
AcDbEntity
  8
Layer 1
  62
0
  100
AcDb2dVertex
  10
178.35070
  20
134.58350
  30
0.00000
  42
0.0459
  70
32
  0
VERTEX
  5
7CC
  100
AcDbEntity
  8
Layer 1
  62
0
  100
AcDb2dVertex
  10
187.67710
  20
127.65720
  30
0.00000
  42
0.3189
  70
32
  0
VERTEX
  5
7CD
  100
AcDbEntity
  8
Layer 1
  62
0
  100
AcDb2dVertex
  10
188.21540
  20
127.68380
  30
0.00000
  42
0.0819
  70
32
  0
VERTEX
  5
7CE
  100
AcDbEntity
  8
Layer 1
  62
0
  100
AcDb2dVertex
  10
189.81580
  20
129.97740
  30
0.00000
  70
32
  0
VERTEX
  5
7CF
  100
AcDbEntity
  8
Layer 1
  62
0
  100
AcDb2dVertex
  10
198.79000
  20
146.37000
  30
0.00000
  42
-0.1404
  70
32
  0
VERTEX
  5
7D0
  100
AcDbEntity
  8
Layer 1
  62
0
  100
AcDb2dVertex
  10
199.87010
  20
147.41410
  30
0.00000
  42
-0.2074
  70
32
  0
VERTEX
  5
7D1
  100
AcDbEntity
  8
Layer 1
  62
0
  100
AcDb2dVertex
  10
200.50470
  20
147.39070
  30
0.00000
  70
32
  0
VERTEX
  5
7D2
  100
AcDbEntity
  8
Layer 1
  62
0
  100
AcDb2dVertex
  10
201.56990
  20
146.78720
  30
0.00000
  42
0.2236
  70
32
  0
VERTEX
  5
7D3
  100
AcDbEntity
  8
Layer 1
  62
0
  100
AcDb2dVertex
  10
202.22520
  20
146.81530
  30
0.00000
  42
0.1663
  70
32
  0
VERTEX
  5
7D4
  100
AcDbEntity
  8
Layer 1
  62
0
  100
AcDb2dVertex
  10
205.87690
  20
150.21070
  30
0.00000
  42
0.0924
  70
32
  0
VERTEX
  5
7D5
  100
AcDbEntity
  8
Layer 1
  62
0
  100
AcDb2dVertex
  10
205.96830
  20
150.92690
  30
0.00000
  42
0.2212
  70
32
  0
VERTEX
  5
7D6
  100
AcDbEntity
  8
Layer 1
  62
0
  100
AcDb2dVertex
  10
205.81920
  20
151.19190
  30
0.00000
  42
0.2480
  70
32
  0
VERTEX
  5
7D7
  100
AcDbEntity
  8
Layer 1
  62
0
  100
AcDb2dVertex
  10
205.50860
  20
151.18920
  30
0.00000
  70
32
  0
VERTEX
  5
7D8
  100
AcDbEntity
  8
Layer 1
  62
0
  100
AcDb2dVertex
  10
204.92760
  20
150.89990
  30
0.00000
  42
-0.2452
  70
32
  0
VERTEX
  5
7D9
  100
AcDbEntity
  8
Layer 1
  62
0
  100
AcDb2dVertex
  10
204.55070
  20
150.87620
  30
0.00000
  42
-0.1450
  70
32
  0
VERTEX
  5
7DA
  100
AcDbEntity
  8
Layer 1
  62
0
  100
AcDb2dVertex
  10
204.34390
  20
151.10330
  30
0.00000
  42
-0.0488
  70
32
  0
VERTEX
  5
7DB
  100
AcDbEntity
  8
Layer 1
  62
0
  100
AcDb2dVertex
  10
202.68180
  20
155.32680
  30
0.00000
  42
-0.1978
  70
32
  0
VERTEX
  5
7DC
  100
AcDbEntity
  8
Layer 1
  62
0
  100
AcDb2dVertex
  10
203.07310
  20
157.66340
  30
0.00000
  42
-0.1188
  70
32
  0
VERTEX
  5
7DD
  100
AcDbEntity
  8
Layer 1
  62
0
  100
AcDb2dVertex
  10
203.58890
  20
158.02260
  30
0.00000
  42
-0.2155
  70
32
  0
VERTEX
  5
7DE
  100
AcDbEntity
  8
Layer 1
  62
0
  100
AcDb2dVertex
  10
203.98410
  20
157.96910
  30
0.00000
  42
0.0235
  70
32
  0
VERTEX
  5
7DF
  100
AcDbEntity
  8
Layer 1
  62
0
  100
AcDb2dVertex
  10
205.00490
  20
157.26910
  30
0.00000
  42
0.0361
  70
32
  0
VERTEX
  5
7E0
  100
AcDbEntity
  8
Layer 1
  62
0
  100
AcDb2dVertex
  10
205.57970
  20
157.10650
  30
0.00000
  42
-0.2211
  70
32
  0
VERTEX
  5
7E1
  100
AcDbEntity
  8
Layer 1
  62
0
  100
AcDb2dVertex
  10
205.91310
  20
156.88840
  30
0.00000
  42
0.0928
  70
32
  0
VERTEX
  5
7E2
  100
AcDbEntity
  8
Layer 1
  62
0
  100
AcDb2dVertex
  10
216.00170
  20
139.33320
  30
0.00000
  42
0.2355
  70
32
  0
VERTEX
  5
7E3
  100
AcDbEntity
  8
Layer 1
  62
0
  100
AcDb2dVertex
  10
260.38180
  20
120.49960
  30
0.00000
  42
0.3035
  70
32
  0
VERTEX
  5
7E4
  100
AcDbEntity
  8
Layer 1
  62
0
  100
AcDb2dVertex
  10
308.36310
  20
156.87150
  30
0.00000
  42
-0.2655
  70
32
  0
VERTEX
  5
7E5
  100
AcDbEntity
  8
Layer 1
  62
0
  100
AcDb2dVertex
  10
308.66370
  20
157.11140
  30
0.00000
  42
0.1592
  70
32
  0
VERTEX
  5
7E6
  100
AcDbEntity
  8
Layer 1
  62
0
  100
AcDb2dVertex
  10
310.18730
  20
157.87020
  30
0.00000
  42
-0.0525
  70
32
  0
VERTEX
  5
7E7
  100
AcDbEntity
  8
Layer 1
  62
0
  100
AcDb2dVertex
  10
310.46470
  20
158.03020
  30
0.00000
  42
-0.2297
  70
32
  0
VERTEX
  5
7E8
  100
AcDbEntity
  8
Layer 1
  62
0
  100
AcDb2dVertex
  10
310.79230
  20
158.01040
  30
0.00000
  42
-0.3072
  70
32
  0
VERTEX
  5
7E9
  100
AcDbEntity
  8
Layer 1
  62
0
  100
AcDb2dVertex
  10
311.63920
  20
155.74260
  30
0.00000
  42
-0.0872
  70
32
  0
VERTEX
  5
7EA
  100
AcDbEntity
  8
Layer 1
  62
0
  100
AcDb2dVertex
  10
310.22710
  20
151.69750
  30
0.00000
  42
-0.0240
  70
32
  0
VERTEX
  5
7EB
  100
AcDbEntity
  8
Layer 1
  62
0
  100
AcDb2dVertex
  10
309.87610
  20
150.96680
  30
0.00000
  42
-0.4058
  70
32
  0
VERTEX
  5
7EC
  100
AcDbEntity
  8
Layer 1
  62
0
  100
AcDb2dVertex
  10
309.47720
  20
150.83910
  30
0.00000
  42
0.0065
  70
32
  0
VERTEX
  5
7ED
  100
AcDbEntity
  8
Layer 1
  62
0
  100
AcDb2dVertex
  10
308.75610
  20
151.19320
  30
0.00000
  42
0.4915
  70
32
  0
VERTEX
  5
7EE
  100
AcDbEntity
  8
Layer 1
  62
0
  100
AcDb2dVertex
  10
308.32450
  20
150.90750
  30
0.00000
  42
0.1574
  70
32
  0
VERTEX
  5
7EF
  100
AcDbEntity
  8
Layer 1
  62
0
  100
AcDb2dVertex
  10
308.52730
  20
149.98440
  30
0.00000
  42
0.1269
  70
32
  0
VERTEX
  5
7F0
  100
AcDbEntity
  8
Layer 1
  62
0
  100
AcDb2dVertex
  10
311.29320
  20
147.18720
  30
0.00000
  42
0.0808
  70
32
  0
VERTEX
  5
7F1
  100
AcDbEntity
  8
Layer 1
  62
0
  100
AcDb2dVertex
  10
312.35300
  20
146.72940
  30
0.00000
  42
0.1321
  70
32
  0
VERTEX
  5
7F2
  100
AcDbEntity
  8
Layer 1
  62
0
  100
AcDb2dVertex
  10
312.78550
  20
146.80890
  30
0.00000
  42
-0.0177
  70
32
  0
VERTEX
  5
7F3
  100
AcDbEntity
  8
Layer 1
  62
0
  100
AcDb2dVertex
  10
313.84790
  20
147.41220
  30
0.00000
  42
-0.3220
  70
32
  0
VERTEX
  5
7F4
  100
AcDbEntity
  8
Layer 1
  62
0
  100
AcDb2dVertex
  10
314.89350
  20
147.10120
  30
0.00000
  42
-0.0510
  70
32
  0
VERTEX
  5
7F5
  100
AcDbEntity
  8
Layer 1
  62
0
  100
AcDb2dVertex
  10
316.99110
  20
143.80590
  30
0.00000
  42
0.0074
  70
32
  0
VERTEX
  5
7F6
  100
AcDbEntity
  8
Layer 1
  62
0
  100
AcDb2dVertex
  10
325.36630
  20
128.48720
  30
0.00000
  42
0.0968
  70
32
  0
VERTEX
  5
7F7
  100
AcDbEntity
  8
Layer 1
  62
0
  100
AcDb2dVertex
  10
326.14510
  20
127.65170
  30
0.00000
  42
0.2459
  70
32
  0
VERTEX
  5
7F8
  100
AcDbEntity
  8
Layer 1
  62
0
  100
AcDb2dVertex
  10
326.53650
  20
127.61860
  30
0.00000
  42
0.0539
  70
32
  0
VERTEX
  5
7F9
  100
AcDbEntity
  8
Layer 1
  62
0
  100
AcDb2dVertex
  10
336.39480
  20
135.07330
  30
0.00000
  42
0.3816
  70
32
  0
VERTEX
  5
7FA
  100
AcDbEntity
  8
Layer 1
  62
0
  100
AcDb2dVertex
  10
336.18110
  20
136.78890
  30
0.00000
  70
32
  0
VERTEX
  5
7FB
  100
AcDbEntity
  8
Layer 1
  62
0
  100
AcDb2dVertex
  10
333.36430
  20
139.96850
  30
0.00000
  42
-0.1200
  70
32
  0
VERTEX
  5
7FC
  100
AcDbEntity
  8
Layer 1
  62
0
  100
AcDb2dVertex
  10
332.87780
  20
141.47570
  30
0.00000
  42
0.1240
  70
32
  0
VERTEX
  5
7FD
  100
AcDbEntity
  8
Layer 1
  62
0
  100
AcDb2dVertex
  10
332.71370
  20
141.90160
  30
0.00000
  42
0.0376
  70
32
  0
VERTEX
  5
7FE
  100
AcDbEntity
  8
Layer 1
  62
0
  100
AcDb2dVertex
  10
321.29510
  20
153.74560
  30
0.00000
  42
0.2377
  70
32
  0
VERTEX
  5
7FF
  100
AcDbEntity
  8
Layer 1
  62
0
  100
AcDb2dVertex
  10
319.81940
  20
154.35770
  30
0.00000
  70
32
  0
VERTEX
  5
800
  100
AcDbEntity
  8
Layer 1
  62
0
  100
AcDb2dVertex
  10
318.32660
  20
154.20830
  30
0.00000
  42
-0.3067
  70
32
  0
VERTEX
  5
801
  100
AcDbEntity
  8
Layer 1
  62
0
  100
AcDb2dVertex
  10
317.26780
  20
154.89200
  30
0.00000
  42
-0.0881
  70
32
  0
VERTEX
  5
802
  100
AcDbEntity
  8
Layer 1
  62
0
  100
AcDb2dVertex
  10
316.34070
  20
158.94570
  30
0.00000
  42
-0.0303
  70
32
  0
VERTEX
  5
803
  100
AcDbEntity
  8
Layer 1
  62
0
  100
AcDb2dVertex
  10
316.04290
  20
161.50360
  30
0.00000
  42
0.1321
  70
32
  0
VERTEX
  5
804
  100
AcDbEntity
  8
Layer 1
  62
0
  100
AcDb2dVertex
  10
315.09360
  20
162.89750
  30
0.00000
  42
-0.1278
  70
32
  0
VERTEX
  5
805
  100
AcDbEntity
  8
Layer 1
  62
0
  100
AcDb2dVertex
  10
314.95790
  20
163.13290
  30
0.00000
  42
-0.2146
  70
32
  0
VERTEX
  5
806
  100
AcDbEntity
  8
Layer 1
  62
0
  100
AcDb2dVertex
  10
315.02670
  20
163.36130
  30
0.00000
  70
32
  0
VERTEX
  5
807
  100
AcDbEntity
  8
Layer 1
  62
0
  100
AcDb2dVertex
  10
315.14600
  20
163.48950
  30
0.00000
  42
-0.0345
  70
32
  0
VERTEX
  5
808
  100
AcDbEntity
  8
Layer 1
  62
0
  100
AcDb2dVertex
  10
315.35690
  20
163.73750
  30
0.00000
  42
0.2708
  70
32
  0
VERTEX
  5
809
  100
AcDbEntity
  8
Layer 1
  62
0
  100
AcDb2dVertex
  10
315.43720
  20
164.04960
  30
0.00000
  42
0.1045
  70
32
  0
VERTEX
  5
80A
  100
AcDbEntity
  8
Layer 1
  62
0
  100
AcDb2dVertex
  10
315.08270
  20
164.47140
  30
0.00000
  70
32
  0
VERTEX
  5
80B
  100
AcDbEntity
  8
Layer 1
  62
0
  100
AcDb2dVertex
  10
312.48320
  20
167.09690
  30
0.00000
  42
-0.2949
  70
32
  0
VERTEX
  5
80C
  100
AcDbEntity
  8
Layer 1
  62
0
  100
AcDb2dVertex
  10
312.41270
  20
167.44080
  30
0.00000
  42
-0.2128
  70
32
  0
VERTEX
  5
80D
  100
AcDbEntity
  8
Layer 1
  62
0
  100
AcDb2dVertex
  10
312.58120
  20
167.56280
  30
0.00000
  42
-0.0808
  70
32
  0
VERTEX
  5
80E
  100
AcDbEntity
  8
Layer 1
  62
0
  100
AcDb2dVertex
  10
312.82580
  20
167.53600
  30
0.00000
  42
-0.0531
  70
32
  0
VERTEX
  5
80F
  100
AcDbEntity
  8
Layer 1
  62
0
  100
AcDb2dVertex
  10
313.16960
  20
167.40070
  30
0.00000
  42
-0.1828
  70
32
  0
VERTEX
  5
810
  100
AcDbEntity
  8
Layer 1
  62
0
  100
AcDb2dVertex
  10
313.24840
  20
167.28610
  30
0.00000
  42
-0.0983
  70
32
  0
VERTEX
  5
811
  100
AcDbEntity
  8
Layer 1
  62
0
  100
AcDb2dVertex
  10
313.25970
  20
167.03410
  30
0.00000
  70
32
  0
VERTEX
  5
812
  100
AcDbEntity
  8
Layer 1
  62
0
  100
AcDb2dVertex
  10
313.23740
  20
166.92650
  30
0.00000
  42
0.2042
  70
32
  0
VERTEX
  5
813
  100
AcDbEntity
  8
Layer 1
  62
0
  100
AcDb2dVertex
  10
313.33860
  20
166.71150
  30
0.00000
  42
0.0698
  70
32
  0
VERTEX
  5
814
  100
AcDbEntity
  8
Layer 1
  62
0
  100
AcDb2dVertex
  10
313.53240
  20
166.54030
  30
0.00000
  42
0.2132
  70
32
  0
VERTEX
  5
815
  100
AcDbEntity
  8
Layer 1
  62
0
  100
AcDb2dVertex
  10
313.77000
  20
166.52790
  30
0.00000
  42
0.1166
  70
32
  0
VERTEX
  5
816
  100
AcDbEntity
  8
Layer 1
  62
0
  100
AcDb2dVertex
  10
314.16770
  20
166.83450
  30
0.00000
  42
0.0146
  70
32
  0
VERTEX
  5
817
  100
AcDbEntity
  8
Layer 1
  62
0
  100
AcDb2dVertex
  10
314.81530
  20
167.50740
  30
0.00000
  42
0.2904
  70
32
  0
VERTEX
  5
818
  100
AcDbEntity
  8
Layer 1
  62
0
  100
AcDb2dVertex
  10
314.87730
  20
167.88240
  30
0.00000
  42
0.1101
  70
32
  0
VERTEX
  5
819
  100
AcDbEntity
  8
Layer 1
  62
0
  100
AcDb2dVertex
  10
314.60420
  20
168.15320
  30
0.00000
  42
0.2128
  70
32
  0
VERTEX
  5
81A
  100
AcDbEntity
  8
Layer 1
  62
0
  100
AcDb2dVertex
  10
314.38240
  20
168.15660
  30
0.00000
  70
32
  0
VERTEX
  5
81B
  100
AcDbEntity
  8
Layer 1
  62
0
  100
AcDb2dVertex
  10
314.28510
  20
168.09990
  30
0.00000
  42
-0.0731
  70
32
  0
VERTEX
  5
81C
  100
AcDbEntity
  8
Layer 1
  62
0
  100
AcDb2dVertex
  10
314.08850
  20
168.02580
  30
0.00000
  42
-0.2743
  70
32
  0
VERTEX
  5
81D
  100
AcDbEntity
  8
Layer 1
  62
0
  100
AcDb2dVertex
  10
314.03160
  20
168.04450
  30
0.00000
  42
-0.1126
  70
32
  0
VERTEX
  5
81E
  100
AcDbEntity
  8
Layer 1
  62
0
  100
AcDb2dVertex
  10
313.94020
  20
168.23560
  30
0.00000
  42
0.0334
  70
32
  0
VERTEX
  5
81F
  100
AcDbEntity
  8
Layer 1
  62
0
  100
AcDb2dVertex
  10
313.49020
  20
169.23670
  30
0.00000
  42
-0.3400
  70
32
  0
VERTEX
  5
820
  100
AcDbEntity
  8
Layer 1
  62
0
  100
AcDb2dVertex
  10
313.55500
  20
169.72840
  30
0.00000
  70
32
  0
VERTEX
  5
821
  100
AcDbEntity
  8
Layer 1
  62
0
  100
AcDb2dVertex
  10
314.32410
  20
170.54880
  30
0.00000
  42
0.2825
  70
32
  0
VERTEX
  5
822
  100
AcDbEntity
  8
Layer 1
  62
0
  100
AcDb2dVertex
  10
314.28400
  20
170.90220
  30
0.00000
  42
0.0707
  70
32
  0
VERTEX
  5
823
  100
AcDbEntity
  8
Layer 1
  62
0
  100
AcDb2dVertex
  10
313.88820
  20
171.30310
  30
0.00000
  42
0.2023
  70
32
  0
VERTEX
  5
824
  100
AcDbEntity
  8
Layer 1
  62
0
  100
AcDb2dVertex
  10
313.65340
  20
171.38580
  30
0.00000
  70
32
  0
VERTEX
  5
825
  100
AcDbEntity
  8
Layer 1
  62
0
  100
AcDb2dVertex
  10
313.63850
  20
171.38150
  30
0.00000
  70
32
  0
VERTEX
  5
826
  100
AcDbEntity
  8
Layer 1
  62
0
  100
AcDb2dVertex
  10
313.32280
  20
171.22150
  30
0.00000
  42
-0.0635
  70
32
  0
VERTEX
  5
827
  100
AcDbEntity
  8
Layer 1
  62
0
  100
AcDb2dVertex
  10
313.18260
  20
171.17020
  30
0.00000
  42
-0.1297
  70
32
  0
VERTEX
  5
828
  100
AcDbEntity
  8
Layer 1
  62
0
  100
AcDb2dVertex
  10
313.10870
  20
171.17250
  30
0.00000
  42
-0.0878
  70
32
  0
VERTEX
  5
829
  100
AcDbEntity
  8
Layer 1
  62
0
  100
AcDb2dVertex
  10
312.89610
  20
171.32020
  30
0.00000
  42
-0.0152
  70
32
  0
VERTEX
  5
82A
  100
AcDbEntity
  8
Layer 1
  62
0
  100
AcDb2dVertex
  10
312.58850
  20
171.57630
  30
0.00000
  70
32
  0
VERTEX
  5
82B
  100
AcDbEntity
  8
Layer 1
  62
0
  100
AcDb2dVertex
  10
312.49110
  20
171.65960
  30
0.00000
  42
0.2199
  70
32
  0
VERTEX
  5
82C
  100
AcDbEntity
  8
Layer 1
  62
0
  100
AcDb2dVertex
  10
312.29940
  20
171.68900
  30
0.00000
  42
0.1385
  70
32
  0
VERTEX
  5
82D
  100
AcDbEntity
  8
Layer 1
  62
0
  100
AcDb2dVertex
  10
311.93170
  20
171.41290
  30
0.00000
  42
0.0253
  70
32
  0
VERTEX
  5
82E
  100
AcDbEntity
  8
Layer 1
  62
0
  100
AcDb2dVertex
  10
311.57180
  20
170.99570
  30
0.00000
  70
32
  0
VERTEX
  5
82F
  100
AcDbEntity
  8
Layer 1
  62
0
  100
AcDb2dVertex
  10
311.49150
  20
170.91560
  30
0.00000
  42
-0.4568
  70
32
  0
VERTEX
  5
830
  100
AcDbEntity
  8
Layer 1
  62
0
  100
AcDb2dVertex
  10
311.24950
  20
170.98640
  30
0.00000
  70
32
  0
VERTEX
  5
831
  100
AcDbEntity
  8
Layer 1
  62
0
  100
AcDb2dVertex
  10
311.21650
  20
171.09330
  30
0.00000
  42
-0.0281
  70
32
  0
VERTEX
  5
832
  100
AcDbEntity
  8
Layer 1
  62
0
  100
AcDb2dVertex
  10
311.29640
  20
173.41920
  30
0.00000
  42
0.3658
  70
32
  0
VERTEX
  5
833
  100
AcDbEntity
  8
Layer 1
  62
0
  100
AcDb2dVertex
  10
267.21670
  20
227.76480
  30
0.00000
  42
-0.0218
  70
32
  0
VERTEX
  5
834
  100
AcDbEntity
  8
Layer 1
  62
0
  100
AcDb2dVertex
  10
266.79850
  20
227.86980
  30
0.00000
  42
-0.3080
  70
32
  0
VERTEX
  5
835
  100
AcDbEntity
  8
Layer 1
  62
0
  100
AcDb2dVertex
  10
266.70140
  20
227.99040
  30
0.00000
  70
32
  0
VERTEX
  5
836
  100
AcDbEntity
  8
Layer 1
  62
0
  100
AcDb2dVertex
  10
266.72650
  20
228.07990
  30
0.00000
  42
-0.0783
  70
32
  0
VERTEX
  5
837
  100
AcDbEntity
  8
Layer 1
  62
0
  100
AcDb2dVertex
  10
267.04180
  20
228.44890
  30
0.00000
  70
32
  0
VERTEX
  5
838
  100
AcDbEntity
  8
Layer 1
  62
0
  100
AcDb2dVertex
  10
270.02880
  20
231.45970
  30
0.00000
  42
0.3076
  70
32
  0
VERTEX
  5
839
  100
AcDbEntity
  8
Layer 1
  62
0
  100
AcDb2dVertex
  10
270.09460
  20
231.79800
  30
0.00000
  42
0.0822
  70
32
  0
VERTEX
  5
83A
  100
AcDbEntity
  8
Layer 1
  62
0
  100
AcDb2dVertex
  10
269.72010
  20
232.22810
  30
0.00000
  42
-0.0057
  70
32
  0
VERTEX
  5
83B
  100
AcDbEntity
  8
Layer 1
  62
0
  100
AcDb2dVertex
  10
269.15020
  20
232.78890
  30
0.00000
  42
0.1051
  70
32
  0
VERTEX
  5
83C
  100
AcDbEntity
  8
Layer 1
  62
0
  100
AcDb2dVertex
  10
268.93310
  20
232.91390
  30
0.00000
  42
0.1882
  70
32
  0
VERTEX
  5
83D
  100
AcDbEntity
  8
Layer 1
  62
0
  100
AcDb2dVertex
  10
268.79060
  20
232.90540
  30
0.00000
  42
0.0806
  70
32
  0
VERTEX
  5
83E
  100
AcDbEntity
  8
Layer 1
  62
0
  100
AcDb2dVertex
  10
268.02920
  20
232.22010
  30
0.00000
  42
-0.0077
  70
32
  0
VERTEX
  5
83F
  100
AcDbEntity
  8
Layer 1
  62
0
  100
AcDb2dVertex
  10
264.20580
  20
228.45840
  30
0.00000
  42
-0.2068
  70
32
  0
VERTEX
  5
840
  100
AcDbEntity
  8
Layer 1
  62
0
  100
AcDb2dVertex
  10
263.57650
  20
228.31780
  30
0.00000
  42
0.0583
  70
32
  0
VERTEX
  5
841
  100
AcDbEntity
  8
Layer 1
  62
0
  100
AcDb2dVertex
  10
250.60510
  20
228.30780
  30
0.00000
  42
-0.2610
  70
32
  0
VERTEX
  5
842
  100
AcDbEntity
  8
Layer 1
  62
0
  100
AcDb2dVertex
  10
249.85560
  20
228.63210
  30
0.00000
  70
32
  0
VERTEX
  5
843
  100
AcDbEntity
  8
Layer 1
  62
0
  100
AcDb2dVertex
  10
245.88480
  20
232.59310
  30
0.00000
  70
32
  0
VERTEX
  5
844
  100
AcDbEntity
  8
Layer 1
  62
0
  100
AcDb2dVertex
  10
245.56820
  20
232.88810
  30
0.00000
  42
0.2688
  70
32
  0
VERTEX
  5
845
  100
AcDbEntity
  8
Layer 1
  62
0
  100
AcDb2dVertex
  10
245.22010
  20
232.86220
  30
0.00000
  42
0.0453
  70
32
  0
VERTEX
  5
846
  100
AcDbEntity
  8
Layer 1
  62
0
  100
AcDb2dVertex
  10
244.19920
  20
231.83470
  30
0.00000
  42
0.2579
  70
32
  0
VERTEX
  5
847
  100
AcDbEntity
  8
Layer 1
  62
0
  100
AcDb2dVertex
  10
244.16640
  20
231.53660
  30
0.00000
  42
0.0341
  70
32
  0
VERTEX
  5
848
  100
AcDbEntity
  8
Layer 1
  62
0
  100
AcDb2dVertex
  10
244.32050
  20
231.35960
  30
0.00000
  70
32
  0
VERTEX
  5
849
  100
AcDbEntity
  8
Layer 1
  62
0
  100
AcDb2dVertex
  10
247.54540
  20
228.09820
  30
0.00000
  42
-0.2226
  70
32
  0
VERTEX
  5
84A
  100
AcDbEntity
  8
Layer 1
  62
0
  100
AcDb2dVertex
  10
247.58670
  20
227.94350
  30
0.00000
  70
32
  0
VERTEX
  5
84B
  100
AcDbEntity
  8
Layer 1
  62
0
  100
AcDb2dVertex
  10
247.54480
  20
227.88770
  30
0.00000
  42
-0.0938
  70
32
  0
VERTEX
  5
84C
  100
AcDbEntity
  8
Layer 1
  62
0
  100
AcDb2dVertex
  10
247.32640
  20
227.81700
  30
0.00000
  42
0.3790
  70
32
  0
VERTEX
  5
84D
  100
AcDbEntity
  8
Layer 1
  62
0
  100
AcDb2dVertex
  10
203.08990
  20
171.19300
  30
0.00000
  42
-0.1204
  70
32
  0
VERTEX
  5
84E
  100
AcDbEntity
  8
Layer 1
  62
0
  100
AcDb2dVertex
  10
203.03860
  20
170.97570
  30
0.00000
  42
-0.2879
  70
32
  0
VERTEX
  5
84F
  100
AcDbEntity
  8
Layer 1
  62
0
  100
AcDb2dVertex
  10
202.90520
  20
170.89500
  30
0.00000
  42
-0.1682
  70
32
  0
VERTEX
  5
850
  100
AcDbEntity
  8
Layer 1
  62
0
  100
AcDb2dVertex
  10
202.84350
  20
170.91330
  30
0.00000
  42
-0.0666
  70
32
  0
VERTEX
  5
851
  100
AcDbEntity
  8
Layer 1
  62
0
  100
AcDb2dVertex
  10
202.72800
  20
171.02170
  30
0.00000
  42
0.0296
  70
32
  0
VERTEX
  5
852
  100
AcDbEntity
  8
Layer 1
  62
0
  100
AcDb2dVertex
  10
202.17470
  20
171.60800
  30
0.00000
  42
0.3432
  70
32
  0
VERTEX
  5
853
  100
AcDbEntity
  8
Layer 1
  62
0
  100
AcDb2dVertex
  10
201.83750
  20
171.64140
  30
0.00000
  42
0.0348
  70
32
  0
VERTEX
  5
854
  100
AcDbEntity
  8
Layer 1
  62
0
  100
AcDb2dVertex
  10
201.43120
  20
171.32550
  30
0.00000
  42
-0.1361
  70
32
  0
VERTEX
  5
855
  100
AcDbEntity
  8
Layer 1
  62
0
  100
AcDb2dVertex
  10
201.17110
  20
171.22180
  30
0.00000
  42
-0.1568
  70
32
  0
VERTEX
  5
856
  100
AcDbEntity
  8
Layer 1
  62
0
  100
AcDb2dVertex
  10
200.93140
  20
171.27050
  30
0.00000
  70
32
  0
VERTEX
  5
857
  100
AcDbEntity
  8
Layer 1
  62
0
  100
AcDb2dVertex
  10
200.75310
  20
171.36920
  30
0.00000
  42
0.2414
  70
32
  0
VERTEX
  5
858
  100
AcDbEntity
  8
Layer 1
  62
0
  100
AcDb2dVertex
  10
200.52200
  20
171.38240
  30
0.00000
  42
0.1089
  70
32
  0
VERTEX
  5
859
  100
AcDbEntity
  8
Layer 1
  62
0
  100
AcDb2dVertex
  10
200.29400
  20
171.20070
  30
0.00000
  42
-0.0197
  70
32
  0
VERTEX
  5
85A
  100
AcDbEntity
  8
Layer 1
  62
0
  100
AcDb2dVertex
  10
200.06250
  20
170.97140
  30
0.00000
  42
0.2345
  70
32
  0
VERTEX
  5
85B
  100
AcDbEntity
  8
Layer 1
  62
0
  100
AcDb2dVertex
  10
199.94510
  20
170.63630
  30
0.00000
  42
0.1097
  70
32
  0
VERTEX
  5
85C
  100
AcDbEntity
  8
Layer 1
  62
0
  100
AcDb2dVertex
  10
200.12320
  20
170.35510
  30
0.00000
  70
32
  0
VERTEX
  5
85D
  100
AcDbEntity
  8
Layer 1
  62
0
  100
AcDb2dVertex
  10
200.74610
  20
169.69680
  30
0.00000
  42
-0.2385
  70
32
  0
VERTEX
  5
85E
  100
AcDbEntity
  8
Layer 1
  62
0
  100
AcDb2dVertex
  10
200.85540
  20
169.36360
  30
0.00000
  42
-0.0642
  70
32
  0
VERTEX
  5
85F
  100
AcDbEntity
  8
Layer 1
  62
0
  100
AcDb2dVertex
  10
200.63720
  20
168.90200
  30
0.00000
  42
0.0464
  70
32
  0
VERTEX
  5
860
  100
AcDbEntity
  8
Layer 1
  62
0
  100
AcDb2dVertex
  10
200.35750
  20
168.15890
  30
0.00000
  42
-0.2592
  70
32
  0
VERTEX
  5
861
  100
AcDbEntity
  8
Layer 1
  62
0
  100
AcDb2dVertex
  10
200.24720
  20
168.05030
  30
0.00000
  42
-0.2121
  70
32
  0
VERTEX
  5
862
  100
AcDbEntity
  8
Layer 1
  62
0
  100
AcDb2dVertex
  10
200.06420
  20
168.07750
  30
0.00000
  70
32
  0
VERTEX
  5
863
  100
AcDbEntity
  8
Layer 1
  62
0
  100
AcDb2dVertex
  10
199.91670
  20
168.16700
  30
0.00000
  70
32
  0
VERTEX
  5
864
  100
AcDbEntity
  8
Layer 1
  62
0
  100
AcDb2dVertex
  10
199.87370
  20
168.18770
  30
0.00000
  42
0.2347
  70
32
  0
VERTEX
  5
865
  100
AcDbEntity
  8
Layer 1
  62
0
  100
AcDb2dVertex
  10
199.69390
  20
168.17640
  30
0.00000
  42
0.2838
  70
32
  0
VERTEX
  5
866
  100
AcDbEntity
  8
Layer 1
  62
0
  100
AcDb2dVertex
  10
199.39520
  20
167.84400
  30
0.00000
  42
0.2838
  70
32
  0
VERTEX
  5
867
  100
AcDbEntity
  8
Layer 1
  62
0
  100
AcDb2dVertex
  10
199.55840
  20
167.42780
  30
0.00000
  42
0.0095
  70
32
  0
VERTEX
  5
868
  100
AcDbEntity
  8
Layer 1
  62
0
  100
AcDb2dVertex
  10
200.40930
  20
166.59100
  30
0.00000
  42
0.2740
  70
32
  0
VERTEX
  5
869
  100
AcDbEntity
  8
Layer 1
  62
0
  100
AcDb2dVertex
  10
200.72350
  20
166.51060
  30
0.00000
  42
0.0986
  70
32
  0
VERTEX
  5
86A
  100
AcDbEntity
  8
Layer 1
  62
0
  100
AcDb2dVertex
  10
200.97980
  20
166.73480
  30
0.00000
  42
0.3142
  70
32
  0
VERTEX
  5
86B
  100
AcDbEntity
  8
Layer 1
  62
0
  100
AcDb2dVertex
  10
201.03990
  20
167.02380
  30
0.00000
  42
0.0448
  70
32
  0
VERTEX
  5
86C
  100
AcDbEntity
  8
Layer 1
  62
0
  100
AcDb2dVertex
  10
201.00640
  20
167.11100
  30
0.00000
  42
-0.0482
  70
32
  0
VERTEX
  5
86D
  100
AcDbEntity
  8
Layer 1
  62
0
  100
AcDb2dVertex
  10
200.97110
  20
167.20490
  30
0.00000
  42
-0.3049
  70
32
  0
VERTEX
  5
86E
  100
AcDbEntity
  8
Layer 1
  62
0
  100
AcDb2dVertex
  10
201.00320
  20
167.34920
  30
0.00000
  42
-0.1204
  70
32
  0
VERTEX
  5
86F
  100
AcDbEntity
  8
Layer 1
  62
0
  100
AcDb2dVertex
  10
201.22500
  20
167.46160
  30
0.00000
  42
0.0343
  70
32
  0
VERTEX
  5
870
  100
AcDbEntity
  8
Layer 1
  62
0
  100
AcDb2dVertex
  10
201.52900
  20
167.54900
  30
0.00000
  42
-0.1231
  70
32
  0
VERTEX
  5
871
  100
AcDbEntity
  8
Layer 1
  62
0
  100
AcDb2dVertex
  10
201.76570
  20
167.54410
  30
0.00000
  42
-0.4392
  70
32
  0
VERTEX
  5
872
  100
AcDbEntity
  8
Layer 1
  62
0
  100
AcDb2dVertex
  10
201.89220
  20
167.24600
  30
0.00000
  42
-0.1052
  70
32
  0
VERTEX
  5
873
  100
AcDbEntity
  8
Layer 1
  62
0
  100
AcDb2dVertex
  10
201.53770
  20
166.82250
  30
0.00000
  42
0.0110
  70
32
  0
VERTEX
  5
874
  100
AcDbEntity
  8
Layer 1
  62
0
  100
AcDb2dVertex
  10
198.94590
  20
164.17000
  30
0.00000
  42
0.2941
  70
32
  0
VERTEX
  5
875
  100
AcDbEntity
  8
Layer 1
  62
0
  100
AcDb2dVertex
  10
198.89180
  20
163.82740
  30
0.00000
  42
0.0466
  70
32
  0
VERTEX
  5
876
  100
AcDbEntity
  8
Layer 1
  62
0
  100
AcDb2dVertex
  10
199.19650
  20
163.45740
  30
0.00000
  42
-0.0889
  70
32
  0
VERTEX
  5
877
  100
AcDbEntity
  8
Layer 1
  62
0
  100
AcDb2dVertex
  10
199.33510
  20
163.20750
  30
0.00000
  42
-0.1946
  70
32
  0
VERTEX
  5
878
  100
AcDbEntity
  8
Layer 1
  62
0
  100
AcDb2dVertex
  10
199.32770
  20
163.07330
  30
0.00000
  42
-0.0583
  70
32
  0
VERTEX
  5
879
  100
AcDbEntity
  8
Layer 1
  62
0
  100
AcDb2dVertex
  10
198.68600
  20
162.31140
  30
0.00000
  42
0.1637
  70
32
  0
VERTEX
  5
87A
  100
AcDbEntity
  8
Layer 1
  62
0
  100
AcDb2dVertex
  10
198.09590
  20
160.00210
  30
0.00000
  42
-0.0464
  70
32
  0
VERTEX
  5
87B
  100
AcDbEntity
  8
Layer 1
  62
0
  100
AcDb2dVertex
  10
197.24210
  20
155.30850
  30
0.00000
  42
-0.2793
  70
32
  0
VERTEX
  5
87C
  100
AcDbEntity
  8
Layer 1
  62
0
  100
AcDb2dVertex
  10
196.04390
  20
154.19320
  30
0.00000
  42
0.0226
  70
32
  0
VERTEX
  5
87D
  100
AcDbEntity
  8
Layer 1
  62
0
  100
AcDb2dVertex
  10
194.12550
  20
154.35040
  30
0.00000
  42
0.1852
  70
32
  0
VERTEX
  5
87E
  100
AcDbEntity
  8
Layer 1
  62
0
  100
AcDb2dVertex
  10
193.28170
  20
153.96850
  30
0.00000
  42
0.0356
  70
32
  0
VERTEX
  5
87F
  100
AcDbEntity
  8
Layer 1
  62
0
  100
AcDb2dVertex
  10
182.63940
  20
143.15890
  30
0.00000
  70
32
  0
SEQEND
  5
880
  100
AcDbEntity
  8
Layer 1
  62
0
  0
POLYLINE
  5
881
  100
AcDbEntity
  8
Layer 1
  62
0
  100
AcDb2dPolyline
 66
     1
  10
0
  20
0
  30
0
  70
1
  0
VERTEX
  5
882
  100
AcDbEntity
  8
Layer 1
  62
0
  100
AcDb2dVertex
  10
164.71140
  20
159.75670
  30
0.00000
  42
0.0561
  70
32
  0
VERTEX
  5
883
  100
AcDbEntity
  8
Layer 1
  62
0
  100
AcDb2dVertex
  10
163.83410
  20
159.17680
  30
0.00000
  42
0.2032
  70
32
  0
VERTEX
  5
884
  100
AcDbEntity
  8
Layer 1
  62
0
  100
AcDb2dVertex
  10
163.66770
  20
158.84850
  30
0.00000
  42
0.3182
  70
32
  0
VERTEX
  5
885
  100
AcDbEntity
  8
Layer 1
  62
0
  100
AcDb2dVertex
  10
163.69710
  20
158.80360
  30
0.00000
  42
0.2720
  70
32
  0
VERTEX
  5
886
  100
AcDbEntity
  8
Layer 1
  62
0
  100
AcDb2dVertex
  10
163.75720
  20
158.81290
  30
0.00000
  42
-0.0807
  70
32
  0
VERTEX
  5
887
  100
AcDbEntity
  8
Layer 1
  62
0
  100
AcDb2dVertex
  10
164.82790
  20
159.52600
  30
0.00000
  70
32
  0
VERTEX
  5
888
  100
AcDbEntity
  8
Layer 1
  62
0
  100
AcDb2dVertex
  10
165.09700
  20
159.66960
  30
0.00000
  70
32
  0
VERTEX
  5
889
  100
AcDbEntity
  8
Layer 1
  62
0
  100
AcDb2dVertex
  10
165.18200
  20
159.73600
  30
0.00000
  42
0.3461
  70
32
  0
VERTEX
  5
88A
  100
AcDbEntity
  8
Layer 1
  62
0
  100
AcDb2dVertex
  10
165.20050
  20
159.88030
  30
0.00000
  42
0.3460
  70
32
  0
VERTEX
  5
88B
  100
AcDbEntity
  8
Layer 1
  62
0
  100
AcDb2dVertex
  10
165.06480
  20
159.93220
  30
0.00000
  42
0.0609
  70
32
  0
VERTEX
  5
88C
  100
AcDbEntity
  8
Layer 1
  62
0
  100
AcDb2dVertex
  10
164.71140
  20
159.75670
  30
0.00000
  70
32
  0
SEQEND
  5
88D
  100
AcDbEntity
  8
Layer 1
  62
0
  0
POLYLINE
  5
88E
  100
AcDbEntity
  8
Layer 1
  62
0
  100
AcDb2dPolyline
 66
     1
  10
0
  20
0
  30
0
  70
1
  0
VERTEX
  5
88F
  100
AcDbEntity
  8
Layer 1
  62
0
  100
AcDb2dVertex
  10
165.60890
  20
169.07820
  30
0.00000
  42
-0.0231
  70
32
  0
VERTEX
  5
890
  100
AcDbEntity
  8
Layer 1
  62
0
  100
AcDb2dVertex
  10
168.56930
  20
171.07070
  30
0.00000
  42
0.0256
  70
32
  0
VERTEX
  5
891
  100
AcDbEntity
  8
Layer 1
  62
0
  100
AcDb2dVertex
  10
170.02670
  20
172.27220
  30
0.00000
  42
0.0882
  70
32
  0
VERTEX
  5
892
  100
AcDbEntity
  8
Layer 1
  62
0
  100
AcDb2dVertex
  10
170.35880
  20
172.66150
  30
0.00000
  42
0.3154
  70
32
  0
VERTEX
  5
893
  100
AcDbEntity
  8
Layer 1
  62
0
  100
AcDb2dVertex
  10
170.32680
  20
172.87370
  30
0.00000
  42
0.3147
  70
32
  0
VERTEX
  5
894
  100
AcDbEntity
  8
Layer 1
  62
0
  100
AcDb2dVertex
  10
169.78000
  20
172.91950
  30
0.00000
  70
32
  0
VERTEX
  5
895
  100
AcDbEntity
  8
Layer 1
  62
0
  100
AcDb2dVertex
  10
168.36770
  20
171.89200
  30
0.00000
  42
-0.0485
  70
32
  0
VERTEX
  5
896
  100
AcDbEntity
  8
Layer 1
  62
0
  100
AcDb2dVertex
  10
163.66000
  20
169.68360
  30
0.00000
  42
-0.1500
  70
32
  0
VERTEX
  5
897
  100
AcDbEntity
  8
Layer 1
  62
0
  100
AcDb2dVertex
  10
162.51960
  20
169.76820
  30
0.00000
  42
-0.2772
  70
32
  0
VERTEX
  5
898
  100
AcDbEntity
  8
Layer 1
  62
0
  100
AcDb2dVertex
  10
162.31870
  20
170.07540
  30
0.00000
  42
-0.1734
  70
32
  0
VERTEX
  5
899
  100
AcDbEntity
  8
Layer 1
  62
0
  100
AcDb2dVertex
  10
163.22710
  20
172.35730
  30
0.00000
  42
0.0661
  70
32
  0
VERTEX
  5
89A
  100
AcDbEntity
  8
Layer 1
  62
0
  100
AcDb2dVertex
  10
165.34710
  20
176.84080
  30
0.00000
  42
-0.0712
  70
32
  0
VERTEX
  5
89B
  100
AcDbEntity
  8
Layer 1
  62
0
  100
AcDb2dVertex
  10
166.98730
  20
179.76860
  30
0.00000
  42
0.0689
  70
32
  0
VERTEX
  5
89C
  100
AcDbEntity
  8
Layer 1
  62
0
  100
AcDb2dVertex
  10
167.20460
  20
180.10990
  30
0.00000
  42
0.2824
  70
32
  0
VERTEX
  5
89D
  100
AcDbEntity
  8
Layer 1
  62
0
  100
AcDb2dVertex
  10
167.19240
  20
180.15320
  30
0.00000
  42
0.2823
  70
32
  0
VERTEX
  5
89E
  100
AcDbEntity
  8
Layer 1
  62
0
  100
AcDb2dVertex
  10
167.14830
  20
180.16190
  30
0.00000
  42
0.0672
  70
32
  0
VERTEX
  5
89F
  100
AcDbEntity
  8
Layer 1
  62
0
  100
AcDb2dVertex
  10
166.42290
  20
179.64680
  30
0.00000
  42
0.1336
  70
32
  0
VERTEX
  5
8A0
  100
AcDbEntity
  8
Layer 1
  62
0
  100
AcDb2dVertex
  10
164.09420
  20
175.96890
  30
0.00000
  42
-0.0199
  70
32
  0
VERTEX
  5
8A1
  100
AcDbEntity
  8
Layer 1
  62
0
  100
AcDb2dVertex
  10
162.82050
  20
173.85580
  30
0.00000
  70
32
  0
VERTEX
  5
8A2
  100
AcDbEntity
  8
Layer 1
  62
0
  100
AcDb2dVertex
  10
162.58100
  20
173.19730
  30
0.00000
  42
-0.1747
  70
32
  0
VERTEX
  5
8A3
  100
AcDbEntity
  8
Layer 1
  62
0
  100
AcDb2dVertex
  10
162.17320
  20
172.57520
  30
0.00000
  42
0.0467
  70
32
  0
VERTEX
  5
8A4
  100
AcDbEntity
  8
Layer 1
  62
0
  100
AcDb2dVertex
  10
161.18010
  20
171.69530
  30
0.00000
  42
0.1285
  70
32
  0
VERTEX
  5
8A5
  100
AcDbEntity
  8
Layer 1
  62
0
  100
AcDb2dVertex
  10
160.98240
  20
171.28500
  30
0.00000
  42
0.0850
  70
32
  0
VERTEX
  5
8A6
  100
AcDbEntity
  8
Layer 1
  62
0
  100
AcDb2dVertex
  10
160.58530
  20
168.53600
  30
0.00000
  42
0.3799
  70
32
  0
VERTEX
  5
8A7
  100
AcDbEntity
  8
Layer 1
  62
0
  100
AcDb2dVertex
  10
161.11640
  20
167.97700
  30
0.00000
  42
0.1146
  70
32
  0
VERTEX
  5
8A8
  100
AcDbEntity
  8
Layer 1
  62
0
  100
AcDb2dVertex
  10
165.60890
  20
169.07820
  30
0.00000
  70
32
  0
SEQEND
  5
8A9
  100
AcDbEntity
  8
Layer 1
  62
0
  0
POLYLINE
  5
8AA
  100
AcDbEntity
  8
Layer 1
  62
0
  100
AcDb2dPolyline
 66
     1
  10
0
  20
0
  30
0
  70
1
  0
VERTEX
  5
8AB
  100
AcDbEntity
  8
Layer 1
  62
0
  100
AcDb2dVertex
  10
185.87990
  20
206.23110
  30
0.00000
  42
0.1555
  70
32
  0
VERTEX
  5
8AC
  100
AcDbEntity
  8
Layer 1
  62
0
  100
AcDb2dVertex
  10
183.46060
  20
212.35960
  30
0.00000
  42
0.1433
  70
32
  0
VERTEX
  5
8AD
  100
AcDbEntity
  8
Layer 1
  62
0
  100
AcDb2dVertex
  10
183.25380
  20
212.46780
  30
0.00000
  70
32
  0
VERTEX
  5
8AE
  100
AcDbEntity
  8
Layer 1
  62
0
  100
AcDb2dVertex
  10
183.12810
  20
212.46610
  30
0.00000
  70
32
  0
VERTEX
  5
8AF
  100
AcDbEntity
  8
Layer 1
  62
0
  100
AcDb2dVertex
  10
182.81580
  20
212.45080
  30
0.00000
  42
-0.4063
  70
32
  0
VERTEX
  5
8B0
  100
AcDbEntity
  8
Layer 1
  62
0
  100
AcDb2dVertex
  10
181.74420
  20
213.25690
  30
0.00000
  42
0.0312
  70
32
  0
VERTEX
  5
8B1
  100
AcDbEntity
  8
Layer 1
  62
0
  100
AcDb2dVertex
  10
181.61020
  20
213.78290
  30
0.00000
  42
0.2161
  70
32
  0
VERTEX
  5
8B2
  100
AcDbEntity
  8
Layer 1
  62
0
  100
AcDb2dVertex
  10
181.44530
  20
213.95870
  30
0.00000
  42
-0.0402
  70
32
  0
VERTEX
  5
8B3
  100
AcDbEntity
  8
Layer 1
  62
0
  100
AcDb2dVertex
  10
181.22070
  20
214.08010
  30
0.00000
  70
32
  0
VERTEX
  5
8B4
  100
AcDbEntity
  8
Layer 1
  62
0
  100
AcDb2dVertex
  10
181.10250
  20
214.12780
  30
0.00000
  42
-0.1224
  70
32
  0
VERTEX
  5
8B5
  100
AcDbEntity
  8
Layer 1
  62
0
  100
AcDb2dVertex
  10
180.89950
  20
214.36600
  30
0.00000
  42
-0.0387
  70
32
  0
VERTEX
  5
8B6
  100
AcDbEntity
  8
Layer 1
  62
0
  100
AcDb2dVertex
  10
180.53160
  20
215.59310
  30
0.00000
  42
0.2609
  70
32
  0
VERTEX
  5
8B7
  100
AcDbEntity
  8
Layer 1
  62
0
  100
AcDb2dVertex
  10
179.97750
  20
216.27140
  30
0.00000
  42
0.3787
  70
32
  0
VERTEX
  5
8B8
  100
AcDbEntity
  8
Layer 1
  62
0
  100
AcDb2dVertex
  10
179.57480
  20
216.14020
  30
0.00000
  42
0.0660
  70
32
  0
VERTEX
  5
8B9
  100
AcDbEntity
  8
Layer 1
  62
0
  100
AcDb2dVertex
  10
179.51560
  20
215.90130
  30
0.00000
  42
0.2314
  70
32
  0
VERTEX
  5
8BA
  100
AcDbEntity
  8
Layer 1
  62
0
  100
AcDb2dVertex
  10
181.52480
  20
211.96630
  30
0.00000
  42
-0.2791
  70
32
  0
VERTEX
  5
8BB
  100
AcDbEntity
  8
Layer 1
  62
0
  100
AcDb2dVertex
  10
181.79650
  20
210.84840
  30
0.00000
  42
-0.2791
  70
32
  0
VERTEX
  5
8BC
  100
AcDbEntity
  8
Layer 1
  62
0
  100
AcDb2dVertex
  10
180.93190
  20
210.08950
  30
0.00000
  42
-0.1838
  70
32
  0
VERTEX
  5
8BD
  100
AcDbEntity
  8
Layer 1
  62
0
  100
AcDb2dVertex
  10
179.02070
  20
209.81320
  30
0.00000
  42
0.0412
  70
32
  0
VERTEX
  5
8BE
  100
AcDbEntity
  8
Layer 1
  62
0
  100
AcDb2dVertex
  10
178.48750
  20
209.95060
  30
0.00000
  42
0.3365
  70
32
  0
VERTEX
  5
8BF
  100
AcDbEntity
  8
Layer 1
  62
0
  100
AcDb2dVertex
  10
178.08500
  20
209.73300
  30
0.00000
  42
0.1227
  70
32
  0
VERTEX
  5
8C0
  100
AcDbEntity
  8
Layer 1
  62
0
  100
AcDb2dVertex
  10
178.03330
  20
209.20830
  30
0.00000
  42
0.0580
  70
32
  0
VERTEX
  5
8C1
  100
AcDbEntity
  8
Layer 1
  62
0
  100
AcDb2dVertex
  10
178.77700
  20
207.51400
  30
0.00000
  42
-0.0198
  70
32
  0
VERTEX
  5
8C2
  100
AcDbEntity
  8
Layer 1
  62
0
  100
AcDb2dVertex
  10
179.32620
  20
205.57970
  30
0.00000
  42
-0.1246
  70
32
  0
VERTEX
  5
8C3
  100
AcDbEntity
  8
Layer 1
  62
0
  100
AcDb2dVertex
  10
180.02750
  20
203.68900
  30
0.00000
  70
32
  0
VERTEX
  5
8C4
  100
AcDbEntity
  8
Layer 1
  62
0
  100
AcDb2dVertex
  10
180.11830
  20
199.44400
  30
0.00000
  42
0.0743
  70
32
  0
VERTEX
  5
8C5
  100
AcDbEntity
  8
Layer 1
  62
0
  100
AcDb2dVertex
  10
180.20010
  20
199.02560
  30
0.00000
  42
0.1995
  70
32
  0
VERTEX
  5
8C6
  100
AcDbEntity
  8
Layer 1
  62
0
  100
AcDb2dVertex
  10
180.31530
  20
198.90970
  30
0.00000
  42
0.3232
  70
32
  0
VERTEX
  5
8C7
  100
AcDbEntity
  8
Layer 1
  62
0
  100
AcDb2dVertex
  10
180.89370
  20
199.11990
  30
0.00000
  42
0.2020
  70
32
  0
VERTEX
  5
8C8
  100
AcDbEntity
  8
Layer 1
  62
0
  100
AcDb2dVertex
  10
180.96360
  20
199.63850
  30
0.00000
  42
-0.0205
  70
32
  0
VERTEX
  5
8C9
  100
AcDbEntity
  8
Layer 1
  62
0
  100
AcDb2dVertex
  10
180.89690
  20
200.05840
  30
0.00000
  42
-0.2257
  70
32
  0
VERTEX
  5
8CA
  100
AcDbEntity
  8
Layer 1
  62
0
  100
AcDb2dVertex
  10
181.03730
  20
201.08480
  30
0.00000
  42
-0.4016
  70
32
  0
VERTEX
  5
8CB
  100
AcDbEntity
  8
Layer 1
  62
0
  100
AcDb2dVertex
  10
181.69030
  20
201.33790
  30
0.00000
  42
-0.1118
  70
32
  0
VERTEX
  5
8CC
  100
AcDbEntity
  8
Layer 1
  62
0
  100
AcDb2dVertex
  10
182.40330
  20
200.68870
  30
0.00000
  42
0.0913
  70
32
  0
VERTEX
  5
8CD
  100
AcDbEntity
  8
Layer 1
  62
0
  100
AcDb2dVertex
  10
185.17450
  20
197.77520
  30
0.00000
  42
-0.1759
  70
32
  0
VERTEX
  5
8CE
  100
AcDbEntity
  8
Layer 1
  62
0
  100
AcDb2dVertex
  10
186.06080
  20
196.84980
  30
0.00000
  42
-0.2667
  70
32
  0
VERTEX
  5
8CF
  100
AcDbEntity
  8
Layer 1
  62
0
  100
AcDb2dVertex
  10
185.14110
  20
193.91690
  30
0.00000
  42
-0.2935
  70
32
  0
VERTEX
  5
8D0
  100
AcDbEntity
  8
Layer 1
  62
0
  100
AcDb2dVertex
  10
183.89990
  20
193.40220
  30
0.00000
  42
-0.2524
  70
32
  0
VERTEX
  5
8D1
  100
AcDbEntity
  8
Layer 1
  62
0
  100
AcDb2dVertex
  10
182.43270
  20
195.12930
  30
0.00000
  42
0.0277
  70
32
  0
VERTEX
  5
8D2
  100
AcDbEntity
  8
Layer 1
  62
0
  100
AcDb2dVertex
  10
182.28020
  20
195.54370
  30
0.00000
  42
0.1988
  70
32
  0
VERTEX
  5
8D3
  100
AcDbEntity
  8
Layer 1
  62
0
  100
AcDb2dVertex
  10
182.16050
  20
195.65360
  30
0.00000
  42
0.0759
  70
32
  0
VERTEX
  5
8D4
  100
AcDbEntity
  8
Layer 1
  62
0
  100
AcDb2dVertex
  10
181.92400
  20
195.68600
  30
0.00000
  42
-0.1257
  70
32
  0
VERTEX
  5
8D5
  100
AcDbEntity
  8
Layer 1
  62
0
  100
AcDb2dVertex
  10
180.72820
  20
195.95380
  30
0.00000
  42
-0.1003
  70
32
  0
VERTEX
  5
8D6
  100
AcDbEntity
  8
Layer 1
  62
0
  100
AcDb2dVertex
  10
180.12910
  20
196.28780
  30
0.00000
  42
-0.0629
  70
32
  0
VERTEX
  5
8D7
  100
AcDbEntity
  8
Layer 1
  62
0
  100
AcDb2dVertex
  10
179.80020
  20
196.79310
  30
0.00000
  42
0.1456
  70
32
  0
VERTEX
  5
8D8
  100
AcDbEntity
  8
Layer 1
  62
0
  100
AcDb2dVertex
  10
179.62530
  20
196.99570
  30
0.00000
  70
32
  0
VERTEX
  5
8D9
  100
AcDbEntity
  8
Layer 1
  62
0
  100
AcDb2dVertex
  10
179.50960
  20
197.02700
  30
0.00000
  42
-0.0379
  70
32
  0
VERTEX
  5
8DA
  100
AcDbEntity
  8
Layer 1
  62
0
  100
AcDb2dVertex
  10
179.26140
  20
197.06920
  30
0.00000
  70
32
  0
VERTEX
  5
8DB
  100
AcDbEntity
  8
Layer 1
  62
0
  100
AcDb2dVertex
  10
179.12660
  20
197.07840
  30
0.00000
  42
-0.2444
  70
32
  0
VERTEX
  5
8DC
  100
AcDbEntity
  8
Layer 1
  62
0
  100
AcDb2dVertex
  10
178.96250
  20
197.21150
  30
0.00000
  42
-0.0500
  70
32
  0
VERTEX
  5
8DD
  100
AcDbEntity
  8
Layer 1
  62
0
  100
AcDb2dVertex
  10
178.88390
  20
197.52320
  30
0.00000
  42
0.2401
  70
32
  0
VERTEX
  5
8DE
  100
AcDbEntity
  8
Layer 1
  62
0
  100
AcDb2dVertex
  10
178.36310
  20
198.35000
  30
0.00000
  42
-0.1533
  70
32
  0
VERTEX
  5
8DF
  100
AcDbEntity
  8
Layer 1
  62
0
  100
AcDb2dVertex
  10
177.94340
  20
198.77860
  30
0.00000
  42
-0.1254
  70
32
  0
VERTEX
  5
8E0
  100
AcDbEntity
  8
Layer 1
  62
0
  100
AcDb2dVertex
  10
177.80720
  20
202.58520
  30
0.00000
  42
-0.1115
  70
32
  0
VERTEX
  5
8E1
  100
AcDbEntity
  8
Layer 1
  62
0
  100
AcDb2dVertex
  10
178.00490
  20
202.97380
  30
0.00000
  42
0.1625
  70
32
  0
VERTEX
  5
8E2
  100
AcDbEntity
  8
Layer 1
  62
0
  100
AcDb2dVertex
  10
178.03140
  20
203.06200
  30
0.00000
  42
0.1938
  70
32
  0
VERTEX
  5
8E3
  100
AcDbEntity
  8
Layer 1
  62
0
  100
AcDb2dVertex
  10
178.00000
  20
203.13290
  30
0.00000
  70
32
  0
VERTEX
  5
8E4
  100
AcDbEntity
  8
Layer 1
  62
0
  100
AcDb2dVertex
  10
176.02090
  20
204.38960
  30
0.00000
  42
-0.4512
  70
32
  0
VERTEX
  5
8E5
  100
AcDbEntity
  8
Layer 1
  62
0
  100
AcDb2dVertex
  10
174.77020
  20
211.97800
  30
0.00000
  42
0.1848
  70
32
  0
VERTEX
  5
8E6
  100
AcDbEntity
  8
Layer 1
  62
0
  100
AcDb2dVertex
  10
175.96450
  20
214.32680
  30
0.00000
  42
-0.2312
  70
32
  0
VERTEX
  5
8E7
  100
AcDbEntity
  8
Layer 1
  62
0
  100
AcDb2dVertex
  10
176.43950
  20
215.37920
  30
0.00000
  42
0.0467
  70
32
  0
VERTEX
  5
8E8
  100
AcDbEntity
  8
Layer 1
  62
0
  100
AcDb2dVertex
  10
176.93270
  20
215.81060
  30
0.00000
  42
0.2755
  70
32
  0
VERTEX
  5
8E9
  100
AcDbEntity
  8
Layer 1
  62
0
  100
AcDb2dVertex
  10
176.99700
  20
216.14220
  30
0.00000
  42
0.2755
  70
32
  0
VERTEX
  5
8EA
  100
AcDbEntity
  8
Layer 1
  62
0
  100
AcDb2dVertex
  10
176.73610
  20
216.35640
  30
0.00000
  42
0.0249
  70
32
  0
VERTEX
  5
8EB
  100
AcDbEntity
  8
Layer 1
  62
0
  100
AcDb2dVertex
  10
176.28890
  20
216.40200
  30
0.00000
  42
-0.1567
  70
32
  0
VERTEX
  5
8EC
  100
AcDbEntity
  8
Layer 1
  62
0
  100
AcDb2dVertex
  10
176.12000
  20
216.47830
  30
0.00000
  42
-0.3115
  70
32
  0
VERTEX
  5
8ED
  100
AcDbEntity
  8
Layer 1
  62
0
  100
AcDb2dVertex
  10
176.09720
  20
216.57540
  30
0.00000
  42
0.0413
  70
32
  0
VERTEX
  5
8EE
  100
AcDbEntity
  8
Layer 1
  62
0
  100
AcDb2dVertex
  10
176.93060
  20
218.31850
  30
0.00000
  42
0.2029
  70
32
  0
VERTEX
  5
8EF
  100
AcDbEntity
  8
Layer 1
  62
0
  100
AcDb2dVertex
  10
176.92550
  20
218.72410
  30
0.00000
  70
32
  0
VERTEX
  5
8F0
  100
AcDbEntity
  8
Layer 1
  62
0
  100
AcDb2dVertex
  10
176.63150
  20
219.24090
  30
0.00000
  42
-0.1128
  70
32
  0
VERTEX
  5
8F1
  100
AcDbEntity
  8
Layer 1
  62
0
  100
AcDb2dVertex
  10
176.37880
  20
219.86360
  30
0.00000
  70
32
  0
VERTEX
  5
8F2
  100
AcDbEntity
  8
Layer 1
  62
0
  100
AcDb2dVertex
  10
176.41630
  20
220.05840
  30
0.00000
  42
-0.2296
  70
32
  0
VERTEX
  5
8F3
  100
AcDbEntity
  8
Layer 1
  62
0
  100
AcDb2dVertex
  10
177.29490
  20
220.60930
  30
0.00000
  42
-0.1555
  70
32
  0
VERTEX
  5
8F4
  100
AcDbEntity
  8
Layer 1
  62
0
  100
AcDb2dVertex
  10
178.15150
  20
220.48950
  30
0.00000
  42
-0.1030
  70
32
  0
VERTEX
  5
8F5
  100
AcDbEntity
  8
Layer 1
  62
0
  100
AcDb2dVertex
  10
179.41930
  20
219.30420
  30
0.00000
  42
0.1067
  70
32
  0
VERTEX
  5
8F6
  100
AcDbEntity
  8
Layer 1
  62
0
  100
AcDb2dVertex
  10
179.64210
  20
219.11990
  30
0.00000
  42
0.2365
  70
32
  0
VERTEX
  5
8F7
  100
AcDbEntity
  8
Layer 1
  62
0
  100
AcDb2dVertex
  10
179.97230
  20
219.17400
  30
0.00000
  42
-0.0877
  70
32
  0
VERTEX
  5
8F8
  100
AcDbEntity
  8
Layer 1
  62
0
  100
AcDb2dVertex
  10
180.78000
  20
219.52110
  30
0.00000
  42
-0.2185
  70
32
  0
VERTEX
  5
8F9
  100
AcDbEntity
  8
Layer 1
  62
0
  100
AcDb2dVertex
  10
180.96080
  20
219.47930
  30
0.00000
  70
32
  0
VERTEX
  5
8FA
  100
AcDbEntity
  8
Layer 1
  62
0
  100
AcDb2dVertex
  10
181.00860
  20
219.40200
  30
0.00000
  42
0.1334
  70
32
  0
VERTEX
  5
8FB
  100
AcDbEntity
  8
Layer 1
  62
0
  100
AcDb2dVertex
  10
181.37580
  20
218.87450
  30
0.00000
  42
0.5532
  70
32
  0
VERTEX
  5
8FC
  100
AcDbEntity
  8
Layer 1
  62
0
  100
AcDb2dVertex
  10
181.95530
  20
219.00040
  30
0.00000
  42
0.2289
  70
32
  0
VERTEX
  5
8FD
  100
AcDbEntity
  8
Layer 1
  62
0
  100
AcDb2dVertex
  10
181.66580
  20
221.30930
  30
0.00000
  42
-0.0537
  70
32
  0
VERTEX
  5
8FE
  100
AcDbEntity
  8
Layer 1
  62
0
  100
AcDb2dVertex
  10
179.66020
  20
223.41370
  30
0.00000
  42
-0.3538
  70
32
  0
VERTEX
  5
8FF
  100
AcDbEntity
  8
Layer 1
  62
0
  100
AcDb2dVertex
  10
179.69240
  20
224.07540
  30
0.00000
  42
-0.2925
  70
32
  0
VERTEX
  5
900
  100
AcDbEntity
  8
Layer 1
  62
0
  100
AcDb2dVertex
  10
180.29230
  20
224.15150
  30
0.00000
  42
0.0960
  70
32
  0
VERTEX
  5
901
  100
AcDbEntity
  8
Layer 1
  62
0
  100
AcDb2dVertex
  10
181.55930
  20
223.80780
  30
0.00000
  42
-0.2159
  70
32
  0
VERTEX
  5
902
  100
AcDbEntity
  8
Layer 1
  62
0
  100
AcDb2dVertex
  10
182.81240
  20
223.28550
  30
0.00000
  42
0.0873
  70
32
  0
VERTEX
  5
903
  100
AcDbEntity
  8
Layer 1
  62
0
  100
AcDb2dVertex
  10
183.25570
  20
222.94350
  30
0.00000
  42
0.4641
  70
32
  0
VERTEX
  5
904
  100
AcDbEntity
  8
Layer 1
  62
0
  100
AcDb2dVertex
  10
183.56970
  20
223.07860
  30
0.00000
  42
0.2280
  70
32
  0
VERTEX
  5
905
  100
AcDbEntity
  8
Layer 1
  62
0
  100
AcDb2dVertex
  10
183.46380
  20
223.55980
  30
0.00000
  70
32
  0
VERTEX
  5
906
  100
AcDbEntity
  8
Layer 1
  62
0
  100
AcDb2dVertex
  10
182.49580
  20
224.78010
  30
0.00000
  42
0.0088
  70
32
  0
VERTEX
  5
907
  100
AcDbEntity
  8
Layer 1
  62
0
  100
AcDb2dVertex
  10
181.07760
  20
227.54300
  30
0.00000
  42
-0.2889
  70
32
  0
VERTEX
  5
908
  100
AcDbEntity
  8
Layer 1
  62
0
  100
AcDb2dVertex
  10
180.92060
  20
229.67490
  30
0.00000
  42
0.1242
  70
32
  0
VERTEX
  5
909
  100
AcDbEntity
  8
Layer 1
  62
0
  100
AcDb2dVertex
  10
181.25700
  20
230.81120
  30
0.00000
  42
0.4147
  70
32
  0
VERTEX
  5
90A
  100
AcDbEntity
  8
Layer 1
  62
0
  100
AcDb2dVertex
  10
180.99900
  20
231.06240
  30
0.00000
  42
0.1076
  70
32
  0
VERTEX
  5
90B
  100
AcDbEntity
  8
Layer 1
  62
0
  100
AcDb2dVertex
  10
180.68920
  20
230.99380
  30
0.00000
  42
-0.0105
  70
32
  0
VERTEX
  5
90C
  100
AcDbEntity
  8
Layer 1
  62
0
  100
AcDb2dVertex
  10
179.01560
  20
229.99080
  30
0.00000
  42
-0.3882
  70
32
  0
VERTEX
  5
90D
  100
AcDbEntity
  8
Layer 1
  62
0
  100
AcDb2dVertex
  10
177.62230
  20
230.31170
  30
0.00000
  42
-0.0714
  70
32
  0
VERTEX
  5
90E
  100
AcDbEntity
  8
Layer 1
  62
0
  100
AcDb2dVertex
  10
177.15510
  20
231.58730
  30
0.00000
  42
0.3771
  70
32
  0
VERTEX
  5
90F
  100
AcDbEntity
  8
Layer 1
  62
0
  100
AcDb2dVertex
  10
176.29550
  20
232.31140
  30
0.00000
  42
-0.0340
  70
32
  0
VERTEX
  5
910
  100
AcDbEntity
  8
Layer 1
  62
0
  100
AcDb2dVertex
  10
176.02350
  20
232.33620
  30
0.00000
  42
-0.2899
  70
32
  0
VERTEX
  5
911
  100
AcDbEntity
  8
Layer 1
  62
0
  100
AcDb2dVertex
  10
175.75100
  20
232.54340
  30
0.00000
  42
-0.0164
  70
32
  0
VERTEX
  5
912
  100
AcDbEntity
  8
Layer 1
  62
0
  100
AcDb2dVertex
  10
175.09310
  20
235.19360
  30
0.00000
  42
0.2236
  70
32
  0
VERTEX
  5
913
  100
AcDbEntity
  8
Layer 1
  62
0
  100
AcDb2dVertex
  10
174.72050
  20
235.72430
  30
0.00000
  42
0.0352
  70
32
  0
VERTEX
  5
914
  100
AcDbEntity
  8
Layer 1
  62
0
  100
AcDb2dVertex
  10
174.43930
  20
235.87260
  30
0.00000
  42
-0.0463
  70
32
  0
VERTEX
  5
915
  100
AcDbEntity
  8
Layer 1
  62
0
  100
AcDb2dVertex
  10
174.07420
  20
236.07580
  30
0.00000
  42
-0.3531
  70
32
  0
VERTEX
  5
916
  100
AcDbEntity
  8
Layer 1
  62
0
  100
AcDb2dVertex
  10
173.67690
  20
237.11550
  30
0.00000
  42
-0.0254
  70
32
  0
VERTEX
  5
917
  100
AcDbEntity
  8
Layer 1
  62
0
  100
AcDb2dVertex
  10
174.18900
  20
238.12630
  30
0.00000
  42
0.4130
  70
32
  0
VERTEX
  5
918
  100
AcDbEntity
  8
Layer 1
  62
0
  100
AcDb2dVertex
  10
174.02280
  20
238.75840
  30
0.00000
  42
-0.0129
  70
32
  0
VERTEX
  5
919
  100
AcDbEntity
  8
Layer 1
  62
0
  100
AcDb2dVertex
  10
173.68130
  20
238.97680
  30
0.00000
  42
-0.4816
  70
32
  0
VERTEX
  5
91A
  100
AcDbEntity
  8
Layer 1
  62
0
  100
AcDb2dVertex
  10
173.38390
  20
240.42630
  30
0.00000
  42
-0.1051
  70
32
  0
VERTEX
  5
91B
  100
AcDbEntity
  8
Layer 1
  62
0
  100
AcDb2dVertex
  10
174.52560
  20
240.85210
  30
0.00000
  42
0.1368
  70
32
  0
VERTEX
  5
91C
  100
AcDbEntity
  8
Layer 1
  62
0
  100
AcDb2dVertex
  10
175.20750
  20
241.10250
  30
0.00000
  42
0.2125
  70
32
  0
VERTEX
  5
91D
  100
AcDbEntity
  8
Layer 1
  62
0
  100
AcDb2dVertex
  10
175.29250
  20
241.28780
  30
0.00000
  42
0.1293
  70
32
  0
VERTEX
  5
91E
  100
AcDbEntity
  8
Layer 1
  62
0
  100
AcDb2dVertex
  10
175.22250
  20
241.53050
  30
0.00000
  42
0.0254
  70
32
  0
VERTEX
  5
91F
  100
AcDbEntity
  8
Layer 1
  62
0
  100
AcDb2dVertex
  10
174.82770
  20
242.05030
  30
0.00000
  42
-0.3352
  70
32
  0
VERTEX
  5
920
  100
AcDbEntity
  8
Layer 1
  62
0
  100
AcDb2dVertex
  10
174.77170
  20
243.06390
  30
0.00000
  42
-0.1772
  70
32
  0
VERTEX
  5
921
  100
AcDbEntity
  8
Layer 1
  62
0
  100
AcDb2dVertex
  10
175.38540
  20
243.29760
  30
0.00000
  70
32
  0
VERTEX
  5
922
  100
AcDbEntity
  8
Layer 1
  62
0
  100
AcDb2dVertex
  10
220.75680
  20
242.11910
  30
0.00000
  70
32
  0
VERTEX
  5
923
  100
AcDbEntity
  8
Layer 1
  62
0
  100
AcDb2dVertex
  10
249.94290
  20
241.42820
  30
0.00000
  70
32
  0
VERTEX
  5
924
  100
AcDbEntity
  8
Layer 1
  62
0
  100
AcDb2dVertex
  10
324.71930
  20
242.96250
  30
0.00000
  70
32
  0
VERTEX
  5
925
  100
AcDbEntity
  8
Layer 1
  62
0
  100
AcDb2dVertex
  10
341.31830
  20
243.31950
  30
0.00000
  42
-0.0700
  70
32
  0
VERTEX
  5
926
  100
AcDbEntity
  8
Layer 1
  62
0
  100
AcDb2dVertex
  10
341.84520
  20
243.30160
  30
0.00000
  42
-0.3124
  70
32
  0
VERTEX
  5
927
  100
AcDbEntity
  8
Layer 1
  62
0
  100
AcDb2dVertex
  10
342.04580
  20
243.03020
  30
0.00000
  42
-0.0052
  70
32
  0
VERTEX
  5
928
  100
AcDbEntity
  8
Layer 1
  62
0
  100
AcDb2dVertex
  10
342.42800
  20
234.99910
  30
0.00000
  42
-0.0051
  70
32
  0
VERTEX
  5
929
  100
AcDbEntity
  8
Layer 1
  62
0
  100
AcDb2dVertex
  10
342.51790
  20
232.01020
  30
0.00000
  70
32
  0
VERTEX
  5
92A
  100
AcDbEntity
  8
Layer 1
  62
0
  100
AcDb2dVertex
  10
346.75230
  20
130.52580
  30
0.00000
  42
-0.1524
  70
32
  0
VERTEX
  5
92B
  100
AcDbEntity
  8
Layer 1
  62
0
  100
AcDb2dVertex
  10
346.68500
  20
130.33360
  30
0.00000
  70
32
  0
VERTEX
  5
92C
  100
AcDbEntity
  8
Layer 1
  62
0
  100
AcDb2dVertex
  10
346.59970
  20
130.24710
  30
0.00000
  42
0.0280
  70
32
  0
VERTEX
  5
92D
  100
AcDbEntity
  8
Layer 1
  62
0
  100
AcDb2dVertex
  10
346.32470
  20
129.96650
  30
0.00000
  42
0.1953
  70
32
  0
VERTEX
  5
92E
  100
AcDbEntity
  8
Layer 1
  62
0
  100
AcDb2dVertex
  10
346.27660
  20
129.76840
  30
0.00000
  42
0.1225
  70
32
  0
VERTEX
  5
92F
  100
AcDbEntity
  8
Layer 1
  62
0
  100
AcDb2dVertex
  10
346.47280
  20
129.43140
  30
0.00000
  42
-0.1559
  70
32
  0
VERTEX
  5
930
  100
AcDbEntity
  8
Layer 1
  62
0
  100
AcDb2dVertex
  10
347.16810
  20
128.26180
  30
0.00000
  42
-0.1191
  70
32
  0
VERTEX
  5
931
  100
AcDbEntity
  8
Layer 1
  62
0
  100
AcDb2dVertex
  10
346.78490
  20
126.97290
  30
0.00000
  42
0.3072
  70
32
  0
VERTEX
  5
932
  100
AcDbEntity
  8
Layer 1
  62
0
  100
AcDb2dVertex
  10
346.88590
  20
124.98660
  30
0.00000
  42
0.0282
  70
32
  0
VERTEX
  5
933
  100
AcDbEntity
  8
Layer 1
  62
0
  100
AcDb2dVertex
  10
347.59910
  20
124.41880
  30
0.00000
  42
-0.1496
  70
32
  0
VERTEX
  5
934
  100
AcDbEntity
  8
Layer 1
  62
0
  100
AcDb2dVertex
  10
347.93190
  20
124.00380
  30
0.00000
  70
32
  0
VERTEX
  5
935
  100
AcDbEntity
  8
Layer 1
  62
0
  100
AcDb2dVertex
  10
348.10120
  20
122.93160
  30
0.00000
  42
0.0547
  70
32
  0
VERTEX
  5
936
  100
AcDbEntity
  8
Layer 1
  62
0
  100
AcDb2dVertex
  10
349.68220
  20
119.95780
  30
0.00000
  70
32
  0
VERTEX
  5
937
  100
AcDbEntity
  8
Layer 1
  62
0
  100
AcDb2dVertex
  10
350.19030
  20
118.03730
  30
0.00000
  42
-0.2298
  70
32
  0
VERTEX
  5
938
  100
AcDbEntity
  8
Layer 1
  62
0
  100
AcDb2dVertex
  10
350.23050
  20
116.10910
  30
0.00000
  42
0.2174
  70
32
  0
VERTEX
  5
939
  100
AcDbEntity
  8
Layer 1
  62
0
  100
AcDb2dVertex
  10
349.75160
  20
113.14290
  30
0.00000
  42
0.0132
  70
32
  0
VERTEX
  5
93A
  100
AcDbEntity
  8
Layer 1
  62
0
  100
AcDb2dVertex
  10
351.25720
  20
109.86810
  30
0.00000
  42
-0.2246
  70
32
  0
VERTEX
  5
93B
  100
AcDbEntity
  8
Layer 1
  62
0
  100
AcDb2dVertex
  10
351.24330
  20
109.74650
  30
0.00000
  42
-0.1855
  70
32
  0
VERTEX
  5
93C
  100
AcDbEntity
  8
Layer 1
  62
0
  100
AcDb2dVertex
  10
351.12720
  20
109.65870
  30
0.00000
  42
-0.0528
  70
32
  0
VERTEX
  5
93D
  100
AcDbEntity
  8
Layer 1
  62
0
  100
AcDb2dVertex
  10
350.68300
  20
109.62230
  30
0.00000
  70
32
  0
VERTEX
  5
93E
  100
AcDbEntity
  8
Layer 1
  62
0
  100
AcDb2dVertex
  10
290.42140
  20
108.54710
  30
0.00000
  70
32
  0
VERTEX
  5
93F
  100
AcDbEntity
  8
Layer 1
  62
0
  100
AcDb2dVertex
  10
290.20880
  20
108.54810
  30
0.00000
  42
0.1278
  70
32
  0
VERTEX
  5
940
  100
AcDbEntity
  8
Layer 1
  62
0
  100
AcDb2dVertex
  10
289.78890
  20
108.38770
  30
0.00000
  42
0.0062
  70
32
  0
VERTEX
  5
941
  100
AcDbEntity
  8
Layer 1
  62
0
  100
AcDb2dVertex
  10
288.91180
  20
107.63330
  30
0.00000
  42
-0.1120
  70
32
  0
VERTEX
  5
942
  100
AcDbEntity
  8
Layer 1
  62
0
  100
AcDb2dVertex
  10
285.30680
  20
104.98510
  30
0.00000
  42
-0.2233
  70
32
  0
VERTEX
  5
943
  100
AcDbEntity
  8
Layer 1
  62
0
  100
AcDb2dVertex
  10
281.88690
  20
104.51640
  30
0.00000
  42
0.2213
  70
32
  0
VERTEX
  5
944
  100
AcDbEntity
  8
Layer 1
  62
0
  100
AcDb2dVertex
  10
277.85030
  20
104.92860
  30
0.00000
  42
-0.0300
  70
32
  0
VERTEX
  5
945
  100
AcDbEntity
  8
Layer 1
  62
0
  100
AcDb2dVertex
  10
276.77320
  20
104.23770
  30
0.00000
  42
-0.0690
  70
32
  0
VERTEX
  5
946
  100
AcDbEntity
  8
Layer 1
  62
0
  100
AcDb2dVertex
  10
273.81360
  20
103.74410
  30
0.00000
  42
-0.1968
  70
32
  0
VERTEX
  5
947
  100
AcDbEntity
  8
Layer 1
  62
0
  100
AcDb2dVertex
  10
271.03710
  20
103.75650
  30
0.00000
  42
0.4417
  70
32
  0
VERTEX
  5
948
  100
AcDbEntity
  8
Layer 1
  62
0
  100
AcDb2dVertex
  10
267.73250
  20
102.67490
  30
0.00000
  42
-0.2646
  70
32
  0
VERTEX
  5
949
  100
AcDbEntity
  8
Layer 1
  62
0
  100
AcDb2dVertex
  10
266.13640
  20
101.56920
  30
0.00000
  42
0.1036
  70
32
  0
VERTEX
  5
94A
  100
AcDbEntity
  8
Layer 1
  62
0
  100
AcDb2dVertex
  10
262.73200
  20
100.88350
  30
0.00000
  42
-0.1978
  70
32
  0
VERTEX
  5
94B
  100
AcDbEntity
  8
Layer 1
  62
0
  100
AcDb2dVertex
  10
258.89050
  20
100.03920
  30
0.00000
  42
0.1485
  70
32
  0
VERTEX
  5
94C
  100
AcDbEntity
  8
Layer 1
  62
0
  100
AcDb2dVertex
  10
257.42140
  20
99.78929
  30
0.00000
  42
-0.0729
  70
32
  0
VERTEX
  5
94D
  100
AcDbEntity
  8
Layer 1
  62
0
  100
AcDb2dVertex
  10
255.05290
  20
98.47272
  30
0.00000
  42
0.1213
  70
32
  0
VERTEX
  5
94E
  100
AcDbEntity
  8
Layer 1
  62
0
  100
AcDb2dVertex
  10
251.19450
  20
96.22645
  30
0.00000
  42
-0.0362
  70
32
  0
VERTEX
  5
94F
  100
AcDbEntity
  8
Layer 1
  62
0
  100
AcDb2dVertex
  10
247.40010
  20
94.35576
  30
0.00000
  42
-0.2160
  70
32
  0
VERTEX
  5
950
  100
AcDbEntity
  8
Layer 1
  62
0
  100
AcDb2dVertex
  10
242.69770
  20
93.86385
  30
0.00000
  42
-0.1221
  70
32
  0
VERTEX
  5
951
  100
AcDbEntity
  8
Layer 1
  62
0
  100
AcDb2dVertex
  10
239.94190
  20
95.02299
  30
0.00000
  42
-0.0204
  70
32
  0
VERTEX
  5
952
  100
AcDbEntity
  8
Layer 1
  62
0
  100
AcDb2dVertex
  10
239.18300
  20
96.16573
  30
0.00000
  42
0.2642
  70
32
  0
VERTEX
  5
953
  100
AcDbEntity
  8
Layer 1
  62
0
  100
AcDb2dVertex
  10
238.62700
  20
96.40838
  30
0.00000
  42
0.0752
  70
32
  0
VERTEX
  5
954
  100
AcDbEntity
  8
Layer 1
  62
0
  100
AcDb2dVertex
  10
234.17450
  20
94.85895
  30
0.00000
  42
-0.0344
  70
32
  0
VERTEX
  5
955
  100
AcDbEntity
  8
Layer 1
  62
0
  100
AcDb2dVertex
  10
229.71540
  20
92.69215
  30
0.00000
  42
0.0766
  70
32
  0
VERTEX
  5
956
  100
AcDbEntity
  8
Layer 1
  62
0
  100
AcDb2dVertex
  10
227.22220
  20
92.05751
  30
0.00000
  42
-0.2020
  70
32
  0
VERTEX
  5
957
  100
AcDbEntity
  8
Layer 1
  62
0
  100
AcDb2dVertex
  10
226.81360
  20
91.96803
  30
0.00000
  42
0.0352
  70
32
  0
VERTEX
  5
958
  100
AcDbEntity
  8
Layer 1
  62
0
  100
AcDb2dVertex
  10
224.38670
  20
92.53705
  30
0.00000
  42
0.2516
  70
32
  0
VERTEX
  5
959
  100
AcDbEntity
  8
Layer 1
  62
0
  100
AcDb2dVertex
  10
223.54390
  20
92.40263
  30
0.00000
  42
0.0384
  70
32
  0
VERTEX
  5
95A
  100
AcDbEntity
  8
Layer 1
  62
0
  100
AcDb2dVertex
  10
222.38120
  20
90.99381
  30
0.00000
  42
-0.2005
  70
32
  0
VERTEX
  5
95B
  100
AcDbEntity
  8
Layer 1
  62
0
  100
AcDb2dVertex
  10
221.39330
  20
90.26501
  30
0.00000
  42
-0.2462
  70
32
  0
VERTEX
  5
95C
  100
AcDbEntity
  8
Layer 1
  62
0
  100
AcDb2dVertex
  10
219.68670
  20
91.20621
  30
0.00000
  42
0.0382
  70
32
  0
VERTEX
  5
95D
  100
AcDbEntity
  8
Layer 1
  62
0
  100
AcDb2dVertex
  10
218.84000
  20
92.55154
  30
0.00000
  42
0.0115
  70
32
  0
VERTEX
  5
95E
  100
AcDbEntity
  8
Layer 1
  62
0
  100
AcDb2dVertex
  10
216.28850
  20
94.28141
  30
0.00000
  42
0.1395
  70
32
  0
VERTEX
  5
95F
  100
AcDbEntity
  8
Layer 1
  62
0
  100
AcDb2dVertex
  10
215.64680
  20
94.45333
  30
0.00000
  42
-0.0506
  70
32
  0
VERTEX
  5
960
  100
AcDbEntity
  8
Layer 1
  62
0
  100
AcDb2dVertex
  10
213.93950
  20
94.28546
  30
0.00000
  42
-0.2357
  70
32
  0
VERTEX
  5
961
  100
AcDbEntity
  8
Layer 1
  62
0
  100
AcDb2dVertex
  10
209.25720
  20
95.84575
  30
0.00000
  42
0.2666
  70
32
  0
VERTEX
  5
962
  100
AcDbEntity
  8
Layer 1
  62
0
  100
AcDb2dVertex
  10
208.39990
  20
96.02534
  30
0.00000
  42
-0.0597
  70
32
  0
VERTEX
  5
963
  100
AcDbEntity
  8
Layer 1
  62
0
  100
AcDb2dVertex
  10
204.57030
  20
94.91264
  30
0.00000
  42
-0.1802
  70
32
  0
VERTEX
  5
964
  100
AcDbEntity
  8
Layer 1
  62
0
  100
AcDb2dVertex
  10
200.31410
  20
94.78354
  30
0.00000
  42
0.2006
  70
32
  0
VERTEX
  5
965
  100
AcDbEntity
  8
Layer 1
  62
0
  100
AcDb2dVertex
  10
198.82410
  20
94.75052
  30
0.00000
  42
-0.0926
  70
32
  0
VERTEX
  5
966
  100
AcDbEntity
  8
Layer 1
  62
0
  100
AcDb2dVertex
  10
193.70140
  20
91.28184
  30
0.00000
  42
-0.0176
  70
32
  0
VERTEX
  5
967
  100
AcDbEntity
  8
Layer 1
  62
0
  100
AcDb2dVertex
  10
193.27780
  20
91.15103
  30
0.00000
  42
0.1327
  70
32
  0
VERTEX
  5
968
  100
AcDbEntity
  8
Layer 1
  62
0
  100
AcDb2dVertex
  10
190.53770
  20
90.09117
  30
0.00000
  42
-0.3000
  70
32
  0
VERTEX
  5
969
  100
AcDbEntity
  8
Layer 1
  62
0
  100
AcDb2dVertex
  10
186.45870
  20
88.35619
  30
0.00000
  42
-0.2738
  70
32
  0
VERTEX
  5
96A
  100
AcDbEntity
  8
Layer 1
  62
0
  100
AcDb2dVertex
  10
185.51730
  20
88.86556
  30
0.00000
  42
-0.0054
  70
32
  0
VERTEX
  5
96B
  100
AcDbEntity
  8
Layer 1
  62
0
  100
AcDb2dVertex
  10
185.09380
  20
89.44012
  30
0.00000
  42
0.1820
  70
32
  0
VERTEX
  5
96C
  100
AcDbEntity
  8
Layer 1
  62
0
  100
AcDb2dVertex
  10
184.54800
  20
89.87280
  30
0.00000
  70
32
  0
VERTEX
  5
96D
  100
AcDbEntity
  8
Layer 1
  62
0
  100
AcDb2dVertex
  10
179.64660
  20
90.93075
  30
0.00000
  42
0.0814
  70
32
  0
VERTEX
  5
96E
  100
AcDbEntity
  8
Layer 1
  62
0
  100
AcDb2dVertex
  10
176.65790
  20
91.53897
  30
0.00000
  42
-0.2316
  70
32
  0
VERTEX
  5
96F
  100
AcDbEntity
  8
Layer 1
  62
0
  100
AcDb2dVertex
  10
174.21240
  20
92.09820
  30
0.00000
  42
-0.0760
  70
32
  0
VERTEX
  5
970
  100
AcDbEntity
  8
Layer 1
  62
0
  100
AcDb2dVertex
  10
172.84960
  20
95.45674
  30
0.00000
  70
32
  0
VERTEX
  5
971
  100
AcDbEntity
  8
Layer 1
  62
0
  100
AcDb2dVertex
  10
171.20900
  20
101.83660
  30
0.00000
  42
0.0252
  70
32
  0
VERTEX
  5
972
  100
AcDbEntity
  8
Layer 1
  62
0
  100
AcDb2dVertex
  10
169.33470
  20
104.82870
  30
0.00000
  42
-0.0078
  70
32
  0
VERTEX
  5
973
  100
AcDbEntity
  8
Layer 1
  62
0
  100
AcDb2dVertex
  10
167.83900
  20
109.50000
  30
0.00000
  42
0.1303
  70
32
  0
VERTEX
  5
974
  100
AcDbEntity
  8
Layer 1
  62
0
  100
AcDb2dVertex
  10
164.54670
  20
113.86560
  30
0.00000
  42
0.0499
  70
32
  0
VERTEX
  5
975
  100
AcDbEntity
  8
Layer 1
  62
0
  100
AcDb2dVertex
  10
160.25650
  20
116.61420
  30
0.00000
  42
0.2492
  70
32
  0
VERTEX
  5
976
  100
AcDbEntity
  8
Layer 1
  62
0
  100
AcDb2dVertex
  10
157.06890
  20
116.07010
  30
0.00000
  42
-0.1479
  70
32
  0
VERTEX
  5
977
  100
AcDbEntity
  8
Layer 1
  62
0
  100
AcDb2dVertex
  10
154.49640
  20
115.15320
  30
0.00000
  42
-0.0800
  70
32
  0
VERTEX
  5
978
  100
AcDbEntity
  8
Layer 1
  62
0
  100
AcDb2dVertex
  10
151.94100
  20
116.56730
  30
0.00000
  42
-0.2909
  70
32
  0
VERTEX
  5
979
  100
AcDbEntity
  8
Layer 1
  62
0
  100
AcDb2dVertex
  10
151.11610
  20
118.03470
  30
0.00000
  42
0.5545
  70
32
  0
VERTEX
  5
97A
  100
AcDbEntity
  8
Layer 1
  62
0
  100
AcDb2dVertex
  10
147.48340
  20
121.05200
  30
0.00000
  42
-0.3162
  70
32
  0
VERTEX
  5
97B
  100
AcDbEntity
  8
Layer 1
  62
0
  100
AcDb2dVertex
  10
144.18540
  20
121.68700
  30
0.00000
  42
0.2355
  70
32
  0
VERTEX
  5
97C
  100
AcDbEntity
  8
Layer 1
  62
0
  100
AcDb2dVertex
  10
142.35770
  20
123.01040
  30
0.00000
  42
0.0314
  70
32
  0
VERTEX
  5
97D
  100
AcDbEntity
  8
Layer 1
  62
0
  100
AcDb2dVertex
  10
139.80790
  20
122.75970
  30
0.00000
  42
0.1360
  70
32
  0
VERTEX
  5
97E
  100
AcDbEntity
  8
Layer 1
  62
0
  100
AcDb2dVertex
  10
138.48000
  20
121.70220
  30
0.00000
  42
-0.4279
  70
32
  0
VERTEX
  5
97F
  100
AcDbEntity
  8
Layer 1
  62
0
  100
AcDb2dVertex
  10
136.38160
  20
121.47310
  30
0.00000
  42
0.0165
  70
32
  0
VERTEX
  5
980
  100
AcDbEntity
  8
Layer 1
  62
0
  100
AcDb2dVertex
  10
134.26760
  20
123.25990
  30
0.00000
  42
0.3636
  70
32
  0
VERTEX
  5
981
  100
AcDbEntity
  8
Layer 1
  62
0
  100
AcDb2dVertex
  10
133.21500
  20
123.29480
  30
0.00000
  42
-0.0743
  70
32
  0
VERTEX
  5
982
  100
AcDbEntity
  8
Layer 1
  62
0
  100
AcDb2dVertex
  10
131.84670
  20
122.25330
  30
0.00000
  42
-0.5082
  70
32
  0
VERTEX
  5
983
  100
AcDbEntity
  8
Layer 1
  62
0
  100
AcDb2dVertex
  10
131.25590
  20
122.54830
  30
0.00000
  42
-0.0684
  70
32
  0
VERTEX
  5
984
  100
AcDbEntity
  8
Layer 1
  62
0
  100
AcDb2dVertex
  10
131.40310
  20
124.85450
  30
0.00000
  42
0.0696
  70
32
  0
VERTEX
  5
985
  100
AcDbEntity
  8
Layer 1
  62
0
  100
AcDb2dVertex
  10
132.14240
  20
137.42330
  30
0.00000
  42
-0.1404
  70
32
  0
VERTEX
  5
986
  100
AcDbEntity
  8
Layer 1
  62
0
  100
AcDb2dVertex
  10
132.24990
  20
139.63930
  30
0.00000
  42
-0.1474
  70
32
  0
VERTEX
  5
987
  100
AcDbEntity
  8
Layer 1
  62
0
  100
AcDb2dVertex
  10
132.43340
  20
139.82740
  30
0.00000
  42
-0.3192
  70
32
  0
VERTEX
  5
988
  100
AcDbEntity
  8
Layer 1
  62
0
  100
AcDb2dVertex
  10
132.61640
  20
139.79870
  30
0.00000
  42
-0.1056
  70
32
  0
VERTEX
  5
989
  100
AcDbEntity
  8
Layer 1
  62
0
  100
AcDb2dVertex
  10
132.91740
  20
139.33660
  30
0.00000
  42
-0.0935
  70
32
  0
VERTEX
  5
98A
  100
AcDbEntity
  8
Layer 1
  62
0
  100
AcDb2dVertex
  10
133.42740
  20
132.09970
  30
0.00000
  42
0.1194
  70
32
  0
VERTEX
  5
98B
  100
AcDbEntity
  8
Layer 1
  62
0
  100
AcDb2dVertex
  10
133.42400
  20
128.04150
  30
0.00000
  42
0.3246
  70
32
  0
VERTEX
  5
98C
  100
AcDbEntity
  8
Layer 1
  62
0
  100
AcDb2dVertex
  10
134.26400
  20
127.27940
  30
0.00000
  42
0.3247
  70
32
  0
VERTEX
  5
98D
  100
AcDbEntity
  8
Layer 1
  62
0
  100
AcDb2dVertex
  10
135.24910
  20
127.84190
  30
0.00000
  42
-0.0505
  70
32
  0
VERTEX
  5
98E
  100
AcDbEntity
  8
Layer 1
  62
0
  100
AcDb2dVertex
  10
136.10630
  20
129.79040
  30
0.00000
  42
0.1674
  70
32
  0
VERTEX
  5
98F
  100
AcDbEntity
  8
Layer 1
  62
0
  100
AcDb2dVertex
  10
136.16000
  20
130.00360
  30
0.00000
  42
0.1082
  70
32
  0
VERTEX
  5
990
  100
AcDbEntity
  8
Layer 1
  62
0
  100
AcDb2dVertex
  10
136.04710
  20
130.22070
  30
0.00000
  42
-0.0261
  70
32
  0
VERTEX
  5
991
  100
AcDbEntity
  8
Layer 1
  62
0
  100
AcDb2dVertex
  10
135.58500
  20
130.79820
  30
0.00000
  42
-0.5153
  70
32
  0
VERTEX
  5
992
  100
AcDbEntity
  8
Layer 1
  62
0
  100
AcDb2dVertex
  10
135.97210
  20
132.56940
  30
0.00000
  70
32
  0
VERTEX
  5
993
  100
AcDbEntity
  8
Layer 1
  62
0
  100
AcDb2dVertex
  10
136.99710
  20
132.86830
  30
0.00000
  42
0.2859
  70
32
  0
VERTEX
  5
994
  100
AcDbEntity
  8
Layer 1
  62
0
  100
AcDb2dVertex
  10
137.37160
  20
133.28690
  30
0.00000
  42
0.1782
  70
32
  0
VERTEX
  5
995
  100
AcDbEntity
  8
Layer 1
  62
0
  100
AcDb2dVertex
  10
136.91270
  20
134.43330
  30
0.00000
  42
-0.1374
  70
32
  0
VERTEX
  5
996
  100
AcDbEntity
  8
Layer 1
  62
0
  100
AcDb2dVertex
  10
136.28400
  20
135.69700
  30
0.00000
  70
32
  0
VERTEX
  5
997
  100
AcDbEntity
  8
Layer 1
  62
0
  100
AcDb2dVertex
  10
136.24460
  20
135.89220
  30
0.00000
  70
32
  0
VERTEX
  5
998
  100
AcDbEntity
  8
Layer 1
  62
0
  100
AcDb2dVertex
  10
135.97960
  20
136.22300
  30
0.00000
  42
-0.2440
  70
32
  0
VERTEX
  5
999
  100
AcDbEntity
  8
Layer 1
  62
0
  100
AcDb2dVertex
  10
135.61420
  20
138.34890
  30
0.00000
  42
-0.1425
  70
32
  0
VERTEX
  5
99A
  100
AcDbEntity
  8
Layer 1
  62
0
  100
AcDb2dVertex
  10
135.69220
  20
138.51680
  30
0.00000
  42
-0.2898
  70
32
  0
VERTEX
  5
99B
  100
AcDbEntity
  8
Layer 1
  62
0
  100
AcDb2dVertex
  10
135.75310
  20
138.52790
  30
0.00000
  42
-0.1389
  70
32
  0
VERTEX
  5
99C
  100
AcDbEntity
  8
Layer 1
  62
0
  100
AcDb2dVertex
  10
135.84920
  20
138.45380
  30
0.00000
  42
0.0197
  70
32
  0
VERTEX
  5
99D
  100
AcDbEntity
  8
Layer 1
  62
0
  100
AcDb2dVertex
  10
136.11340
  20
138.05690
  30
0.00000
  42
0.0943
  70
32
  0
VERTEX
  5
99E
  100
AcDbEntity
  8
Layer 1
  62
0
  100
AcDb2dVertex
  10
136.50170
  20
137.63210
  30
0.00000
  42
0.2294
  70
32
  0
VERTEX
  5
99F
  100
AcDbEntity
  8
Layer 1
  62
0
  100
AcDb2dVertex
  10
136.70780
  20
137.58200
  30
0.00000
  42
0.3656
  70
32
  0
VERTEX
  5
9A0
  100
AcDbEntity
  8
Layer 1
  62
0
  100
AcDb2dVertex
  10
136.80790
  20
137.71320
  30
0.00000
  70
32
  0
VERTEX
  5
9A1
  100
AcDbEntity
  8
Layer 1
  62
0
  100
AcDb2dVertex
  10
136.73610
  20
138.07390
  30
0.00000
  42
-0.1596
  70
32
  0
VERTEX
  5
9A2
  100
AcDbEntity
  8
Layer 1
  62
0
  100
AcDb2dVertex
  10
136.76100
  20
139.53660
  30
0.00000
  42
-0.1970
  70
32
  0
VERTEX
  5
9A3
  100
AcDbEntity
  8
Layer 1
  62
0
  100
AcDb2dVertex
  10
138.08120
  20
140.80800
  30
0.00000
  70
32
  0
VERTEX
  5
9A4
  100
AcDbEntity
  8
Layer 1
  62
0
  100
AcDb2dVertex
  10
138.72030
  20
140.94350
  30
0.00000
  42
0.1035
  70
32
  0
VERTEX
  5
9A5
  100
AcDbEntity
  8
Layer 1
  62
0
  100
AcDb2dVertex
  10
139.10120
  20
141.05920
  30
0.00000
  42
0.3696
  70
32
  0
VERTEX
  5
9A6
  100
AcDbEntity
  8
Layer 1
  62
0
  100
AcDb2dVertex
  10
139.44740
  20
142.11570
  30
0.00000
  42
0.3530
  70
32
  0
VERTEX
  5
9A7
  100
AcDbEntity
  8
Layer 1
  62
0
  100
AcDb2dVertex
  10
137.26340
  20
143.22430
  30
0.00000
  42
0.2609
  70
32
  0
VERTEX
  5
9A8
  100
AcDbEntity
  8
Layer 1
  62
0
  100
AcDb2dVertex
  10
136.78640
  20
142.85320
  30
0.00000
  42
0.0290
  70
32
  0
VERTEX
  5
9A9
  100
AcDbEntity
  8
Layer 1
  62
0
  100
AcDb2dVertex
  10
136.73670
  20
142.45480
  30
0.00000
  70
32
  0
VERTEX
  5
9AA
  100
AcDbEntity
  8
Layer 1
  62
0
  100
AcDb2dVertex
  10
136.71030
  20
142.36220
  30
0.00000
  42
-0.3128
  70
32
  0
VERTEX
  5
9AB
  100
AcDbEntity
  8
Layer 1
  62
0
  100
AcDb2dVertex
  10
136.59080
  20
142.28780
  30
0.00000
  70
32
  0
VERTEX
  5
9AC
  100
AcDbEntity
  8
Layer 1
  62
0
  100
AcDb2dVertex
  10
136.50000
  20
142.31270
  30
0.00000
  70
32
  0
VERTEX
  5
9AD
  100
AcDbEntity
  8
Layer 1
  62
0
  100
AcDb2dVertex
  10
136.19070
  20
142.40370
  30
0.00000
  42
0.1133
  70
32
  0
VERTEX
  5
9AE
  100
AcDbEntity
  8
Layer 1
  62
0
  100
AcDb2dVertex
  10
136.00790
  20
142.38900
  30
0.00000
  42
0.3246
  70
32
  0
VERTEX
  5
9AF
  100
AcDbEntity
  8
Layer 1
  62
0
  100
AcDb2dVertex
  10
135.95850
  20
142.32470
  30
0.00000
  42
0.2283
  70
32
  0
VERTEX
  5
9B0
  100
AcDbEntity
  8
Layer 1
  62
0
  100
AcDb2dVertex
  10
136.00370
  20
142.22450
  30
0.00000
  42
-0.1913
  70
32
  0
VERTEX
  5
9B1
  100
AcDbEntity
  8
Layer 1
  62
0
  100
AcDb2dVertex
  10
136.47320
  20
141.37960
  30
0.00000
  42
-0.3196
  70
32
  0
VERTEX
  5
9B2
  100
AcDbEntity
  8
Layer 1
  62
0
  100
AcDb2dVertex
  10
136.26420
  20
140.99230
  30
0.00000
  42
-0.2198
  70
32
  0
VERTEX
  5
9B3
  100
AcDbEntity
  8
Layer 1
  62
0
  100
AcDb2dVertex
  10
135.31960
  20
141.10950
  30
0.00000
  42
0.0297
  70
32
  0
VERTEX
  5
9B4
  100
AcDbEntity
  8
Layer 1
  62
0
  100
AcDb2dVertex
  10
133.09950
  20
142.34170
  30
0.00000
  42
0.1310
  70
32
  0
VERTEX
  5
9B5
  100
AcDbEntity
  8
Layer 1
  62
0
  100
AcDb2dVertex
  10
132.34540
  20
142.46060
  30
0.00000
  42
-0.0883
  70
32
  0
VERTEX
  5
9B6
  100
AcDbEntity
  8
Layer 1
  62
0
  100
AcDb2dVertex
  10
131.83560
  20
142.50400
  30
0.00000
  42
-0.2493
  70
32
  0
VERTEX
  5
9B7
  100
AcDbEntity
  8
Layer 1
  62
0
  100
AcDb2dVertex
  10
131.68260
  20
142.66130
  30
0.00000
  42
-0.0368
  70
32
  0
VERTEX
  5
9B8
  100
AcDbEntity
  8
Layer 1
  62
0
  100
AcDb2dVertex
  10
131.52820
  20
143.58690
  30
0.00000
  42
0.0703
  70
32
  0
VERTEX
  5
9B9
  100
AcDbEntity
  8
Layer 1
  62
0
  100
AcDb2dVertex
  10
131.56440
  20
146.36530
  30
0.00000
  42
-0.0883
  70
32
  0
VERTEX
  5
9BA
  100
AcDbEntity
  8
Layer 1
  62
0
  100
AcDb2dVertex
  10
130.94290
  20
150.14360
  30
0.00000
  42
-0.1011
  70
32
  0
VERTEX
  5
9BB
  100
AcDbEntity
  8
Layer 1
  62
0
  100
AcDb2dVertex
  10
130.96660
  20
150.37660
  30
0.00000
  42
-0.2401
  70
32
  0
VERTEX
  5
9BC
  100
AcDbEntity
  8
Layer 1
  62
0
  100
AcDb2dVertex
  10
131.09270
  20
150.47760
  30
0.00000
  42
-0.3159
  70
32
  0
VERTEX
  5
9BD
  100
AcDbEntity
  8
Layer 1
  62
0
  100
AcDb2dVertex
  10
131.74970
  20
150.18920
  30
0.00000
  42
0.0738
  70
32
  0
VERTEX
  5
9BE
  100
AcDbEntity
  8
Layer 1
  62
0
  100
AcDb2dVertex
  10
132.36430
  20
149.40670
  30
0.00000
  42
0.2903
  70
32
  0
VERTEX
  5
9BF
  100
AcDbEntity
  8
Layer 1
  62
0
  100
AcDb2dVertex
  10
132.68200
  20
149.33940
  30
0.00000
  42
0.1220
  70
32
  0
VERTEX
  5
9C0
  100
AcDbEntity
  8
Layer 1
  62
0
  100
AcDb2dVertex
  10
133.33750
  20
149.82720
  30
0.00000
  42
-0.1164
  70
32
  0
VERTEX
  5
9C1
  100
AcDbEntity
  8
Layer 1
  62
0
  100
AcDb2dVertex
  10
134.48530
  20
150.78930
  30
0.00000
  42
-0.0283
  70
32
  0
VERTEX
  5
9C2
  100
AcDbEntity
  8
Layer 1
  62
0
  100
AcDb2dVertex
  10
138.50300
  20
152.32590
  30
0.00000
  42
0.0751
  70
32
  0
VERTEX
  5
9C3
  100
AcDbEntity
  8
Layer 1
  62
0
  100
AcDb2dVertex
  10
139.05590
  20
152.57840
  30
0.00000
  42
0.1830
  70
32
  0
VERTEX
  5
9C4
  100
AcDbEntity
  8
Layer 1
  62
0
  100
AcDb2dVertex
  10
139.20730
  20
152.77540
  30
0.00000
  42
0.3613
  70
32
  0
VERTEX
  5
9C5
  100
AcDbEntity
  8
Layer 1
  62
0
  100
AcDb2dVertex
  10
139.04370
  20
153.03110
  30
0.00000
  42
0.0827
  70
32
  0
VERTEX
  5
9C6
  100
AcDbEntity
  8
Layer 1
  62
0
  100
AcDb2dVertex
  10
138.71370
  20
153.09220
  30
0.00000
  42
-0.1930
  70
32
  0
VERTEX
  5
9C7
  100
AcDbEntity
  8
Layer 1
  62
0
  100
AcDb2dVertex
  10
137.35820
  20
153.56370
  30
0.00000
  42
0.1956
  70
32
  0
VERTEX
  5
9C8
  100
AcDbEntity
  8
Layer 1
  62
0
  100
AcDb2dVertex
  10
136.81620
  20
153.73300
  30
0.00000
  70
32
  0
VERTEX
  5
9C9
  100
AcDbEntity
  8
Layer 1
  62
0
  100
AcDb2dVertex
  10
136.18600
  20
153.64440
  30
0.00000
  42
-0.2597
  70
32
  0
VERTEX
  5
9CA
  100
AcDbEntity
  8
Layer 1
  62
0
  100
AcDb2dVertex
  10
135.33540
  20
153.87450
  30
0.00000
  70
32
  0
VERTEX
  5
9CB
  100
AcDbEntity
  8
Layer 1
  62
0
  100
AcDb2dVertex
  10
135.15490
  20
154.08160
  30
0.00000
  42
0.1658
  70
32
  0
VERTEX
  5
9CC
  100
AcDbEntity
  8
Layer 1
  62
0
  100
AcDb2dVertex
  10
132.14130
  20
156.19770
  30
0.00000
  42
0.4136
  70
32
  0
VERTEX
  5
9CD
  100
AcDbEntity
  8
Layer 1
  62
0
  100
AcDb2dVertex
  10
130.92650
  20
155.52770
  30
0.00000
  42
0.0253
  70
32
  0
VERTEX
  5
9CE
  100
AcDbEntity
  8
Layer 1
  62
0
  100
AcDb2dVertex
  10
130.94440
  20
154.90200
  30
0.00000
  42
0.2124
  70
32
  0
VERTEX
  5
9CF
  100
AcDbEntity
  8
Layer 1
  62
0
  100
AcDb2dVertex
  10
131.13640
  20
154.58540
  30
0.00000
  42
0.0200
  70
32
  0
VERTEX
  5
9D0
  100
AcDbEntity
  8
Layer 1
  62
0
  100
AcDb2dVertex
  10
132.06140
  20
154.02210
  30
0.00000
  42
-0.2132
  70
32
  0
VERTEX
  5
9D1
  100
AcDbEntity
  8
Layer 1
  62
0
  100
AcDb2dVertex
  10
132.42720
  20
153.55490
  30
0.00000
  42
-0.0076
  70
32
  0
VERTEX
  5
9D2
  100
AcDbEntity
  8
Layer 1
  62
0
  100
AcDb2dVertex
  10
132.46360
  20
153.20940
  30
0.00000
  42
-0.1249
  70
32
  0
VERTEX
  5
9D3
  100
AcDbEntity
  8
Layer 1
  62
0
  100
AcDb2dVertex
  10
132.43850
  20
152.79270
  30
0.00000
  42
-0.2422
  70
32
  0
VERTEX
  5
9D4
  100
AcDbEntity
  8
Layer 1
  62
0
  100
AcDb2dVertex
  10
132.31600
  20
152.68300
  30
0.00000
  42
-0.0735
  70
32
  0
VERTEX
  5
9D5
  100
AcDbEntity
  8
Layer 1
  62
0
  100
AcDb2dVertex
  10
132.07380
  20
152.67320
  30
0.00000
  42
0.0771
  70
32
  0
VERTEX
  5
9D6
  100
AcDbEntity
  8
Layer 1
  62
0
  100
AcDb2dVertex
  10
131.50370
  20
152.61480
  30
0.00000
  42
0.2923
  70
32
  0
VERTEX
  5
9D7
  100
AcDbEntity
  8
Layer 1
  62
0
  100
AcDb2dVertex
  10
131.09440
  20
151.74920
  30
0.00000
  42
-0.0418
  70
32
  0
VERTEX
  5
9D8
  100
AcDbEntity
  8
Layer 1
  62
0
  100
AcDb2dVertex
  10
131.09870
  20
151.50380
  30
0.00000
  42
-0.3218
  70
32
  0
VERTEX
  5
9D9
  100
AcDbEntity
  8
Layer 1
  62
0
  100
AcDb2dVertex
  10
130.91440
  20
151.31400
  30
0.00000
  42
-0.1329
  70
32
  0
VERTEX
  5
9DA
  100
AcDbEntity
  8
Layer 1
  62
0
  100
AcDb2dVertex
  10
130.42290
  20
151.32400
  30
0.00000
  42
-0.4330
  70
32
  0
VERTEX
  5
9DB
  100
AcDbEntity
  8
Layer 1
  62
0
  100
AcDb2dVertex
  10
129.34300
  20
154.68260
  30
0.00000
  42
0.2745
  70
32
  0
VERTEX
  5
9DC
  100
AcDbEntity
  8
Layer 1
  62
0
  100
AcDb2dVertex
  10
130.01150
  20
157.45250
  30
0.00000
  42
-0.1097
  70
32
  0
VERTEX
  5
9DD
  100
AcDbEntity
  8
Layer 1
  62
0
  100
AcDb2dVertex
  10
128.81210
  20
161.70790
  30
0.00000
  42
0.0265
  70
32
  0
VERTEX
  5
9DE
  100
AcDbEntity
  8
Layer 1
  62
0
  100
AcDb2dVertex
  10
128.36970
  20
166.61440
  30
0.00000
  42
0.0643
  70
32
  0
VERTEX
  5
9DF
  100
AcDbEntity
  8
Layer 1
  62
0
  100
AcDb2dVertex
  10
126.90910
  20
169.36300
  30
0.00000
  42
-0.0661
  70
32
  0
VERTEX
  5
9E0
  100
AcDbEntity
  8
Layer 1
  62
0
  100
AcDb2dVertex
  10
125.07080
  20
176.82360
  30
0.00000
  42
0.0278
  70
32
  0
VERTEX
  5
9E1
  100
AcDbEntity
  8
Layer 1
  62
0
  100
AcDb2dVertex
  10
123.72880
  20
186.61690
  30
0.00000
  42
0.2112
  70
32
  0
VERTEX
  5
9E2
  100
AcDbEntity
  8
Layer 1
  62
0
  100
AcDb2dVertex
  10
122.02130
  20
188.90500
  30
0.00000
  42
-0.1272
  70
32
  0
VERTEX
  5
9E3
  100
AcDbEntity
  8
Layer 1
  62
0
  100
AcDb2dVertex
  10
121.76290
  20
189.08520
  30
0.00000
  42
-0.1036
  70
32
  0
VERTEX
  5
9E4
  100
AcDbEntity
  8
Layer 1
  62
0
  100
AcDb2dVertex
  10
120.94980
  20
191.32470
  30
0.00000
  42
0.2243
  70
32
  0
VERTEX
  5
9E5
  100
AcDbEntity
  8
Layer 1
  62
0
  100
AcDb2dVertex
  10
119.34050
  20
194.39670
  30
0.00000
  42
-0.2546
  70
32
  0
VERTEX
  5
9E6
  100
AcDbEntity
  8
Layer 1
  62
0
  100
AcDb2dVertex
  10
117.30400
  20
197.70560
  30
0.00000
  42
0.0284
  70
32
  0
VERTEX
  5
9E7
  100
AcDbEntity
  8
Layer 1
  62
0
  100
AcDb2dVertex
  10
116.67370
  20
202.60840
  30
0.00000
  42
0.0619
  70
32
  0
VERTEX
  5
9E8
  100
AcDbEntity
  8
Layer 1
  62
0
  100
AcDb2dVertex
  10
115.67980
  20
206.87240
  30
0.00000
  42
-0.2032
  70
32
  0
VERTEX
  5
9E9
  100
AcDbEntity
  8
Layer 1
  62
0
  100
AcDb2dVertex
  10
115.54180
  20
209.02170
  30
0.00000
  42
0.0909
  70
32
  0
VERTEX
  5
9EA
  100
AcDbEntity
  8
Layer 1
  62
0
  100
AcDb2dVertex
  10
116.23250
  20
210.28420
  30
0.00000
  42
-0.0348
  70
32
  0
VERTEX
  5
9EB
  100
AcDbEntity
  8
Layer 1
  62
0
  100
AcDb2dVertex
  10
116.49510
  20
211.98150
  30
0.00000
  42
-0.0985
  70
32
  0
VERTEX
  5
9EC
  100
AcDbEntity
  8
Layer 1
  62
0
  100
AcDb2dVertex
  10
117.23500
  20
213.46890
  30
0.00000
  42
0.3144
  70
32
  0
VERTEX
  5
9ED
  100
AcDbEntity
  8
Layer 1
  62
0
  100
AcDb2dVertex
  10
117.19670
  20
214.33570
  30
0.00000
  42
-0.1372
  70
32
  0
VERTEX
  5
9EE
  100
AcDbEntity
  8
Layer 1
  62
0
  100
AcDb2dVertex
  10
116.24230
  20
216.23750
  30
0.00000
  42
-0.3559
  70
32
  0
VERTEX
  5
9EF
  100
AcDbEntity
  8
Layer 1
  62
0
  100
AcDb2dVertex
  10
116.69310
  20
217.14340
  30
0.00000
  42
-0.1361
  70
32
  0
VERTEX
  5
9F0
  100
AcDbEntity
  8
Layer 1
  62
0
  100
AcDb2dVertex
  10
118.07420
  20
217.05520
  30
0.00000
  42
0.1812
  70
32
  0
VERTEX
  5
9F1
  100
AcDbEntity
  8
Layer 1
  62
0
  100
AcDb2dVertex
  10
120.84200
  20
216.56110
  30
0.00000
  42
-0.3401
  70
32
  0
VERTEX
  5
9F2
  100
AcDbEntity
  8
Layer 1
  62
0
  100
AcDb2dVertex
  10
124.02280
  20
215.29060
  30
0.00000
  42
0.2008
  70
32
  0
VERTEX
  5
9F3
  100
AcDbEntity
  8
Layer 1
  62
0
  100
AcDb2dVertex
  10
126.39120
  20
213.05620
  30
0.00000
  42
0.0149
  70
32
  0
VERTEX
  5
9F4
  100
AcDbEntity
  8
Layer 1
  62
0
  100
AcDb2dVertex
  10
130.44490
  20
211.35680
  30
0.00000
  42
-0.0724
  70
32
  0
VERTEX
  5
9F5
  100
AcDbEntity
  8
Layer 1
  62
0
  100
AcDb2dVertex
  10
132.97790
  20
209.31570
  30
0.00000
  42
0.1848
  70
32
  0
VERTEX
  5
9F6
  100
AcDbEntity
  8
Layer 1
  62
0
  100
AcDb2dVertex
  10
134.89030
  20
208.36340
  30
0.00000
  70
32
  0
VERTEX
  5
9F7
  100
AcDbEntity
  8
Layer 1
  62
0
  100
AcDb2dVertex
  10
135.11020
  20
208.37200
  30
0.00000
  42
-0.1447
  70
32
  0
VERTEX
  5
9F8
  100
AcDbEntity
  8
Layer 1
  62
0
  100
AcDb2dVertex
  10
135.52540
  20
208.23770
  30
0.00000
  42
0.0229
  70
32
  0
VERTEX
  5
9F9
  100
AcDbEntity
  8
Layer 1
  62
0
  100
AcDb2dVertex
  10
136.02880
  20
207.75330
  30
0.00000
  42
0.1438
  70
32
  0
VERTEX
  5
9FA
  100
AcDbEntity
  8
Layer 1
  62
0
  100
AcDb2dVertex
  10
141.92910
  20
205.94670
  30
0.00000
  42
-0.1217
  70
32
  0
VERTEX
  5
9FB
  100
AcDbEntity
  8
Layer 1
  62
0
  100
AcDb2dVertex
  10
144.27120
  20
205.93590
  30
0.00000
  42
-0.0241
  70
32
  0
VERTEX
  5
9FC
  100
AcDbEntity
  8
Layer 1
  62
0
  100
AcDb2dVertex
  10
144.41270
  20
205.86130
  30
0.00000
  42
0.0472
  70
32
  0
VERTEX
  5
9FD
  100
AcDbEntity
  8
Layer 1
  62
0
  100
AcDb2dVertex
  10
144.69500
  20
205.72880
  30
0.00000
  42
0.1095
  70
32
  0
VERTEX
  5
9FE
  100
AcDbEntity
  8
Layer 1
  62
0
  100
AcDb2dVertex
  10
145.12530
  20
205.70390
  30
0.00000
  70
32
  0
VERTEX
  5
9FF
  100
AcDbEntity
  8
Layer 1
  62
0
  100
AcDb2dVertex
  10
145.98210
  20
205.97040
  30
0.00000
  42
-0.3321
  70
32
  0
VERTEX
  5
A00
  100
AcDbEntity
  8
Layer 1
  62
0
  100
AcDb2dVertex
  10
147.23670
  20
205.73750
  30
0.00000
  42
0.0869
  70
32
  0
VERTEX
  5
A01
  100
AcDbEntity
  8
Layer 1
  62
0
  100
AcDb2dVertex
  10
148.73460
  20
204.52490
  30
0.00000
  42
0.1495
  70
32
  0
VERTEX
  5
A02
  100
AcDbEntity
  8
Layer 1
  62
0
  100
AcDb2dVertex
  10
152.15880
  20
204.66320
  30
0.00000
  42
-0.1087
  70
32
  0
VERTEX
  5
A03
  100
AcDbEntity
  8
Layer 1
  62
0
  100
AcDb2dVertex
  10
154.07200
  20
205.03980
  30
0.00000
  42
-0.2840
  70
32
  0
VERTEX
  5
A04
  100
AcDbEntity
  8
Layer 1
  62
0
  100
AcDb2dVertex
  10
154.95960
  20
204.02510
  30
0.00000
  42
0.2492
  70
32
  0
VERTEX
  5
A05
  100
AcDbEntity
  8
Layer 1
  62
0
  100
AcDb2dVertex
  10
155.20310
  20
203.73090
  30
0.00000
  42
0.0641
  70
32
  0
VERTEX
  5
A06
  100
AcDbEntity
  8
Layer 1
  62
0
  100
AcDb2dVertex
  10
157.27210
  20
203.34150
  30
0.00000
  42
0.1367
  70
32
  0
VERTEX
  5
A07
  100
AcDbEntity
  8
Layer 1
  62
0
  100
AcDb2dVertex
  10
161.07650
  20
203.48570
  30
0.00000
  42
0.0686
  70
32
  0
VERTEX
  5
A08
  100
AcDbEntity
  8
Layer 1
  62
0
  100
AcDb2dVertex
  10
162.37390
  20
204.52450
  30
0.00000
  42
-0.2472
  70
32
  0
VERTEX
  5
A09
  100
AcDbEntity
  8
Layer 1
  62
0
  100
AcDb2dVertex
  10
163.85900
  20
204.64610
  30
0.00000
  42
-0.2040
  70
32
  0
VERTEX
  5
A0A
  100
AcDbEntity
  8
Layer 1
  62
0
  100
AcDb2dVertex
  10
164.40400
  20
204.30830
  30
0.00000
  42
-0.0518
  70
32
  0
VERTEX
  5
A0B
  100
AcDbEntity
  8
Layer 1
  62
0
  100
AcDb2dVertex
  10
165.16920
  20
202.19020
  30
0.00000
  42
0.2046
  70
32
  0
VERTEX
  5
A0C
  100
AcDbEntity
  8
Layer 1
  62
0
  100
AcDb2dVertex
  10
166.20460
  20
199.65930
  30
0.00000
  42
0.3906
  70
32
  0
VERTEX
  5
A0D
  100
AcDbEntity
  8
Layer 1
  62
0
  100
AcDb2dVertex
  10
167.18390
  20
199.73320
  30
0.00000
  42
0.3906
  70
32
  0
VERTEX
  5
A0E
  100
AcDbEntity
  8
Layer 1
  62
0
  100
AcDb2dVertex
  10
167.18990
  20
200.71540
  30
0.00000
  42
-0.0504
  70
32
  0
VERTEX
  5
A0F
  100
AcDbEntity
  8
Layer 1
  62
0
  100
AcDb2dVertex
  10
166.84470
  20
201.05390
  30
0.00000
  42
-0.2615
  70
32
  0
VERTEX
  5
A10
  100
AcDbEntity
  8
Layer 1
  62
0
  100
AcDb2dVertex
  10
166.82830
  20
201.23840
  30
0.00000
  42
-0.5369
  70
32
  0
VERTEX
  5
A11
  100
AcDbEntity
  8
Layer 1
  62
0
  100
AcDb2dVertex
  10
168.56080
  20
201.57050
  30
0.00000
  42
-0.0062
  70
32
  0
VERTEX
  5
A12
  100
AcDbEntity
  8
Layer 1
  62
0
  100
AcDb2dVertex
  10
170.50520
  20
199.66270
  30
0.00000
  42
-0.1495
  70
32
  0
VERTEX
  5
A13
  100
AcDbEntity
  8
Layer 1
  62
0
  100
AcDb2dVertex
  10
170.86750
  20
198.99080
  30
0.00000
  42
-0.0800
  70
32
  0
VERTEX
  5
A14
  100
AcDbEntity
  8
Layer 1
  62
0
  100
AcDb2dVertex
  10
170.83070
  20
198.56180
  30
0.00000
  42
0.0615
  70
32
  0
VERTEX
  5
A15
  100
AcDbEntity
  8
Layer 1
  62
0
  100
AcDb2dVertex
  10
170.77830
  20
197.63210
  30
0.00000
  42
0.4599
  70
32
  0
VERTEX
  5
A16
  100
AcDbEntity
  8
Layer 1
  62
0
  100
AcDb2dVertex
  10
171.22330
  20
197.38090
  30
0.00000
  42
0.4095
  70
32
  0
VERTEX
  5
A17
  100
AcDbEntity
  8
Layer 1
  62
0
  100
AcDb2dVertex
  10
171.74610
  20
198.77990
  30
0.00000
  42
0.0231
  70
32
  0
VERTEX
  5
A18
  100
AcDbEntity
  8
Layer 1
  62
0
  100
AcDb2dVertex
  10
171.08420
  20
199.83770
  30
0.00000
  42
-0.0862
  70
32
  0
VERTEX
  5
A19
  100
AcDbEntity
  8
Layer 1
  62
0
  100
AcDb2dVertex
  10
169.56100
  20
202.37880
  30
0.00000
  42
-0.1101
  70
32
  0
VERTEX
  5
A1A
  100
AcDbEntity
  8
Layer 1
  62
0
  100
AcDb2dVertex
  10
169.55990
  20
202.78780
  30
0.00000
  42
-0.2503
  70
32
  0
VERTEX
  5
A1B
  100
AcDbEntity
  8
Layer 1
  62
0
  100
AcDb2dVertex
  10
169.66510
  20
202.89750
  30
0.00000
  42
0.0486
  70
32
  0
VERTEX
  5
A1C
  100
AcDbEntity
  8
Layer 1
  62
0
  100
AcDb2dVertex
  10
172.16450
  20
203.54540
  30
0.00000
  42
-0.0587
  70
32
  0
VERTEX
  5
A1D
  100
AcDbEntity
  8
Layer 1
  62
0
  100
AcDb2dVertex
  10
172.89710
  20
203.91560
  30
0.00000
  42
-0.4354
  70
32
  0
VERTEX
  5
A1E
  100
AcDbEntity
  8
Layer 1
  62
0
  100
AcDb2dVertex
  10
173.50000
  20
203.56750
  30
0.00000
  42
-0.0739
  70
32
  0
VERTEX
  5
A1F
  100
AcDbEntity
  8
Layer 1
  62
0
  100
AcDb2dVertex
  10
173.51770
  20
202.61030
  30
0.00000
  42
0.0595
  70
32
  0
VERTEX
  5
A20
  100
AcDbEntity
  8
Layer 1
  62
0
  100
AcDb2dVertex
  10
173.22820
  20
200.69300
  30
0.00000
  42
0.0543
  70
32
  0
VERTEX
  5
A21
  100
AcDbEntity
  8
Layer 1
  62
0
  100
AcDb2dVertex
  10
174.53260
  20
197.92520
  30
0.00000
  42
0.0907
  70
32
  0
VERTEX
  5
A22
  100
AcDbEntity
  8
Layer 1
  62
0
  100
AcDb2dVertex
  10
175.99960
  20
195.82400
  30
0.00000
  70
32
  0
VERTEX
  5
A23
  100
AcDbEntity
  8
Layer 1
  62
0
  100
AcDb2dVertex
  10
176.16560
  20
195.72300
  30
0.00000
  70
32
  0
VERTEX
  5
A24
  100
AcDbEntity
  8
Layer 1
  62
0
  100
AcDb2dVertex
  10
176.38290
  20
195.34720
  30
0.00000
  42
0.0071
  70
32
  0
VERTEX
  5
A25
  100
AcDbEntity
  8
Layer 1
  62
0
  100
AcDb2dVertex
  10
177.60320
  20
193.47230
  30
0.00000
  42
-0.4001
  70
32
  0
VERTEX
  5
A26
  100
AcDbEntity
  8
Layer 1
  62
0
  100
AcDb2dVertex
  10
177.30470
  20
192.35960
  30
0.00000
  42
0.0204
  70
32
  0
VERTEX
  5
A27
  100
AcDbEntity
  8
Layer 1
  62
0
  100
AcDb2dVertex
  10
176.09680
  20
191.49230
  30
0.00000
  42
0.0209
  70
32
  0
VERTEX
  5
A28
  100
AcDbEntity
  8
Layer 1
  62
0
  100
AcDb2dVertex
  10
175.01560
  20
189.62530
  30
0.00000
  42
0.1096
  70
32
  0
VERTEX
  5
A29
  100
AcDbEntity
  8
Layer 1
  62
0
  100
AcDb2dVertex
  10
172.78620
  20
184.72990
  30
0.00000
  42
-0.1704
  70
32
  0
VERTEX
  5
A2A
  100
AcDbEntity
  8
Layer 1
  62
0
  100
AcDb2dVertex
  10
172.39440
  20
183.89960
  30
0.00000
  42
-0.4913
  70
32
  0
VERTEX
  5
A2B
  100
AcDbEntity
  8
Layer 1
  62
0
  100
AcDb2dVertex
  10
171.85860
  20
183.98780
  30
0.00000
  42
-0.1247
  70
32
  0
VERTEX
  5
A2C
  100
AcDbEntity
  8
Layer 1
  62
0
  100
AcDb2dVertex
  10
171.67300
  20
184.72150
  30
0.00000
  70
32
  0
VERTEX
  5
A2D
  100
AcDbEntity
  8
Layer 1
  62
0
  100
AcDb2dVertex
  10
171.93290
  20
187.48590
  30
0.00000
  42
0.3080
  70
32
  0
VERTEX
  5
A2E
  100
AcDbEntity
  8
Layer 1
  62
0
  100
AcDb2dVertex
  10
171.35620
  20
188.63250
  30
0.00000
  42
0.5718
  70
32
  0
VERTEX
  5
A2F
  100
AcDbEntity
  8
Layer 1
  62
0
  100
AcDb2dVertex
  10
170.58650
  20
188.28590
  30
0.00000
  42
0.0385
  70
32
  0
VERTEX
  5
A30
  100
AcDbEntity
  8
Layer 1
  62
0
  100
AcDb2dVertex
  10
170.64510
  20
187.26070
  30
0.00000
  42
-0.0901
  70
32
  0
VERTEX
  5
A31
  100
AcDbEntity
  8
Layer 1
  62
0
  100
AcDb2dVertex
  10
169.89440
  20
184.29670
  30
0.00000
  42
0.0860
  70
32
  0
VERTEX
  5
A32
  100
AcDbEntity
  8
Layer 1
  62
0
  100
AcDb2dVertex
  10
168.29660
  20
181.23500
  30
0.00000
  70
32
  0
VERTEX
  5
A33
  100
AcDbEntity
  8
Layer 1
  62
0
  100
AcDb2dVertex
  10
168.28020
  20
181.12910
  30
0.00000
  42
0.4185
  70
32
  0
VERTEX
  5
A34
  100
AcDbEntity
  8
Layer 1
  62
0
  100
AcDb2dVertex
  10
168.38370
  20
181.02920
  30
0.00000
  42
0.1250
  70
32
  0
VERTEX
  5
A35
  100
AcDbEntity
  8
Layer 1
  62
0
  100
AcDb2dVertex
  10
168.63430
  20
181.10740
  30
0.00000
  42
0.0678
  70
32
  0
VERTEX
  5
A36
  100
AcDbEntity
  8
Layer 1
  62
0
  100
AcDb2dVertex
  10
169.69690
  20
182.04090
  30
0.00000
  42
-0.1374
  70
32
  0
VERTEX
  5
A37
  100
AcDbEntity
  8
Layer 1
  62
0
  100
AcDb2dVertex
  10
169.96130
  20
182.19130
  30
0.00000
  42
-0.0139
  70
32
  0
VERTEX
  5
A38
  100
AcDbEntity
  8
Layer 1
  62
0
  100
AcDb2dVertex
  10
171.12150
  20
182.39300
  30
0.00000
  42
0.2862
  70
32
  0
VERTEX
  5
A39
  100
AcDbEntity
  8
Layer 1
  62
0
  100
AcDb2dVertex
  10
173.52240
  20
183.86020
  30
0.00000
  42
-0.0264
  70
32
  0
VERTEX
  5
A3A
  100
AcDbEntity
  8
Layer 1
  62
0
  100
AcDb2dVertex
  10
174.79230
  20
187.27540
  30
0.00000
  42
-0.0499
  70
32
  0
VERTEX
  5
A3B
  100
AcDbEntity
  8
Layer 1
  62
0
  100
AcDb2dVertex
  10
178.31040
  20
191.12780
  30
0.00000
  42
0.3016
  70
32
  0
VERTEX
  5
A3C
  100
AcDbEntity
  8
Layer 1
  62
0
  100
AcDb2dVertex
  10
178.82660
  20
192.91350
  30
0.00000
  42
0.1355
  70
32
  0
VERTEX
  5
A3D
  100
AcDbEntity
  8
Layer 1
  62
0
  100
AcDb2dVertex
  10
178.55880
  20
193.31950
  30
0.00000
  42
-0.2726
  70
32
  0
VERTEX
  5
A3E
  100
AcDbEntity
  8
Layer 1
  62
0
  100
AcDb2dVertex
  10
178.12020
  20
194.80760
  30
0.00000
  42
-0.1474
  70
32
  0
VERTEX
  5
A3F
  100
AcDbEntity
  8
Layer 1
  62
0
  100
AcDb2dVertex
  10
178.17520
  20
194.89150
  30
0.00000
  42
-0.1829
  70
32
  0
VERTEX
  5
A40
  100
AcDbEntity
  8
Layer 1
  62
0
  100
AcDb2dVertex
  10
178.25270
  20
194.91880
  30
0.00000
  42
-0.0987
  70
32
  0
VERTEX
  5
A41
  100
AcDbEntity
  8
Layer 1
  62
0
  100
AcDb2dVertex
  10
178.63300
  20
194.78420
  30
0.00000
  42
-0.0639
  70
32
  0
VERTEX
  5
A42
  100
AcDbEntity
  8
Layer 1
  62
0
  100
AcDb2dVertex
  10
179.63130
  20
194.06330
  30
0.00000
  42
-0.1345
  70
32
  0
VERTEX
  5
A43
  100
AcDbEntity
  8
Layer 1
  62
0
  100
AcDb2dVertex
  10
181.00580
  20
190.88920
  30
0.00000
  42
-0.0902
  70
32
  0
VERTEX
  5
A44
  100
AcDbEntity
  8
Layer 1
  62
0
  100
AcDb2dVertex
  10
181.62100
  20
188.34080
  30
0.00000
  42
0.1856
  70
32
  0
VERTEX
  5
A45
  100
AcDbEntity
  8
Layer 1
  62
0
  100
AcDb2dVertex
  10
181.78400
  20
187.77950
  30
0.00000
  42
-0.0431
  70
32
  0
VERTEX
  5
A46
  100
AcDbEntity
  8
Layer 1
  62
0
  100
AcDb2dVertex
  10
182.01350
  20
187.38730
  30
0.00000
  42
-0.1700
  70
32
  0
VERTEX
  5
A47
  100
AcDbEntity
  8
Layer 1
  62
0
  100
AcDb2dVertex
  10
182.00620
  20
187.13530
  30
0.00000
  42
-0.1939
  70
32
  0
VERTEX
  5
A48
  100
AcDbEntity
  8
Layer 1
  62
0
  100
AcDb2dVertex
  10
181.64430
  20
186.58030
  30
0.00000
  42
-0.0564
  70
32
  0
VERTEX
  5
A49
  100
AcDbEntity
  8
Layer 1
  62
0
  100
AcDb2dVertex
  10
181.31380
  20
186.48150
  30
0.00000
  42
0.3344
  70
32
  0
VERTEX
  5
A4A
  100
AcDbEntity
  8
Layer 1
  62
0
  100
AcDb2dVertex
  10
177.99410
  20
183.65340
  30
0.00000
  42
-0.0096
  70
32
  0
VERTEX
  5
A4B
  100
AcDbEntity
  8
Layer 1
  62
0
  100
AcDb2dVertex
  10
177.93380
  20
180.25260
  30
0.00000
  42
-0.0857
  70
32
  0
VERTEX
  5
A4C
  100
AcDbEntity
  8
Layer 1
  62
0
  100
AcDb2dVertex
  10
176.45960
  20
177.54860
  30
0.00000
  42
0.1272
  70
32
  0
VERTEX
  5
A4D
  100
AcDbEntity
  8
Layer 1
  62
0
  100
AcDb2dVertex
  10
176.38780
  20
177.30630
  30
0.00000
  42
0.2857
  70
32
  0
VERTEX
  5
A4E
  100
AcDbEntity
  8
Layer 1
  62
0
  100
AcDb2dVertex
  10
176.44100
  20
177.23260
  30
0.00000
  42
0.2062
  70
32
  0
VERTEX
  5
A4F
  100
AcDbEntity
  8
Layer 1
  62
0
  100
AcDb2dVertex
  10
176.56220
  20
177.23500
  30
0.00000
  42
0.0480
  70
32
  0
VERTEX
  5
A50
  100
AcDbEntity
  8
Layer 1
  62
0
  100
AcDb2dVertex
  10
177.20630
  20
177.72860
  30
0.00000
  42
-0.1082
  70
32
  0
VERTEX
  5
A51
  100
AcDbEntity
  8
Layer 1
  62
0
  100
AcDb2dVertex
  10
178.35430
  20
178.60650
  30
0.00000
  42
-0.4116
  70
32
  0
VERTEX
  5
A52
  100
AcDbEntity
  8
Layer 1
  62
0
  100
AcDb2dVertex
  10
179.19310
  20
178.27100
  30
0.00000
  70
32
  0
VERTEX
  5
A53
  100
AcDbEntity
  8
Layer 1
  62
0
  100
AcDb2dVertex
  10
179.34320
  20
177.87960
  30
0.00000
  42
0.1047
  70
32
  0
VERTEX
  5
A54
  100
AcDbEntity
  8
Layer 1
  62
0
  100
AcDb2dVertex
  10
179.79190
  20
177.02150
  30
0.00000
  42
0.1692
  70
32
  0
VERTEX
  5
A55
  100
AcDbEntity
  8
Layer 1
  62
0
  100
AcDb2dVertex
  10
180.12570
  20
176.92670
  30
0.00000
  42
-0.1318
  70
32
  0
VERTEX
  5
A56
  100
AcDbEntity
  8
Layer 1
  62
0
  100
AcDb2dVertex
  10
180.92160
  20
176.75140
  30
0.00000
  42
-0.1596
  70
32
  0
VERTEX
  5
A57
  100
AcDbEntity
  8
Layer 1
  62
0
  100
AcDb2dVertex
  10
182.61120
  20
174.29010
  30
0.00000
  42
0.0310
  70
32
  0
VERTEX
  5
A58
  100
AcDbEntity
  8
Layer 1
  62
0
  100
AcDb2dVertex
  10
182.90800
  20
172.14440
  30
0.00000
  42
-0.0229
  70
32
  0
VERTEX
  5
A59
  100
AcDbEntity
  8
Layer 1
  62
0
  100
AcDb2dVertex
  10
183.86140
  20
170.44370
  30
0.00000
  42
-0.2881
  70
32
  0
VERTEX
  5
A5A
  100
AcDbEntity
  8
Layer 1
  62
0
  100
AcDb2dVertex
  10
183.82470
  20
169.60310
  30
0.00000
  42
-0.1061
  70
32
  0
VERTEX
  5
A5B
  100
AcDbEntity
  8
Layer 1
  62
0
  100
AcDb2dVertex
  10
182.86070
  20
168.87260
  30
0.00000
  42
-0.1102
  70
32
  0
VERTEX
  5
A5C
  100
AcDbEntity
  8
Layer 1
  62
0
  100
AcDb2dVertex
  10
182.41380
  20
168.70810
  30
0.00000
  42
-0.2565
  70
32
  0
VERTEX
  5
A5D
  100
AcDbEntity
  8
Layer 1
  62
0
  100
AcDb2dVertex
  10
182.24550
  20
168.77650
  30
0.00000
  42
-0.1634
  70
32
  0
VERTEX
  5
A5E
  100
AcDbEntity
  8
Layer 1
  62
0
  100
AcDb2dVertex
  10
182.19880
  20
169.01110
  30
0.00000
  42
-0.0205
  70
32
  0
VERTEX
  5
A5F
  100
AcDbEntity
  8
Layer 1
  62
0
  100
AcDb2dVertex
  10
182.26740
  20
169.46850
  30
0.00000
  42
0.1951
  70
32
  0
VERTEX
  5
A60
  100
AcDbEntity
  8
Layer 1
  62
0
  100
AcDb2dVertex
  10
182.23570
  20
169.66790
  30
0.00000
  42
0.2351
  70
32
  0
VERTEX
  5
A61
  100
AcDbEntity
  8
Layer 1
  62
0
  100
AcDb2dVertex
  10
182.17240
  20
169.70640
  30
0.00000
  42
0.1605
  70
32
  0
VERTEX
  5
A62
  100
AcDbEntity
  8
Layer 1
  62
0
  100
AcDb2dVertex
  10
182.06970
  20
169.68230
  30
0.00000
  42
0.1192
  70
32
  0
VERTEX
  5
A63
  100
AcDbEntity
  8
Layer 1
  62
0
  100
AcDb2dVertex
  10
181.85920
  20
169.46950
  30
0.00000
  42
-0.0998
  70
32
  0
VERTEX
  5
A64
  100
AcDbEntity
  8
Layer 1
  62
0
  100
AcDb2dVertex
  10
181.13320
  20
168.71830
  30
0.00000
  42
-0.4110
  70
32
  0
VERTEX
  5
A65
  100
AcDbEntity
  8
Layer 1
  62
0
  100
AcDb2dVertex
  10
180.35650
  20
168.83810
  30
0.00000
  42
-0.0269
  70
32
  0
VERTEX
  5
A66
  100
AcDbEntity
  8
Layer 1
  62
0
  100
AcDb2dVertex
  10
180.02410
  20
169.43740
  30
0.00000
  42
0.1192
  70
32
  0
VERTEX
  5
A67
  100
AcDbEntity
  8
Layer 1
  62
0
  100
AcDb2dVertex
  10
179.90480
  20
169.63060
  30
0.00000
  42
0.2143
  70
32
  0
VERTEX
  5
A68
  100
AcDbEntity
  8
Layer 1
  62
0
  100
AcDb2dVertex
  10
179.84640
  20
169.64980
  30
0.00000
  42
0.1021
  70
32
  0
VERTEX
  5
A69
  100
AcDbEntity
  8
Layer 1
  62
0
  100
AcDb2dVertex
  10
179.72840
  20
169.61230
  30
0.00000
  42
-0.1151
  70
32
  0
VERTEX
  5
A6A
  100
AcDbEntity
  8
Layer 1
  62
0
  100
AcDb2dVertex
  10
178.71050
  20
169.29380
  30
0.00000
  42
0.3022
  70
32
  0
VERTEX
  5
A6B
  100
AcDbEntity
  8
Layer 1
  62
0
  100
AcDb2dVertex
  10
178.46230
  20
169.02900
  30
0.00000
  42
0.1237
  70
32
  0
VERTEX
  5
A6C
  100
AcDbEntity
  8
Layer 1
  62
0
  100
AcDb2dVertex
  10
178.53750
  20
168.52850
  30
0.00000
  42
-0.1465
  70
32
  0
VERTEX
  5
A6D
  100
AcDbEntity
  8
Layer 1
  62
0
  100
AcDb2dVertex
  10
178.79020
  20
166.40110
  30
0.00000
  42
-0.0825
  70
32
  0
VERTEX
  5
A6E
  100
AcDbEntity
  8
Layer 1
  62
0
  100
AcDb2dVertex
  10
178.62080
  20
165.35510
  30
0.00000
  42
-0.2845
  70
32
  0
VERTEX
  5
A6F
  100
AcDbEntity
  8
Layer 1
  62
0
  100
AcDb2dVertex
  10
177.95100
  20
164.89620
  30
0.00000
  42
-0.1197
  70
32
  0
VERTEX
  5
A70
  100
AcDbEntity
  8
Layer 1
  62
0
  100
AcDb2dVertex
  10
177.55240
  20
165.09460
  30
0.00000
  42
0.0146
  70
32
  0
VERTEX
  5
A71
  100
AcDbEntity
  8
Layer 1
  62
0
  100
AcDb2dVertex
  10
177.18640
  20
165.33790
  30
0.00000
  42
0.2773
  70
32
  0
VERTEX
  5
A72
  100
AcDbEntity
  8
Layer 1
  62
0
  100
AcDb2dVertex
  10
177.06500
  20
165.32830
  30
0.00000
  42
0.2135
  70
32
  0
VERTEX
  5
A73
  100
AcDbEntity
  8
Layer 1
  62
0
  100
AcDb2dVertex
  10
176.98750
  20
165.19580
  30
0.00000
  42
0.0518
  70
32
  0
VERTEX
  5
A74
  100
AcDbEntity
  8
Layer 1
  62
0
  100
AcDb2dVertex
  10
176.99850
  20
164.93370
  30
0.00000
  42
0.2647
  70
32
  0
VERTEX
  5
A75
  100
AcDbEntity
  8
Layer 1
  62
0
  100
AcDb2dVertex
  10
177.19840
  20
164.60010
  30
0.00000
  42
0.0102
  70
32
  0
VERTEX
  5
A76
  100
AcDbEntity
  8
Layer 1
  62
0
  100
AcDb2dVertex
  10
177.68370
  20
164.31230
  30
0.00000
  42
-0.3254
  70
32
  0
VERTEX
  5
A77
  100
AcDbEntity
  8
Layer 1
  62
0
  100
AcDb2dVertex
  10
177.94890
  20
163.53130
  30
0.00000
  42
-0.2857
  70
32
  0
VERTEX
  5
A78
  100
AcDbEntity
  8
Layer 1
  62
0
  100
AcDb2dVertex
  10
177.37490
  20
163.11980
  30
0.00000
  42
-0.2857
  70
32
  0
VERTEX
  5
A79
  100
AcDbEntity
  8
Layer 1
  62
0
  100
AcDb2dVertex
  10
176.75210
  20
163.45310
  30
0.00000
  70
32
  0
VERTEX
  5
A7A
  100
AcDbEntity
  8
Layer 1
  62
0
  100
AcDb2dVertex
  10
176.35650
  20
164.03830
  30
0.00000
  42
-0.4803
  70
32
  0
VERTEX
  5
A7B
  100
AcDbEntity
  8
Layer 1
  62
0
  100
AcDb2dVertex
  10
177.66000
  20
170.33870
  30
0.00000
  42
0.1126
  70
32
  0
VERTEX
  5
A7C
  100
AcDbEntity
  8
Layer 1
  62
0
  100
AcDb2dVertex
  10
177.87240
  20
170.48760
  30
0.00000
  70
32
  0
VERTEX
  5
A7D
  100
AcDbEntity
  8
Layer 1
  62
0
  100
AcDb2dVertex
  10
177.94700
  20
170.56710
  30
0.00000
  42
0.2625
  70
32
  0
VERTEX
  5
A7E
  100
AcDbEntity
  8
Layer 1
  62
0
  100
AcDb2dVertex
  10
177.94910
  20
170.74220
  30
0.00000
  42
0.4057
  70
32
  0
VERTEX
  5
A7F
  100
AcDbEntity
  8
Layer 1
  62
0
  100
AcDb2dVertex
  10
177.28590
  20
170.93290
  30
0.00000
  42
0.0853
  70
32
  0
VERTEX
  5
A80
  100
AcDbEntity
  8
Layer 1
  62
0
  100
AcDb2dVertex
  10
176.64850
  20
170.43670
  30
0.00000
  42
0.0330
  70
32
  0
VERTEX
  5
A81
  100
AcDbEntity
  8
Layer 1
  62
0
  100
AcDb2dVertex
  10
175.65620
  20
169.37450
  30
0.00000
  42
0.0235
  70
32
  0
VERTEX
  5
A82
  100
AcDbEntity
  8
Layer 1
  62
0
  100
AcDb2dVertex
  10
174.40160
  20
166.82960
  30
0.00000
  42
0.4954
  70
32
  0
VERTEX
  5
A83
  100
AcDbEntity
  8
Layer 1
  62
0
  100
AcDb2dVertex
  10
175.32470
  20
163.32910
  30
0.00000
  42
-0.3772
  70
32
  0
VERTEX
  5
A84
  100
AcDbEntity
  8
Layer 1
  62
0
  100
AcDb2dVertex
  10
175.80300
  20
162.60950
  30
0.00000
  42
-0.2714
  70
32
  0
VERTEX
  5
A85
  100
AcDbEntity
  8
Layer 1
  62
0
  100
AcDb2dVertex
  10
175.27870
  20
161.86320
  30
0.00000
  42
-0.0928
  70
32
  0
VERTEX
  5
A86
  100
AcDbEntity
  8
Layer 1
  62
0
  100
AcDb2dVertex
  10
174.39740
  20
161.92120
  30
0.00000
  42
0.0951
  70
32
  0
VERTEX
  5
A87
  100
AcDbEntity
  8
Layer 1
  62
0
  100
AcDb2dVertex
  10
174.12490
  20
161.95610
  30
0.00000
  42
0.1600
  70
32
  0
VERTEX
  5
A88
  100
AcDbEntity
  8
Layer 1
  62
0
  100
AcDb2dVertex
  10
173.80890
  20
161.76010
  30
0.00000
  42
0.0279
  70
32
  0
VERTEX
  5
A89
  100
AcDbEntity
  8
Layer 1
  62
0
  100
AcDb2dVertex
  10
173.15320
  20
160.68130
  30
0.00000
  42
-0.2835
  70
32
  0
VERTEX
  5
A8A
  100
AcDbEntity
  8
Layer 1
  62
0
  100
AcDb2dVertex
  10
172.40670
  20
160.26500
  30
0.00000
  42
-0.0813
  70
32
  0
VERTEX
  5
A8B
  100
AcDbEntity
  8
Layer 1
  62
0
  100
AcDb2dVertex
  10
172.08890
  20
160.38860
  30
0.00000
  42
-0.2321
  70
32
  0
VERTEX
  5
A8C
  100
AcDbEntity
  8
Layer 1
  62
0
  100
AcDb2dVertex
  10
171.89740
  20
160.69920
  30
0.00000
  42
0.0510
  70
32
  0
VERTEX
  5
A8D
  100
AcDbEntity
  8
Layer 1
  62
0
  100
AcDb2dVertex
  10
171.74290
  20
161.70750
  30
0.00000
  42
-0.0847
  70
32
  0
VERTEX
  5
A8E
  100
AcDbEntity
  8
Layer 1
  62
0
  100
AcDb2dVertex
  10
171.04860
  20
164.26540
  30
0.00000
  42
-0.0916
  70
32
  0
VERTEX
  5
A8F
  100
AcDbEntity
  8
Layer 1
  62
0
  100
AcDb2dVertex
  10
172.10250
  20
167.02170
  30
0.00000
  42
0.1929
  70
32
  0
VERTEX
  5
A90
  100
AcDbEntity
  8
Layer 1
  62
0
  100
AcDb2dVertex
  10
172.75380
  20
170.21450
  30
0.00000
  42
0.3265
  70
32
  0
VERTEX
  5
A91
  100
AcDbEntity
  8
Layer 1
  62
0
  100
AcDb2dVertex
  10
172.21130
  20
170.75760
  30
0.00000
  42
0.3265
  70
32
  0
VERTEX
  5
A92
  100
AcDbEntity
  8
Layer 1
  62
0
  100
AcDb2dVertex
  10
171.52920
  20
170.40560
  30
0.00000
  42
0.1135
  70
32
  0
VERTEX
  5
A93
  100
AcDbEntity
  8
Layer 1
  62
0
  100
AcDb2dVertex
  10
171.23860
  20
168.33940
  30
0.00000
  42
-0.1051
  70
32
  0
VERTEX
  5
A94
  100
AcDbEntity
  8
Layer 1
  62
0
  100
AcDb2dVertex
  10
171.21820
  20
167.90900
  30
0.00000
  42
-0.2077
  70
32
  0
VERTEX
  5
A95
  100
AcDbEntity
  8
Layer 1
  62
0
  100
AcDb2dVertex
  10
171.09210
  20
167.77270
  30
0.00000
  42
-0.0743
  70
32
  0
VERTEX
  5
A96
  100
AcDbEntity
  8
Layer 1
  62
0
  100
AcDb2dVertex
  10
170.84430
  20
167.72320
  30
0.00000
  42
0.1308
  70
32
  0
VERTEX
  5
A97
  100
AcDbEntity
  8
Layer 1
  62
0
  100
AcDb2dVertex
  10
170.28660
  20
167.53490
  30
0.00000
  42
0.0188
  70
32
  0
VERTEX
  5
A98
  100
AcDbEntity
  8
Layer 1
  62
0
  100
AcDb2dVertex
  10
169.39990
  20
166.62120
  30
0.00000
  42
0.0979
  70
32
  0
VERTEX
  5
A99
  100
AcDbEntity
  8
Layer 1
  62
0
  100
AcDb2dVertex
  10
168.20600
  20
165.32850
  30
0.00000
  42
0.0165
  70
32
  0
VERTEX
  5
A9A
  100
AcDbEntity
  8
Layer 1
  62
0
  100
AcDb2dVertex
  10
167.77420
  20
163.27780
  30
0.00000
  42
-0.1708
  70
32
  0
VERTEX
  5
A9B
  100
AcDbEntity
  8
Layer 1
  62
0
  100
AcDb2dVertex
  10
167.66980
  20
163.08750
  30
0.00000
  70
32
  0
VERTEX
  5
A9C
  100
AcDbEntity
  8
Layer 1
  62
0
  100
AcDb2dVertex
  10
167.48020
  20
163.02210
  30
0.00000
  42
0.1659
  70
32
  0
VERTEX
  5
A9D
  100
AcDbEntity
  8
Layer 1
  62
0
  100
AcDb2dVertex
  10
167.07350
  20
162.78570
  30
0.00000
  42
-0.0804
  70
32
  0
VERTEX
  5
A9E
  100
AcDbEntity
  8
Layer 1
  62
0
  100
AcDb2dVertex
  10
165.31240
  20
160.10820
  30
0.00000
  42
0.2675
  70
32
  0
VERTEX
  5
A9F
  100
AcDbEntity
  8
Layer 1
  62
0
  100
AcDb2dVertex
  10
165.29700
  20
159.98270
  30
0.00000
  42
0.3046
  70
32
  0
VERTEX
  5
AA0
  100
AcDbEntity
  8
Layer 1
  62
0
  100
AcDb2dVertex
  10
165.39200
  20
159.92090
  30
0.00000
  42
0.1465
  70
32
  0
VERTEX
  5
AA1
  100
AcDbEntity
  8
Layer 1
  62
0
  100
AcDb2dVertex
  10
165.65090
  20
160.01130
  30
0.00000
  42
0.0217
  70
32
  0
VERTEX
  5
AA2
  100
AcDbEntity
  8
Layer 1
  62
0
  100
AcDb2dVertex
  10
166.63380
  20
160.84150
  30
0.00000
  42
-0.3623
  70
32
  0
VERTEX
  5
AA3
  100
AcDbEntity
  8
Layer 1
  62
0
  100
AcDb2dVertex
  10
168.00980
  20
160.95080
  30
0.00000
  42
-0.3117
  70
32
  0
VERTEX
  5
AA4
  100
AcDbEntity
  8
Layer 1
  62
0
  100
AcDb2dVertex
  10
168.08480
  20
160.63100
  30
0.00000
  70
32
  0
VERTEX
  5
AA5
  100
AcDbEntity
  8
Layer 1
  62
0
  100
AcDb2dVertex
  10
168.01600
  20
160.50510
  30
0.00000
  70
32
  0
VERTEX
  5
AA6
  100
AcDbEntity
  8
Layer 1
  62
0
  100
AcDb2dVertex
  10
167.77170
  20
160.12040
  30
0.00000
  42
-0.1848
  70
32
  0
VERTEX
  5
AA7
  100
AcDbEntity
  8
Layer 1
  62
0
  100
AcDb2dVertex
  10
167.44190
  20
159.86640
  30
0.00000
  42
0.1046
  70
32
  0
VERTEX
  5
AA8
  100
AcDbEntity
  8
Layer 1
  62
0
  100
AcDb2dVertex
  10
166.44760
  20
159.33340
  30
0.00000
  42
0.1889
  70
32
  0
VERTEX
  5
AA9
  100
AcDbEntity
  8
Layer 1
  62
0
  100
AcDb2dVertex
  10
165.87160
  20
158.43030
  30
0.00000
  42
0.2698
  70
32
  0
VERTEX
  5
AAA
  100
AcDbEntity
  8
Layer 1
  62
0
  100
AcDb2dVertex
  10
165.94000
  20
158.25540
  30
0.00000
  42
0.2293
  70
32
  0
VERTEX
  5
AAB
  100
AcDbEntity
  8
Layer 1
  62
0
  100
AcDb2dVertex
  10
166.14530
  20
158.24070
  30
0.00000
  42
0.0297
  70
32
  0
VERTEX
  5
AAC
  100
AcDbEntity
  8
Layer 1
  62
0
  100
AcDb2dVertex
  10
166.85730
  20
158.53920
  30
0.00000
  42
-0.0310
  70
32
  0
VERTEX
  5
AAD
  100
AcDbEntity
  8
Layer 1
  62
0
  100
AcDb2dVertex
  10
167.86390
  20
159.06030
  30
0.00000
  42
-0.2689
  70
32
  0
VERTEX
  5
AAE
  100
AcDbEntity
  8
Layer 1
  62
0
  100
AcDb2dVertex
  10
168.23460
  20
159.01450
  30
0.00000
  42
-0.2689
  70
32
  0
VERTEX
  5
AAF
  100
AcDbEntity
  8
Layer 1
  62
0
  100
AcDb2dVertex
  10
168.37900
  20
158.67020
  30
0.00000
  70
32
  0
VERTEX
  5
AB0
  100
AcDbEntity
  8
Layer 1
  62
0
  100
AcDb2dVertex
  10
168.06970
  20
156.60500
  30
0.00000
  42
0.2357
  70
32
  0
VERTEX
  5
AB1
  100
AcDbEntity
  8
Layer 1
  62
0
  100
AcDb2dVertex
  10
168.25460
  20
155.96010
  30
0.00000
  42
0.3202
  70
32
  0
VERTEX
  5
AB2
  100
AcDbEntity
  8
Layer 1
  62
0
  100
AcDb2dVertex
  10
168.41760
  20
155.92480
  30
0.00000
  42
0.1561
  70
32
  0
VERTEX
  5
AB3
  100
AcDbEntity
  8
Layer 1
  62
0
  100
AcDb2dVertex
  10
168.54880
  20
156.07430
  30
0.00000
  42
0.0901
  70
32
  0
VERTEX
  5
AB4
  100
AcDbEntity
  8
Layer 1
  62
0
  100
AcDb2dVertex
  10
168.90740
  20
158.92440
  30
0.00000
  42
-0.0746
  70
32
  0
VERTEX
  5
AB5
  100
AcDbEntity
  8
Layer 1
  62
0
  100
AcDb2dVertex
  10
168.95640
  20
159.46530
  30
0.00000
  42
-0.2362
  70
32
  0
VERTEX
  5
AB6
  100
AcDbEntity
  8
Layer 1
  62
0
  100
AcDb2dVertex
  10
169.09550
  20
159.63080
  30
0.00000
  42
-0.1318
  70
32
  0
VERTEX
  5
AB7
  100
AcDbEntity
  8
Layer 1
  62
0
  100
AcDb2dVertex
  10
169.48070
  20
159.62570
  30
0.00000
  42
0.0706
  70
32
  0
VERTEX
  5
AB8
  100
AcDbEntity
  8
Layer 1
  62
0
  100
AcDb2dVertex
  10
170.34580
  20
159.46930
  30
0.00000
  42
0.2276
  70
32
  0
VERTEX
  5
AB9
  100
AcDbEntity
  8
Layer 1
  62
0
  100
AcDb2dVertex
  10
170.52130
  20
159.54520
  30
0.00000
  42
0.1617
  70
32
  0
VERTEX
  5
ABA
  100
AcDbEntity
  8
Layer 1
  62
0
  100
AcDb2dVertex
  10
170.68430
  20
159.95720
  30
0.00000
  70
32
  0
VERTEX
  5
ABB
  100
AcDbEntity
  8
Layer 1
  62
0
  100
AcDb2dVertex
  10
170.70200
  20
160.09120
  30
0.00000
  42
-0.2471
  70
32
  0
VERTEX
  5
ABC
  100
AcDbEntity
  8
Layer 1
  62
0
  100
AcDb2dVertex
  10
170.81600
  20
160.24330
  30
0.00000
  42
-0.1853
  70
32
  0
VERTEX
  5
ABD
  100
AcDbEntity
  8
Layer 1
  62
0
  100
AcDb2dVertex
  10
171.03410
  20
160.23730
  30
0.00000
  42
-0.0758
  70
32
  0
VERTEX
  5
ABE
  100
AcDbEntity
  8
Layer 1
  62
0
  100
AcDb2dVertex
  10
171.77720
  20
159.77710
  30
0.00000
  42
0.0967
  70
32
  0
VERTEX
  5
ABF
  100
AcDbEntity
  8
Layer 1
  62
0
  100
AcDb2dVertex
  10
173.67150
  20
158.19240
  30
0.00000
  42
0.3244
  70
32
  0
VERTEX
  5
AC0
  100
AcDbEntity
  8
Layer 1
  62
0
  100
AcDb2dVertex
  10
175.51090
  20
158.74330
  30
0.00000
  42
0.0467
  70
32
  0
VERTEX
  5
AC1
  100
AcDbEntity
  8
Layer 1
  62
0
  100
AcDb2dVertex
  10
178.57990
  20
163.41690
  30
0.00000
  42
0.0278
  70
32
  0
VERTEX
  5
AC2
  100
AcDbEntity
  8
Layer 1
  62
0
  100
AcDb2dVertex
  10
179.57760
  20
165.32000
  30
0.00000
  42
-0.0473
  70
32
  0
VERTEX
  5
AC3
  100
AcDbEntity
  8
Layer 1
  62
0
  100
AcDb2dVertex
  10
179.85750
  20
166.59650
  30
0.00000
  42
-0.5192
  70
32
  0
VERTEX
  5
AC4
  100
AcDbEntity
  8
Layer 1
  62
0
  100
AcDb2dVertex
  10
180.71370
  20
166.80160
  30
0.00000
  42
-0.0637
  70
32
  0
VERTEX
  5
AC5
  100
AcDbEntity
  8
Layer 1
  62
0
  100
AcDb2dVertex
  10
180.90760
  20
166.53850
  30
0.00000
  42
0.2496
  70
32
  0
VERTEX
  5
AC6
  100
AcDbEntity
  8
Layer 1
  62
0
  100
AcDb2dVertex
  10
182.61000
  20
165.33770
  30
0.00000
  42
0.4645
  70
32
  0
VERTEX
  5
AC7
  100
AcDbEntity
  8
Layer 1
  62
0
  100
AcDb2dVertex
  10
183.84810
  20
166.02620
  30
0.00000
  42
0.0280
  70
32
  0
VERTEX
  5
AC8
  100
AcDbEntity
  8
Layer 1
  62
0
  100
AcDb2dVertex
  10
183.55500
  20
167.66300
  30
0.00000
  42
-0.3560
  70
32
  0
VERTEX
  5
AC9
  100
AcDbEntity
  8
Layer 1
  62
0
  100
AcDb2dVertex
  10
183.96190
  20
168.50340
  30
0.00000
  42
-0.0210
  70
32
  0
VERTEX
  5
ACA
  100
AcDbEntity
  8
Layer 1
  62
0
  100
AcDb2dVertex
  10
184.96430
  20
168.83620
  30
0.00000
  42
0.2613
  70
32
  0
VERTEX
  5
ACB
  100
AcDbEntity
  8
Layer 1
  62
0
  100
AcDb2dVertex
  10
185.98150
  20
169.60330
  30
0.00000
  42
0.0220
  70
32
  0
VERTEX
  5
ACC
  100
AcDbEntity
  8
Layer 1
  62
0
  100
AcDb2dVertex
  10
186.10360
  20
170.44740
  30
0.00000
  42
0.1210
  70
32
  0
VERTEX
  5
ACD
  100
AcDbEntity
  8
Layer 1
  62
0
  100
AcDb2dVertex
  10
186.08270
  20
170.86220
  30
0.00000
  42
-0.0070
  70
32
  0
VERTEX
  5
ACE
  100
AcDbEntity
  8
Layer 1
  62
0
  100
AcDb2dVertex
  10
185.12590
  20
172.78380
  30
0.00000
  42
-0.0468
  70
32
  0
VERTEX
  5
ACF
  100
AcDbEntity
  8
Layer 1
  62
0
  100
AcDb2dVertex
  10
184.85600
  20
175.12970
  30
0.00000
  42
-0.1241
  70
32
  0
VERTEX
  5
AD0
  100
AcDbEntity
  8
Layer 1
  62
0
  100
AcDb2dVertex
  10
184.46000
  20
179.32550
  30
0.00000
  42
-0.2539
  70
32
  0
VERTEX
  5
AD1
  100
AcDbEntity
  8
Layer 1
  62
0
  100
AcDb2dVertex
  10
184.66860
  20
179.60420
  30
0.00000
  42
-0.2384
  70
32
  0
VERTEX
  5
AD2
  100
AcDbEntity
  8
Layer 1
  62
0
  100
AcDb2dVertex
  10
185.01390
  20
179.56220
  30
0.00000
  42
-0.0274
  70
32
  0
VERTEX
  5
AD3
  100
AcDbEntity
  8
Layer 1
  62
0
  100
AcDb2dVertex
  10
185.33170
  20
179.36220
  30
0.00000
  42
0.2877
  70
32
  0
VERTEX
  5
AD4
  100
AcDbEntity
  8
Layer 1
  62
0
  100
AcDb2dVertex
  10
185.48880
  20
179.37090
  30
0.00000
  42
0.3483
  70
32
  0
VERTEX
  5
AD5
  100
AcDbEntity
  8
Layer 1
  62
0
  100
AcDb2dVertex
  10
185.60400
  20
179.71960
  30
0.00000
  42
0.1688
  70
32
  0
VERTEX
  5
AD6
  100
AcDbEntity
  8
Layer 1
  62
0
  100
AcDb2dVertex
  10
184.75680
  20
180.65930
  30
0.00000
  42
-0.2158
  70
32
  0
VERTEX
  5
AD7
  100
AcDbEntity
  8
Layer 1
  62
0
  100
AcDb2dVertex
  10
183.80060
  20
181.94610
  30
0.00000
  42
-0.0998
  70
32
  0
VERTEX
  5
AD8
  100
AcDbEntity
  8
Layer 1
  62
0
  100
AcDb2dVertex
  10
184.45150
  20
188.33380
  30
0.00000
  70
32
  0
VERTEX
  5
AD9
  100
AcDbEntity
  8
Layer 1
  62
0
  100
AcDb2dVertex
  10
186.08530
  20
192.80080
  30
0.00000
  42
-0.1222
  70
32
  0
VERTEX
  5
ADA
  100
AcDbEntity
  8
Layer 1
  62
0
  100
AcDb2dVertex
  10
187.13790
  20
195.11140
  30
0.00000
  42
-0.1361
  70
32
  0
VERTEX
  5
ADB
  100
AcDbEntity
  8
Layer 1
  62
0
  100
AcDb2dVertex
  10
189.16620
  20
195.90220
  30
0.00000
  42
0.2481
  70
32
  0
VERTEX
  5
ADC
  100
AcDbEntity
  8
Layer 1
  62
0
  100
AcDb2dVertex
  10
189.46530
  20
196.14060
  30
0.00000
  42
0.0612
  70
32
  0
VERTEX
  5
ADD
  100
AcDbEntity
  8
Layer 1
  62
0
  100
AcDb2dVertex
  10
189.80890
  20
198.34960
  30
0.00000
  42
0.3814
  70
32
  0
VERTEX
  5
ADE
  100
AcDbEntity
  8
Layer 1
  62
0
  100
AcDb2dVertex
  10
189.00730
  20
199.58030
  30
0.00000
  42
-0.1474
  70
32
  0
VERTEX
  5
ADF
  100
AcDbEntity
  8
Layer 1
  62
0
  100
AcDb2dVertex
  10
187.30750
  20
200.22240
  30
0.00000
  42
-0.0882
  70
32
  0
VERTEX
  5
AE0
  100
AcDbEntity
  8
Layer 1
  62
0
  100
AcDb2dVertex
  10
186.67880
  20
200.69980
  30
0.00000
  42
-0.0680
  70
32
  0
VERTEX
  5
AE1
  100
AcDbEntity
  8
Layer 1
  62
0
  100
AcDb2dVertex
  10
185.95530
  20
202.17450
  30
0.00000
  42
-0.0899
  70
32
  0
VERTEX
  5
AE2
  100
AcDbEntity
  8
Layer 1
  62
0
  100
AcDb2dVertex
  10
185.87990
  20
206.23110
  30
0.00000
  70
32
  0
SEQEND
  5
AE3
  100
AcDbEntity
  8
Layer 1
  62
0
  0
POLYLINE
  5
AE4
  100
AcDbEntity
  8
Layer 1
  62
0
  100
AcDb2dPolyline
 66
     1
  10
0
  20
0
  30
0
  70
1
  0
VERTEX
  5
AE5
  100
AcDbEntity
  8
Layer 1
  62
0
  100
AcDb2dVertex
  10
409.71330
  20
74.77076
  30
0.00000
  42
0.2325
  70
32
  0
VERTEX
  5
AE6
  100
AcDbEntity
  8
Layer 1
  62
0
  100
AcDb2dVertex
  10
405.45170
  20
74.61886
  30
0.00000
  42
0.0095
  70
32
  0
VERTEX
  5
AE7
  100
AcDbEntity
  8
Layer 1
  62
0
  100
AcDb2dVertex
  10
402.62040
  20
73.54600
  30
0.00000
  42
0.3941
  70
32
  0
VERTEX
  5
AE8
  100
AcDbEntity
  8
Layer 1
  62
0
  100
AcDb2dVertex
  10
402.46790
  20
73.18171
  30
0.00000
  70
32
  0
VERTEX
  5
AE9
  100
AcDbEntity
  8
Layer 1
  62
0
  100
AcDb2dVertex
  10
405.40420
  20
65.32338
  30
0.00000
  42
0.3003
  70
32
  0
VERTEX
  5
AEA
  100
AcDbEntity
  8
Layer 1
  62
0
  100
AcDb2dVertex
  10
405.67580
  20
65.15401
  30
0.00000
  42
0.0690
  70
32
  0
VERTEX
  5
AEB
  100
AcDbEntity
  8
Layer 1
  62
0
  100
AcDb2dVertex
  10
406.13170
  20
65.30143
  30
0.00000
  42
0.0436
  70
32
  0
VERTEX
  5
AEC
  100
AcDbEntity
  8
Layer 1
  62
0
  100
AcDb2dVertex
  10
410.57160
  20
67.18320
  30
0.00000
  42
0.2554
  70
32
  0
VERTEX
  5
AED
  100
AcDbEntity
  8
Layer 1
  62
0
  100
AcDb2dVertex
  10
412.03180
  20
69.90135
  30
0.00000
  42
0.2275
  70
32
  0
VERTEX
  5
AEE
  100
AcDbEntity
  8
Layer 1
  62
0
  100
AcDb2dVertex
  10
409.71330
  20
74.77076
  30
0.00000
  70
32
  0
SEQEND
  5
AEF
  100
AcDbEntity
  8
Layer 1
  62
0
  0
POLYLINE
  5
AF0
  100
AcDbEntity
  8
Layer 1
  62
0
  100
AcDb2dPolyline
 66
     1
  10
0
  20
0
  30
0
  70
1
  0
VERTEX
  5
AF1
  100
AcDbEntity
  8
Layer 1
  62
0
  100
AcDb2dVertex
  10
403.96320
  20
87.02108
  30
0.00000
  42
0.1650
  70
32
  0
VERTEX
  5
AF2
  100
AcDbEntity
  8
Layer 1
  62
0
  100
AcDb2dVertex
  10
400.55050
  20
86.47016
  30
0.00000
  42
0.0091
  70
32
  0
VERTEX
  5
AF3
  100
AcDbEntity
  8
Layer 1
  62
0
  100
AcDb2dVertex
  10
398.26630
  20
85.60288
  30
0.00000
  42
0.1478
  70
32
  0
VERTEX
  5
AF4
  100
AcDbEntity
  8
Layer 1
  62
0
  100
AcDb2dVertex
  10
398.04900
  20
85.43416
  30
0.00000
  42
0.1810
  70
32
  0
VERTEX
  5
AF5
  100
AcDbEntity
  8
Layer 1
  62
0
  100
AcDb2dVertex
  10
398.03430
  20
85.17297
  30
0.00000
  42
0.0081
  70
32
  0
VERTEX
  5
AF6
  100
AcDbEntity
  8
Layer 1
  62
0
  100
AcDb2dVertex
  10
400.61360
  20
78.25116
  30
0.00000
  42
0.2864
  70
32
  0
VERTEX
  5
AF7
  100
AcDbEntity
  8
Layer 1
  62
0
  100
AcDb2dVertex
  10
400.90570
  20
78.04472
  30
0.00000
  42
0.0776
  70
32
  0
VERTEX
  5
AF8
  100
AcDbEntity
  8
Layer 1
  62
0
  100
AcDb2dVertex
  10
401.42720
  20
78.19960
  30
0.00000
  42
0.0244
  70
32
  0
VERTEX
  5
AF9
  100
AcDbEntity
  8
Layer 1
  62
0
  100
AcDb2dVertex
  10
405.46400
  20
79.80932
  30
0.00000
  42
0.2789
  70
32
  0
VERTEX
  5
AFA
  100
AcDbEntity
  8
Layer 1
  62
0
  100
AcDb2dVertex
  10
407.02480
  20
82.89070
  30
0.00000
  42
0.3158
  70
32
  0
VERTEX
  5
AFB
  100
AcDbEntity
  8
Layer 1
  62
0
  100
AcDb2dVertex
  10
403.96320
  20
87.02108
  30
0.00000
  70
32
  0
SEQEND
  5
AFC
  100
AcDbEntity
  8
Layer 1
  62
0
  0
POLYLINE
  5
AFD
  100
AcDbEntity
  8
Layer 1
  62
0
  100
AcDb2dPolyline
 66
     1
  10
0
  20
0
  30
0
  70
1
  0
VERTEX
  5
AFE
  100
AcDbEntity
  8
Layer 1
  62
0
  100
AcDb2dVertex
  10
411.65900
  20
88.87110
  30
0.00000
  42
-0.1908
  70
32
  0
VERTEX
  5
AFF
  100
AcDbEntity
  8
Layer 1
  62
0
  100
AcDb2dVertex
  10
412.68710
  20
82.66722
  30
0.00000
  42
-0.1694
  70
32
  0
VERTEX
  5
B00
  100
AcDbEntity
  8
Layer 1
  62
0
  100
AcDb2dVertex
  10
410.07890
  20
79.16424
  30
0.00000
  42
0.2946
  70
32
  0
VERTEX
  5
B01
  100
AcDbEntity
  8
Layer 1
  62
0
  100
AcDb2dVertex
  10
410.05800
  20
79.05815
  30
0.00000
  42
0.2304
  70
32
  0
VERTEX
  5
B02
  100
AcDbEntity
  8
Layer 1
  62
0
  100
AcDb2dVertex
  10
410.15710
  20
78.96782
  30
0.00000
  42
0.0971
  70
32
  0
VERTEX
  5
B03
  100
AcDbEntity
  8
Layer 1
  62
0
  100
AcDb2dVertex
  10
410.41820
  20
78.96185
  30
0.00000
  42
-0.1960
  70
32
  0
VERTEX
  5
B04
  100
AcDbEntity
  8
Layer 1
  62
0
  100
AcDb2dVertex
  10
414.98980
  20
78.10139
  30
0.00000
  42
-0.1546
  70
32
  0
VERTEX
  5
B05
  100
AcDbEntity
  8
Layer 1
  62
0
  100
AcDb2dVertex
  10
418.31360
  20
72.66616
  30
0.00000
  42
-0.3632
  70
32
  0
VERTEX
  5
B06
  100
AcDbEntity
  8
Layer 1
  62
0
  100
AcDb2dVertex
  10
415.26040
  20
64.04707
  30
0.00000
  42
-0.0549
  70
32
  0
VERTEX
  5
B07
  100
AcDbEntity
  8
Layer 1
  62
0
  100
AcDb2dVertex
  10
408.86560
  20
61.24455
  30
0.00000
  70
32
  0
VERTEX
  5
B08
  100
AcDbEntity
  8
Layer 1
  62
0
  100
AcDb2dVertex
  10
401.64680
  20
58.56581
  30
0.00000
  42
-0.1059
  70
32
  0
VERTEX
  5
B09
  100
AcDbEntity
  8
Layer 1
  62
0
  100
AcDb2dVertex
  10
401.20650
  20
58.44992
  30
0.00000
  42
-0.2639
  70
32
  0
VERTEX
  5
B0A
  100
AcDbEntity
  8
Layer 1
  62
0
  100
AcDb2dVertex
  10
400.93870
  20
58.68107
  30
0.00000
  70
32
  0
VERTEX
  5
B0B
  100
AcDbEntity
  8
Layer 1
  62
0
  100
AcDb2dVertex
  10
390.43630
  20
86.92010
  30
0.00000
  42
-0.0644
  70
32
  0
VERTEX
  5
B0C
  100
AcDbEntity
  8
Layer 1
  62
0
  100
AcDb2dVertex
  10
390.26850
  20
87.44289
  30
0.00000
  42
-0.1872
  70
32
  0
VERTEX
  5
B0D
  100
AcDbEntity
  8
Layer 1
  62
0
  100
AcDb2dVertex
  10
390.31490
  20
87.65167
  30
0.00000
  70
32
  0
VERTEX
  5
B0E
  100
AcDbEntity
  8
Layer 1
  62
0
  100
AcDb2dVertex
  10
390.39570
  20
87.72517
  30
0.00000
  42
-0.0825
  70
32
  0
VERTEX
  5
B0F
  100
AcDbEntity
  8
Layer 1
  62
0
  100
AcDb2dVertex
  10
390.79280
  20
87.91754
  30
0.00000
  70
32
  0
VERTEX
  5
B10
  100
AcDbEntity
  8
Layer 1
  62
0
  100
AcDb2dVertex
  10
396.51300
  20
90.04174
  30
0.00000
  42
-0.0333
  70
32
  0
VERTEX
  5
B11
  100
AcDbEntity
  8
Layer 1
  62
0
  100
AcDb2dVertex
  10
403.96550
  20
92.53897
  30
0.00000
  42
-0.3722
  70
32
  0
VERTEX
  5
B12
  100
AcDbEntity
  8
Layer 1
  62
0
  100
AcDb2dVertex
  10
411.65900
  20
88.87110
  30
0.00000
  70
32
  0
SEQEND
  5
B13
  100
AcDbEntity
  8
Layer 1
  62
0
  0
POLYLINE
  5
B14
  100
AcDbEntity
  8
Layer 1
  62
0
  100
AcDb2dPolyline
 66
     1
  10
0
  20
0
  30
0
  70
1
  0
VERTEX
  5
B15
  100
AcDbEntity
  8
Layer 1
  62
0
  100
AcDb2dVertex
  10
72.48470
  20
76.38516
  30
0.00000
  42
0.2693
  70
32
  0
VERTEX
  5
B16
  100
AcDbEntity
  8
Layer 1
  62
0
  100
AcDb2dVertex
  10
75.48151
  20
78.21089
  30
0.00000
  42
0.1437
  70
32
  0
VERTEX
  5
B17
  100
AcDbEntity
  8
Layer 1
  62
0
  100
AcDb2dVertex
  10
76.74951
  20
82.03279
  30
0.00000
  42
0.3266
  70
32
  0
VERTEX
  5
B18
  100
AcDbEntity
  8
Layer 1
  62
0
  100
AcDb2dVertex
  10
74.39544
  20
84.86897
  30
0.00000
  42
0.0089
  70
32
  0
VERTEX
  5
B19
  100
AcDbEntity
  8
Layer 1
  62
0
  100
AcDb2dVertex
  10
72.17793
  20
85.73156
  30
0.00000
  42
0.3443
  70
32
  0
VERTEX
  5
B1A
  100
AcDbEntity
  8
Layer 1
  62
0
  100
AcDb2dVertex
  10
71.79297
  20
85.51362
  30
0.00000
  70
32
  0
VERTEX
  5
B1B
  100
AcDbEntity
  8
Layer 1
  62
0
  100
AcDb2dVertex
  10
68.82365
  20
78.03173
  30
0.00000
  42
0.1400
  70
32
  0
VERTEX
  5
B1C
  100
AcDbEntity
  8
Layer 1
  62
0
  100
AcDb2dVertex
  10
68.78700
  20
77.78929
  30
0.00000
  42
0.1938
  70
32
  0
VERTEX
  5
B1D
  100
AcDbEntity
  8
Layer 1
  62
0
  100
AcDb2dVertex
  10
68.93443
  20
77.61013
  30
0.00000
  42
0.0626
  70
32
  0
VERTEX
  5
B1E
  100
AcDbEntity
  8
Layer 1
  62
0
  100
AcDb2dVertex
  10
72.48470
  20
76.38516
  30
0.00000
  70
32
  0
SEQEND
  5
B1F
  100
AcDbEntity
  8
Layer 1
  62
0
  0
POLYLINE
  5
B20
  100
AcDbEntity
  8
Layer 1
  62
0
  100
AcDb2dPolyline
 66
     1
  10
0
  20
0
  30
0
  70
1
  0
VERTEX
  5
B21
  100
AcDbEntity
  8
Layer 1
  62
0
  100
AcDb2dVertex
  10
78.22863
  20
88.46910
  30
0.00000
  42
-0.2115
  70
32
  0
VERTEX
  5
B22
  100
AcDbEntity
  8
Layer 1
  62
0
  100
AcDb2dVertex
  10
82.90907
  20
84.59053
  30
0.00000
  42
-0.1895
  70
32
  0
VERTEX
  5
B23
  100
AcDbEntity
  8
Layer 1
  62
0
  100
AcDb2dVertex
  10
82.74993
  20
78.20131
  30
0.00000
  42
-0.2141
  70
32
  0
VERTEX
  5
B24
  100
AcDbEntity
  8
Layer 1
  62
0
  100
AcDb2dVertex
  10
78.45509
  20
73.15636
  30
0.00000
  42
-0.1091
  70
32
  0
VERTEX
  5
B25
  100
AcDbEntity
  8
Layer 1
  62
0
  100
AcDb2dVertex
  10
74.95850
  20
72.81038
  30
0.00000
  42
0.2131
  70
32
  0
VERTEX
  5
B26
  100
AcDbEntity
  8
Layer 1
  62
0
  100
AcDb2dVertex
  10
74.78615
  20
72.74051
  30
0.00000
  42
0.3904
  70
32
  0
VERTEX
  5
B27
  100
AcDbEntity
  8
Layer 1
  62
0
  100
AcDb2dVertex
  10
74.78722
  20
72.61162
  30
0.00000
  70
32
  0
VERTEX
  5
B28
  100
AcDbEntity
  8
Layer 1
  62
0
  100
AcDb2dVertex
  10
74.96830
  20
72.48166
  30
0.00000
  42
-0.1675
  70
32
  0
VERTEX
  5
B29
  100
AcDbEntity
  8
Layer 1
  62
0
  100
AcDb2dVertex
  10
77.71627
  20
69.46249
  30
0.00000
  42
-0.1846
  70
32
  0
VERTEX
  5
B2A
  100
AcDbEntity
  8
Layer 1
  62
0
  100
AcDb2dVertex
  10
77.07929
  20
64.13953
  30
0.00000
  42
0.0341
  70
32
  0
VERTEX
  5
B2B
  100
AcDbEntity
  8
Layer 1
  62
0
  100
AcDb2dVertex
  10
74.69881
  20
56.52832
  30
0.00000
  42
-0.1470
  70
32
  0
VERTEX
  5
B2C
  100
AcDbEntity
  8
Layer 1
  62
0
  100
AcDb2dVertex
  10
74.59974
  20
56.36513
  30
0.00000
  42
-0.2372
  70
32
  0
VERTEX
  5
B2D
  100
AcDbEntity
  8
Layer 1
  62
0
  100
AcDb2dVertex
  10
74.48151
  20
56.33275
  30
0.00000
  42
-0.0109
  70
32
  0
VERTEX
  5
B2E
  100
AcDbEntity
  8
Layer 1
  62
0
  100
AcDb2dVertex
  10
72.05543
  20
57.26351
  30
0.00000
  42
-0.0124
  70
32
  0
VERTEX
  5
B2F
  100
AcDbEntity
  8
Layer 1
  62
0
  100
AcDb2dVertex
  10
68.98151
  20
58.51788
  30
0.00000
  42
-0.2419
  70
32
  0
VERTEX
  5
B30
  100
AcDbEntity
  8
Layer 1
  62
0
  100
AcDb2dVertex
  10
68.80703
  20
58.86172
  30
0.00000
  42
-0.0519
  70
32
  0
VERTEX
  5
B31
  100
AcDbEntity
  8
Layer 1
  62
0
  100
AcDb2dVertex
  10
68.96936
  20
60.29419
  30
0.00000
  42
-0.0240
  70
32
  0
VERTEX
  5
B32
  100
AcDbEntity
  8
Layer 1
  62
0
  100
AcDb2dVertex
  10
71.33195
  20
66.91754
  30
0.00000
  42
0.2389
  70
32
  0
VERTEX
  5
B33
  100
AcDbEntity
  8
Layer 1
  62
0
  100
AcDb2dVertex
  10
71.23310
  20
70.70642
  30
0.00000
  42
0.1498
  70
32
  0
VERTEX
  5
B34
  100
AcDbEntity
  8
Layer 1
  62
0
  100
AcDb2dVertex
  10
67.60954
  20
72.97890
  30
0.00000
  42
0.0770
  70
32
  0
VERTEX
  5
B35
  100
AcDbEntity
  8
Layer 1
  62
0
  100
AcDb2dVertex
  10
67.14725
  20
73.13250
  30
0.00000
  42
0.2977
  70
32
  0
VERTEX
  5
B36
  100
AcDbEntity
  8
Layer 1
  62
0
  100
AcDb2dVertex
  10
66.85603
  20
72.96782
  30
0.00000
  70
32
  0
VERTEX
  5
B37
  100
AcDbEntity
  8
Layer 1
  62
0
  100
AcDb2dVertex
  10
62.28849
  20
61.49892
  30
0.00000
  42
-0.1461
  70
32
  0
VERTEX
  5
B38
  100
AcDbEntity
  8
Layer 1
  62
0
  100
AcDb2dVertex
  10
62.13745
  20
61.32657
  30
0.00000
  42
-0.2057
  70
32
  0
VERTEX
  5
B39
  100
AcDbEntity
  8
Layer 1
  62
0
  100
AcDb2dVertex
  10
61.77294
  20
61.32743
  30
0.00000
  70
32
  0
VERTEX
  5
B3A
  100
AcDbEntity
  8
Layer 1
  62
0
  100
AcDb2dVertex
  10
56.56608
  20
63.37983
  30
0.00000
  42
-0.0940
  70
32
  0
VERTEX
  5
B3B
  100
AcDbEntity
  8
Layer 1
  62
0
  100
AcDb2dVertex
  10
56.32322
  20
63.52108
  30
0.00000
  42
-0.2546
  70
32
  0
VERTEX
  5
B3C
  100
AcDbEntity
  8
Layer 1
  62
0
  100
AcDb2dVertex
  10
56.26293
  20
63.84596
  30
0.00000
  70
32
  0
VERTEX
  5
B3D
  100
AcDbEntity
  8
Layer 1
  62
0
  100
AcDb2dVertex
  10
67.52007
  20
92.35065
  30
0.00000
  42
-0.3752
  70
32
  0
VERTEX
  5
B3E
  100
AcDbEntity
  8
Layer 1
  62
0
  100
AcDb2dVertex
  10
67.91397
  20
92.52427
  30
0.00000
  70
32
  0
VERTEX
  5
B3F
  100
AcDbEntity
  8
Layer 1
  62
0
  100
AcDb2dVertex
  10
78.22863
  20
88.46910
  30
0.00000
  70
32
  0
SEQEND
  5
B40
  100
AcDbEntity
  8
Layer 1
  62
0
  0
POLYLINE
  5
B41
  100
AcDbEntity
  8
Layer 1
  62
0
  100
AcDb2dPolyline
 66
     1
  10
0
  20
0
  30
0
  70
1
  0
VERTEX
  5
B42
  100
AcDbEntity
  8
Layer 1
  62
0
  100
AcDb2dVertex
  10
95.01176
  20
81.89325
  30
0.00000
  70
32
  0
VERTEX
  5
B43
  100
AcDbEntity
  8
Layer 1
  62
0
  100
AcDb2dVertex
  10
87.61444
  20
60.50425
  30
0.00000
  70
32
  0
VERTEX
  5
B44
  100
AcDbEntity
  8
Layer 1
  62
0
  100
AcDb2dVertex
  10
85.33110
  20
53.90817
  30
0.00000
  42
-0.0550
  70
32
  0
VERTEX
  5
B45
  100
AcDbEntity
  8
Layer 1
  62
0
  100
AcDb2dVertex
  10
84.95701
  20
52.97549
  30
0.00000
  42
-0.2521
  70
32
  0
VERTEX
  5
B46
  100
AcDbEntity
  8
Layer 1
  62
0
  100
AcDb2dVertex
  10
84.73332
  20
52.86087
  30
0.00000
  42
-0.0520
  70
32
  0
VERTEX
  5
B47
  100
AcDbEntity
  8
Layer 1
  62
0
  100
AcDb2dVertex
  10
84.18645
  20
53.00510
  30
0.00000
  70
32
  0
VERTEX
  5
B48
  100
AcDbEntity
  8
Layer 1
  62
0
  100
AcDb2dVertex
  10
79.93166
  20
54.47613
  30
0.00000
  42
-0.0607
  70
32
  0
VERTEX
  5
B49
  100
AcDbEntity
  8
Layer 1
  62
0
  100
AcDb2dVertex
  10
79.00643
  20
54.85320
  30
0.00000
  42
-0.2583
  70
32
  0
VERTEX
  5
B4A
  100
AcDbEntity
  8
Layer 1
  62
0
  100
AcDb2dVertex
  10
78.90971
  20
55.06922
  30
0.00000
  42
-0.0437
  70
32
  0
VERTEX
  5
B4B
  100
AcDbEntity
  8
Layer 1
  62
0
  100
AcDb2dVertex
  10
79.06161
  20
55.61737
  30
0.00000
  70
32
  0
VERTEX
  5
B4C
  100
AcDbEntity
  8
Layer 1
  62
0
  100
AcDb2dVertex
  10
87.46915
  20
79.90604
  30
0.00000
  42
-0.0116
  70
32
  0
VERTEX
  5
B4D
  100
AcDbEntity
  8
Layer 1
  62
0
  100
AcDb2dVertex
  10
89.02028
  20
84.24178
  30
0.00000
  42
-0.2786
  70
32
  0
VERTEX
  5
B4E
  100
AcDbEntity
  8
Layer 1
  62
0
  100
AcDb2dVertex
  10
89.20584
  20
84.33808
  30
0.00000
  42
-0.0418
  70
32
  0
VERTEX
  5
B4F
  100
AcDbEntity
  8
Layer 1
  62
0
  100
AcDb2dVertex
  10
89.74269
  20
84.18725
  30
0.00000
  70
32
  0
VERTEX
  5
B50
  100
AcDbEntity
  8
Layer 1
  62
0
  100
AcDb2dVertex
  10
94.39927
  20
82.57412
  30
0.00000
  42
-0.0817
  70
32
  0
VERTEX
  5
B51
  100
AcDbEntity
  8
Layer 1
  62
0
  100
AcDb2dVertex
  10
94.92313
  20
82.34894
  30
0.00000
  42
-0.2207
  70
32
  0
VERTEX
  5
B52
  100
AcDbEntity
  8
Layer 1
  62
0
  100
AcDb2dVertex
  10
95.05458
  20
82.14400
  30
0.00000
  70
32
  0
VERTEX
  5
B53
  100
AcDbEntity
  8
Layer 1
  62
0
  100
AcDb2dVertex
  10
95.01176
  20
81.89325
  30
0.00000
  70
32
  0
SEQEND
  5
B54
  100
AcDbEntity
  8
Layer 1
  62
0
  0
POLYLINE
  5
B55
  100
AcDbEntity
  8
Layer 1
  62
0
  100
AcDb2dPolyline
 66
     1
  10
0
  20
0
  30
0
  70
1
  0
VERTEX
  5
B56
  100
AcDbEntity
  8
Layer 1
  62
0
  100
AcDb2dVertex
  10
380.60760
  20
83.90795
  30
0.00000
  42
-0.0836
  70
32
  0
VERTEX
  5
B57
  100
AcDbEntity
  8
Layer 1
  62
0
  100
AcDb2dVertex
  10
380.49370
  20
84.36662
  30
0.00000
  42
-0.3223
  70
32
  0
VERTEX
  5
B58
  100
AcDbEntity
  8
Layer 1
  62
0
  100
AcDb2dVertex
  10
380.66070
  20
84.63207
  30
0.00000
  70
32
  0
VERTEX
  5
B59
  100
AcDbEntity
  8
Layer 1
  62
0
  100
AcDb2dVertex
  10
385.85710
  20
86.25691
  30
0.00000
  42
-0.0611
  70
32
  0
VERTEX
  5
B5A
  100
AcDbEntity
  8
Layer 1
  62
0
  100
AcDb2dVertex
  10
386.36880
  20
86.38644
  30
0.00000
  42
-0.2273
  70
32
  0
VERTEX
  5
B5B
  100
AcDbEntity
  8
Layer 1
  62
0
  100
AcDb2dVertex
  10
386.56480
  20
86.32402
  30
0.00000
  42
-0.1036
  70
32
  0
VERTEX
  5
B5C
  100
AcDbEntity
  8
Layer 1
  62
0
  100
AcDb2dVertex
  10
386.71730
  20
86.06411
  30
0.00000
  70
32
  0
VERTEX
  5
B5D
  100
AcDbEntity
  8
Layer 1
  62
0
  100
AcDb2dVertex
  10
392.64730
  20
66.89879
  30
0.00000
  42
-0.1383
  70
32
  0
VERTEX
  5
B5E
  100
AcDbEntity
  8
Layer 1
  62
0
  100
AcDb2dVertex
  10
393.45190
  20
60.09628
  30
0.00000
  42
-0.2542
  70
32
  0
VERTEX
  5
B5F
  100
AcDbEntity
  8
Layer 1
  62
0
  100
AcDb2dVertex
  10
387.35670
  20
53.51341
  30
0.00000
  42
-0.0755
  70
32
  0
VERTEX
  5
B60
  100
AcDbEntity
  8
Layer 1
  62
0
  100
AcDb2dVertex
  10
382.45320
  20
52.29206
  30
0.00000
  42
-0.3578
  70
32
  0
VERTEX
  5
B61
  100
AcDbEntity
  8
Layer 1
  62
0
  100
AcDb2dVertex
  10
373.30870
  20
57.73411
  30
0.00000
  70
32
  0
VERTEX
  5
B62
  100
AcDbEntity
  8
Layer 1
  62
0
  100
AcDb2dVertex
  10
366.52990
  20
79.44992
  30
0.00000
  42
-0.0545
  70
32
  0
VERTEX
  5
B63
  100
AcDbEntity
  8
Layer 1
  62
0
  100
AcDb2dVertex
  10
366.39080
  20
79.97613
  30
0.00000
  42
-0.2276
  70
32
  0
VERTEX
  5
B64
  100
AcDbEntity
  8
Layer 1
  62
0
  100
AcDb2dVertex
  10
366.44780
  20
80.17830
  30
0.00000
  42
-0.1081
  70
32
  0
VERTEX
  5
B65
  100
AcDbEntity
  8
Layer 1
  62
0
  100
AcDb2dVertex
  10
366.70370
  20
80.33105
  30
0.00000
  70
32
  0
VERTEX
  5
B66
  100
AcDbEntity
  8
Layer 1
  62
0
  100
AcDb2dVertex
  10
371.37950
  20
81.78759
  30
0.00000
  42
-0.0511
  70
32
  0
VERTEX
  5
B67
  100
AcDbEntity
  8
Layer 1
  62
0
  100
AcDb2dVertex
  10
372.30550
  20
82.02299
  30
0.00000
  42
-0.2632
  70
32
  0
VERTEX
  5
B68
  100
AcDbEntity
  8
Layer 1
  62
0
  100
AcDb2dVertex
  10
372.50920
  20
81.90497
  30
0.00000
  42
-0.0298
  70
32
  0
VERTEX
  5
B69
  100
AcDbEntity
  8
Layer 1
  62
0
  100
AcDb2dVertex
  10
372.84810
  20
80.95993
  30
0.00000
  70
32
  0
VERTEX
  5
B6A
  100
AcDbEntity
  8
Layer 1
  62
0
  100
AcDb2dVertex
  10
378.10870
  20
63.92244
  30
0.00000
  42
0.0718
  70
32
  0
VERTEX
  5
B6B
  100
AcDbEntity
  8
Layer 1
  62
0
  100
AcDb2dVertex
  10
380.10930
  20
58.82892
  30
0.00000
  42
0.4328
  70
32
  0
VERTEX
  5
B6C
  100
AcDbEntity
  8
Layer 1
  62
0
  100
AcDb2dVertex
  10
385.65150
  20
57.95674
  30
0.00000
  42
0.3184
  70
32
  0
VERTEX
  5
B6D
  100
AcDbEntity
  8
Layer 1
  62
0
  100
AcDb2dVertex
  10
387.09970
  20
62.64123
  30
0.00000
  70
32
  0
VERTEX
  5
B6E
  100
AcDbEntity
  8
Layer 1
  62
0
  100
AcDb2dVertex
  10
380.60760
  20
83.90795
  30
0.00000
  70
32
  0
SEQEND
  5
B6F
  100
AcDbEntity
  8
Layer 1
  62
0
  0
POLYLINE
  5
B70
  100
AcDbEntity
  8
Layer 1
  62
0
  100
AcDb2dPolyline
 66
     1
  10
0
  20
0
  30
0
  70
1
  0
VERTEX
  5
B71
  100
AcDbEntity
  8
Layer 1
  62
0
  100
AcDb2dVertex
  10
102.00600
  20
66.63974
  30
0.00000
  70
32
  0
VERTEX
  5
B72
  100
AcDbEntity
  8
Layer 1
  62
0
  100
AcDb2dVertex
  10
110.32050
  20
64.05069
  30
0.00000
  42
-0.1944
  70
32
  0
VERTEX
  5
B73
  100
AcDbEntity
  8
Layer 1
  62
0
  100
AcDb2dVertex
  10
110.48320
  20
63.89389
  30
0.00000
  42
-0.1300
  70
32
  0
VERTEX
  5
B74
  100
AcDbEntity
  8
Layer 1
  62
0
  100
AcDb2dVertex
  10
110.47260
  20
63.65508
  30
0.00000
  42
-0.0087
  70
32
  0
VERTEX
  5
B75
  100
AcDbEntity
  8
Layer 1
  62
0
  100
AcDb2dVertex
  10
109.25250
  20
59.73859
  30
0.00000
  42
-0.1882
  70
32
  0
VERTEX
  5
B76
  100
AcDbEntity
  8
Layer 1
  62
0
  100
AcDb2dVertex
  10
109.09530
  20
59.56581
  30
0.00000
  42
-0.1357
  70
32
  0
VERTEX
  5
B77
  100
AcDbEntity
  8
Layer 1
  62
0
  100
AcDb2dVertex
  10
108.85300
  20
59.57604
  30
0.00000
  70
32
  0
VERTEX
  5
B78
  100
AcDbEntity
  8
Layer 1
  62
0
  100
AcDb2dVertex
  10
101.05240
  20
61.94715
  30
0.00000
  42
0.0519
  70
32
  0
VERTEX
  5
B79
  100
AcDbEntity
  8
Layer 1
  62
0
  100
AcDb2dVertex
  10
100.52500
  20
62.09202
  30
0.00000
  42
0.2186
  70
32
  0
VERTEX
  5
B7A
  100
AcDbEntity
  8
Layer 1
  62
0
  100
AcDb2dVertex
  10
100.34000
  20
62.04323
  30
0.00000
  42
0.1301
  70
32
  0
VERTEX
  5
B7B
  100
AcDbEntity
  8
Layer 1
  62
0
  100
AcDb2dVertex
  10
100.22560
  20
61.84745
  30
0.00000
  70
32
  0
VERTEX
  5
B7C
  100
AcDbEntity
  8
Layer 1
  62
0
  100
AcDb2dVertex
  10
98.62680
  20
56.67809
  30
0.00000
  70
32
  0
VERTEX
  5
B7D
  100
AcDbEntity
  8
Layer 1
  62
0
  100
AcDb2dVertex
  10
96.42974
  20
49.49338
  30
0.00000
  42
-0.1100
  70
32
  0
VERTEX
  5
B7E
  100
AcDbEntity
  8
Layer 1
  62
0
  100
AcDb2dVertex
  10
96.31278
  20
49.25861
  30
0.00000
  42
-0.2462
  70
32
  0
VERTEX
  5
B7F
  100
AcDbEntity
  8
Layer 1
  62
0
  100
AcDb2dVertex
  10
96.00430
  20
49.18980
  30
0.00000
  70
32
  0
VERTEX
  5
B80
  100
AcDbEntity
  8
Layer 1
  62
0
  100
AcDb2dVertex
  10
90.82514
  20
50.76948
  30
0.00000
  42
-0.0811
  70
32
  0
VERTEX
  5
B81
  100
AcDbEntity
  8
Layer 1
  62
0
  100
AcDb2dVertex
  10
90.35858
  20
50.94460
  30
0.00000
  42
-0.1994
  70
32
  0
VERTEX
  5
B82
  100
AcDbEntity
  8
Layer 1
  62
0
  100
AcDb2dVertex
  10
90.22650
  20
51.13058
  30
0.00000
  42
-0.1045
  70
32
  0
VERTEX
  5
B83
  100
AcDbEntity
  8
Layer 1
  62
0
  100
AcDb2dVertex
  10
90.24908
  20
51.40412
  30
0.00000
  70
32
  0
VERTEX
  5
B84
  100
AcDbEntity
  8
Layer 1
  62
0
  100
AcDb2dVertex
  10
98.68134
  20
79.05325
  30
0.00000
  42
-0.0266
  70
32
  0
VERTEX
  5
B85
  100
AcDbEntity
  8
Layer 1
  62
0
  100
AcDb2dVertex
  10
99.22373
  20
80.71452
  30
0.00000
  42
-0.3287
  70
32
  0
VERTEX
  5
B86
  100
AcDbEntity
  8
Layer 1
  62
0
  100
AcDb2dVertex
  10
99.46319
  20
80.82508
  30
0.00000
  70
32
  0
VERTEX
  5
B87
  100
AcDbEntity
  8
Layer 1
  62
0
  100
AcDb2dVertex
  10
113.59440
  20
76.52725
  30
0.00000
  42
-0.0626
  70
32
  0
VERTEX
  5
B88
  100
AcDbEntity
  8
Layer 1
  62
0
  100
AcDb2dVertex
  10
114.53200
  20
76.18362
  30
0.00000
  42
-0.2501
  70
32
  0
VERTEX
  5
B89
  100
AcDbEntity
  8
Layer 1
  62
0
  100
AcDb2dVertex
  10
114.64660
  20
75.95653
  30
0.00000
  42
-0.0473
  70
32
  0
VERTEX
  5
B8A
  100
AcDbEntity
  8
Layer 1
  62
0
  100
AcDb2dVertex
  10
114.51770
  20
75.40476
  30
0.00000
  42
-0.0055
  70
32
  0
VERTEX
  5
B8B
  100
AcDbEntity
  8
Layer 1
  62
0
  100
AcDb2dVertex
  10
113.50170
  20
72.08051
  30
0.00000
  42
-0.1001
  70
32
  0
VERTEX
  5
B8C
  100
AcDbEntity
  8
Layer 1
  62
0
  100
AcDb2dVertex
  10
113.36970
  20
71.82295
  30
0.00000
  42
-0.2329
  70
32
  0
VERTEX
  5
B8D
  100
AcDbEntity
  8
Layer 1
  62
0
  100
AcDb2dVertex
  10
113.04990
  20
71.74221
  30
0.00000
  70
32
  0
VERTEX
  5
B8E
  100
AcDbEntity
  8
Layer 1
  62
0
  100
AcDb2dVertex
  10
104.67430
  20
74.28674
  30
0.00000
  42
0.0665
  70
32
  0
VERTEX
  5
B8F
  100
AcDbEntity
  8
Layer 1
  62
0
  100
AcDb2dVertex
  10
104.24820
  20
74.39688
  30
0.00000
  42
0.2187
  70
32
  0
VERTEX
  5
B90
  100
AcDbEntity
  8
Layer 1
  62
0
  100
AcDb2dVertex
  10
104.10060
  20
74.33083
  30
0.00000
  42
0.0921
  70
32
  0
VERTEX
  5
B91
  100
AcDbEntity
  8
Layer 1
  62
0
  100
AcDb2dVertex
  10
103.97150
  20
74.11077
  30
0.00000
  70
32
  0
VERTEX
  5
B92
  100
AcDbEntity
  8
Layer 1
  62
0
  100
AcDb2dVertex
  10
101.79960
  20
67.02811
  30
0.00000
  42
0.3551
  70
32
  0
VERTEX
  5
B93
  100
AcDbEntity
  8
Layer 1
  62
0
  100
AcDb2dVertex
  10
102.00600
  20
66.63974
  30
0.00000
  70
32
  0
SEQEND
  5
B94
  100
AcDbEntity
  8
Layer 1
  62
0
  0
POLYLINE
  5
B95
  100
AcDbEntity
  8
Layer 1
  62
0
  100
AcDb2dPolyline
 66
     1
  10
0
  20
0
  30
0
  70
1
  0
VERTEX
  5
B96
  100
AcDbEntity
  8
Layer 1
  62
0
  100
AcDb2dVertex
  10
361.94740
  20
52.33254
  30
0.00000
  42
0.3722
  70
32
  0
VERTEX
  5
B97
  100
AcDbEntity
  8
Layer 1
  62
0
  100
AcDb2dVertex
  10
362.33220
  20
52.14549
  30
0.00000
  70
32
  0
VERTEX
  5
B98
  100
AcDbEntity
  8
Layer 1
  62
0
  100
AcDb2dVertex
  10
369.87820
  20
54.12078
  30
0.00000
  42
-0.0223
  70
32
  0
VERTEX
  5
B99
  100
AcDbEntity
  8
Layer 1
  62
0
  100
AcDb2dVertex
  10
371.24270
  20
54.44737
  30
0.00000
  42
-0.2184
  70
32
  0
VERTEX
  5
B9A
  100
AcDbEntity
  8
Layer 1
  62
0
  100
AcDb2dVertex
  10
371.44740
  20
54.37941
  30
0.00000
  42
-0.1146
  70
32
  0
VERTEX
  5
B9B
  100
AcDbEntity
  8
Layer 1
  62
0
  100
AcDb2dVertex
  10
371.59650
  20
54.11481
  30
0.00000
  42
-0.0064
  70
32
  0
VERTEX
  5
B9C
  100
AcDbEntity
  8
Layer 1
  62
0
  100
AcDb2dVertex
  10
372.72440
  20
49.79121
  30
0.00000
  42
-0.2067
  70
32
  0
VERTEX
  5
B9D
  100
AcDbEntity
  8
Layer 1
  62
0
  100
AcDb2dVertex
  10
372.68410
  20
49.61524
  30
0.00000
  70
32
  0
VERTEX
  5
B9E
  100
AcDbEntity
  8
Layer 1
  62
0
  100
AcDb2dVertex
  10
372.60780
  20
49.56645
  30
0.00000
  42
-0.0451
  70
32
  0
VERTEX
  5
B9F
  100
AcDbEntity
  8
Layer 1
  62
0
  100
AcDb2dVertex
  10
371.79280
  20
49.31060
  30
0.00000
  70
32
  0
VERTEX
  5
BA0
  100
AcDbEntity
  8
Layer 1
  62
0
  100
AcDb2dVertex
  10
364.98560
  20
47.52725
  30
0.00000
  70
32
  0
VERTEX
  5
BA1
  100
AcDbEntity
  8
Layer 1
  62
0
  100
AcDb2dVertex
  10
357.37090
  20
45.53663
  30
0.00000
  42
-0.1220
  70
32
  0
VERTEX
  5
BA2
  100
AcDbEntity
  8
Layer 1
  62
0
  100
AcDb2dVertex
  10
357.13570
  20
45.53152
  30
0.00000
  42
-0.2112
  70
32
  0
VERTEX
  5
BA3
  100
AcDbEntity
  8
Layer 1
  62
0
  100
AcDb2dVertex
  10
356.99880
  20
45.68320
  30
0.00000
  70
32
  0
VERTEX
  5
BA4
  100
AcDbEntity
  8
Layer 1
  62
0
  100
AcDb2dVertex
  10
349.19280
  20
75.42649
  30
0.00000
  42
-0.0713
  70
32
  0
VERTEX
  5
BA5
  100
AcDbEntity
  8
Layer 1
  62
0
  100
AcDb2dVertex
  10
349.20390
  20
75.56539
  30
0.00000
  42
-0.1151
  70
32
  0
VERTEX
  5
BA6
  100
AcDbEntity
  8
Layer 1
  62
0
  100
AcDb2dVertex
  10
349.24180
  20
75.64357
  30
0.00000
  42
-0.1256
  70
32
  0
VERTEX
  5
BA7
  100
AcDbEntity
  8
Layer 1
  62
0
  100
AcDb2dVertex
  10
349.47660
  20
75.78950
  30
0.00000
  42
-0.0083
  70
32
  0
VERTEX
  5
BA8
  100
AcDbEntity
  8
Layer 1
  62
0
  100
AcDb2dVertex
  10
355.05860
  20
77.24541
  30
0.00000
  42
-0.3803
  70
32
  0
VERTEX
  5
BA9
  100
AcDbEntity
  8
Layer 1
  62
0
  100
AcDb2dVertex
  10
355.44080
  20
77.02299
  30
0.00000
  70
32
  0
VERTEX
  5
BAA
  100
AcDbEntity
  8
Layer 1
  62
0
  100
AcDb2dVertex
  10
361.94740
  20
52.33254
  30
0.00000
  70
32
  0
SEQEND
  5
BAB
  100
AcDbEntity
  8
Layer 1
  62
0
  0
POLYLINE
  5
BAC
  100
AcDbEntity
  8
Layer 1
  62
0
  100
AcDb2dPolyline
 66
     1
  10
0
  20
0
  30
0
  70
1
  0
VERTEX
  5
BAD
  100
AcDbEntity
  8
Layer 1
  62
0
  100
AcDb2dVertex
  10
344.54480
  20
72.19023
  30
0.00000
  42
-0.1693
  70
32
  0
VERTEX
  5
BAE
  100
AcDbEntity
  8
Layer 1
  62
0
  100
AcDb2dVertex
  10
347.84150
  20
65.54046
  30
0.00000
  42
-0.3542
  70
32
  0
VERTEX
  5
BAF
  100
AcDbEntity
  8
Layer 1
  62
0
  100
AcDb2dVertex
  10
347.60040
  20
65.18192
  30
0.00000
  42
-0.0059
  70
32
  0
VERTEX
  5
BB0
  100
AcDbEntity
  8
Layer 1
  62
0
  100
AcDb2dVertex
  10
341.88630
  20
63.95184
  30
0.00000
  42
-0.2928
  70
32
  0
VERTEX
  5
BB1
  100
AcDbEntity
  8
Layer 1
  62
0
  100
AcDb2dVertex
  10
341.72120
  20
64.06305
  30
0.00000
  70
32
  0
VERTEX
  5
BB2
  100
AcDbEntity
  8
Layer 1
  62
0
  100
AcDb2dVertex
  10
341.20090
  20
65.83850
  30
0.00000
  42
0.1988
  70
32
  0
VERTEX
  5
BB3
  100
AcDbEntity
  8
Layer 1
  62
0
  100
AcDb2dVertex
  10
339.19520
  20
68.78439
  30
0.00000
  42
0.5182
  70
32
  0
VERTEX
  5
BB4
  100
AcDbEntity
  8
Layer 1
  62
0
  100
AcDb2dVertex
  10
335.01030
  20
65.20195
  30
0.00000
  42
0.0587
  70
32
  0
VERTEX
  5
BB5
  100
AcDbEntity
  8
Layer 1
  62
0
  100
AcDb2dVertex
  10
336.11080
  20
57.10970
  30
0.00000
  42
0.0554
  70
32
  0
VERTEX
  5
BB6
  100
AcDbEntity
  8
Layer 1
  62
0
  100
AcDb2dVertex
  10
338.64600
  20
48.56773
  30
0.00000
  42
0.2732
  70
32
  0
VERTEX
  5
BB7
  100
AcDbEntity
  8
Layer 1
  62
0
  100
AcDb2dVertex
  10
341.53880
  20
46.27715
  30
0.00000
  42
0.4689
  70
32
  0
VERTEX
  5
BB8
  100
AcDbEntity
  8
Layer 1
  62
0
  100
AcDb2dVertex
  10
344.84770
  20
49.01042
  30
0.00000
  42
0.0541
  70
32
  0
VERTEX
  5
BB9
  100
AcDbEntity
  8
Layer 1
  62
0
  100
AcDb2dVertex
  10
344.45340
  20
52.93139
  30
0.00000
  42
-0.3506
  70
32
  0
VERTEX
  5
BBA
  100
AcDbEntity
  8
Layer 1
  62
0
  100
AcDb2dVertex
  10
344.66710
  20
53.28546
  30
0.00000
  70
32
  0
VERTEX
  5
BBB
  100
AcDbEntity
  8
Layer 1
  62
0
  100
AcDb2dVertex
  10
349.84430
  20
54.42457
  30
0.00000
  42
-0.0612
  70
32
  0
VERTEX
  5
BBC
  100
AcDbEntity
  8
Layer 1
  62
0
  100
AcDb2dVertex
  10
350.39500
  20
54.51554
  30
0.00000
  42
-0.2839
  70
32
  0
VERTEX
  5
BBD
  100
AcDbEntity
  8
Layer 1
  62
0
  100
AcDb2dVertex
  10
350.67320
  20
54.26373
  30
0.00000
  42
-0.0564
  70
32
  0
VERTEX
  5
BBE
  100
AcDbEntity
  8
Layer 1
  62
0
  100
AcDb2dVertex
  10
351.16200
  20
49.64805
  30
0.00000
  42
-0.3106
  70
32
  0
VERTEX
  5
BBF
  100
AcDbEntity
  8
Layer 1
  62
0
  100
AcDb2dVertex
  10
346.65510
  20
42.75584
  30
0.00000
  42
-0.0844
  70
32
  0
VERTEX
  5
BC0
  100
AcDbEntity
  8
Layer 1
  62
0
  100
AcDb2dVertex
  10
341.12320
  20
41.46292
  30
0.00000
  42
-0.2740
  70
32
  0
VERTEX
  5
BC1
  100
AcDbEntity
  8
Layer 1
  62
0
  100
AcDb2dVertex
  10
333.46620
  20
44.75244
  30
0.00000
  42
-0.0939
  70
32
  0
VERTEX
  5
BC2
  100
AcDbEntity
  8
Layer 1
  62
0
  100
AcDb2dVertex
  10
330.44080
  20
52.42691
  30
0.00000
  42
-0.0385
  70
32
  0
VERTEX
  5
BC3
  100
AcDbEntity
  8
Layer 1
  62
0
  100
AcDb2dVertex
  10
328.47430
  20
63.28418
  30
0.00000
  42
-0.2178
  70
32
  0
VERTEX
  5
BC4
  100
AcDbEntity
  8
Layer 1
  62
0
  100
AcDb2dVertex
  10
330.87090
  20
70.55325
  30
0.00000
  42
-0.1400
  70
32
  0
VERTEX
  5
BC5
  100
AcDbEntity
  8
Layer 1
  62
0
  100
AcDb2dVertex
  10
337.50030
  20
73.53365
  30
0.00000
  42
-0.2191
  70
32
  0
VERTEX
  5
BC6
  100
AcDbEntity
  8
Layer 1
  62
0
  100
AcDb2dVertex
  10
344.54480
  20
72.19023
  30
0.00000
  70
32
  0
SEQEND
  5
BC7
  100
AcDbEntity
  8
Layer 1
  62
0
  0
POLYLINE
  5
BC8
  100
AcDbEntity
  8
Layer 1
  62
0
  100
AcDb2dPolyline
 66
     1
  10
0
  20
0
  30
0
  70
1
  0
VERTEX
  5
BC9
  100
AcDbEntity
  8
Layer 1
  62
0
  100
AcDb2dVertex
  10
124.70180
  20
42.01042
  30
0.00000
  42
-0.1124
  70
32
  0
VERTEX
  5
BCA
  100
AcDbEntity
  8
Layer 1
  62
0
  100
AcDb2dVertex
  10
124.51260
  20
41.52108
  30
0.00000
  42
-0.2627
  70
32
  0
VERTEX
  5
BCB
  100
AcDbEntity
  8
Layer 1
  62
0
  100
AcDb2dVertex
  10
124.32850
  20
41.44332
  30
0.00000
  42
-0.0376
  70
32
  0
VERTEX
  5
BCC
  100
AcDbEntity
  8
Layer 1
  62
0
  100
AcDb2dVertex
  10
123.80620
  20
41.55069
  30
0.00000
  70
32
  0
VERTEX
  5
BCD
  100
AcDbEntity
  8
Layer 1
  62
0
  100
AcDb2dVertex
  10
109.18540
  20
45.30910
  30
0.00000
  42
-0.1124
  70
32
  0
VERTEX
  5
BCE
  100
AcDbEntity
  8
Layer 1
  62
0
  100
AcDb2dVertex
  10
108.93930
  20
45.41861
  30
0.00000
  42
-0.2297
  70
32
  0
VERTEX
  5
BCF
  100
AcDbEntity
  8
Layer 1
  62
0
  100
AcDb2dVertex
  10
108.84580
  20
45.72985
  30
0.00000
  70
32
  0
VERTEX
  5
BD0
  100
AcDbEntity
  8
Layer 1
  62
0
  100
AcDb2dVertex
  10
116.47490
  20
75.37728
  30
0.00000
  42
-0.1433
  70
32
  0
VERTEX
  5
BD1
  100
AcDbEntity
  8
Layer 1
  62
0
  100
AcDb2dVertex
  10
116.59870
  20
75.60331
  30
0.00000
  42
-0.2064
  70
32
  0
VERTEX
  5
BD2
  100
AcDbEntity
  8
Layer 1
  62
0
  100
AcDb2dVertex
  10
116.83730
  20
75.63889
  30
0.00000
  70
32
  0
VERTEX
  5
BD3
  100
AcDbEntity
  8
Layer 1
  62
0
  100
AcDb2dVertex
  10
122.47980
  20
74.19854
  30
0.00000
  42
-0.1203
  70
32
  0
VERTEX
  5
BD4
  100
AcDbEntity
  8
Layer 1
  62
0
  100
AcDb2dVertex
  10
122.69580
  20
74.09372
  30
0.00000
  42
-0.2572
  70
32
  0
VERTEX
  5
BD5
  100
AcDbEntity
  8
Layer 1
  62
0
  100
AcDb2dVertex
  10
122.75310
  20
73.81976
  30
0.00000
  70
32
  0
VERTEX
  5
BD6
  100
AcDbEntity
  8
Layer 1
  62
0
  100
AcDb2dVertex
  10
116.49150
  20
49.44460
  30
0.00000
  42
0.1003
  70
32
  0
VERTEX
  5
BD7
  100
AcDbEntity
  8
Layer 1
  62
0
  100
AcDb2dVertex
  10
116.42910
  20
48.93331
  30
0.00000
  42
0.2985
  70
32
  0
VERTEX
  5
BD8
  100
AcDbEntity
  8
Layer 1
  62
0
  100
AcDb2dVertex
  10
116.65390
  20
48.70450
  30
0.00000
  70
32
  0
VERTEX
  5
BD9
  100
AcDbEntity
  8
Layer 1
  62
0
  100
AcDb2dVertex
  10
123.81450
  20
46.85278
  30
0.00000
  42
-0.0064
  70
32
  0
VERTEX
  5
BDA
  100
AcDbEntity
  8
Layer 1
  62
0
  100
AcDb2dVertex
  10
125.08780
  20
46.51682
  30
0.00000
  42
-0.0905
  70
32
  0
VERTEX
  5
BDB
  100
AcDbEntity
  8
Layer 1
  62
0
  100
AcDb2dVertex
  10
125.63280
  20
46.33169
  30
0.00000
  70
32
  0
VERTEX
  5
BDC
  100
AcDbEntity
  8
Layer 1
  62
0
  100
AcDb2dVertex
  10
125.71670
  20
46.24796
  30
0.00000
  42
-0.1776
  70
32
  0
VERTEX
  5
BDD
  100
AcDbEntity
  8
Layer 1
  62
0
  100
AcDb2dVertex
  10
125.72330
  20
45.97911
  30
0.00000
  70
32
  0
VERTEX
  5
BDE
  100
AcDbEntity
  8
Layer 1
  62
0
  100
AcDb2dVertex
  10
124.70180
  20
42.01042
  30
0.00000
  70
32
  0
SEQEND
  5
BDF
  100
AcDbEntity
  8
Layer 1
  62
0
  0
POLYLINE
  5
BE0
  100
AcDbEntity
  8
Layer 1
  62
0
  100
AcDb2dPolyline
 66
     1
  10
0
  20
0
  30
0
  70
1
  0
VERTEX
  5
BE1
  100
AcDbEntity
  8
Layer 1
  62
0
  100
AcDb2dVertex
  10
137.68560
  20
52.87536
  30
0.00000
  42
0.0992
  70
32
  0
VERTEX
  5
BE2
  100
AcDbEntity
  8
Layer 1
  62
0
  100
AcDb2dVertex
  10
136.74480
  20
52.98401
  30
0.00000
  42
0.2974
  70
32
  0
VERTEX
  5
BE3
  100
AcDbEntity
  8
Layer 1
  62
0
  100
AcDb2dVertex
  10
136.53460
  20
52.76202
  30
0.00000
  70
32
  0
VERTEX
  5
BE4
  100
AcDbEntity
  8
Layer 1
  62
0
  100
AcDb2dVertex
  10
134.80490
  20
44.38878
  30
0.00000
  42
0.1112
  70
32
  0
VERTEX
  5
BE5
  100
AcDbEntity
  8
Layer 1
  62
0
  100
AcDb2dVertex
  10
134.82000
  20
44.14528
  30
0.00000
  42
0.2516
  70
32
  0
VERTEX
  5
BE6
  100
AcDbEntity
  8
Layer 1
  62
0
  100
AcDb2dVertex
  10
135.03750
  20
43.99381
  30
0.00000
  70
32
  0
VERTEX
  5
BE7
  100
AcDbEntity
  8
Layer 1
  62
0
  100
AcDb2dVertex
  10
142.77720
  20
42.38324
  30
0.00000
  70
32
  0
VERTEX
  5
BE8
  100
AcDbEntity
  8
Layer 1
  62
0
  100
AcDb2dVertex
  10
144.69670
  20
41.97932
  30
0.00000
  42
-0.0538
  70
32
  0
VERTEX
  5
BE9
  100
AcDbEntity
  8
Layer 1
  62
0
  100
AcDb2dVertex
  10
145.22740
  20
41.82913
  30
0.00000
  42
-0.1495
  70
32
  0
VERTEX
  5
BEA
  100
AcDbEntity
  8
Layer 1
  62
0
  100
AcDb2dVertex
  10
145.29600
  20
41.75861
  30
0.00000
  42
-0.1148
  70
32
  0
VERTEX
  5
BEB
  100
AcDbEntity
  8
Layer 1
  62
0
  100
AcDb2dVertex
  10
145.32710
  20
41.63548
  30
0.00000
  42
-0.0084
  70
32
  0
VERTEX
  5
BEC
  100
AcDbEntity
  8
Layer 1
  62
0
  100
AcDb2dVertex
  10
144.59510
  20
37.95163
  30
0.00000
  42
-0.0552
  70
32
  0
VERTEX
  5
BED
  100
AcDbEntity
  8
Layer 1
  62
0
  100
AcDb2dVertex
  10
144.48300
  20
37.45227
  30
0.00000
  42
-0.3495
  70
32
  0
VERTEX
  5
BEE
  100
AcDbEntity
  8
Layer 1
  62
0
  100
AcDb2dVertex
  10
144.14920
  20
37.25244
  30
0.00000
  70
32
  0
VERTEX
  5
BEF
  100
AcDbEntity
  8
Layer 1
  62
0
  100
AcDb2dVertex
  10
128.10140
  20
40.58328
  30
0.00000
  42
-0.0578
  70
32
  0
VERTEX
  5
BF0
  100
AcDbEntity
  8
Layer 1
  62
0
  100
AcDb2dVertex
  10
127.62420
  20
40.69044
  30
0.00000
  42
-0.2145
  70
32
  0
VERTEX
  5
BF1
  100
AcDbEntity
  8
Layer 1
  62
0
  100
AcDb2dVertex
  10
127.50390
  20
40.81720
  30
0.00000
  42
-0.1221
  70
32
  0
VERTEX
  5
BF2
  100
AcDbEntity
  8
Layer 1
  62
0
  100
AcDb2dVertex
  10
127.49240
  20
41.03450
  30
0.00000
  70
32
  0
VERTEX
  5
BF3
  100
AcDbEntity
  8
Layer 1
  62
0
  100
AcDb2dVertex
  10
133.64600
  20
70.71494
  30
0.00000
  42
-0.0941
  70
32
  0
VERTEX
  5
BF4
  100
AcDbEntity
  8
Layer 1
  62
0
  100
AcDb2dVertex
  10
133.80230
  20
71.20706
  30
0.00000
  42
-0.2779
  70
32
  0
VERTEX
  5
BF5
  100
AcDbEntity
  8
Layer 1
  62
0
  100
AcDb2dVertex
  10
133.97410
  20
71.28844
  30
0.00000
  42
-0.0350
  70
32
  0
VERTEX
  5
BF6
  100
AcDbEntity
  8
Layer 1
  62
0
  100
AcDb2dVertex
  10
134.50150
  20
71.20812
  30
0.00000
  70
32
  0
VERTEX
  5
BF7
  100
AcDbEntity
  8
Layer 1
  62
0
  100
AcDb2dVertex
  10
149.96040
  20
68.00680
  30
0.00000
  42
-0.1099
  70
32
  0
VERTEX
  5
BF8
  100
AcDbEntity
  8
Layer 1
  62
0
  100
AcDb2dVertex
  10
150.28960
  20
67.83978
  30
0.00000
  42
-0.2176
  70
32
  0
VERTEX
  5
BF9
  100
AcDbEntity
  8
Layer 1
  62
0
  100
AcDb2dVertex
  10
150.35860
  20
67.48720
  30
0.00000
  42
-0.0052
  70
32
  0
VERTEX
  5
BFA
  100
AcDbEntity
  8
Layer 1
  62
0
  100
AcDb2dVertex
  10
149.62960
  20
63.94140
  30
0.00000
  42
-0.1001
  70
32
  0
VERTEX
  5
BFB
  100
AcDbEntity
  8
Layer 1
  62
0
  100
AcDb2dVertex
  10
149.46150
  20
63.42521
  30
0.00000
  42
-0.2785
  70
32
  0
VERTEX
  5
BFC
  100
AcDbEntity
  8
Layer 1
  62
0
  100
AcDb2dVertex
  10
149.28130
  20
63.31890
  30
0.00000
  70
32
  0
VERTEX
  5
BFD
  100
AcDbEntity
  8
Layer 1
  62
0
  100
AcDb2dVertex
  10
148.94740
  20
63.36812
  30
0.00000
  70
32
  0
VERTEX
  5
BFE
  100
AcDbEntity
  8
Layer 1
  62
0
  100
AcDb2dVertex
  10
139.49980
  20
65.31123
  30
0.00000
  42
0.3409
  70
32
  0
VERTEX
  5
BFF
  100
AcDbEntity
  8
Layer 1
  62
0
  100
AcDb2dVertex
  10
139.11000
  20
65.08414
  30
0.00000
  70
32
  0
VERTEX
  5
C00
  100
AcDbEntity
  8
Layer 1
  62
0
  100
AcDb2dVertex
  10
137.64680
  20
58.08967
  30
0.00000
  42
0.1557
  70
32
  0
VERTEX
  5
C01
  100
AcDbEntity
  8
Layer 1
  62
0
  100
AcDb2dVertex
  10
137.66750
  20
57.87451
  30
0.00000
  42
0.2016
  70
32
  0
VERTEX
  5
C02
  100
AcDbEntity
  8
Layer 1
  62
0
  100
AcDb2dVertex
  10
137.95040
  20
57.67723
  30
0.00000
  70
32
  0
VERTEX
  5
C03
  100
AcDbEntity
  8
Layer 1
  62
0
  100
AcDb2dVertex
  10
145.96280
  20
56.00957
  30
0.00000
  42
-0.0532
  70
32
  0
VERTEX
  5
C04
  100
AcDbEntity
  8
Layer 1
  62
0
  100
AcDb2dVertex
  10
146.83940
  20
55.80207
  30
0.00000
  42
-0.3087
  70
32
  0
VERTEX
  5
C05
  100
AcDbEntity
  8
Layer 1
  62
0
  100
AcDb2dVertex
  10
147.01640
  20
55.52044
  30
0.00000
  42
-0.0076
  70
32
  0
VERTEX
  5
C06
  100
AcDbEntity
  8
Layer 1
  62
0
  100
AcDb2dVertex
  10
146.20240
  20
51.48443
  30
0.00000
  42
-0.3525
  70
32
  0
VERTEX
  5
C07
  100
AcDbEntity
  8
Layer 1
  62
0
  100
AcDb2dVertex
  10
145.85390
  20
51.21132
  30
0.00000
  70
32
  0
VERTEX
  5
C08
  100
AcDbEntity
  8
Layer 1
  62
0
  100
AcDb2dVertex
  10
137.68560
  20
52.87536
  30
0.00000
  70
32
  0
SEQEND
  5
C09
  100
AcDbEntity
  8
Layer 1
  62
0
  0
POLYLINE
  5
C0A
  100
AcDbEntity
  8
Layer 1
  62
0
  100
AcDb2dPolyline
 66
     1
  10
0
  20
0
  30
0
  70
1
  0
VERTEX
  5
C0B
  100
AcDbEntity
  8
Layer 1
  62
0
  100
AcDb2dVertex
  10
320.76530
  20
37.69641
  30
0.00000
  70
32
  0
VERTEX
  5
C0C
  100
AcDbEntity
  8
Layer 1
  62
0
  100
AcDb2dVertex
  10
313.00920
  20
36.44225
  30
0.00000
  70
32
  0
VERTEX
  5
C0D
  100
AcDbEntity
  8
Layer 1
  62
0
  100
AcDb2dVertex
  10
305.25120
  20
35.22538
  30
0.00000
  42
-0.2445
  70
32
  0
VERTEX
  5
C0E
  100
AcDbEntity
  8
Layer 1
  62
0
  100
AcDb2dVertex
  10
305.05330
  20
35.31656
  30
0.00000
  42
-0.0986
  70
32
  0
VERTEX
  5
C0F
  100
AcDbEntity
  8
Layer 1
  62
0
  100
AcDb2dVertex
  10
304.92120
  20
35.60757
  30
0.00000
  70
32
  0
VERTEX
  5
C10
  100
AcDbEntity
  8
Layer 1
  62
0
  100
AcDb2dVertex
  10
300.33580
  20
64.13484
  30
0.00000
  42
-0.0511
  70
32
  0
VERTEX
  5
C11
  100
AcDbEntity
  8
Layer 1
  62
0
  100
AcDb2dVertex
  10
300.12770
  20
65.83233
  30
0.00000
  42
-0.3205
  70
32
  0
VERTEX
  5
C12
  100
AcDbEntity
  8
Layer 1
  62
0
  100
AcDb2dVertex
  10
300.33490
  20
66.08414
  30
0.00000
  70
32
  0
VERTEX
  5
C13
  100
AcDbEntity
  8
Layer 1
  62
0
  100
AcDb2dVertex
  10
305.94270
  20
66.99019
  30
0.00000
  42
-0.1215
  70
32
  0
VERTEX
  5
C14
  100
AcDbEntity
  8
Layer 1
  62
0
  100
AcDb2dVertex
  10
306.35430
  20
66.98763
  30
0.00000
  42
-0.2429
  70
32
  0
VERTEX
  5
C15
  100
AcDbEntity
  8
Layer 1
  62
0
  100
AcDb2dVertex
  10
306.45230
  20
66.87323
  30
0.00000
  70
32
  0
VERTEX
  5
C16
  100
AcDbEntity
  8
Layer 1
  62
0
  100
AcDb2dVertex
  10
310.46530
  20
41.98933
  30
0.00000
  42
0.0790
  70
32
  0
VERTEX
  5
C17
  100
AcDbEntity
  8
Layer 1
  62
0
  100
AcDb2dVertex
  10
310.59590
  20
41.46910
  30
0.00000
  42
0.3186
  70
32
  0
VERTEX
  5
C18
  100
AcDbEntity
  8
Layer 1
  62
0
  100
AcDb2dVertex
  10
310.91840
  20
41.32700
  30
0.00000
  70
32
  0
VERTEX
  5
C19
  100
AcDbEntity
  8
Layer 1
  62
0
  100
AcDb2dVertex
  10
319.97190
  20
42.73433
  30
0.00000
  42
-0.1093
  70
32
  0
VERTEX
  5
C1A
  100
AcDbEntity
  8
Layer 1
  62
0
  100
AcDb2dVertex
  10
320.20090
  20
42.71132
  30
0.00000
  42
-0.2310
  70
32
  0
VERTEX
  5
C1B
  100
AcDbEntity
  8
Layer 1
  62
0
  100
AcDb2dVertex
  10
320.29770
  20
42.58967
  30
0.00000
  70
32
  0
VERTEX
  5
C1C
  100
AcDbEntity
  8
Layer 1
  62
0
  100
AcDb2dVertex
  10
320.91350
  20
38.79377
  30
0.00000
  42
-0.0738
  70
32
  0
VERTEX
  5
C1D
  100
AcDbEntity
  8
Layer 1
  62
0
  100
AcDb2dVertex
  10
320.98730
  20
37.93650
  30
0.00000
  42
-0.2811
  70
32
  0
VERTEX
  5
C1E
  100
AcDbEntity
  8
Layer 1
  62
0
  100
AcDb2dVertex
  10
320.76530
  20
37.69641
  30
0.00000
  70
32
  0
SEQEND
  5
C1F
  100
AcDbEntity
  8
Layer 1
  62
0
  0
POLYLINE
  5
C20
  100
AcDbEntity
  8
Layer 1
  62
0
  100
AcDb2dPolyline
 66
     1
  10
0
  20
0
  30
0
  70
1
  0
VERTEX
  5
C21
  100
AcDbEntity
  8
Layer 1
  62
0
  100
AcDb2dVertex
  10
289.01880
  20
58.79781
  30
0.00000
  42
0.4293
  70
32
  0
VERTEX
  5
C22
  100
AcDbEntity
  8
Layer 1
  62
0
  100
AcDb2dVertex
  10
283.83220
  20
59.20365
  30
0.00000
  42
0.1936
  70
32
  0
VERTEX
  5
C23
  100
AcDbEntity
  8
Layer 1
  62
0
  100
AcDb2dVertex
  10
282.55370
  20
55.39027
  30
0.00000
  42
0.0367
  70
32
  0
VERTEX
  5
C24
  100
AcDbEntity
  8
Layer 1
  62
0
  100
AcDb2dVertex
  10
283.36650
  20
45.37898
  30
0.00000
  42
0.0793
  70
32
  0
VERTEX
  5
C25
  100
AcDbEntity
  8
Layer 1
  62
0
  100
AcDb2dVertex
  10
285.00710
  20
38.99764
  30
0.00000
  42
0.3979
  70
32
  0
VERTEX
  5
C26
  100
AcDbEntity
  8
Layer 1
  62
0
  100
AcDb2dVertex
  10
289.36160
  20
37.35427
  30
0.00000
  42
0.3044
  70
32
  0
VERTEX
  5
C27
  100
AcDbEntity
  8
Layer 1
  62
0
  100
AcDb2dVertex
  10
291.74380
  20
40.70152
  30
0.00000
  42
0.0350
  70
32
  0
VERTEX
  5
C28
  100
AcDbEntity
  8
Layer 1
  62
0
  100
AcDb2dVertex
  10
291.84350
  20
42.40646
  30
0.00000
  42
0.0360
  70
32
  0
VERTEX
  5
C29
  100
AcDbEntity
  8
Layer 1
  62
0
  100
AcDb2dVertex
  10
290.72740
  20
53.70003
  30
0.00000
  42
0.1013
  70
32
  0
VERTEX
  5
C2A
  100
AcDbEntity
  8
Layer 1
  62
0
  100
AcDb2dVertex
  10
289.01880
  20
58.79781
  30
0.00000
  70
32
  0
SEQEND
  5
C2B
  100
AcDbEntity
  8
Layer 1
  62
0
  0
POLYLINE
  5
C2C
  100
AcDbEntity
  8
Layer 1
  62
0
  100
AcDb2dPolyline
 66
     1
  10
0
  20
0
  30
0
  70
1
  0
VERTEX
  5
C2D
  100
AcDbEntity
  8
Layer 1
  62
0
  100
AcDb2dVertex
  10
279.77060
  20
62.92095
  30
0.00000
  42
-0.1400
  70
32
  0
VERTEX
  5
C2E
  100
AcDbEntity
  8
Layer 1
  62
0
  100
AcDb2dVertex
  10
288.28930
  20
64.78546
  30
0.00000
  42
-0.3328
  70
32
  0
VERTEX
  5
C2F
  100
AcDbEntity
  8
Layer 1
  62
0
  100
AcDb2dVertex
  10
296.19260
  20
58.81826
  30
0.00000
  42
-0.0540
  70
32
  0
VERTEX
  5
C30
  100
AcDbEntity
  8
Layer 1
  62
0
  100
AcDb2dVertex
  10
297.94910
  20
49.43820
  30
0.00000
  42
-0.0588
  70
32
  0
VERTEX
  5
C31
  100
AcDbEntity
  8
Layer 1
  62
0
  100
AcDb2dVertex
  10
298.28640
  20
40.70365
  30
0.00000
  42
-0.3041
  70
32
  0
VERTEX
  5
C32
  100
AcDbEntity
  8
Layer 1
  62
0
  100
AcDb2dVertex
  10
292.75420
  20
33.42393
  30
0.00000
  42
-0.0882
  70
32
  0
VERTEX
  5
C33
  100
AcDbEntity
  8
Layer 1
  62
0
  100
AcDb2dVertex
  10
287.01150
  20
32.47591
  30
0.00000
  42
-0.3199
  70
32
  0
VERTEX
  5
C34
  100
AcDbEntity
  8
Layer 1
  62
0
  100
AcDb2dVertex
  10
278.68820
  20
37.27480
  30
0.00000
  42
-0.0760
  70
32
  0
VERTEX
  5
C35
  100
AcDbEntity
  8
Layer 1
  62
0
  100
AcDb2dVertex
  10
276.67580
  20
45.81592
  30
0.00000
  42
-0.0484
  70
32
  0
VERTEX
  5
C36
  100
AcDbEntity
  8
Layer 1
  62
0
  100
AcDb2dVertex
  10
276.02770
  20
55.82785
  30
0.00000
  42
-0.2501
  70
32
  0
VERTEX
  5
C37
  100
AcDbEntity
  8
Layer 1
  62
0
  100
AcDb2dVertex
  10
279.77060
  20
62.92095
  30
0.00000
  70
32
  0
SEQEND
  5
C38
  100
AcDbEntity
  8
Layer 1
  62
0
  0
POLYLINE
  5
C39
  100
AcDbEntity
  8
Layer 1
  62
0
  100
AcDb2dPolyline
 66
     1
  10
0
  20
0
  30
0
  70
1
  0
VERTEX
  5
C3A
  100
AcDbEntity
  8
Layer 1
  62
0
  100
AcDb2dVertex
  10
167.71900
  20
37.73177
  30
0.00000
  42
0.2149
  70
32
  0
VERTEX
  5
C3B
  100
AcDbEntity
  8
Layer 1
  62
0
  100
AcDb2dVertex
  10
172.50240
  20
38.98060
  30
0.00000
  42
0.1519
  70
32
  0
VERTEX
  5
C3C
  100
AcDbEntity
  8
Layer 1
  62
0
  100
AcDb2dVertex
  10
172.66000
  20
39.22602
  30
0.00000
  42
0.1116
  70
32
  0
VERTEX
  5
C3D
  100
AcDbEntity
  8
Layer 1
  62
0
  100
AcDb2dVertex
  10
172.66240
  20
39.33254
  30
0.00000
  42
0.0731
  70
32
  0
VERTEX
  5
C3E
  100
AcDbEntity
  8
Layer 1
  62
0
  100
AcDb2dVertex
  10
172.60810
  20
39.48401
  30
0.00000
  70
32
  0
VERTEX
  5
C3F
  100
AcDbEntity
  8
Layer 1
  62
0
  100
AcDb2dVertex
  10
171.19800
  20
41.75670
  30
0.00000
  70
32
  0
VERTEX
  5
C40
  100
AcDbEntity
  8
Layer 1
  62
0
  100
AcDb2dVertex
  10
167.55670
  20
47.55942
  30
0.00000
  42
0.3676
  70
32
  0
VERTEX
  5
C41
  100
AcDbEntity
  8
Layer 1
  62
0
  100
AcDb2dVertex
  10
167.16070
  20
47.65124
  30
0.00000
  42
0.2233
  70
32
  0
VERTEX
  5
C42
  100
AcDbEntity
  8
Layer 1
  62
0
  100
AcDb2dVertex
  10
163.57010
  20
43.04153
  30
0.00000
  42
0.4568
  70
32
  0
VERTEX
  5
C43
  100
AcDbEntity
  8
Layer 1
  62
0
  100
AcDb2dVertex
  10
167.71900
  20
37.73177
  30
0.00000
  70
32
  0
SEQEND
  5
C44
  100
AcDbEntity
  8
Layer 1
  62
0
  0
POLYLINE
  5
C45
  100
AcDbEntity
  8
Layer 1
  62
0
  100
AcDb2dPolyline
 66
     1
  10
0
  20
0
  30
0
  70
1
  0
VERTEX
  5
C46
  100
AcDbEntity
  8
Layer 1
  62
0
  100
AcDb2dVertex
  10
167.87480
  20
57.74285
  30
0.00000
  42
0.0912
  70
32
  0
VERTEX
  5
C47
  100
AcDbEntity
  8
Layer 1
  62
0
  100
AcDb2dVertex
  10
169.36090
  20
54.69300
  30
0.00000
  42
0.1096
  70
32
  0
VERTEX
  5
C48
  100
AcDbEntity
  8
Layer 1
  62
0
  100
AcDb2dVertex
  10
169.53920
  20
54.54643
  30
0.00000
  42
0.2063
  70
32
  0
VERTEX
  5
C49
  100
AcDbEntity
  8
Layer 1
  62
0
  100
AcDb2dVertex
  10
169.73630
  20
54.55048
  30
0.00000
  42
0.1914
  70
32
  0
VERTEX
  5
C4A
  100
AcDbEntity
  8
Layer 1
  62
0
  100
AcDb2dVertex
  10
173.03430
  20
57.74221
  30
0.00000
  42
0.4282
  70
32
  0
VERTEX
  5
C4B
  100
AcDbEntity
  8
Layer 1
  62
0
  100
AcDb2dVertex
  10
171.53970
  20
61.19875
  30
0.00000
  42
0.2974
  70
32
  0
VERTEX
  5
C4C
  100
AcDbEntity
  8
Layer 1
  62
0
  100
AcDb2dVertex
  10
168.57980
  20
60.66644
  30
0.00000
  42
0.2974
  70
32
  0
VERTEX
  5
C4D
  100
AcDbEntity
  8
Layer 1
  62
0
  100
AcDb2dVertex
  10
167.87480
  20
57.74285
  30
0.00000
  70
32
  0
SEQEND
  5
C4E
  100
AcDbEntity
  8
Layer 1
  62
0
  0
POLYLINE
  5
C4F
  100
AcDbEntity
  8
Layer 1
  62
0
  100
AcDb2dPolyline
 66
     1
  10
0
  20
0
  30
0
  70
1
  0
VERTEX
  5
C50
  100
AcDbEntity
  8
Layer 1
  62
0
  100
AcDb2dVertex
  10
158.93380
  20
36.85725
  30
0.00000
  42
-0.3003
  70
32
  0
VERTEX
  5
C51
  100
AcDbEntity
  8
Layer 1
  62
0
  100
AcDb2dVertex
  10
158.24180
  20
47.11034
  30
0.00000
  42
-0.1367
  70
32
  0
VERTEX
  5
C52
  100
AcDbEntity
  8
Layer 1
  62
0
  100
AcDb2dVertex
  10
164.00920
  20
51.86130
  30
0.00000
  42
0.1168
  70
32
  0
VERTEX
  5
C53
  100
AcDbEntity
  8
Layer 1
  62
0
  100
AcDb2dVertex
  10
164.20800
  20
52.01916
  30
0.00000
  42
0.2431
  70
32
  0
VERTEX
  5
C54
  100
AcDbEntity
  8
Layer 1
  62
0
  100
AcDb2dVertex
  10
164.21540
  20
52.32998
  30
0.00000
  42
-0.1061
  70
32
  0
VERTEX
  5
C55
  100
AcDbEntity
  8
Layer 1
  62
0
  100
AcDb2dVertex
  10
161.91210
  20
58.38260
  30
0.00000
  42
-0.3275
  70
32
  0
VERTEX
  5
C56
  100
AcDbEntity
  8
Layer 1
  62
0
  100
AcDb2dVertex
  10
164.51860
  20
63.86215
  30
0.00000
  42
-0.1716
  70
32
  0
VERTEX
  5
C57
  100
AcDbEntity
  8
Layer 1
  62
0
  100
AcDb2dVertex
  10
172.82110
  20
64.96633
  30
0.00000
  42
-0.1944
  70
32
  0
VERTEX
  5
C58
  100
AcDbEntity
  8
Layer 1
  62
0
  100
AcDb2dVertex
  10
178.38900
  20
61.58712
  30
0.00000
  42
-0.2615
  70
32
  0
VERTEX
  5
C59
  100
AcDbEntity
  8
Layer 1
  62
0
  100
AcDb2dVertex
  10
178.26170
  20
55.38708
  30
0.00000
  42
-0.1171
  70
32
  0
VERTEX
  5
C5A
  100
AcDbEntity
  8
Layer 1
  62
0
  100
AcDb2dVertex
  10
173.49790
  20
50.88239
  30
0.00000
  42
0.0623
  70
32
  0
VERTEX
  5
C5B
  100
AcDbEntity
  8
Layer 1
  62
0
  100
AcDb2dVertex
  10
172.99050
  20
50.50020
  30
0.00000
  42
0.3060
  70
32
  0
VERTEX
  5
C5C
  100
AcDbEntity
  8
Layer 1
  62
0
  100
AcDb2dVertex
  10
172.91550
  20
50.16509
  30
0.00000
  70
32
  0
VERTEX
  5
C5D
  100
AcDbEntity
  8
Layer 1
  62
0
  100
AcDb2dVertex
  10
176.39970
  20
44.12802
  30
0.00000
  42
0.0505
  70
32
  0
VERTEX
  5
C5E
  100
AcDbEntity
  8
Layer 1
  62
0
  100
AcDb2dVertex
  10
176.75680
  20
43.60949
  30
0.00000
  42
0.1812
  70
32
  0
VERTEX
  5
C5F
  100
AcDbEntity
  8
Layer 1
  62
0
  100
AcDb2dVertex
  10
176.85500
  20
43.57114
  30
0.00000
  42
0.2124
  70
32
  0
VERTEX
  5
C60
  100
AcDbEntity
  8
Layer 1
  62
0
  100
AcDb2dVertex
  10
176.93850
  20
43.60672
  30
0.00000
  70
32
  0
VERTEX
  5
C61
  100
AcDbEntity
  8
Layer 1
  62
0
  100
AcDb2dVertex
  10
177.10890
  20
43.91541
  30
0.00000
  42
0.0690
  70
32
  0
VERTEX
  5
C62
  100
AcDbEntity
  8
Layer 1
  62
0
  100
AcDb2dVertex
  10
178.33980
  20
49.11716
  30
0.00000
  42
-0.3738
  70
32
  0
VERTEX
  5
C63
  100
AcDbEntity
  8
Layer 1
  62
0
  100
AcDb2dVertex
  10
178.69820
  20
49.39219
  30
0.00000
  70
32
  0
VERTEX
  5
C64
  100
AcDbEntity
  8
Layer 1
  62
0
  100
AcDb2dVertex
  10
182.81870
  20
48.88686
  30
0.00000
  42
-0.0666
  70
32
  0
VERTEX
  5
C65
  100
AcDbEntity
  8
Layer 1
  62
0
  100
AcDb2dVertex
  10
183.34200
  20
48.81400
  30
0.00000
  42
-0.3237
  70
32
  0
VERTEX
  5
C66
  100
AcDbEntity
  8
Layer 1
  62
0
  100
AcDb2dVertex
  10
183.51410
  20
48.52832
  30
0.00000
  42
-0.0263
  70
32
  0
VERTEX
  5
C67
  100
AcDbEntity
  8
Layer 1
  62
0
  100
AcDb2dVertex
  10
183.41720
  20
47.73987
  30
0.00000
  42
-0.1224
  70
32
  0
VERTEX
  5
C68
  100
AcDbEntity
  8
Layer 1
  62
0
  100
AcDb2dVertex
  10
180.51690
  20
39.01128
  30
0.00000
  42
0.0531
  70
32
  0
VERTEX
  5
C69
  100
AcDbEntity
  8
Layer 1
  62
0
  100
AcDb2dVertex
  10
180.21560
  20
38.56518
  30
0.00000
  42
0.1636
  70
32
  0
VERTEX
  5
C6A
  100
AcDbEntity
  8
Layer 1
  62
0
  100
AcDb2dVertex
  10
180.19620
  20
38.35363
  30
0.00000
  42
0.0495
  70
32
  0
VERTEX
  5
C6B
  100
AcDbEntity
  8
Layer 1
  62
0
  100
AcDb2dVertex
  10
180.40230
  20
37.91179
  30
0.00000
  70
32
  0
VERTEX
  5
C6C
  100
AcDbEntity
  8
Layer 1
  62
0
  100
AcDb2dVertex
  10
183.66470
  20
32.03748
  30
0.00000
  42
-0.1171
  70
32
  0
VERTEX
  5
C6D
  100
AcDbEntity
  8
Layer 1
  62
0
  100
AcDb2dVertex
  10
183.74310
  20
31.77395
  30
0.00000
  42
-0.2937
  70
32
  0
VERTEX
  5
C6E
  100
AcDbEntity
  8
Layer 1
  62
0
  100
AcDb2dVertex
  10
183.65360
  20
31.62270
  30
0.00000
  70
32
  0
VERTEX
  5
C6F
  100
AcDbEntity
  8
Layer 1
  62
0
  100
AcDb2dVertex
  10
183.41570
  20
31.60991
  30
0.00000
  42
-0.0136
  70
32
  0
VERTEX
  5
C70
  100
AcDbEntity
  8
Layer 1
  62
0
  100
AcDb2dVertex
  10
177.82790
  20
32.34426
  30
0.00000
  42
-0.1401
  70
32
  0
VERTEX
  5
C71
  100
AcDbEntity
  8
Layer 1
  62
0
  100
AcDb2dVertex
  10
177.58890
  20
32.50403
  30
0.00000
  42
-0.0166
  70
32
  0
VERTEX
  5
C72
  100
AcDbEntity
  8
Layer 1
  62
0
  100
AcDb2dVertex
  10
176.99770
  20
33.45440
  30
0.00000
  42
0.0447
  70
32
  0
VERTEX
  5
C73
  100
AcDbEntity
  8
Layer 1
  62
0
  100
AcDb2dVertex
  10
176.13130
  20
34.79824
  30
0.00000
  42
0.1031
  70
32
  0
VERTEX
  5
C74
  100
AcDbEntity
  8
Layer 1
  62
0
  100
AcDb2dVertex
  10
176.00090
  20
34.87578
  30
0.00000
  42
0.1666
  70
32
  0
VERTEX
  5
C75
  100
AcDbEntity
  8
Layer 1
  62
0
  100
AcDb2dVertex
  10
175.90610
  20
34.87578
  30
0.00000
  70
32
  0
VERTEX
  5
C76
  100
AcDbEntity
  8
Layer 1
  62
0
  100
AcDb2dVertex
  10
175.58180
  20
34.68639
  30
0.00000
  42
-0.0242
  70
32
  0
VERTEX
  5
C77
  100
AcDbEntity
  8
Layer 1
  62
0
  100
AcDb2dVertex
  10
174.33030
  20
33.98145
  30
0.00000
  42
-0.1551
  70
32
  0
VERTEX
  5
C78
  100
AcDbEntity
  8
Layer 1
  62
0
  100
AcDb2dVertex
  10
166.43870
  20
33.23497
  30
0.00000
  42
-0.1773
  70
32
  0
VERTEX
  5
C79
  100
AcDbEntity
  8
Layer 1
  62
0
  100
AcDb2dVertex
  10
158.93380
  20
36.85725
  30
0.00000
  70
32
  0
SEQEND
  5
C7A
  100
AcDbEntity
  8
Layer 1
  62
0
  0
POLYLINE
  5
C7B
  100
AcDbEntity
  8
Layer 1
  62
0
  100
AcDb2dPolyline
 66
     1
  10
0
  20
0
  30
0
  70
1
  0
VERTEX
  5
C7C
  100
AcDbEntity
  8
Layer 1
  62
0
  100
AcDb2dVertex
  10
267.21330
  20
57.21494
  30
0.00000
  42
0.0804
  70
32
  0
VERTEX
  5
C7D
  100
AcDbEntity
  8
Layer 1
  62
0
  100
AcDb2dVertex
  10
266.67300
  20
57.15231
  30
0.00000
  42
0.1892
  70
32
  0
VERTEX
  5
C7E
  100
AcDbEntity
  8
Layer 1
  62
0
  100
AcDb2dVertex
  10
266.48680
  20
57.00425
  30
0.00000
  70
32
  0
VERTEX
  5
C7F
  100
AcDbEntity
  8
Layer 1
  62
0
  100
AcDb2dVertex
  10
266.45250
  20
56.88942
  30
0.00000
  42
0.0452
  70
32
  0
VERTEX
  5
C80
  100
AcDbEntity
  8
Layer 1
  62
0
  100
AcDb2dVertex
  10
266.44530
  20
56.03535
  30
0.00000
  70
32
  0
VERTEX
  5
C81
  100
AcDbEntity
  8
Layer 1
  62
0
  100
AcDb2dVertex
  10
268.14300
  20
31.97357
  30
0.00000
  70
32
  0
VERTEX
  5
C82
  100
AcDbEntity
  8
Layer 1
  62
0
  100
AcDb2dVertex
  10
268.16770
  20
31.37515
  30
0.00000
  42
-0.0965
  70
32
  0
VERTEX
  5
C83
  100
AcDbEntity
  8
Layer 1
  62
0
  100
AcDb2dVertex
  10
268.14870
  20
31.14698
  30
0.00000
  42
-0.2453
  70
32
  0
VERTEX
  5
C84
  100
AcDbEntity
  8
Layer 1
  62
0
  100
AcDb2dVertex
  10
268.03030
  20
31.05559
  30
0.00000
  70
32
  0
VERTEX
  5
C85
  100
AcDbEntity
  8
Layer 1
  62
0
  100
AcDb2dVertex
  10
262.00830
  20
30.62333
  30
0.00000
  42
-0.1587
  70
32
  0
VERTEX
  5
C86
  100
AcDbEntity
  8
Layer 1
  62
0
  100
AcDb2dVertex
  10
261.83540
  20
30.67020
  30
0.00000
  42
-0.1848
  70
32
  0
VERTEX
  5
C87
  100
AcDbEntity
  8
Layer 1
  62
0
  100
AcDb2dVertex
  10
261.76100
  20
30.82743
  30
0.00000
  70
32
  0
VERTEX
  5
C88
  100
AcDbEntity
  8
Layer 1
  62
0
  100
AcDb2dVertex
  10
259.98660
  20
55.60970
  30
0.00000
  42
0.0546
  70
32
  0
VERTEX
  5
C89
  100
AcDbEntity
  8
Layer 1
  62
0
  100
AcDb2dVertex
  10
259.86370
  20
56.45461
  30
0.00000
  42
0.2887
  70
32
  0
VERTEX
  5
C8A
  100
AcDbEntity
  8
Layer 1
  62
0
  100
AcDb2dVertex
  10
259.61170
  20
56.63697
  30
0.00000
  70
32
  0
VERTEX
  5
C8B
  100
AcDbEntity
  8
Layer 1
  62
0
  100
AcDb2dVertex
  10
252.97580
  20
56.20578
  30
0.00000
  42
-0.1723
  70
32
  0
VERTEX
  5
C8C
  100
AcDbEntity
  8
Layer 1
  62
0
  100
AcDb2dVertex
  10
252.72880
  20
56.27992
  30
0.00000
  42
-0.1696
  70
32
  0
VERTEX
  5
C8D
  100
AcDbEntity
  8
Layer 1
  62
0
  100
AcDb2dVertex
  10
252.63080
  20
56.51873
  30
0.00000
  42
-0.0163
  70
32
  0
VERTEX
  5
C8E
  100
AcDbEntity
  8
Layer 1
  62
0
  100
AcDb2dVertex
  10
252.33510
  20
60.49317
  30
0.00000
  42
-0.0592
  70
32
  0
VERTEX
  5
C8F
  100
AcDbEntity
  8
Layer 1
  62
0
  100
AcDb2dVertex
  10
252.30280
  20
61.01788
  30
0.00000
  42
-0.2078
  70
32
  0
VERTEX
  5
C90
  100
AcDbEntity
  8
Layer 1
  62
0
  100
AcDb2dVertex
  10
252.40690
  20
61.21707
  30
0.00000
  70
32
  0
VERTEX
  5
C91
  100
AcDbEntity
  8
Layer 1
  62
0
  100
AcDb2dVertex
  10
252.51410
  20
61.26543
  30
0.00000
  42
-0.0472
  70
32
  0
VERTEX
  5
C92
  100
AcDbEntity
  8
Layer 1
  62
0
  100
AcDb2dVertex
  10
253.36140
  20
61.39411
  30
0.00000
  70
32
  0
VERTEX
  5
C93
  100
AcDbEntity
  8
Layer 1
  62
0
  100
AcDb2dVertex
  10
272.71030
  20
62.73731
  30
0.00000
  42
-0.0925
  70
32
  0
VERTEX
  5
C94
  100
AcDbEntity
  8
Layer 1
  62
0
  100
AcDb2dVertex
  10
273.13170
  20
62.72197
  30
0.00000
  42
-0.2802
  70
32
  0
VERTEX
  5
C95
  100
AcDbEntity
  8
Layer 1
  62
0
  100
AcDb2dVertex
  10
273.28130
  20
62.50979
  30
0.00000
  42
-0.0055
  70
32
  0
VERTEX
  5
C96
  100
AcDbEntity
  8
Layer 1
  62
0
  100
AcDb2dVertex
  10
273.63210
  20
58.01085
  30
0.00000
  42
-0.1728
  70
32
  0
VERTEX
  5
C97
  100
AcDbEntity
  8
Layer 1
  62
0
  100
AcDb2dVertex
  10
273.56120
  20
57.76351
  30
0.00000
  42
-0.1711
  70
32
  0
VERTEX
  5
C98
  100
AcDbEntity
  8
Layer 1
  62
0
  100
AcDb2dVertex
  10
273.32470
  20
57.66594
  30
0.00000
  70
32
  0
VERTEX
  5
C99
  100
AcDbEntity
  8
Layer 1
  62
0
  100
AcDb2dVertex
  10
267.21330
  20
57.21494
  30
0.00000
  70
32
  0
SEQEND
  5
C9A
  100
AcDbEntity
  8
Layer 1
  62
0
  0
POLYLINE
  5
C9B
  100
AcDbEntity
  8
Layer 1
  62
0
  100
AcDb2dPolyline
 66
     1
  10
0
  20
0
  30
0
  70
1
  0
VERTEX
  5
C9C
  100
AcDbEntity
  8
Layer 1
  62
0
  100
AcDb2dVertex
  10
208.41230
  20
47.72027
  30
0.00000
  42
0.3170
  70
32
  0
VERTEX
  5
C9D
  100
AcDbEntity
  8
Layer 1
  62
0
  100
AcDb2dVertex
  10
211.19220
  20
51.99594
  30
0.00000
  42
0.2152
  70
32
  0
VERTEX
  5
C9E
  100
AcDbEntity
  8
Layer 1
  62
0
  100
AcDb2dVertex
  10
209.97680
  20
55.83403
  30
0.00000
  42
0.1686
  70
32
  0
VERTEX
  5
C9F
  100
AcDbEntity
  8
Layer 1
  62
0
  100
AcDb2dVertex
  10
206.69310
  20
56.68426
  30
0.00000
  42
0.0221
  70
32
  0
VERTEX
  5
CA0
  100
AcDbEntity
  8
Layer 1
  62
0
  100
AcDb2dVertex
  10
204.69900
  20
56.78674
  30
0.00000
  42
0.2711
  70
32
  0
VERTEX
  5
CA1
  100
AcDbEntity
  8
Layer 1
  62
0
  100
AcDb2dVertex
  10
204.46170
  20
56.64826
  30
0.00000
  42
0.1063
  70
32
  0
VERTEX
  5
CA2
  100
AcDbEntity
  8
Layer 1
  62
0
  100
AcDb2dVertex
  10
204.39670
  20
56.22453
  30
0.00000
  70
32
  0
VERTEX
  5
CA3
  100
AcDbEntity
  8
Layer 1
  62
0
  100
AcDb2dVertex
  10
204.00690
  20
48.07753
  30
0.00000
  42
0.3917
  70
32
  0
VERTEX
  5
CA4
  100
AcDbEntity
  8
Layer 1
  62
0
  100
AcDb2dVertex
  10
204.27170
  20
47.80484
  30
0.00000
  42
0.0509
  70
32
  0
VERTEX
  5
CA5
  100
AcDbEntity
  8
Layer 1
  62
0
  100
AcDb2dVertex
  10
208.41230
  20
47.72027
  30
0.00000
  70
32
  0
SEQEND
  5
CA6
  100
AcDbEntity
  8
Layer 1
  62
0
  0
POLYLINE
  5
CA7
  100
AcDbEntity
  8
Layer 1
  62
0
  100
AcDb2dPolyline
 66
     1
  10
0
  20
0
  30
0
  70
1
  0
VERTEX
  5
CA8
  100
AcDbEntity
  8
Layer 1
  62
0
  100
AcDb2dVertex
  10
216.82730
  20
57.33616
  30
0.00000
  42
-0.2025
  70
32
  0
VERTEX
  5
CA9
  100
AcDbEntity
  8
Layer 1
  62
0
  100
AcDb2dVertex
  10
216.57780
  20
46.67510
  30
0.00000
  42
-0.2799
  70
32
  0
VERTEX
  5
CAA
  100
AcDbEntity
  8
Layer 1
  62
0
  100
AcDb2dVertex
  10
209.89140
  20
42.79867
  30
0.00000
  70
32
  0
VERTEX
  5
CAB
  100
AcDbEntity
  8
Layer 1
  62
0
  100
AcDb2dVertex
  10
204.05520
  20
42.99700
  30
0.00000
  42
0.2614
  70
32
  0
VERTEX
  5
CAC
  100
AcDbEntity
  8
Layer 1
  62
0
  100
AcDb2dVertex
  10
203.78470
  20
42.81869
  30
0.00000
  42
0.0748
  70
32
  0
VERTEX
  5
CAD
  100
AcDbEntity
  8
Layer 1
  62
0
  100
AcDb2dVertex
  10
203.70290
  20
42.38835
  30
0.00000
  70
32
  0
VERTEX
  5
CAE
  100
AcDbEntity
  8
Layer 1
  62
0
  100
AcDb2dVertex
  10
203.31940
  20
34.31422
  30
0.00000
  42
0.0172
  70
32
  0
VERTEX
  5
CAF
  100
AcDbEntity
  8
Layer 1
  62
0
  100
AcDb2dVertex
  10
203.14960
  20
31.12887
  30
0.00000
  42
-0.0698
  70
32
  0
VERTEX
  5
CB0
  100
AcDbEntity
  8
Layer 1
  62
0
  100
AcDb2dVertex
  10
203.10210
  20
30.58392
  30
0.00000
  42
-0.2031
  70
32
  0
VERTEX
  5
CB1
  100
AcDbEntity
  8
Layer 1
  62
0
  100
AcDb2dVertex
  10
202.96620
  20
30.39773
  30
0.00000
  70
32
  0
VERTEX
  5
CB2
  100
AcDbEntity
  8
Layer 1
  62
0
  100
AcDb2dVertex
  10
202.85450
  20
30.36599
  30
0.00000
  42
-0.0367
  70
32
  0
VERTEX
  5
CB3
  100
AcDbEntity
  8
Layer 1
  62
0
  100
AcDb2dVertex
  10
202.00390
  20
30.36513
  30
0.00000
  42
-0.0138
  70
32
  0
VERTEX
  5
CB4
  100
AcDbEntity
  8
Layer 1
  62
0
  100
AcDb2dVertex
  10
196.95000
  20
30.61673
  30
0.00000
  42
-0.1738
  70
32
  0
VERTEX
  5
CB5
  100
AcDbEntity
  8
Layer 1
  62
0
  100
AcDb2dVertex
  10
196.71580
  20
30.71175
  30
0.00000
  42
-0.1689
  70
32
  0
VERTEX
  5
CB6
  100
AcDbEntity
  8
Layer 1
  62
0
  100
AcDb2dVertex
  10
196.64410
  20
30.95461
  30
0.00000
  70
32
  0
VERTEX
  5
CB7
  100
AcDbEntity
  8
Layer 1
  62
0
  100
AcDb2dVertex
  10
198.11320
  20
61.13697
  30
0.00000
  42
-0.0726
  70
32
  0
VERTEX
  5
CB8
  100
AcDbEntity
  8
Layer 1
  62
0
  100
AcDb2dVertex
  10
198.16220
  20
61.66040
  30
0.00000
  42
-0.3140
  70
32
  0
VERTEX
  5
CB9
  100
AcDbEntity
  8
Layer 1
  62
0
  100
AcDb2dVertex
  10
198.44510
  20
61.83978
  30
0.00000
  70
32
  0
VERTEX
  5
CBA
  100
AcDbEntity
  8
Layer 1
  62
0
  100
AcDb2dVertex
  10
210.10490
  20
61.25584
  30
0.00000
  42
-0.2834
  70
32
  0
VERTEX
  5
CBB
  100
AcDbEntity
  8
Layer 1
  62
0
  100
AcDb2dVertex
  10
216.82730
  20
57.33616
  30
0.00000
  70
32
  0
SEQEND
  5
CBC
  100
AcDbEntity
  8
Layer 1
  62
0
  0
POLYLINE
  5
CBD
  100
AcDbEntity
  8
Layer 1
  62
0
  100
AcDb2dPolyline
 66
     1
  10
0
  20
0
  30
0
  70
1
  0
VERTEX
  5
CBE
  100
AcDbEntity
  8
Layer 1
  62
0
  100
AcDb2dVertex
  10
227.54440
  20
60.59266
  30
0.00000
  70
32
  0
VERTEX
  5
CBF
  100
AcDbEntity
  8
Layer 1
  62
0
  100
AcDb2dVertex
  10
227.23120
  20
31.96760
  30
0.00000
  70
32
  0
VERTEX
  5
CC0
  100
AcDbEntity
  8
Layer 1
  62
0
  100
AcDb2dVertex
  10
227.21760
  20
30.27928
  30
0.00000
  42
-0.0743
  70
32
  0
VERTEX
  5
CC1
  100
AcDbEntity
  8
Layer 1
  62
0
  100
AcDb2dVertex
  10
227.18470
  20
29.73731
  30
0.00000
  42
-0.1418
  70
32
  0
VERTEX
  5
CC2
  100
AcDbEntity
  8
Layer 1
  62
0
  100
AcDb2dVertex
  10
227.13080
  20
29.65806
  30
0.00000
  42
-0.1087
  70
32
  0
VERTEX
  5
CC3
  100
AcDbEntity
  8
Layer 1
  62
0
  100
AcDb2dVertex
  10
227.02030
  20
29.60118
  30
0.00000
  42
-0.0489
  70
32
  0
VERTEX
  5
CC4
  100
AcDbEntity
  8
Layer 1
  62
0
  100
AcDb2dVertex
  10
226.49280
  20
29.56922
  30
0.00000
  42
-0.0086
  70
32
  0
VERTEX
  5
CC5
  100
AcDbEntity
  8
Layer 1
  62
0
  100
AcDb2dVertex
  10
221.03090
  20
29.66488
  30
0.00000
  42
-0.1250
  70
32
  0
VERTEX
  5
CC6
  100
AcDbEntity
  8
Layer 1
  62
0
  100
AcDb2dVertex
  10
220.80510
  20
29.73518
  30
0.00000
  42
-0.2092
  70
32
  0
VERTEX
  5
CC7
  100
AcDbEntity
  8
Layer 1
  62
0
  100
AcDb2dVertex
  10
220.72120
  20
29.91903
  30
0.00000
  70
32
  0
VERTEX
  5
CC8
  100
AcDbEntity
  8
Layer 1
  62
0
  100
AcDb2dVertex
  10
221.11400
  20
60.66637
  30
0.00000
  42
-0.1874
  70
32
  0
VERTEX
  5
CC9
  100
AcDbEntity
  8
Layer 1
  62
0
  100
AcDb2dVertex
  10
221.21840
  20
60.88068
  30
0.00000
  42
-0.1527
  70
32
  0
VERTEX
  5
CCA
  100
AcDbEntity
  8
Layer 1
  62
0
  100
AcDb2dVertex
  10
221.44910
  20
60.93629
  30
0.00000
  70
32
  0
VERTEX
  5
CCB
  100
AcDbEntity
  8
Layer 1
  62
0
  100
AcDb2dVertex
  10
226.08230
  20
60.85533
  30
0.00000
  42
-0.0434
  70
32
  0
VERTEX
  5
CCC
  100
AcDbEntity
  8
Layer 1
  62
0
  100
AcDb2dVertex
  10
227.34220
  20
60.80250
  30
0.00000
  70
32
  0
VERTEX
  5
CCD
  100
AcDbEntity
  8
Layer 1
  62
0
  100
AcDb2dVertex
  10
227.44340
  20
60.76501
  30
0.00000
  42
-0.2135
  70
32
  0
VERTEX
  5
CCE
  100
AcDbEntity
  8
Layer 1
  62
0
  100
AcDb2dVertex
  10
227.54440
  20
60.59266
  30
0.00000
  70
32
  0
SEQEND
  5
CCF
  100
AcDbEntity
  8
Layer 1
  62
0
  0
POLYLINE
  5
CD0
  100
AcDbEntity
  8
Layer 1
  62
0
  100
AcDb2dPolyline
 66
     1
  10
0
  20
0
  30
0
  70
1
  0
VERTEX
  5
CD1
  100
AcDbEntity
  8
Layer 1
  62
0
  100
AcDb2dVertex
  10
251.94660
  20
37.50659
  30
0.00000
  42
-0.2716
  70
32
  0
VERTEX
  5
CD2
  100
AcDbEntity
  8
Layer 1
  62
0
  100
AcDb2dVertex
  10
248.25010
  20
30.69385
  30
0.00000
  42
-0.0361
  70
32
  0
VERTEX
  5
CD3
  100
AcDbEntity
  8
Layer 1
  62
0
  100
AcDb2dVertex
  10
247.18670
  20
30.19023
  30
0.00000
  42
-0.1087
  70
32
  0
VERTEX
  5
CD4
  100
AcDbEntity
  8
Layer 1
  62
0
  100
AcDb2dVertex
  10
239.93100
  20
29.22538
  30
0.00000
  42
-0.2067
  70
32
  0
VERTEX
  5
CD5
  100
AcDbEntity
  8
Layer 1
  62
0
  100
AcDb2dVertex
  10
233.63210
  20
31.79206
  30
0.00000
  42
-0.1693
  70
32
  0
VERTEX
  5
CD6
  100
AcDbEntity
  8
Layer 1
  62
0
  100
AcDb2dVertex
  10
231.76100
  20
38.34383
  30
0.00000
  42
-0.0848
  70
32
  0
VERTEX
  5
CD7
  100
AcDbEntity
  8
Layer 1
  62
0
  100
AcDb2dVertex
  10
231.80000
  20
38.87877
  30
0.00000
  42
-0.3004
  70
32
  0
VERTEX
  5
CD8
  100
AcDbEntity
  8
Layer 1
  62
0
  100
AcDb2dVertex
  10
232.09950
  20
39.07498
  30
0.00000
  70
32
  0
VERTEX
  5
CD9
  100
AcDbEntity
  8
Layer 1
  62
0
  100
AcDb2dVertex
  10
237.95590
  20
39.25180
  30
0.00000
  42
-0.1722
  70
32
  0
VERTEX
  5
CDA
  100
AcDbEntity
  8
Layer 1
  62
0
  100
AcDb2dVertex
  10
238.18730
  20
39.17212
  30
0.00000
  42
-0.1659
  70
32
  0
VERTEX
  5
CDB
  100
AcDbEntity
  8
Layer 1
  62
0
  100
AcDb2dVertex
  10
238.27210
  20
38.94097
  30
0.00000
  42
0.0719
  70
32
  0
VERTEX
  5
CDC
  100
AcDbEntity
  8
Layer 1
  62
0
  100
AcDb2dVertex
  10
238.66960
  20
36.01021
  30
0.00000
  42
0.3645
  70
32
  0
VERTEX
  5
CDD
  100
AcDbEntity
  8
Layer 1
  62
0
  100
AcDb2dVertex
  10
242.26850
  20
33.84894
  30
0.00000
  42
0.4654
  70
32
  0
VERTEX
  5
CDE
  100
AcDbEntity
  8
Layer 1
  62
0
  100
AcDb2dVertex
  10
245.37350
  20
37.72005
  30
0.00000
  42
0.2308
  70
32
  0
VERTEX
  5
CDF
  100
AcDbEntity
  8
Layer 1
  62
0
  100
AcDb2dVertex
  10
242.70860
  20
41.32061
  30
0.00000
  42
-0.0109
  70
32
  0
VERTEX
  5
CE0
  100
AcDbEntity
  8
Layer 1
  62
0
  100
AcDb2dVertex
  10
236.08800
  20
45.27118
  30
0.00000
  42
-0.2885
  70
32
  0
VERTEX
  5
CE1
  100
AcDbEntity
  8
Layer 1
  62
0
  100
AcDb2dVertex
  10
231.86160
  20
53.68916
  30
0.00000
  42
-0.2566
  70
32
  0
VERTEX
  5
CE2
  100
AcDbEntity
  8
Layer 1
  62
0
  100
AcDb2dVertex
  10
235.23350
  20
59.90838
  30
0.00000
  42
-0.1394
  70
32
  0
VERTEX
  5
CE3
  100
AcDbEntity
  8
Layer 1
  62
0
  100
AcDb2dVertex
  10
243.12570
  20
61.53492
  30
0.00000
  42
-0.2081
  70
32
  0
VERTEX
  5
CE4
  100
AcDbEntity
  8
Layer 1
  62
0
  100
AcDb2dVertex
  10
249.47870
  20
59.01746
  30
0.00000
  42
-0.1720
  70
32
  0
VERTEX
  5
CE5
  100
AcDbEntity
  8
Layer 1
  62
0
  100
AcDb2dVertex
  10
251.24740
  20
52.89475
  30
0.00000
  42
-0.1217
  70
32
  0
VERTEX
  5
CE6
  100
AcDbEntity
  8
Layer 1
  62
0
  100
AcDb2dVertex
  10
251.17430
  20
52.62355
  30
0.00000
  42
-0.1752
  70
32
  0
VERTEX
  5
CE7
  100
AcDbEntity
  8
Layer 1
  62
0
  100
AcDb2dVertex
  10
250.86450
  20
52.43778
  30
0.00000
  42
-0.0104
  70
32
  0
VERTEX
  5
CE8
  100
AcDbEntity
  8
Layer 1
  62
0
  100
AcDb2dVertex
  10
245.49710
  20
52.31145
  30
0.00000
  42
-0.0963
  70
32
  0
VERTEX
  5
CE9
  100
AcDbEntity
  8
Layer 1
  62
0
  100
AcDb2dVertex
  10
245.07720
  20
52.33680
  30
0.00000
  42
-0.2806
  70
32
  0
VERTEX
  5
CEA
  100
AcDbEntity
  8
Layer 1
  62
0
  100
AcDb2dVertex
  10
244.93660
  20
52.55410
  30
0.00000
  42
0.0214
  70
32
  0
VERTEX
  5
CEB
  100
AcDbEntity
  8
Layer 1
  62
0
  100
AcDb2dVertex
  10
244.79190
  20
53.69129
  30
0.00000
  42
0.3335
  70
32
  0
VERTEX
  5
CEC
  100
AcDbEntity
  8
Layer 1
  62
0
  100
AcDb2dVertex
  10
242.48770
  20
56.83424
  30
0.00000
  42
0.5602
  70
32
  0
VERTEX
  5
CED
  100
AcDbEntity
  8
Layer 1
  62
0
  100
AcDb2dVertex
  10
238.43140
  20
53.06795
  30
0.00000
  42
0.2162
  70
32
  0
VERTEX
  5
CEE
  100
AcDbEntity
  8
Layer 1
  62
0
  100
AcDb2dVertex
  10
240.99660
  20
49.69193
  30
0.00000
  70
32
  0
VERTEX
  5
CEF
  100
AcDbEntity
  8
Layer 1
  62
0
  100
AcDb2dVertex
  10
247.38310
  20
46.12270
  30
0.00000
  42
-0.2950
  70
32
  0
VERTEX
  5
CF0
  100
AcDbEntity
  8
Layer 1
  62
0
  100
AcDb2dVertex
  10
251.94660
  20
37.50659
  30
0.00000
  70
32
  0
SEQEND
  5
CF1
  100
AcDbEntity
  8
Layer 1
  62
0
  0
POLYLINE
  5
CF2
  100
AcDbEntity
  8
Layer 1
  62
0
  100
AcDb2dPolyline
 66
     1
  10
0
  20
0
  30
0
  70
1
  0
VERTEX
  5
CF3
  100
AcDbEntity
  8
Layer 1
  62
0
  100
AcDb2dVertex
  10
42.56864
  20
60.01021
  30
0.00000
  42
0.0641
  70
32
  0
VERTEX
  5
CF4
  100
AcDbEntity
  8
Layer 1
  62
0
  100
AcDb2dVertex
  10
146.83450
  20
27.13356
  30
0.00000
  42
-0.0050
  70
32
  0
VERTEX
  5
CF5
  100
AcDbEntity
  8
Layer 1
  62
0
  100
AcDb2dVertex
  10
147.33790
  20
27.04579
  30
0.00000
  42
0.0064
  70
32
  0
VERTEX
  5
CF6
  100
AcDbEntity
  8
Layer 1
  62
0
  100
AcDb2dVertex
  10
147.95420
  20
26.93970
  30
0.00000
  42
-0.0068
  70
32
  0
VERTEX
  5
CF7
  100
AcDbEntity
  8
Layer 1
  62
0
  100
AcDb2dVertex
  10
148.56890
  20
26.83403
  30
0.00000
  42
0.0067
  70
32
  0
VERTEX
  5
CF8
  100
AcDbEntity
  8
Layer 1
  62
0
  100
AcDb2dVertex
  10
149.19520
  20
26.72666
  30
0.00000
  42
-0.0065
  70
32
  0
VERTEX
  5
CF9
  100
AcDbEntity
  8
Layer 1
  62
0
  100
AcDb2dVertex
  10
149.83960
  20
26.61588
  30
0.00000
  42
0.0058
  70
32
  0
VERTEX
  5
CFA
  100
AcDbEntity
  8
Layer 1
  62
0
  100
AcDb2dVertex
  10
150.44290
  20
26.51106
  30
0.00000
  70
32
  0
VERTEX
  5
CFB
  100
AcDbEntity
  8
Layer 1
  62
0
  100
AcDb2dVertex
  10
150.89140
  20
26.43458
  30
0.00000
  42
0.0407
  70
32
  0
VERTEX
  5
CFC
  100
AcDbEntity
  8
Layer 1
  62
0
  100
AcDb2dVertex
  10
225.01750
  20
19.89837
  30
0.00000
  42
0.0502
  70
32
  0
VERTEX
  5
CFD
  100
AcDbEntity
  8
Layer 1
  62
0
  100
AcDb2dVertex
  10
328.55310
  20
29.48614
  30
0.00000
  42
0.0079
  70
32
  0
VERTEX
  5
CFE
  100
AcDbEntity
  8
Layer 1
  62
0
  100
AcDb2dVertex
  10
329.62300
  20
29.69151
  30
0.00000
  42
0.0458
  70
32
  0
VERTEX
  5
CFF
  100
AcDbEntity
  8
Layer 1
  62
0
  100
AcDb2dVertex
  10
420.15620
  20
55.88899
  30
0.00000
  42
0.0112
  70
32
  0
VERTEX
  5
D00
  100
AcDbEntity
  8
Layer 1
  62
0
  100
AcDb2dVertex
  10
429.52650
  20
59.86641
  30
0.00000
  42
0.2345
  70
32
  0
VERTEX
  5
D01
  100
AcDbEntity
  8
Layer 1
  62
0
  100
AcDb2dVertex
  10
429.91010
  20
60.32018
  30
0.00000
  70
32
  0
VERTEX
  5
D02
  100
AcDbEntity
  8
Layer 1
  62
0
  100
AcDb2dVertex
  10
429.90350
  20
60.52725
  30
0.00000
  70
32
  0
VERTEX
  5
D03
  100
AcDbEntity
  8
Layer 1
  62
0
  100
AcDb2dVertex
  10
423.20780
  20
111.80340
  30
0.00000
  42
0.1891
  70
32
  0
VERTEX
  5
D04
  100
AcDbEntity
  8
Layer 1
  62
0
  100
AcDb2dVertex
  10
423.02790
  20
112.14000
  30
0.00000
  42
0.1972
  70
32
  0
VERTEX
  5
D05
  100
AcDbEntity
  8
Layer 1
  62
0
  100
AcDb2dVertex
  10
422.80360
  20
112.18170
  30
0.00000
  42
0.0609
  70
32
  0
VERTEX
  5
D06
  100
AcDbEntity
  8
Layer 1
  62
0
  100
AcDb2dVertex
  10
422.26440
  20
111.98190
  30
0.00000
  42
-0.0489
  70
32
  0
VERTEX
  5
D07
  100
AcDbEntity
  8
Layer 1
  62
0
  100
AcDb2dVertex
  10
318.74460
  20
79.97186
  30
0.00000
  42
-0.0077
  70
32
  0
VERTEX
  5
D08
  100
AcDbEntity
  8
Layer 1
  62
0
  100
AcDb2dVertex
  10
317.69240
  20
79.76905
  30
0.00000
  42
-0.0564
  70
32
  0
VERTEX
  5
D09
  100
AcDbEntity
  8
Layer 1
  62
0
  100
AcDb2dVertex
  10
214.16020
  20
70.74860
  30
0.00000
  70
32
  0
VERTEX
  5
D0A
  100
AcDbEntity
  8
Layer 1
  62
0
  100
AcDb2dVertex
  10
213.08780
  20
70.80548
  30
0.00000
  42
-0.0662
  70
32
  0
VERTEX
  5
D0B
  100
AcDbEntity
  8
Layer 1
  62
0
  100
AcDb2dVertex
  10
108.90610
  20
87.46462
  30
0.00000
  70
32
  0
VERTEX
  5
D0C
  100
AcDbEntity
  8
Layer 1
  62
0
  100
AcDb2dVertex
  10
108.48730
  20
87.59223
  30
0.00000
  42
-0.0453
  70
32
  0
VERTEX
  5
D0D
  100
AcDbEntity
  8
Layer 1
  62
0
  100
AcDb2dVertex
  10
56.08270
  20
108.56920
  30
0.00000
  42
-0.0112
  70
32
  0
VERTEX
  5
D0E
  100
AcDbEntity
  8
Layer 1
  62
0
  100
AcDb2dVertex
  10
48.54691
  20
112.75690
  30
0.00000
  42
0.2478
  70
32
  0
VERTEX
  5
D0F
  100
AcDbEntity
  8
Layer 1
  62
0
  100
AcDb2dVertex
  10
48.34815
  20
112.74990
  30
0.00000
  42
0.1756
  70
32
  0
VERTEX
  5
D10
  100
AcDbEntity
  8
Layer 1
  62
0
  100
AcDb2dVertex
  10
48.24290
  20
112.57920
  30
0.00000
  70
32
  0
VERTEX
  5
D11
  100
AcDbEntity
  8
Layer 1
  62
0
  100
AcDb2dVertex
  10
42.38990
  20
60.35384
  30
0.00000
  42
0.2523
  70
32
  0
VERTEX
  5
D12
  100
AcDbEntity
  8
Layer 1
  62
0
  100
AcDb2dVertex
  10
42.56864
  20
60.01021
  30
0.00000
  70
32
  0
SEQEND
  5
D13
  100
AcDbEntity
  8
Layer 1
  62
0
  0
POLYLINE
  5
D14
  100
AcDbEntity
  8
Layer 1
  62
0
  100
AcDb2dPolyline
 66
     1
  10
0
  20
0
  30
0
  70
1
  0
VERTEX
  5
D15
  100
AcDbEntity
  8
Layer 1
  62
0
  100
AcDb2dVertex
  10
43.43805
  20
78.01298
  30
0.00000
  70
32
  0
VERTEX
  5
D16
  100
AcDbEntity
  8
Layer 1
  62
0
  100
AcDb2dVertex
  10
44.15364
  20
84.37834
  30
0.00000
  70
32
  0
VERTEX
  5
D17
  100
AcDbEntity
  8
Layer 1
  62
0
  100
AcDb2dVertex
  10
47.46425
  20
113.92990
  30
0.00000
  42
-0.0744
  70
32
  0
VERTEX
  5
D18
  100
AcDbEntity
  8
Layer 1
  62
0
  100
AcDb2dVertex
  10
47.54563
  20
114.28140
  30
0.00000
  42
-0.3650
  70
32
  0
VERTEX
  5
D19
  100
AcDbEntity
  8
Layer 1
  62
0
  100
AcDb2dVertex
  10
47.69199
  20
114.34400
  30
0.00000
  42
-0.0277
  70
32
  0
VERTEX
  5
D1A
  100
AcDbEntity
  8
Layer 1
  62
0
  100
AcDb2dVertex
  10
48.20477
  20
114.05540
  30
0.00000
  42
0.0097
  70
32
  0
VERTEX
  5
D1B
  100
AcDbEntity
  8
Layer 1
  62
0
  100
AcDb2dVertex
  10
48.83579
  20
113.71710
  30
0.00000
  42
0.1213
  70
32
  0
VERTEX
  5
D1C
  100
AcDbEntity
  8
Layer 1
  62
0
  100
AcDb2dVertex
  10
49.90588
  20
113.68550
  30
0.00000
  70
32
  0
VERTEX
  5
D1D
  100
AcDbEntity
  8
Layer 1
  62
0
  100
AcDb2dVertex
  10
85.83302
  20
119.25930
  30
0.00000
  42
0.1444
  70
32
  0
VERTEX
  5
D1E
  100
AcDbEntity
  8
Layer 1
  62
0
  100
AcDb2dVertex
  10
86.03221
  20
119.34940
  30
0.00000
  42
0.3831
  70
32
  0
VERTEX
  5
D1F
  100
AcDbEntity
  8
Layer 1
  62
0
  100
AcDb2dVertex
  10
86.04499
  20
119.47910
  30
0.00000
  70
32
  0
VERTEX
  5
D20
  100
AcDbEntity
  8
Layer 1
  62
0
  100
AcDb2dVertex
  10
85.97064
  20
119.53170
  30
0.00000
  42
0.0875
  70
32
  0
VERTEX
  5
D21
  100
AcDbEntity
  8
Layer 1
  62
0
  100
AcDb2dVertex
  10
85.45956
  20
119.61420
  30
0.00000
  42
-0.0421
  70
32
  0
VERTEX
  5
D22
  100
AcDbEntity
  8
Layer 1
  62
0
  100
AcDb2dVertex
  10
47.33643
  20
125.91560
  30
0.00000
  42
0.0071
  70
32
  0
VERTEX
  5
D23
  100
AcDbEntity
  8
Layer 1
  62
0
  100
AcDb2dVertex
  10
24.04563
  20
132.17740
  30
0.00000
  42
0.2424
  70
32
  0
VERTEX
  5
D24
  100
AcDbEntity
  8
Layer 1
  62
0
  100
AcDb2dVertex
  10
23.87435
  20
132.13040
  30
0.00000
  70
32
  0
VERTEX
  5
D25
  100
AcDbEntity
  8
Layer 1
  62
0
  100
AcDb2dVertex
  10
23.84644
  20
132.05640
  30
0.00000
  42
0.1140
  70
32
  0
VERTEX
  5
D26
  100
AcDbEntity
  8
Layer 1
  62
0
  100
AcDb2dVertex
  10
23.91781
  20
131.80910
  30
0.00000
  70
32
  0
VERTEX
  5
D27
  100
AcDbEntity
  8
Layer 1
  62
0
  100
AcDb2dVertex
  10
36.66770
  20
107.24770
  30
0.00000
  42
-0.2699
  70
32
  0
VERTEX
  5
D28
  100
AcDbEntity
  8
Layer 1
  62
0
  100
AcDb2dVertex
  10
36.64405
  20
106.69770
  30
0.00000
  70
32
  0
VERTEX
  5
D29
  100
AcDbEntity
  8
Layer 1
  62
0
  100
AcDb2dVertex
  10
21.34133
  20
86.61737
  30
0.00000
  42
0.1214
  70
32
  0
VERTEX
  5
D2A
  100
AcDbEntity
  8
Layer 1
  62
0
  100
AcDb2dVertex
  10
21.24674
  20
86.40604
  30
0.00000
  42
0.2514
  70
32
  0
VERTEX
  5
D2B
  100
AcDbEntity
  8
Layer 1
  62
0
  100
AcDb2dVertex
  10
21.30106
  20
86.25499
  30
0.00000
  42
0.1114
  70
32
  0
VERTEX
  5
D2C
  100
AcDbEntity
  8
Layer 1
  62
0
  100
AcDb2dVertex
  10
21.48811
  20
86.16807
  30
0.00000
  42
-0.1052
  70
32
  0
VERTEX
  5
D2D
  100
AcDbEntity
  8
Layer 1
  62
0
  100
AcDb2dVertex
  10
30.93549
  20
81.55857
  30
0.00000
  42
0.1085
  70
32
  0
VERTEX
  5
D2E
  100
AcDbEntity
  8
Layer 1
  62
0
  100
AcDb2dVertex
  10
40.94998
  20
77.79739
  30
0.00000
  42
0.0092
  70
32
  0
VERTEX
  5
D2F
  100
AcDbEntity
  8
Layer 1
  62
0
  100
AcDb2dVertex
  10
43.02369
  20
77.43778
  30
0.00000
  42
0.1050
  70
32
  0
VERTEX
  5
D30
  100
AcDbEntity
  8
Layer 1
  62
0
  100
AcDb2dVertex
  10
43.26250
  20
77.46334
  30
0.00000
  42
0.2144
  70
32
  0
VERTEX
  5
D31
  100
AcDbEntity
  8
Layer 1
  62
0
  100
AcDb2dVertex
  10
43.37989
  20
77.58691
  30
0.00000
  42
0.0774
  70
32
  0
VERTEX
  5
D32
  100
AcDbEntity
  8
Layer 1
  62
0
  100
AcDb2dVertex
  10
43.43805
  20
78.01298
  30
0.00000
  70
32
  0
SEQEND
  5
D33
  100
AcDbEntity
  8
Layer 1
  62
0
  0
POLYLINE
  5
D34
  100
AcDbEntity
  8
Layer 1
  62
0
  100
AcDb2dPolyline
 66
     1
  10
0
  20
0
  30
0
  70
1
  0
VERTEX
  5
D35
  100
AcDbEntity
  8
Layer 1
  62
0
  100
AcDb2dVertex
  10
385.25080
  20
119.59290
  30
0.00000
  70
32
  0
VERTEX
  5
D36
  100
AcDbEntity
  8
Layer 1
  62
0
  100
AcDb2dVertex
  10
384.94380
  20
119.52770
  30
0.00000
  70
32
  0
VERTEX
  5
D37
  100
AcDbEntity
  8
Layer 1
  62
0
  100
AcDb2dVertex
  10
384.87050
  20
119.47530
  30
0.00000
  42
0.3835
  70
32
  0
VERTEX
  5
D38
  100
AcDbEntity
  8
Layer 1
  62
0
  100
AcDb2dVertex
  10
384.88390
  20
119.34790
  30
0.00000
  42
0.1432
  70
32
  0
VERTEX
  5
D39
  100
AcDbEntity
  8
Layer 1
  62
0
  100
AcDb2dVertex
  10
385.08120
  20
119.25900
  30
0.00000
  70
32
  0
VERTEX
  5
D3A
  100
AcDbEntity
  8
Layer 1
  62
0
  100
AcDb2dVertex
  10
412.06460
  20
115.07670
  30
0.00000
  42
-0.0079
  70
32
  0
VERTEX
  5
D3B
  100
AcDbEntity
  8
Layer 1
  62
0
  100
AcDb2dVertex
  10
422.66540
  20
113.36410
  30
0.00000
  42
0.1409
  70
32
  0
VERTEX
  5
D3C
  100
AcDbEntity
  8
Layer 1
  62
0
  100
AcDb2dVertex
  10
423.05500
  20
113.31360
  30
0.00000
  42
-0.0245
  70
32
  0
VERTEX
  5
D3D
  100
AcDbEntity
  8
Layer 1
  62
0
  100
AcDb2dVertex
  10
423.69860
  20
113.52530
  30
0.00000
  42
-0.1874
  70
32
  0
VERTEX
  5
D3E
  100
AcDbEntity
  8
Layer 1
  62
0
  100
AcDb2dVertex
  10
423.77420
  20
113.50530
  30
0.00000
  42
-0.1398
  70
32
  0
VERTEX
  5
D3F
  100
AcDbEntity
  8
Layer 1
  62
0
  100
AcDb2dVertex
  10
423.83770
  20
113.42410
  30
0.00000
  42
-0.0174
  70
32
  0
VERTEX
  5
D40
  100
AcDbEntity
  8
Layer 1
  62
0
  100
AcDb2dVertex
  10
424.34770
  20
109.93910
  30
0.00000
  70
32
  0
VERTEX
  5
D41
  100
AcDbEntity
  8
Layer 1
  62
0
  100
AcDb2dVertex
  10
428.57230
  20
77.90327
  30
0.00000
  42
0.2421
  70
32
  0
VERTEX
  5
D42
  100
AcDbEntity
  8
Layer 1
  62
0
  100
AcDb2dVertex
  10
428.71630
  20
77.66552
  30
0.00000
  42
0.1121
  70
32
  0
VERTEX
  5
D43
  100
AcDbEntity
  8
Layer 1
  62
0
  100
AcDb2dVertex
  10
428.95470
  20
77.63569
  30
0.00000
  42
0.0487
  70
32
  0
VERTEX
  5
D44
  100
AcDbEntity
  8
Layer 1
  62
0
  100
AcDb2dVertex
  10
436.56270
  20
79.54174
  30
0.00000
  42
0.0478
  70
32
  0
VERTEX
  5
D45
  100
AcDbEntity
  8
Layer 1
  62
0
  100
AcDb2dVertex
  10
443.80340
  20
83.40944
  30
0.00000
  42
-0.0601
  70
32
  0
VERTEX
  5
D46
  100
AcDbEntity
  8
Layer 1
  62
0
  100
AcDb2dVertex
  10
450.93760
  20
86.24242
  30
0.00000
  42
0.1624
  70
32
  0
VERTEX
  5
D47
  100
AcDbEntity
  8
Layer 1
  62
0
  100
AcDb2dVertex
  10
451.13510
  20
86.40412
  30
0.00000
  42
0.1442
  70
32
  0
VERTEX
  5
D48
  100
AcDbEntity
  8
Layer 1
  62
0
  100
AcDb2dVertex
  10
451.16680
  20
86.50851
  30
0.00000
  42
0.1114
  70
32
  0
VERTEX
  5
D49
  100
AcDbEntity
  8
Layer 1
  62
0
  100
AcDb2dVertex
  10
451.13720
  20
86.64570
  30
0.00000
  70
32
  0
VERTEX
  5
D4A
  100
AcDbEntity
  8
Layer 1
  62
0
  100
AcDb2dVertex
  10
436.44490
  20
106.69830
  30
0.00000
  42
-0.2885
  70
32
  0
VERTEX
  5
D4B
  100
AcDbEntity
  8
Layer 1
  62
0
  100
AcDb2dVertex
  10
436.40780
  20
107.22050
  30
0.00000
  70
32
  0
VERTEX
  5
D4C
  100
AcDbEntity
  8
Layer 1
  62
0
  100
AcDb2dVertex
  10
449.18390
  20
131.83280
  30
0.00000
  42
0.1584
  70
32
  0
VERTEX
  5
D4D
  100
AcDbEntity
  8
Layer 1
  62
0
  100
AcDb2dVertex
  10
449.23140
  20
132.06430
  30
0.00000
  42
0.2964
  70
32
  0
VERTEX
  5
D4E
  100
AcDbEntity
  8
Layer 1
  62
0
  100
AcDb2dVertex
  10
449.11080
  20
132.17060
  30
0.00000
  42
0.1103
  70
32
  0
VERTEX
  5
D4F
  100
AcDbEntity
  8
Layer 1
  62
0
  100
AcDb2dVertex
  10
448.86160
  20
132.14800
  30
0.00000
  70
32
  0
VERTEX
  5
D50
  100
AcDbEntity
  8
Layer 1
  62
0
  100
AcDb2dVertex
  10
422.07500
  20
125.24950
  30
0.00000
  42
-0.0348
  70
32
  0
VERTEX
  5
D51
  100
AcDbEntity
  8
Layer 1
  62
0
  100
AcDb2dVertex
  10
385.25080
  20
119.59290
  30
0.00000
  70
32
  0
SEQEND
  5
D52
  100
AcDbEntity
  8
Layer 1
  62
0
  0
POLYLINE
  5
D53
  100
AcDbEntity
  8
Layer 1
  62
0
  100
AcDb2dPolyline
 66
     1
  10
0
  20
0
  30
0
  70
1
  0
VERTEX
  5
D54
  100
AcDbEntity
  8
Layer 1
  62
0
  100
AcDb2dVertex
  10
89.71244
  20
118.96010
  30
0.00000
  70
32
  0
VERTEX
  5
D55
  100
AcDbEntity
  8
Layer 1
  62
0
  100
AcDb2dVertex
  10
52.03690
  20
113.10100
  30
0.00000
  42
0.0121
  70
32
  0
VERTEX
  5
D56
  100
AcDbEntity
  8
Layer 1
  62
0
  100
AcDb2dVertex
  10
51.61146
  20
113.03850
  30
0.00000
  42
0.0695
  70
32
  0
VERTEX
  5
D57
  100
AcDbEntity
  8
Layer 1
  62
0
  100
AcDb2dVertex
  10
50.76037
  20
112.84600
  30
0.00000
  42
0.1918
  70
32
  0
VERTEX
  5
D58
  100
AcDbEntity
  8
Layer 1
  62
0
  100
AcDb2dVertex
  10
50.65961
  20
112.71810
  30
0.00000
  42
0.2824
  70
32
  0
VERTEX
  5
D59
  100
AcDbEntity
  8
Layer 1
  62
0
  100
AcDb2dVertex
  10
50.68943
  20
112.60670
  30
0.00000
  42
0.0309
  70
32
  0
VERTEX
  5
D5A
  100
AcDbEntity
  8
Layer 1
  62
0
  100
AcDb2dVertex
  10
51.20179
  20
112.27710
  30
0.00000
  42
0.0383
  70
32
  0
VERTEX
  5
D5B
  100
AcDbEntity
  8
Layer 1
  62
0
  100
AcDb2dVertex
  10
88.13063
  20
95.43480
  30
0.00000
  42
0.2960
  70
32
  0
VERTEX
  5
D5C
  100
AcDbEntity
  8
Layer 1
  62
0
  100
AcDb2dVertex
  10
88.41568
  20
95.49359
  30
0.00000
  42
0.1281
  70
32
  0
VERTEX
  5
D5D
  100
AcDbEntity
  8
Layer 1
  62
0
  100
AcDb2dVertex
  10
88.50111
  20
95.72581
  30
0.00000
  70
32
  0
VERTEX
  5
D5E
  100
AcDbEntity
  8
Layer 1
  62
0
  100
AcDb2dVertex
  10
89.05096
  20
103.12120
  30
0.00000
  70
32
  0
VERTEX
  5
D5F
  100
AcDbEntity
  8
Layer 1
  62
0
  100
AcDb2dVertex
  10
90.26357
  20
118.75200
  30
0.00000
  42
0.3054
  70
32
  0
VERTEX
  5
D60
  100
AcDbEntity
  8
Layer 1
  62
0
  100
AcDb2dVertex
  10
90.13085
  20
118.96820
  30
0.00000
  42
0.1354
  70
32
  0
VERTEX
  5
D61
  100
AcDbEntity
  8
Layer 1
  62
0
  100
AcDb2dVertex
  10
89.71244
  20
118.96010
  30
0.00000
  70
32
  0
SEQEND
  5
D62
  100
AcDbEntity
  8
Layer 1
  62
0
  0
POLYLINE
  5
D63
  100
AcDbEntity
  8
Layer 1
  62
0
  100
AcDb2dPolyline
 66
     1
  10
0
  20
0
  30
0
  70
1
  0
VERTEX
  5
D64
  100
AcDbEntity
  8
Layer 1
  62
0
  100
AcDb2dVertex
  10
380.66050
  20
118.43350
  30
0.00000
  70
32
  0
VERTEX
  5
D65
  100
AcDbEntity
  8
Layer 1
  62
0
  100
AcDb2dVertex
  10
382.22560
  20
98.66829
  30
0.00000
  42
0.0652
  70
32
  0
VERTEX
  5
D66
  100
AcDbEntity
  8
Layer 1
  62
0
  100
AcDb2dVertex
  10
382.31900
  20
98.23752
  30
0.00000
  42
0.3183
  70
32
  0
VERTEX
  5
D67
  100
AcDbEntity
  8
Layer 1
  62
0
  100
AcDb2dVertex
  10
382.58140
  20
98.08904
  30
0.00000
  42
0.0699
  70
32
  0
VERTEX
  5
D68
  100
AcDbEntity
  8
Layer 1
  62
0
  100
AcDb2dVertex
  10
383.10230
  20
98.23305
  30
0.00000
  42
0.0089
  70
32
  0
VERTEX
  5
D69
  100
AcDbEntity
  8
Layer 1
  62
0
  100
AcDb2dVertex
  10
390.33130
  20
100.71390
  30
0.00000
  42
0.0143
  70
32
  0
VERTEX
  5
D6A
  100
AcDbEntity
  8
Layer 1
  62
0
  100
AcDb2dVertex
  10
420.90590
  20
112.41860
  30
0.00000
  42
0.1265
  70
32
  0
VERTEX
  5
D6B
  100
AcDbEntity
  8
Layer 1
  62
0
  100
AcDb2dVertex
  10
421.10680
  20
112.58610
  30
0.00000
  42
0.1814
  70
32
  0
VERTEX
  5
D6C
  100
AcDbEntity
  8
Layer 1
  62
0
  100
AcDb2dVertex
  10
421.13020
  20
112.67490
  30
0.00000
  42
0.2406
  70
32
  0
VERTEX
  5
D6D
  100
AcDbEntity
  8
Layer 1
  62
0
  100
AcDb2dVertex
  10
421.09140
  20
112.73480
  30
0.00000
  42
0.0852
  70
32
  0
VERTEX
  5
D6E
  100
AcDbEntity
  8
Layer 1
  62
0
  100
AcDb2dVertex
  10
420.73270
  20
112.82210
  30
0.00000
  70
32
  0
VERTEX
  5
D6F
  100
AcDbEntity
  8
Layer 1
  62
0
  100
AcDb2dVertex
  10
381.02030
  20
118.98490
  30
0.00000
  42
0.1006
  70
32
  0
VERTEX
  5
D70
  100
AcDbEntity
  8
Layer 1
  62
0
  100
AcDb2dVertex
  10
380.78190
  20
118.96760
  30
0.00000
  42
0.2404
  70
32
  0
VERTEX
  5
D71
  100
AcDbEntity
  8
Layer 1
  62
0
  100
AcDb2dVertex
  10
380.66920
  20
118.85340
  30
0.00000
  42
0.1079
  70
32
  0
VERTEX
  5
D72
  100
AcDbEntity
  8
Layer 1
  62
0
  100
AcDb2dVertex
  10
380.66050
  20
118.43350
  30
0.00000
  70
32
  0
SEQEND
  5
D73
  100
AcDbEntity
  8
Layer 1
  62
0
  0
POLYLINE
  5
D74
  100
AcDbEntity
  8
Layer 1
  62
0
  100
AcDb2dPolyline
 66
     1
  10
0
  20
0
  30
0
  70
1
  0
VERTEX
  5
D75
  100
AcDbEntity
  8
Layer 1
  62
0
  100
AcDb2dVertex
  10
381.09610
  20
97.60459
  30
0.00000
  42
0.3275
  70
32
  0
VERTEX
  5
D76
  100
AcDbEntity
  8
Layer 1
  62
0
  100
AcDb2dVertex
  10
381.34260
  20
98.06709
  30
0.00000
  70
32
  0
VERTEX
  5
D77
  100
AcDbEntity
  8
Layer 1
  62
0
  100
AcDb2dVertex
  10
379.67110
  20
119.46700
  30
0.00000
  42
-0.3729
  70
32
  0
VERTEX
  5
D78
  100
AcDbEntity
  8
Layer 1
  62
0
  100
AcDb2dVertex
  10
380.00880
  20
119.98760
  30
0.00000
  42
-0.0095
  70
32
  0
VERTEX
  5
D79
  100
AcDbEntity
  8
Layer 1
  62
0
  100
AcDb2dVertex
  10
384.16200
  20
120.38980
  30
0.00000
  42
0.0374
  70
32
  0
VERTEX
  5
D7A
  100
AcDbEntity
  8
Layer 1
  62
0
  100
AcDb2dVertex
  10
423.35260
  20
126.46460
  30
0.00000
  70
32
  0
VERTEX
  5
D7B
  100
AcDbEntity
  8
Layer 1
  62
0
  100
AcDb2dVertex
  10
450.11270
  20
133.34640
  30
0.00000
  42
-0.3016
  70
32
  0
VERTEX
  5
D7C
  100
AcDbEntity
  8
Layer 1
  62
0
  100
AcDb2dVertex
  10
450.59400
  20
133.19170
  30
0.00000
  42
-0.3016
  70
32
  0
VERTEX
  5
D7D
  100
AcDbEntity
  8
Layer 1
  62
0
  100
AcDb2dVertex
  10
450.63850
  20
132.68830
  30
0.00000
  70
32
  0
VERTEX
  5
D7E
  100
AcDbEntity
  8
Layer 1
  62
0
  100
AcDb2dVertex
  10
437.44740
  20
107.22900
  30
0.00000
  42
0.2328
  70
32
  0
VERTEX
  5
D7F
  100
AcDbEntity
  8
Layer 1
  62
0
  100
AcDb2dVertex
  10
437.46620
  20
106.81660
  30
0.00000
  70
32
  0
VERTEX
  5
D80
  100
AcDbEntity
  8
Layer 1
  62
0
  100
AcDb2dVertex
  10
451.78020
  20
87.35895
  30
0.00000
  42
-0.0713
  70
32
  0
VERTEX
  5
D81
  100
AcDbEntity
  8
Layer 1
  62
0
  100
AcDb2dVertex
  10
452.54670
  20
86.19619
  30
0.00000
  42
-0.2608
  70
32
  0
VERTEX
  5
D82
  100
AcDbEntity
  8
Layer 1
  62
0
  100
AcDb2dVertex
  10
452.49600
  20
85.86662
  30
0.00000
  42
-0.1564
  70
32
  0
VERTEX
  5
D83
  100
AcDbEntity
  8
Layer 1
  62
0
  100
AcDb2dVertex
  10
452.08570
  20
85.61694
  30
0.00000
  42
0.0705
  70
32
  0
VERTEX
  5
D84
  100
AcDbEntity
  8
Layer 1
  62
0
  100
AcDb2dVertex
  10
443.81660
  20
82.36748
  30
0.00000
  42
-0.0655
  70
32
  0
VERTEX
  5
D85
  100
AcDbEntity
  8
Layer 1
  62
0
  100
AcDb2dVertex
  10
435.92020
  20
78.35832
  30
0.00000
  42
-0.0327
  70
32
  0
VERTEX
  5
D86
  100
AcDbEntity
  8
Layer 1
  62
0
  100
AcDb2dVertex
  10
429.02240
  20
76.68299
  30
0.00000
  42
0.3403
  70
32
  0
VERTEX
  5
D87
  100
AcDbEntity
  8
Layer 1
  62
0
  100
AcDb2dVertex
  10
428.78490
  20
76.36236
  30
0.00000
  70
32
  0
VERTEX
  5
D88
  100
AcDbEntity
  8
Layer 1
  62
0
  100
AcDb2dVertex
  10
430.91650
  20
59.79590
  30
0.00000
  42
-0.3137
  70
32
  0
VERTEX
  5
D89
  100
AcDbEntity
  8
Layer 1
  62
0
  100
AcDb2dVertex
  10
430.68470
  20
59.39709
  30
0.00000
  42
-0.0133
  70
32
  0
VERTEX
  5
D8A
  100
AcDbEntity
  8
Layer 1
  62
0
  100
AcDb2dVertex
  10
420.16430
  20
54.91477
  30
0.00000
  42
-0.0419
  70
32
  0
VERTEX
  5
D8B
  100
AcDbEntity
  8
Layer 1
  62
0
  100
AcDb2dVertex
  10
337.92950
  20
30.48443
  30
0.00000
  70
32
  0
VERTEX
  5
D8C
  100
AcDbEntity
  8
Layer 1
  62
0
  100
AcDb2dVertex
  10
337.29210
  20
30.35448
  30
0.00000
  42
-0.0497
  70
32
  0
VERTEX
  5
D8D
  100
AcDbEntity
  8
Layer 1
  62
0
  100
AcDb2dVertex
  10
233.32810
  20
18.96590
  30
0.00000
  42
-0.0452
  70
32
  0
VERTEX
  5
D8E
  100
AcDbEntity
  8
Layer 1
  62
0
  100
AcDb2dVertex
  10
148.96980
  20
25.85299
  30
0.00000
  70
32
  0
VERTEX
  5
D8F
  100
AcDbEntity
  8
Layer 1
  62
0
  100
AcDb2dVertex
  10
145.98150
  20
26.36705
  30
0.00000
  42
-0.0617
  70
32
  0
VERTEX
  5
D90
  100
AcDbEntity
  8
Layer 1
  62
0
  100
AcDb2dVertex
  10
44.56374
  20
58.05964
  30
0.00000
  42
-0.0124
  70
32
  0
VERTEX
  5
D91
  100
AcDbEntity
  8
Layer 1
  62
0
  100
AcDb2dVertex
  10
41.58781
  20
59.46505
  30
0.00000
  42
-0.2373
  70
32
  0
VERTEX
  5
D92
  100
AcDbEntity
  8
Layer 1
  62
0
  100
AcDb2dVertex
  10
41.43506
  20
59.78674
  30
0.00000
  70
32
  0
VERTEX
  5
D93
  100
AcDbEntity
  8
Layer 1
  62
0
  100
AcDb2dVertex
  10
42.52071
  20
69.66935
  30
0.00000
  70
32
  0
VERTEX
  5
D94
  100
AcDbEntity
  8
Layer 1
  62
0
  100
AcDb2dVertex
  10
43.20839
  20
76.15273
  30
0.00000
  42
0.2985
  70
32
  0
VERTEX
  5
D95
  100
AcDbEntity
  8
Layer 1
  62
0
  100
AcDb2dVertex
  10
42.94295
  20
76.50744
  30
0.00000
  42
0.0055
  70
32
  0
VERTEX
  5
D96
  100
AcDbEntity
  8
Layer 1
  62
0
  100
AcDb2dVertex
  10
40.73247
  20
76.91924
  30
0.00000
  42
-0.1189
  70
32
  0
VERTEX
  5
D97
  100
AcDbEntity
  8
Layer 1
  62
0
  100
AcDb2dVertex
  10
29.65279
  20
81.33083
  30
0.00000
  42
0.1016
  70
32
  0
VERTEX
  5
D98
  100
AcDbEntity
  8
Layer 1
  62
0
  100
AcDb2dVertex
  10
20.19923
  20
85.61098
  30
0.00000
  42
-0.2804
  70
32
  0
VERTEX
  5
D99
  100
AcDbEntity
  8
Layer 1
  62
0
  100
AcDb2dVertex
  10
19.88543
  20
85.98635
  30
0.00000
  42
-0.1493
  70
32
  0
VERTEX
  5
D9A
  100
AcDbEntity
  8
Layer 1
  62
0
  100
AcDb2dVertex
  10
20.00856
  20
86.35512
  30
0.00000
  70
32
  0
VERTEX
  5
D9B
  100
AcDbEntity
  8
Layer 1
  62
0
  100
AcDb2dVertex
  10
35.63426
  20
106.84430
  30
0.00000
  42
0.1497
  70
32
  0
VERTEX
  5
D9C
  100
AcDbEntity
  8
Layer 1
  62
0
  100
AcDb2dVertex
  10
35.70924
  20
107.06330
  30
0.00000
  42
0.0902
  70
32
  0
VERTEX
  5
D9D
  100
AcDbEntity
  8
Layer 1
  62
0
  100
AcDb2dVertex
  10
35.57823
  20
107.42010
  30
0.00000
  70
32
  0
VERTEX
  5
D9E
  100
AcDbEntity
  8
Layer 1
  62
0
  100
AcDb2dVertex
  10
22.45616
  20
132.66870
  30
0.00000
  42
-0.2877
  70
32
  0
VERTEX
  5
D9F
  100
AcDbEntity
  8
Layer 1
  62
0
  100
AcDb2dVertex
  10
22.46099
  20
133.15680
  30
0.00000
  42
-0.2878
  70
32
  0
VERTEX
  5
DA0
  100
AcDbEntity
  8
Layer 1
  62
0
  100
AcDb2dVertex
  10
22.90268
  20
133.36470
  30
0.00000
  42
-0.0127
  70
32
  0
VERTEX
  5
DA1
  100
AcDbEntity
  8
Layer 1
  62
0
  100
AcDb2dVertex
  10
30.73140
  20
131.40330
  30
0.00000
  42
0.0094
  70
32
  0
VERTEX
  5
DA2
  100
AcDbEntity
  8
Layer 1
  62
0
  100
AcDb2dVertex
  10
54.80831
  20
125.02340
  30
0.00000
  42
0.0320
  70
32
  0
VERTEX
  5
DA3
  100
AcDbEntity
  8
Layer 1
  62
0
  100
AcDb2dVertex
  10
90.75356
  20
120.02000
  30
0.00000
  42
-0.4476
  70
32
  0
VERTEX
  5
DA4
  100
AcDbEntity
  8
Layer 1
  62
0
  100
AcDb2dVertex
  10
91.24397
  20
119.46530
  30
0.00000
  70
32
  0
VERTEX
  5
DA5
  100
AcDbEntity
  8
Layer 1
  62
0
  100
AcDb2dVertex
  10
89.63021
  20
98.86172
  30
0.00000
  42
0.0125
  70
32
  0
VERTEX
  5
DA6
  100
AcDbEntity
  8
Layer 1
  62
0
  100
AcDb2dVertex
  10
89.40055
  20
95.16083
  30
0.00000
  42
0.2618
  70
32
  0
VERTEX
  5
DA7
  100
AcDbEntity
  8
Layer 1
  62
0
  100
AcDb2dVertex
  10
89.61593
  20
94.89751
  30
0.00000
  42
0.0562
  70
32
  0
VERTEX
  5
DA8
  100
AcDbEntity
  8
Layer 1
  62
0
  100
AcDb2dVertex
  10
171.96130
  20
74.94481
  30
0.00000
  42
0.0077
  70
32
  0
VERTEX
  5
DA9
  100
AcDbEntity
  8
Layer 1
  62
0
  100
AcDb2dVertex
  10
172.39350
  20
74.88857
  30
0.00000
  42
0.0599
  70
32
  0
VERTEX
  5
DAA
  100
AcDbEntity
  8
Layer 1
  62
0
  100
AcDb2dVertex
  10
276.57350
  20
74.29291
  30
0.00000
  70
32
  0
VERTEX
  5
DAB
  100
AcDbEntity
  8
Layer 1
  62
0
  100
AcDb2dVertex
  10
277.00030
  20
74.35086
  30
0.00000
  42
0.0528
  70
32
  0
VERTEX
  5
DAC
  100
AcDbEntity
  8
Layer 1
  62
0
  100
AcDb2dVertex
  10
381.09610
  20
97.60459
  30
0.00000
  70
32
  0
SEQEND
  5
DAD
  100
AcDbEntity
  8
Layer 1
  62
0
 0
ENDSEC
 0
EOF
