  0
SECTION
  2
ENTITIES
  0
LINE
  8
APS_GEOMETR�
 10
277.514878
 11
338.605027
 20
613.976508
 21
613.976508
  0
LINE
  8
APS_GEOMETR�
 10
338.605027
 11
344.821179
 20
613.976508
 21
619.222346
  0
LINE
  8
APS_GEOMETR�
 10
344.821179
 11
362.081021
 20
619.222346
 21
619.791931
  0
ARC
  8
APS_GEOMETR�
 10
570.964171
 20
591.335454
 40
210.812575
 50
172.242264
 51
184.113038
  0
ARC
  8
APS_GEOMETR�
 10
-1815.096937
 20
-5161.028333
 40
6135.96204
 50
69.231275
 51
69.983328
  0
ARC
  8
APS_GEOMETR�
 10
270.651812
 20
600.638655
 40
15.0
 50
14.045391
 51
62.771662
  0
LINE
  8
APS_GEOMETR�
 10
-166.055048
 11
-166.055048
 20
626.617259
 21
655.594769
  0
LINE
  8
APS_GEOMETR�
 10
-166.055048
 11
-163.584079
 20
655.594769
 21
655.594769
  0
LINE
  8
APS_GEOMETR�
 10
-163.584079
 11
-140.886483
 20
655.594769
 21
637.614088
  0
LINE
  8
APS_GEOMETR�
 10
-140.886483
 11
-150.97066
 20
637.614088
 21
637.614088
  0
ARC
  8
APS_GEOMETR�
 10
-150.97066
 20
634.614088
 40
3.0
 50
90.0
 51
180.0
  0
LINE
  8
APS_GEOMETR�
 10
-153.97066
 11
-153.97066
 20
634.614088
 21
632.115673
  0
LINE
  8
APS_GEOMETR�
 10
-153.97066
 11
-160.012854
 20
632.115673
 21
626.617259
  0
LINE
  8
APS_GEOMETR�
 10
-160.012854
 11
-166.055048
 20
626.617259
 21
626.617259
  0
LINE
  8
APS_GEOMETR�
 10
124.296455
 11
132.190933
 20
657.841678
 21
637.6669
  0
LINE
  8
APS_GEOMETR�
 10
132.190933
 11
67.585249
 20
637.6669
 21
637.6669
  0
LINE
  8
APS_GEOMETR�
 10
67.585249
 11
75.479727
 20
637.6669
 21
657.841678
  0
LINE
  8
APS_GEOMETR�
 10
75.479727
 11
124.296455
 20
657.841678
 21
657.841678
  0
LINE
  8
APS_GEOMETR�
 10
-268.963436
 11
-245.649673
 20
625.59733
 21
625.59733
  0
LINE
  8
APS_GEOMETR�
 10
-245.649673
 11
-245.649673
 20
625.59733
 21
612.94632
  0
LINE
  8
APS_GEOMETR�
 10
-245.649673
 11
-268.963436
 20
612.94632
 21
612.94632
  0
LINE
  8
APS_GEOMETR�
 10
-268.963436
 11
-268.963436
 20
612.94632
 21
625.59733
  0
LINE
  8
APS_GEOMETR�
 10
90.377986
 11
114.058806
 20
569.851928
 21
569.851928
  0
ARC
  8
APS_GEOMETR�
 10
107.638929
 20
567.5071
 40
6.834694
 50
288.911906
 51
20.064466
  0
ARC
  8
APS_GEOMETR�
 10
116.645009
 20
563.475529
 40
7.213943
 50
199.72013
 51
254.985957
  0
ARC
  8
APS_GEOMETR�
 10
105.847111
 20
576.357808
 40
21.765783
 50
243.078935
 51
294.219595
  0
ARC
  8
APS_GEOMETR�
 10
100.993419
 20
566.79937
 40
11.045611
 50
163.956959
 51
243.078935
  0
LINE
  8
APS_GEOMETR�
 10
182.259919
 11
333.121569
 20
628.976508
 21
628.976508
  0
LINE
  8
APS_GEOMETR�
 10
333.121569
 11
339.124636
 20
628.976508
 21
634.042523
  0
LINE
  8
APS_GEOMETR�
 10
339.124636
 11
373.781245
 20
634.042523
 21
635.18621
  0
ARC
  8
APS_GEOMETR�
 10
373.946158
 20
630.188931
 40
5.0
 50
348.843981
 51
91.890107
  0
ARC
  8
APS_GEOMETR�
 10
570.964171
 20
591.335454
 40
195.812575
 50
168.843981
 51
188.677466
  0
ARC
  8
APS_GEOMETR�
 10
372.450238
 20
561.038451
 40
5.0
 50
249.078136
 51
8.677466
  0
ARC
  8
APS_GEOMETR�
 10
-1815.096937
 20
-5161.028333
 40
6120.96204
 50
69.078136
 51
70.077117
  0
LINE
  8
APS_GEOMETR�
 10
270.651812
 11
270.651812
 20
593.607056
 21
600.638655
  0
LINE
  8
APS_GEOMETR�
 10
270.651812
 11
196.779196
 20
600.638655
 21
600.638655
  0
ARC
  8
APS_GEOMETR�
 10
196.779196
 20
597.638655
 40
3.0
 50
90.0
 51
180.0
  0
LINE
  8
APS_GEOMETR�
 10
193.779196
 11
193.779196
 20
597.638655
 21
589.046619
  0
ARC
  8
APS_GEOMETR�
 10
190.779196
 20
589.046619
 40
3.0
 50
270.0
 51
0.0
  0
LINE
  8
APS_GEOMETR�
 10
190.779196
 11
177.057487
 20
586.046619
 21
586.046619
  0
ARC
  8
APS_GEOMETR�
 10
169.953386
 20
589.764898
 40
8.018345
 50
307.414762
 51
332.372488
  0
ARC
  8
APS_GEOMETR�
 10
169.574566
 20
590.251275
 40
8.634819
 50
283.704645
 51
307.450378
  0
ARC
  8
APS_GEOMETR�
 10
169.486848
 20
590.554363
 40
8.95007
 50
260.611138
 51
283.790521
  0
ARC
  8
APS_GEOMETR�
 10
169.437412
 20
590.33928
 40
8.729814
 50
237.12941
 51
260.700962
  0
ARC
  8
APS_GEOMETR�
 10
157.738695
 20
572.238633
 40
12.822295
 50
57.121686
 51
79.763345
  0
ARC
  8
APS_GEOMETR�
 10
157.660222
 20
571.906087
 40
13.163505
 50
79.68445
 51
101.929564
  0
ARC
  8
APS_GEOMETR�
 10
157.562451
 20
572.285093
 40
12.772486
 50
101.851886
 51
124.552881
  0
ARC
  8
APS_GEOMETR�
 10
157.071735
 20
572.983192
 40
11.919215
 50
124.513382
 51
148.293658
  0
ARC
  8
APS_GEOMETR�
 10
156.434584
 20
573.385115
 40
11.165923
 50
148.329949
 51
173.174835
  0
ARC
  8
APS_GEOMETR�
 10
156.250267
 20
573.42613
 40
10.978054
 50
173.273061
 51
198.402189
  0
ARC
  8
APS_GEOMETR�
 10
226.94042
 20
592.558883
 40
84.196225
 50
195.569148
 51
224.650411
  0
ARC
  8
APS_GEOMETR�
 10
143.558194
 20
510.096808
 40
33.075256
 50
21.869882
 51
44.762803
  0
ARC
  8
APS_GEOMETR�
 10
166.736449
 20
519.392094
 40
8.102598
 50
351.65938
 51
21.923447
  0
ARC
  8
APS_GEOMETR�
 10
167.074497
 20
519.29891
 40
7.754728
 50
320.794457
 51
351.978287
  0
LINE
  8
APS_GEOMETR�
 10
173.083507
 11
143.968905
 20
514.397113
 21
507.599392
  0
ARC
  8
APS_GEOMETR�
 10
143.661466
 20
508.913209
 40
1.349309
 50
256.333279
 51
283.170476
  0
ARC
  8
APS_GEOMETR�
 10
143.681631
 20
508.980783
 40
1.419739
 50
230.246647
 51
256.186839
  0
ARC
  8
APS_GEOMETR�
 10
143.788207
 20
509.108935
 40
1.586416
 50
206.168885
 51
230.247216
  0
ARC
  8
APS_GEOMETR�
 10
143.923751
 20
509.179069
 40
1.739
 50
183.640145
 51
206.273251
  0
ARC
  8
APS_GEOMETR�
 10
143.949941
 20
509.184764
 40
1.765504
 50
161.367592
 51
183.770614
  0
ARC
  8
APS_GEOMETR�
 10
147.062063
 20
508.153073
 40
5.04416
 50
134.54628
 51
161.557182
  0
ARC
  8
APS_GEOMETR�
 10
139.318306
 20
516.009891
 40
5.987404
 50
314.617197
 51
345.21541
  0
ARC
  8
APS_GEOMETR�
 10
138.878163
 20
516.157719
 40
6.450771
 50
344.943483
 51
14.028043
  0
ARC
  8
APS_GEOMETR�
 10
70.724269
 20
496.131909
 40
77.480919
 50
16.179185
 51
45.073771
  0
ARC
  8
APS_GEOMETR�
 10
120.752058
 20
483.842054
 40
67.311148
 50
86.00553
 51
100.296348
  0
ARC
  8
APS_GEOMETR�
 10
104.710154
 20
572.146945
 40
22.439042
 50
249.61875
 51
280.296348
  0
ARC
  8
APS_GEOMETR�
 10
103.427433
 20
568.694355
 40
18.75587
 50
176.461575
 51
249.61875
  0
LINE
  8
APS_GEOMETR�
 10
84.707318
 11
74.972678
 20
569.851928
 21
569.851928
  0
ARC
  8
APS_GEOMETR�
 10
-69.486491
 20
558.705371
 40
144.888569
 50
329.035317
 51
4.412234
  0
LINE
  8
APS_GEOMETR�
 10
54.753226
 11
13.970164
 20
484.158809
 21
491.590121
  0
ARC
  8
APS_GEOMETR�
 10
-114.43638
 20
558.705371
 40
144.888569
 50
332.40493
 51
4.439054
  0
LINE
  8
APS_GEOMETR�
 10
30.017556
 11
24.817419
 20
569.919547
 21
569.919547
  0
LINE
  8
APS_GEOMETR�
 10
24.817419
 11
20.260419
 20
569.919547
 21
596.984117
  0
LINE
  8
APS_GEOMETR�
 10
20.260419
 11
14.615846
 20
596.984117
 21
596.984117
  0
LINE
  8
APS_GEOMETR�
 10
14.615846
 11
12.690592
 20
596.984117
 21
604.049078
  0
ARC
  8
APS_GEOMETR�
 10
9.037926
 20
597.479237
 40
7.516966
 50
60.927042
 51
147.080846
  0
ARC
  8
APS_GEOMETR�
 10
-10.322621
 20
610.01332
 40
15.546729
 50
297.725744
 51
327.080846
  0
ARC
  8
APS_GEOMETR�
 10
-10.91155
 20
611.068404
 40
16.754693
 50
269.920791
 51
297.829851
  0
LINE
  8
APS_GEOMETR�
 10
-10.934712
 11
-125.401971
 20
594.313726
 21
594.313726
  0
ARC
  8
APS_GEOMETR�
 10
-125.425133
 20
611.068404
 40
16.754693
 50
242.170149
 51
270.079209
  0
ARC
  8
APS_GEOMETR�
 10
-126.014062
 20
610.01332
 40
15.546729
 50
212.919154
 51
242.274256
  0
ARC
  8
APS_GEOMETR�
 10
-127.017404
 20
609.345062
 40
14.341325
 50
181.862257
 51
212.85647
  0
LINE
  8
APS_GEOMETR�
 10
-141.351154
 11
-159.398608
 20
608.879014
 21
608.879014
  0
LINE
  8
APS_GEOMETR�
 10
-159.398608
 11
-159.398608
 20
608.879014
 21
599.595967
  0
LINE
  8
APS_GEOMETR�
 10
-159.398608
 11
-169.36341
 20
599.595967
 21
599.595967
  0
LINE
  8
APS_GEOMETR�
 10
-169.36341
 11
-169.36341
 20
599.595967
 21
601.972589
  0
LINE
  8
APS_GEOMETR�
 10
-169.36341
 11
-189.361043
 20
601.972589
 21
601.972589
  0
LINE
  8
APS_GEOMETR�
 10
-189.361043
 11
-189.361043
 20
601.972589
 21
605.96446
  0
LINE
  8
APS_GEOMETR�
 10
-189.361043
 11
-169.327197
 20
605.96446
 21
605.96446
  0
LINE
  8
APS_GEOMETR�
 10
-169.327197
 11
-169.327197
 20
605.96446
 21
611.92639
  0
LINE
  8
APS_GEOMETR�
 10
-169.327197
 11
-217.335911
 20
611.92639
 21
611.92639
  0
LINE
  8
APS_GEOMETR�
 10
-217.335911
 11
-217.335911
 20
611.92639
 21
610.94632
  0
ARC
  8
APS_GEOMETR�
 10
-220.335911
 20
610.94632
 40
3.0
 50
270.0
 51
0.0
  0
LINE
  8
APS_GEOMETR�
 10
-220.335911
 11
-270.963436
 20
607.94632
 21
607.94632
  0
ARC
  8
APS_GEOMETR�
 10
-270.963436
 20
610.94632
 40
3.0
 50
180.0
 51
270.0
  0
LINE
  8
APS_GEOMETR�
 10
-273.963436
 11
-273.963436
 20
610.94632
 21
627.59733
  0
ARC
  8
APS_GEOMETR�
 10
-270.963436
 20
627.59733
 40
3.0
 50
90.0
 51
180.0
  0
LINE
  8
APS_GEOMETR�
 10
-270.963436
 11
-220.335911
 20
630.59733
 21
630.59733
  0
ARC
  8
APS_GEOMETR�
 10
-220.335911
 20
627.59733
 40
3.0
 50
0.0
 51
90.0
  0
LINE
  8
APS_GEOMETR�
 10
-217.335911
 11
-217.335911
 20
627.59733
 21
626.617259
  0
LINE
  8
APS_GEOMETR�
 10
-217.335911
 11
-171.055048
 20
626.617259
 21
626.617259
  0
LINE
  8
APS_GEOMETR�
 10
-171.055048
 11
-171.055048
 20
626.617259
 21
655.594769
  0
LINE
  8
APS_GEOMETR�
 10
-171.055048
 11
-178.27955
 20
655.594769
 21
655.594769
  0
LINE
  8
APS_GEOMETR�
 10
-178.27955
 11
-178.27955
 20
655.594769
 21
660.229109
  0
LINE
  8
APS_GEOMETR�
 10
-178.27955
 11
-156.066683
 20
660.229109
 21
660.229109
  0
LINE
  8
APS_GEOMETR�
 10
-156.066683
 11
-156.066683
 20
660.229109
 21
656.018391
  0
LINE
  8
APS_GEOMETR�
 10
-156.066683
 11
-132.834336
 20
656.018391
 21
637.614088
  0
LINE
  8
APS_GEOMETR�
 10
-132.834336
 11
-1.451199
 20
637.614088
 21
637.614088
  0
ARC
  8
APS_GEOMETR�
 10
-7.768577
 20
627.350022
 40
12.052399
 50
27.678118
 51
58.38833
  0
ARC
  8
APS_GEOMETR�
 10
-7.010983
 20
627.770813
 40
11.186055
 50
355.279386
 51
27.571908
  0
LINE
  8
APS_GEOMETR�
 10
4.137128
 11
15.421338
 20
626.850233
 21
626.850233
  0
LINE
  8
APS_GEOMETR�
 10
15.421338
 11
26.078525
 20
626.850233
 21
637.6669
  0
LINE
  8
APS_GEOMETR�
 10
26.078525
 11
56.846911
 20
637.6669
 21
637.6669
  0
LINE
  8
APS_GEOMETR�
 10
56.846911
 11
64.741389
 20
637.6669
 21
657.841678
  0
LINE
  8
APS_GEOMETR�
 10
64.741389
 11
49.614363
 20
657.841678
 21
657.841678
  0
ARC
  8
APS_GEOMETR�
 10
25.523899
 20
720.286367
 40
66.930484
 50
275.215739
 51
291.096058
  0
ARC
  8
APS_GEOMETR�
 10
31.335572
 20
656.62059
 40
3.0
 50
180.0
 51
275.215739
  0
LINE
  8
APS_GEOMETR�
 10
28.335572
 11
28.335572
 20
656.62059
 21
671.768025
  0
ARC
  8
APS_GEOMETR�
 10
31.335572
 20
671.768025
 40
3.0
 50
84.784261
 51
180.0
  0
ARC
  8
APS_GEOMETR�
 10
25.523899
 20
608.102248
 40
66.930484
 50
68.903942
 51
84.784261
  0
LINE
  8
APS_GEOMETR�
 10
49.614363
 11
150.161819
 20
670.546937
 21
670.546937
  0
ARC
  8
APS_GEOMETR�
 10
174.252283
 20
608.102248
 40
66.930484
 50
95.215739
 51
111.096058
  0
ARC
  8
APS_GEOMETR�
 10
168.44061
 20
671.768025
 40
3.0
 50
0.0
 51
95.215739
  0
LINE
  8
APS_GEOMETR�
 10
171.44061
 11
171.44061
 20
671.768025
 21
656.62059
  0
ARC
  8
APS_GEOMETR�
 10
168.44061
 20
656.62059
 40
3.0
 50
264.784261
 51
0.0
  0
ARC
  8
APS_GEOMETR�
 10
174.252283
 20
720.286367
 40
66.930484
 50
248.903942
 51
264.784261
  0
LINE
  8
APS_GEOMETR�
 10
150.161819
 11
135.034793
 20
657.841678
 21
657.841678
  0
LINE
  8
APS_GEOMETR�
 10
135.034793
 11
142.929271
 20
657.841678
 21
637.6669
  0
LINE
  8
APS_GEOMETR�
 10
142.929271
 11
173.697657
 20
637.6669
 21
637.6669
  0
LINE
  8
APS_GEOMETR�
 10
173.697657
 11
182.259919
 20
637.6669
 21
628.976508
  0
ENDSEC
  0
EOF
