  0
SECTION
  2
ENTITIES
  0
LINE
  8
0
 10
322.830361
 11
322.376125
 20
1284.258555
 21
1280.931469
  0
LINE
  8
0
 10
297.998887
 11
296.787596
 20
1283.351167
 21
1280.477775
  0
LINE
  8
0
 10
469.825909
 11
471.335402
 20
1073.867687
 21
1027.441345
  0
LINE
  8
0
 10
471.335402
 11
471.991664
 20
1027.441345
 21
1007.257177
  0
LINE
  8
0
 10
481.53879
 11
481.86935
 20
938.974767
 21
932.277263
  0
LINE
  8
0
 10
481.86935
 11
491.854589
 20
932.277263
 21
932.149354
  0
LINE
  8
0
 10
367.230996
 11
365.461235
 20
1224.833102
 21
1219.282369
  0
LINE
  8
0
 10
321.521122
 11
323.463042
 20
1254.707644
 21
1244.03868
  0
LINE
  8
0
 10
323.463042
 11
321.397558
 20
1244.03868
 21
1235.786578
  0
LINE
  8
0
 10
321.397558
 11
322.086048
 20
1235.786578
 21
1226.50296
  0
LINE
  8
0
 10
322.086048
 11
322.086048
 20
1226.50296
 21
1217.907018
  0
LINE
  8
0
 10
335.687761
 11
351.977509
 20
1224.901624
 21
1220.545073
  0
LINE
  8
0
 10
340.906315
 11
330.003743
 20
1245.874691
 21
1241.28798
  0
LINE
  8
0
 10
330.003743
 11
323.463042
 20
1241.28798
 21
1244.03868
  0
LINE
  8
0
 10
392.254576
 11
399.770066
 20
1217.918685
 21
1213.307498
  0
LINE
  8
0
 10
399.770066
 11
403.957775
 20
1213.307498
 21
1213.427005
  0
LINE
  8
0
 10
403.957775
 11
407.786542
 20
1213.427005
 21
1211.156381
  0
LINE
  8
0
 10
407.786542
 11
413.051094
 20
1211.156381
 21
1218.087754
  0
LINE
  8
0
 10
413.051094
 11
418.794244
 20
1218.087754
 21
1218.326769
  0
LINE
  8
0
 10
418.794244
 11
421.90511
 20
1218.326769
 21
1215.578119
  0
LINE
  8
0
 10
421.90511
 11
423.924926
 20
1215.578119
 21
1213.793482
  0
LINE
  8
0
 10
423.924926
 11
428.123772
 20
1213.793482
 21
1218.295044
  0
LINE
  8
0
 10
423.924926
 11
418.469363
 20
1213.793482
 21
1207.944602
  0
LINE
  8
0
 10
418.469363
 11
411.887931
 20
1207.944602
 21
1207.455898
  0
LINE
  8
0
 10
411.887931
 11
407.786542
 20
1207.455898
 21
1211.156381
  0
LINE
  8
0
 10
297.282042
 11
296.750605
 20
1214.537502
 21
1219.527066
  0
LINE
  8
0
 10
296.750605
 11
299.620363
 20
1219.527066
 21
1223.879661
  0
LINE
  8
0
 10
299.620363
 11
296.963174
 20
1223.879661
 21
1227.595292
  0
LINE
  8
0
 10
296.963174
 11
297.600904
 20
1227.595292
 21
1231.629407
  0
LINE
  8
0
 10
297.600904
 11
298.741809
 20
1231.629407
 21
1238.846478
  0
LINE
  8
0
 10
298.741809
 11
297.703777
 20
1238.846478
 21
1242.524576
  0
LINE
  8
0
 10
297.703777
 11
296.003179
 20
1242.524576
 21
1242.84306
  0
LINE
  8
0
 10
296.003179
 11
294.515157
 20
1242.84306
 21
1241.993772
  0
LINE
  8
0
 10
294.515157
 11
291.435707
 20
1241.993772
 21
1240.236176
  0
LINE
  8
0
 10
291.435707
 11
288.563056
 20
1240.236176
 21
1240.507522
  0
LINE
  8
0
 10
288.563056
 11
286.98285
 20
1240.507522
 21
1240.656786
  0
LINE
  8
0
 10
286.98285
 11
285.374437
 20
1240.656786
 21
1240.613682
  0
LINE
  8
0
 10
285.374437
 11
283.904533
 20
1240.613682
 21
1240.57429
  0
LINE
  8
0
 10
283.904533
 11
283.142401
 20
1240.57429
 21
1242.7369
  0
LINE
  8
0
 10
283.142401
 11
282.079525
 20
1242.7369
 21
1244.010829
  0
LINE
  8
0
 10
282.079525
 11
281.336743
 20
1244.010829
 21
1245.944372
  0
LINE
  8
0
 10
297.713443
 11
297.916353
 20
1250.864308
 21
1246.877175
  0
LINE
  8
0
 10
297.916353
 11
297.703777
 20
1246.877175
 21
1242.524576
  0
LINE
  8
0
 10
321.457393
 11
310.245701
 20
1255.47676
 21
1254.202277
  0
LINE
  8
0
 10
310.245701
 11
299.803751
 20
1254.202277
 21
1255.454691
  0
LINE
  8
0
 10
321.074574
 11
308.571523
 20
1268.891973
 21
1265.991584
  0
LINE
  8
0
 10
308.571523
 11
297.398983
 20
1265.991584
 21
1267.159149
  0
LINE
  8
0
 10
322.4303
 11
310.516556
 20
1239.912629
 21
1238.143453
  0
LINE
  8
0
 10
310.516556
 11
298.741809
 20
1238.143453
 21
1238.846478
  0
LINE
  8
0
 10
322.086048
 11
309.560692
 20
1226.50296
 21
1225.15926
  0
LINE
  8
0
 10
309.560692
 11
299.771641
 20
1225.15926
 21
1224.109106
  0
LINE
  8
0
 10
323.192794
 11
314.913499
 20
1213.622515
 21
1211.602236
  0
LINE
  8
0
 10
314.913499
 11
310.900102
 20
1211.602236
 21
1210.622904
  0
LINE
  8
0
 10
310.900102
 11
305.54609
 20
1210.622904
 21
1211.793181
  0
LINE
  8
0
 10
305.54609
 11
301.395881
 20
1211.793181
 21
1212.700331
  0
LINE
  8
0
 10
301.395881
 11
297.282042
 20
1212.700331
 21
1214.537502
  0
LINE
  8
0
 10
298.291768
 11
295.026088
 20
1225.737477
 21
1225.963034
  0
LINE
  8
0
 10
295.026088
 11
291.743639
 20
1225.963034
 21
1226.18975
  0
LINE
  8
0
 10
291.743639
 11
288.53043
 20
1226.18975
 21
1226.411684
  0
LINE
  8
0
 10
288.53043
 11
285.355676
 20
1226.411684
 21
1226.630962
  0
LINE
  8
0
 10
285.355676
 11
283.145185
 20
1226.630962
 21
1227.604974
  0
LINE
  8
0
 10
283.145185
 11
280.978228
 20
1227.604974
 21
1229.172283
  0
LINE
  8
0
 10
280.978228
 11
281.127669
 20
1229.172283
 21
1231.933732
  0
LINE
  8
0
 10
281.127669
 11
282.323234
 20
1231.933732
 21
1232.829333
  0
LINE
  8
0
 10
282.323234
 11
283.967137
 20
1232.829333
 21
1232.754701
  0
LINE
  8
0
 10
283.967137
 11
285.482179
 20
1232.754701
 21
1232.68592
  0
LINE
  8
0
 10
285.482179
 11
288.076878
 20
1232.68592
 21
1231.187393
  0
LINE
  8
0
 10
288.076878
 11
291.364676
 20
1231.187393
 21
1231.485929
  0
LINE
  8
0
 10
291.364676
 11
294.47047
 20
1231.485929
 21
1231.767939
  0
LINE
  8
0
 10
294.47047
 11
296.146928
 20
1231.767939
 21
1232.978603
  0
LINE
  8
0
 10
296.146928
 11
297.957215
 20
1232.978603
 21
1233.883342
  0
LINE
  8
0
 10
270.31863
 11
276.271763
 20
1203.958167
 21
1201.611616
  0
LINE
  8
0
 10
276.271763
 11
280.555716
 20
1201.611616
 21
1199.923006
  0
LINE
  8
0
 10
280.555716
 11
283.59747
 20
1199.923006
 21
1196.654944
  0
LINE
  8
0
 10
283.59747
 11
286.374146
 20
1196.654944
 21
1194.76669
  0
LINE
  8
0
 10
286.374146
 11
291.336726
 20
1194.76669
 21
1190.459108
  0
LINE
  8
0
 10
291.336726
 11
296.535618
 20
1190.459108
 21
1185.974503
  0
LINE
  8
0
 10
296.535618
 11
297.369227
 20
1185.974503
 21
1180.28407
  0
LINE
  8
0
 10
297.369227
 11
296.896603
 20
1180.28407
 21
1177.510695
  0
LINE
  8
0
 10
296.896603
 11
297.605547
 20
1177.510695
 21
1174.265258
  0
LINE
  8
0
 10
297.605547
 11
297.779855
 20
1174.265258
 21
1166.872729
  0
LINE
  8
0
 10
297.779855
 11
299.376302
 20
1166.872729
 21
1162.592628
  0
LINE
  8
0
 10
299.376302
 11
300.372189
 20
1162.592628
 21
1159.922642
  0
LINE
  8
0
 10
300.372189
 11
298.704113
 20
1159.922642
 21
1156.885824
  0
LINE
  8
0
 10
298.704113
 11
299.964474
 20
1156.885824
 21
1154.032423
  0
LINE
  8
0
 10
299.964474
 11
300.384586
 20
1154.032423
 21
1144.381214
  0
LINE
  8
0
 10
300.384586
 11
300.636655
 20
1144.381214
 21
1140.017189
  0
LINE
  8
0
 10
300.636655
 11
299.887891
 20
1140.017189
 21
1135.185098
  0
LINE
  8
0
 10
299.887891
 11
301.064226
 20
1135.185098
 21
1128.303367
  0
LINE
  8
0
 10
301.064226
 11
299.551796
 20
1128.303367
 21
1123.435799
  0
LINE
  8
0
 10
299.551796
 11
299.887891
 20
1123.435799
 21
1118.232539
  0
LINE
  8
0
 10
299.887891
 11
300.413072
 20
1118.232539
 21
1110.10193
  0
LINE
  8
0
 10
300.413072
 11
300.689018
 20
1110.10193
 21
1105.829861
  0
LINE
  8
0
 10
300.689018
 11
301.007282
 20
1105.829861
 21
1100.902642
  0
LINE
  8
0
 10
301.007282
 11
301.268832
 20
1100.902642
 21
1096.85346
  0
LINE
  8
0
 10
301.268832
 11
304.716214
 20
1096.85346
 21
1092.473847
  0
LINE
  8
0
 10
304.716214
 11
307.150935
 20
1092.473847
 21
1089.380735
  0
LINE
  8
0
 10
307.150935
 11
308.64578
 20
1089.380735
 21
1081.152067
  0
LINE
  8
0
 10
308.64578
 11
308.494642
 20
1081.152067
 21
1071.188901
  0
LINE
  8
0
 10
308.494642
 11
307.285813
 20
1071.188901
 21
1068.097778
  0
LINE
  8
0
 10
255.017706
 11
255.057474
 20
1226.486287
 21
1221.446762
  0
LINE
  8
0
 10
255.057474
 11
252.848057
 20
1221.446762
 21
1216.354184
  0
LINE
  8
0
 10
252.848057
 11
258.456574
 20
1216.354184
 21
1214.486905
  0
LINE
  8
0
 10
258.456574
 11
263.385261
 20
1214.486905
 21
1214.317153
  0
LINE
  8
0
 10
263.385261
 11
269.673595
 20
1214.317153
 21
1214.486905
  0
LINE
  8
0
 10
269.673595
 11
275.363015
 20
1214.486905
 21
1214.455815
  0
LINE
  8
0
 10
253.952765
 11
247.749406
 20
1218.900473
 21
1223.144288
  0
LINE
  8
0
 10
247.749406
 11
243.67049
 20
1223.144288
 21
1225.181319
  0
LINE
  8
0
 10
243.67049
 11
240.441346
 20
1225.181319
 21
1223.653546
  0
LINE
  8
0
 10
240.441346
 11
235.838747
 20
1223.653546
 21
1221.475963
  0
LINE
  8
0
 10
235.838747
 11
221.576346
 20
1221.475963
 21
1224.841814
  0
LINE
  8
0
 10
221.576346
 11
210.529274
 20
1224.841814
 21
1227.727608
  0
LINE
  8
0
 10
210.529274
 11
202.881302
 20
1227.727608
 21
1227.048598
  0
LINE
  8
0
 10
202.881302
 11
199.587693
 20
1227.048598
 21
1226.756181
  0
LINE
  8
0
 10
199.587693
 11
192.644134
 20
1226.756181
 21
1226.13971
  0
LINE
  8
0
 10
192.644134
 11
187.755314
 20
1226.13971
 21
1222.804783
  0
LINE
  8
0
 10
187.755314
 11
185.02009
 20
1222.804783
 21
1220.938938
  0
LINE
  8
0
 10
185.02009
 11
186.055764
 20
1220.938938
 21
1217.202947
  0
LINE
  8
0
 10
186.055764
 11
187.755314
 20
1217.202947
 21
1214.826411
  0
LINE
  8
0
 10
187.755314
 11
191.83423
 20
1214.826411
 21
1214.486905
  0
LINE
  8
0
 10
191.83423
 11
196.423013
 20
1214.486905
 21
1215.844926
  0
LINE
  8
0
 10
196.423013
 11
201.555293
 20
1215.844926
 21
1217.363791
  0
LINE
  8
0
 10
201.555293
 11
207.337229
 20
1217.363791
 21
1219.074918
  0
LINE
  8
0
 10
207.337229
 11
226.165129
 20
1219.074918
 21
1214.656658
  0
LINE
  8
0
 10
226.165129
 11
247.239547
 20
1214.656658
 21
1208.375812
  0
LINE
  8
0
 10
247.239547
 11
262.53549
 20
1208.375812
 21
1206.338781
  0
LINE
  8
0
 10
262.53549
 11
270.31863
 20
1206.338781
 21
1203.958167
  0
LINE
  8
0
 10
252.848057
 11
242.820712
 20
1216.354184
 21
1217.542452
  0
LINE
  8
0
 10
242.820712
 11
235.838747
 20
1217.542452
 21
1221.475963
  0
LINE
  8
0
 10
185.02009
 11
181.806885
 20
1220.938938
 21
1223.823298
  0
LINE
  8
0
 10
181.806885
 11
176.198375
 20
1223.823298
 21
1220.088741
  0
LINE
  8
0
 10
176.198375
 11
173.061437
 20
1220.088741
 21
1217.999938
  0
LINE
  8
0
 10
173.061437
 11
168.720359
 20
1217.999938
 21
1212.110369
  0
LINE
  8
0
 10
168.720359
 11
169.230219
 20
1212.110369
 21
1206.678286
  0
LINE
  8
0
 10
169.230219
 11
173.988958
 20
1206.678286
 21
1206.848039
  0
LINE
  8
0
 10
173.988958
 11
179.42752
 20
1206.848039
 21
1206.508533
  0
LINE
  8
0
 10
179.42752
 11
183.846347
 20
1206.508533
 21
1202.943729
  0
LINE
  8
0
 10
183.846347
 11
189.454865
 20
1202.943729
 21
1195.644364
  0
LINE
  8
0
 10
189.454865
 11
191.324363
 20
1195.644364
 21
1189.533271
  0
LINE
  8
0
 10
191.324363
 11
191.83423
 20
1189.533271
 21
1182.403662
  0
LINE
  8
0
 10
191.83423
 11
188.265174
 20
1182.403662
 21
1178.329599
  0
LINE
  8
0
 10
188.265174
 11
185.719073
 20
1178.329599
 21
1173.841974
  0
LINE
  8
0
 10
185.719073
 11
186.144089
 20
1173.841974
 21
1171.719443
  0
LINE
  8
0
 10
186.144089
 11
188.375398
 20
1171.719443
 21
1170.552051
  0
LINE
  8
0
 10
188.375398
 11
190.849439
 20
1170.552051
 21
1169.257665
  0
LINE
  8
0
 10
190.849439
 11
193.581794
 20
1169.257665
 21
1170.552051
  0
LINE
  8
0
 10
193.581794
 11
195.55441
 20
1170.552051
 21
1171.48653
  0
LINE
  8
0
 10
195.55441
 11
197.616123
 20
1171.48653
 21
1167.162604
  0
LINE
  8
0
 10
197.616123
 11
200.68707
 20
1167.162604
 21
1160.722062
  0
LINE
  8
0
 10
200.68707
 11
202.947085
 20
1160.722062
 21
1157.018959
  0
LINE
  8
0
 10
202.947085
 11
209.113522
 20
1157.018959
 21
1147.428252
  0
LINE
  8
0
 10
209.113522
 11
213.892974
 20
1147.428252
 21
1140.744982
  0
LINE
  8
0
 10
185.931581
 11
181.26802
 20
1172.780708
 21
1166.268981
  0
LINE
  8
0
 10
181.26802
 11
178.516846
 20
1166.268981
 21
1151.00289
  0
LINE
  8
0
 10
178.516846
 11
174.23724
 20
1151.00289
 21
1097.876893
  0
LINE
  8
0
 10
174.23724
 11
172.720764
 20
1097.876893
 21
1035.418123
  0
LINE
  8
0
 10
172.720764
 11
171.868219
 20
1035.418123
 21
1000.30455
  0
LINE
  8
0
 10
171.868219
 11
175.471938
 20
1000.30455
 21
971.605867
  0
LINE
  8
0
 10
175.471938
 11
182.513075
 20
971.605867
 21
952.146479
  0
LINE
  8
0
 10
182.513075
 11
184.839135
 20
952.146479
 21
945.718014
  0
LINE
  8
0
 10
184.839135
 11
182.588503
 20
945.718014
 21
940.334246
  0
LINE
  8
0
 10
182.588503
 11
181.433027
 20
940.334246
 21
937.816208
  0
LINE
  8
0
 10
181.433027
 11
179.752332
 20
937.816208
 21
936.557188
  0
LINE
  8
0
 10
179.752332
 11
178.49181
 20
936.557188
 21
936.032598
  0
LINE
  8
0
 10
178.49181
 11
176.653551
 20
936.032598
 21
935.455548
  0
LINE
  8
0
 10
176.653551
 11
173.68634
 20
935.455548
 21
935.709576
  0
LINE
  8
0
 10
174.883972
 11
173.329613
 20
937.798266
 21
935.087439
  0
LINE
  8
0
 10
173.329613
 11
172.555664
 20
935.087439
 21
933.737658
  0
LINE
  8
0
 10
172.555664
 11
173.239496
 20
933.737658
 21
931.13689
  0
LINE
  8
0
 10
173.239496
 11
170.947512
 20
931.13689
 21
929.292488
  0
LINE
  8
0
 10
170.947512
 11
168.824427
 20
929.292488
 21
924.30463
  0
LINE
  8
0
 10
168.824427
 11
163.611642
 20
924.30463
 21
917.005275
  0
LINE
  8
0
 10
163.611642
 11
160.018178
 20
917.005275
 21
906.853016
  0
LINE
  8
0
 10
160.018178
 11
152.211558
 20
906.853016
 21
884.797744
  0
LINE
  8
0
 10
152.211558
 11
148.417822
 20
884.797744
 21
841.965791
  0
LINE
  8
0
 10
148.417822
 11
142.779616
 20
841.965791
 21
808.858721
  0
LINE
  8
0
 10
142.779616
 11
131.922762
 20
808.858721
 21
769.846434
  0
LINE
  8
0
 10
131.922762
 11
122.054449
 20
769.846434
 21
747.846556
  0
LINE
  8
0
 10
122.054449
 11
116.698163
 20
747.846556
 21
735.905545
  0
LINE
  8
0
 10
116.698163
 11
112.554447
 20
735.905545
 21
726.667771
  0
LINE
  8
0
 10
112.554447
 11
107.062137
 20
726.667771
 21
731.295791
  0
LINE
  8
0
 10
107.062137
 11
109.393293
 20
731.295791
 21
734.903223
  0
LINE
  8
0
 10
109.393293
 11
114.626305
 20
734.903223
 21
731.286658
  0
LINE
  8
0
 10
109.286193
 11
109.605899
 20
734.737488
 21
740.069658
  0
LINE
  8
0
 10
109.605899
 11
111.855386
 20
740.069658
 21
741.398382
  0
LINE
  8
0
 10
111.855386
 11
113.843739
 20
741.398382
 21
746.431985
  0
LINE
  8
0
 10
113.843739
 11
122.632367
 20
746.431985
 21
768.680781
  0
LINE
  8
0
 10
122.632367
 11
127.493727
 20
768.680781
 21
785.54176
  0
LINE
  8
0
 10
127.493727
 11
131.25118
 20
785.54176
 21
803.25283
  0
LINE
  8
0
 10
131.25118
 11
133.758446
 20
803.25283
 21
820.52769
  0
LINE
  8
0
 10
133.758446
 11
135.29337
 20
820.52769
 21
841.060735
  0
LINE
  8
0
 10
135.29337
 11
137.283645
 20
841.060735
 21
867.685114
  0
LINE
  8
0
 10
137.283645
 11
136.363658
 20
867.685114
 21
874.192325
  0
LINE
  8
0
 10
136.363658
 11
137.227504
 20
874.192325
 21
883.74598
  0
LINE
  8
0
 10
137.227504
 11
144.055681
 20
883.74598
 21
895.113414
  0
LINE
  8
0
 10
144.055681
 11
145.252694
 20
895.113414
 21
909.225212
  0
LINE
  8
0
 10
145.252694
 11
147.743555
 20
909.225212
 21
920.954743
  0
LINE
  8
0
 10
147.743555
 11
153.741073
 20
920.954743
 21
925.682636
  0
LINE
  8
0
 10
153.741073
 11
153.792106
 20
925.682636
 21
928.780572
  0
LINE
  8
0
 10
153.792106
 11
146.020241
 20
928.780572
 21
930.116294
  0
LINE
  8
0
 10
146.020241
 11
141.140794
 20
930.116294
 21
930.954906
  0
LINE
  8
0
 10
141.140794
 11
138.172889
 20
930.954906
 21
932.522986
  0
LINE
  8
0
 10
138.172889
 11
135.603571
 20
932.522986
 21
928.843941
  0
LINE
  8
0
 10
135.603571
 11
135.073024
 20
928.843941
 21
924.90499
  0
LINE
  8
0
 10
135.073024
 11
136.333987
 20
924.90499
 21
922.303137
  0
LINE
  8
0
 10
136.333987
 11
138.285904
 20
922.303137
 21
921.364424
  0
LINE
  8
0
 10
138.285904
 11
134.459265
 20
921.364424
 21
914.502422
  0
LINE
  8
0
 10
134.459265
 11
132.458016
 20
914.502422
 21
904.674741
  0
LINE
  8
0
 10
132.458016
 11
128.174385
 20
904.674741
 21
890.91917
  0
LINE
  8
0
 10
128.174385
 11
119.028145
 20
890.91917
 21
860.146055
  0
LINE
  8
0
 10
119.028145
 11
113.987241
 20
860.146055
 21
843.185606
  0
LINE
  8
0
 10
113.987241
 11
103.209049
 20
843.185606
 21
806.921681
  0
LINE
  8
0
 10
103.209049
 11
92.584812
 20
806.921681
 21
771.175746
  0
LINE
  8
0
 10
92.584812
 11
86.264345
 20
771.175746
 21
749.910124
  0
LINE
  8
0
 10
86.264345
 11
85.166131
 20
749.910124
 21
746.215115
  0
LINE
  8
0
 10
85.166131
 11
85.874983
 20
746.215115
 21
742.0005
  0
LINE
  8
0
 10
85.874983
 11
85.780815
 20
742.0005
 21
739.133666
  0
LINE
  8
0
 10
85.780815
 11
86.55113
 20
739.133666
 21
733.435525
  0
LINE
  8
0
 10
86.55113
 11
89.144729
 20
733.435525
 21
732.945695
  0
LINE
  8
0
 10
89.144729
 11
92.86905
 20
732.945695
 21
733.611783
  0
LINE
  8
0
 10
92.86905
 11
94.696251
 20
733.611783
 21
732.529819
  0
LINE
  8
0
 10
94.696251
 11
97.195499
 20
732.529819
 21
733.378615
  0
LINE
  8
0
 10
97.195499
 11
99.753183
 20
733.378615
 21
734.247257
  0
LINE
  8
0
 10
99.753183
 11
101.837172
 20
734.247257
 21
732.495026
  0
LINE
  8
0
 10
101.837172
 11
107.062137
 20
732.495026
 21
731.295791
  0
LINE
  8
0
 10
109.605899
 11
107.926046
 20
740.069658
 21
752.955631
  0
LINE
  8
0
 10
107.926046
 11
107.220371
 20
752.955631
 21
764.878473
  0
LINE
  8
0
 10
107.220371
 11
108.785487
 20
764.878473
 21
778.97922
  0
LINE
  8
0
 10
108.785487
 11
110.099155
 20
778.97922
 21
790.814563
  0
LINE
  8
0
 10
110.099155
 11
117.669674
 20
790.814563
 21
811.608382
  0
LINE
  8
0
 10
117.669674
 11
122.100203
 20
811.608382
 21
829.00513
  0
LINE
  8
0
 10
122.100203
 11
126.122021
 20
829.00513
 21
844.797049
  0
LINE
  8
0
 10
126.122021
 11
132.74938
 20
844.797049
 21
863.340245
  0
LINE
  8
0
 10
132.74938
 11
136.363658
 20
863.340245
 21
874.192325
  0
LINE
  8
0
 10
172.942638
 11
168.266923
 20
934.412548
 21
933.361535
  0
LINE
  8
0
 10
168.266923
 11
166.021985
 20
933.361535
 21
933.998128
  0
LINE
  8
0
 10
166.021985
 11
165.636908
 20
933.998128
 21
934.812562
  0
LINE
  8
0
 10
165.636908
 11
164.128063
 20
934.812562
 21
936.29586
  0
LINE
  8
0
 10
164.128063
 11
163.403815
 20
936.29586
 21
937.273409
  0
LINE
  8
0
 10
163.403815
 11
162.155363
 20
937.273409
 21
936.390589
  0
LINE
  8
0
 10
162.155363
 11
161.227868
 20
936.390589
 21
935.734728
  0
LINE
  8
0
 10
161.227868
 11
159.479361
 20
935.734728
 21
935.173381
  0
LINE
  8
0
 10
159.479361
 11
157.774953
 20
935.173381
 21
934.11816
  0
LINE
  8
0
 10
157.774953
 11
157.052413
 20
934.11816
 21
933.803941
  0
LINE
  8
0
 10
174.883972
 11
174.379579
 20
937.798266
 21
940.911369
  0
LINE
  8
0
 10
174.379579
 11
173.597656
 20
940.911369
 21
944.035553
  0
LINE
  8
0
 10
173.597656
 11
172.97842
 20
944.035553
 21
946.843918
  0
LINE
  8
0
 10
172.97842
 11
170.86405
 20
946.843918
 21
948.284536
  0
LINE
  8
0
 10
170.86405
 11
166.897038
 20
948.284536
 21
950.108871
  0
LINE
  8
0
 10
166.897038
 11
162.133567
 20
950.108871
 21
950.614703
  0
LINE
  8
0
 10
162.133567
 11
155.205873
 20
950.614703
 21
952.604394
  0
LINE
  8
0
 10
155.205873
 11
149.64006
 20
952.604394
 21
952.539373
  0
LINE
  8
0
 10
149.64006
 11
144.843727
 20
952.539373
 21
950.190873
  0
LINE
  8
0
 10
144.843727
 11
143.234413
 20
950.190873
 21
947.786484
  0
LINE
  8
0
 10
143.234413
 11
143.538698
 20
947.786484
 21
942.805217
  0
LINE
  8
0
 10
143.538698
 11
143.806245
 20
942.805217
 21
937.6811
  0
LINE
  8
0
 10
143.806245
 11
147.471191
 20
937.6811
 21
936.572465
  0
LINE
  8
0
 10
143.806245
 11
140.319608
 20
937.6811
 21
938.044363
  0
LINE
  8
0
 10
140.319608
 11
137.530364
 20
938.044363
 21
940.498622
  0
LINE
  8
0
 10
137.530364
 11
136.534212
 20
940.498622
 21
946.136789
  0
LINE
  8
0
 10
136.534212
 11
137.264726
 20
946.136789
 21
953.897558
  0
LINE
  8
0
 10
137.264726
 11
138.858572
 20
953.897558
 21
957.545783
  0
LINE
  8
0
 10
138.858572
 11
138.569606
 20
957.545783
 21
956.884356
  0
LINE
  8
0
 10
138.858572
 11
141.678734
 20
957.545783
 21
965.20366
  0
LINE
  8
0
 10
141.678734
 11
143.779846
 20
965.20366
 21
970.909028
  0
LINE
  8
0
 10
143.779846
 11
148.384986
 20
970.909028
 21
983.413843
  0
LINE
  8
0
 10
148.384986
 11
149.934382
 20
983.413843
 21
998.905147
  0
LINE
  8
0
 10
149.934382
 11
150.170572
 20
998.905147
 21
1009.108243
  0
LINE
  8
0
 10
150.170572
 11
150.590684
 20
1009.108243
 21
1027.256574
  0
LINE
  8
0
 10
150.590684
 11
151.218562
 20
1027.256574
 21
1042.125988
  0
LINE
  8
0
 10
151.218562
 11
152.026814
 20
1042.125988
 21
1061.267002
  0
LINE
  8
0
 10
152.026814
 11
154.244998
 20
1061.267002
 21
1148.49259
  0
LINE
  8
0
 10
154.244998
 11
154.64452
 20
1148.49259
 21
1164.202988
  0
LINE
  8
0
 10
154.64452
 11
151.2282
 20
1164.202988
 21
1177.813982
  0
LINE
  8
0
 10
151.2282
 11
150.495415
 20
1177.813982
 21
1186.216325
  0
LINE
  8
0
 10
150.495415
 11
150.037906
 20
1186.216325
 21
1191.462253
  0
LINE
  8
0
 10
150.037906
 11
151.557847
 20
1191.462253
 21
1195.435193
  0
LINE
  8
0
 10
151.557847
 11
154.545929
 20
1195.435193
 21
1198.287073
  0
LINE
  8
0
 10
154.545929
 11
161.916536
 20
1198.287073
 21
1201.536891
  0
LINE
  8
0
 10
161.916536
 11
167.295091
 20
1201.536891
 21
1204.256126
  0
LINE
  8
0
 10
167.295091
 11
169.230219
 20
1204.256126
 21
1206.678286
  0
LINE
  8
0
 10
228.791938
 11
222.175326
 20
1213.873786
 21
1210.081064
  0
LINE
  8
0
 10
222.175326
 11
212.636943
 20
1210.081064
 21
1207.911543
  0
LINE
  8
0
 10
212.636943
 11
209.520439
 20
1207.911543
 21
1212.910875
  0
LINE
  8
0
 10
209.520439
 11
203.854071
 20
1212.910875
 21
1212.816547
  0
LINE
  8
0
 10
203.854071
 11
200.454252
 20
1212.816547
 21
1208.760486
  0
LINE
  8
0
 10
200.454252
 11
191.83423
 20
1208.760486
 21
1214.486905
  0
LINE
  8
0
 10
212.636943
 11
200.454252
 20
1207.911543
 21
1208.760486
  0
LINE
  8
0
 10
252.640239
 11
248.251594
 20
1207.656577
 21
1204.425582
  0
LINE
  8
0
 10
248.251594
 11
244.65607
 20
1204.425582
 21
1201.778497
  0
LINE
  8
0
 10
244.65607
 11
242.662956
 20
1201.778497
 21
1196.882368
  0
LINE
  8
0
 10
242.662956
 11
246.248083
 20
1196.882368
 21
1194.185882
  0
LINE
  8
0
 10
246.248083
 11
249.039199
 20
1194.185882
 21
1192.086596
  0
LINE
  8
0
 10
249.039199
 11
270.44022
 20
1192.086596
 21
1187.100955
  0
LINE
  8
0
 10
270.44022
 11
285.097669
 20
1187.100955
 21
1185.670591
  0
LINE
  8
0
 10
285.097669
 11
296.535618
 20
1185.670591
 21
1185.974503
  0
LINE
  8
0
 10
296.896603
 11
281.812318
 20
1177.510695
 21
1179.033134
  0
LINE
  8
0
 10
281.812318
 11
262.846878
 20
1179.033134
 21
1182.538308
  0
LINE
  8
0
 10
262.846878
 11
249.182805
 20
1182.538308
 21
1185.596014
  0
LINE
  8
0
 10
249.182805
 11
241.641432
 20
1185.596014
 21
1190.294439
  0
LINE
  8
0
 10
241.641432
 11
238.729412
 20
1190.294439
 21
1193.501298
  0
LINE
  8
0
 10
238.729412
 11
238.057406
 20
1193.501298
 21
1195.664067
  0
LINE
  8
0
 10
238.057406
 11
238.799348
 20
1195.664067
 21
1198.747294
  0
LINE
  8
0
 10
238.799348
 11
240.815357
 20
1198.747294
 21
1200.537169
  0
LINE
  8
0
 10
240.815357
 11
244.013085
 20
1200.537169
 21
1203.37621
  0
LINE
  8
0
 10
244.013085
 11
246.992589
 20
1203.37621
 21
1206.021505
  0
LINE
  8
0
 10
246.992589
 11
248.167002
 20
1206.021505
 21
1208.252299
  0
LINE
  8
0
 10
270.204902
 11
300.372189
 20
1148.320846
 21
1159.922642
  0
LINE
  8
0
 10
297.779855
 11
270.744915
 20
1166.872729
 21
1155.708437
  0
LINE
  8
0
 10
270.744915
 11
248.019275
 20
1155.708437
 21
1163.981752
  0
LINE
  8
0
 10
248.019275
 11
230.284777
 20
1163.981752
 21
1172.149002
  0
LINE
  8
0
 10
230.284777
 11
226.718558
 20
1172.149002
 21
1175.440985
  0
LINE
  8
0
 10
226.718558
 11
226.497093
 20
1175.440985
 21
1176.030834
  0
LINE
  8
0
 10
226.497093
 11
226.128001
 20
1176.030834
 21
1176.620686
  0
LINE
  8
0
 10
226.128001
 11
225.685086
 20
1176.620686
 21
1177.210538
  0
LINE
  8
0
 10
225.685086
 11
225.426714
 20
1177.210538
 21
1177.689795
  0
LINE
  8
0
 10
225.426714
 11
225.16835
 20
1177.689795
 21
1178.31651
  0
LINE
  8
0
 10
225.16835
 11
225.242171
 20
1178.31651
 21
1178.795767
  0
LINE
  8
0
 10
225.242171
 11
225.242171
 20
1178.795767
 21
1179.348753
  0
LINE
  8
0
 10
225.242171
 11
225.389807
 20
1179.348753
 21
1179.717408
  0
LINE
  8
0
 10
225.389807
 11
225.832722
 20
1179.717408
 21
1180.122933
  0
LINE
  8
0
 10
225.832722
 11
226.275636
 20
1180.122933
 21
1180.380993
  0
LINE
  8
0
 10
226.275636
 11
226.976923
 20
1180.380993
 21
1180.675919
  0
LINE
  8
0
 10
226.976923
 11
227.346023
 20
1180.675919
 21
1180.82338
  0
LINE
  8
0
 10
227.346023
 11
227.788938
 20
1180.82338
 21
1180.933979
  0
LINE
  8
0
 10
227.788938
 11
243.344539
 20
1180.933979
 21
1189.233369
  0
LINE
  8
0
 10
300.510621
 11
265.130798
 20
1142.199201
 21
1128.773035
  0
LINE
  8
0
 10
265.130798
 11
252.57239
 20
1128.773035
 21
1132.922751
  0
LINE
  8
0
 10
252.57239
 11
218.165742
 20
1132.922751
 21
1151.061718
  0
LINE
  8
0
 10
218.165742
 11
217.976893
 20
1151.061718
 21
1152.665016
  0
LINE
  8
0
 10
217.976893
 11
219.10998
 20
1152.665016
 21
1153.3252
  0
LINE
  8
0
 10
219.10998
 11
220.4661
 20
1153.3252
 21
1154.115333
  0
LINE
  8
0
 10
220.4661
 11
222.115753
 20
1154.115333
 21
1155.07649
  0
LINE
  8
0
 10
222.115753
 11
230.804999
 20
1155.07649
 21
1163.600552
  0
LINE
  8
0
 10
226.711277
 11
218.449012
 20
1165.642489
 21
1159.946464
  0
LINE
  8
0
 10
218.449012
 11
213.25568
 20
1159.946464
 21
1154.947943
  0
LINE
  8
0
 10
213.25568
 11
212.311442
 20
1154.947943
 21
1152.401525
  0
LINE
  8
0
 10
212.311442
 11
211.500673
 20
1152.401525
 21
1150.215046
  0
LINE
  8
0
 10
211.500673
 11
212.217014
 20
1150.215046
 21
1147.30869
  0
LINE
  8
0
 10
212.217014
 11
212.731571
 20
1147.30869
 21
1145.221017
  0
LINE
  8
0
 10
212.731571
 11
215.049743
 20
1145.221017
 21
1143.158974
  0
LINE
  8
0
 10
215.049743
 11
218.637861
 20
1143.158974
 21
1141.744297
  0
LINE
  8
0
 10
218.637861
 11
247.7205
 20
1141.744297
 21
1126.560108
  0
LINE
  8
0
 10
247.7205
 11
261.2517
 20
1126.560108
 21
1120.950215
  0
LINE
  8
0
 10
261.2517
 11
299.887891
 20
1120.950215
 21
1135.185098
  0
LINE
  8
0
 10
299.551796
 11
281.054253
 20
1123.435799
 21
1109.625599
  0
LINE
  8
0
 10
281.054253
 11
257.057596
 20
1109.625599
 21
1093.528178
  0
LINE
  8
0
 10
257.057596
 11
229.486637
 20
1093.528178
 21
1107.014322
  0
LINE
  8
0
 10
229.486637
 11
216.430034
 20
1107.014322
 21
1117.889569
  0
LINE
  8
0
 10
216.430034
 11
211.425713
 20
1117.889569
 21
1124.019634
  0
LINE
  8
0
 10
211.425713
 11
210.480435
 20
1124.019634
 21
1126.430045
  0
LINE
  8
0
 10
210.480435
 11
210.291593
 20
1126.430045
 21
1128.976379
  0
LINE
  8
0
 10
210.291593
 11
211.991174
 20
1128.976379
 21
1130.768243
  0
LINE
  8
0
 10
211.991174
 11
213.596334
 20
1130.768243
 21
1131.899949
  0
LINE
  8
0
 10
213.596334
 11
224.048912
 20
1131.899949
 21
1138.919161
  0
LINE
  8
0
 10
205.759383
 11
205.759383
 20
1130.108082
 21
1124.355252
  0
LINE
  8
0
 10
205.759383
 11
206.231487
 20
1124.355252
 21
1120.771521
  0
LINE
  8
0
 10
206.231487
 11
208.025488
 20
1120.771521
 21
1117.942261
  0
LINE
  8
0
 10
208.025488
 11
209.629237
 20
1117.942261
 21
1115.413041
  0
LINE
  8
0
 10
209.629237
 11
220.314838
 20
1115.413041
 21
1104.489563
  0
LINE
  8
0
 10
220.314838
 11
235.422208
 20
1104.489563
 21
1095.341621
  0
LINE
  8
0
 10
235.422208
 11
257.611171
 20
1095.341621
 21
1085.344899
  0
LINE
  8
0
 10
257.611171
 11
267.379043
 20
1085.344899
 21
1089.64985
  0
LINE
  8
0
 10
267.379043
 11
283.430627
 20
1089.64985
 21
1103.418917
  0
LINE
  8
0
 10
283.430627
 11
299.887891
 20
1103.418917
 21
1118.232539
  0
LINE
  8
0
 10
254.515988
 11
281.382101
 20
1065.579048
 21
1087.426425
  0
LINE
  8
0
 10
281.382101
 11
300.551045
 20
1087.426425
 21
1107.965895
  0
LINE
  8
0
 10
301.268832
 11
270.495546
 20
1096.85346
 21
1067.396118
  0
LINE
  8
0
 10
270.495546
 11
256.744105
 20
1067.396118
 21
1056.904053
  0
LINE
  8
0
 10
256.744105
 11
251.969303
 20
1056.904053
 21
1056.713289
  0
LINE
  8
0
 10
302.307393
 11
293.719832
 20
1095.534054
 21
1083.290356
  0
LINE
  8
0
 10
293.719832
 11
285.565305
 20
1083.290356
 21
1070.620635
  0
LINE
  8
0
 10
285.565305
 11
274.180991
 20
1070.620635
 21
1050.193857
  0
LINE
  8
0
 10
274.180991
 11
263.336636
 20
1050.193857
 21
1035.302535
  0
LINE
  8
0
 10
263.336636
 11
255.277425
 20
1035.302535
 21
1029.433018
  0
LINE
  8
0
 10
255.277425
 11
244.615753
 20
1029.433018
 21
1029.181469
  0
LINE
  8
0
 10
244.615753
 11
235.045435
 20
1029.181469
 21
1035.805633
  0
LINE
  8
0
 10
235.045435
 11
225.139314
 20
1035.805633
 21
1049.053968
  0
LINE
  8
0
 10
225.139314
 11
215.707866
 20
1049.053968
 21
1064.029614
  0
LINE
  8
0
 10
215.707866
 11
208.643078
 20
1064.029614
 21
1080.858089
  0
LINE
  8
0
 10
208.643078
 11
206.292473
 20
1080.858089
 21
1089.746212
  0
LINE
  8
0
 10
206.292473
 11
210.214637
 20
1089.746212
 21
1094.33215
  0
LINE
  8
0
 10
207.719211
 11
202.262863
 20
1099.366776
 21
1090.249313
  0
LINE
  8
0
 10
202.262863
 11
202.011009
 20
1090.249313
 21
1082.618946
  0
LINE
  8
0
 10
202.011009
 11
204.781366
 20
1082.618946
 21
1075.575527
  0
LINE
  8
0
 10
204.781366
 11
211.970746
 20
1075.575527
 21
1057.29709
  0
LINE
  8
0
 10
211.970746
 11
227.217793
 20
1057.29709
 21
1033.714047
  0
LINE
  8
0
 10
227.217793
 11
241.237466
 20
1033.714047
 21
1019.794911
  0
LINE
  8
0
 10
241.237466
 11
246.022625
 20
1019.794911
 21
1019.040257
  0
LINE
  8
0
 10
246.022625
 11
249.967347
 20
1019.040257
 21
1018.418146
  0
LINE
  8
0
 10
249.967347
 11
255.425045
 20
1018.418146
 21
1020.298013
  0
LINE
  8
0
 10
255.425045
 11
264.854887
 20
1020.298013
 21
1028.666957
  0
LINE
  8
0
 10
264.854887
 11
279.470457
 20
1028.666957
 21
1049.168418
  0
LINE
  8
0
 10
279.470457
 11
287.865472
 20
1049.168418
 21
1063.674505
  0
LINE
  8
0
 10
287.865472
 11
304.610243
 20
1063.674505
 21
1092.608474
  0
LINE
  8
0
 10
300.821664
 11
300.249702
 20
1068.267685
 21
1077.796702
  0
LINE
  8
0
 10
300.249702
 11
298.421969
 20
1077.796702
 21
1081.915504
  0
LINE
  8
0
 10
204.781366
 11
197.602989
 20
1075.575527
 21
1064.713949
  0
LINE
  8
0
 10
197.602989
 11
197.035494
 20
1064.713949
 21
1060.801278
  0
LINE
  8
0
 10
197.035494
 11
198.798394
 20
1060.801278
 21
1051.997292
  0
LINE
  8
0
 10
198.798394
 11
202.240237
 20
1051.997292
 21
1041.264813
  0
LINE
  8
0
 10
202.240237
 11
211.313928
 20
1041.264813
 21
1019.165034
  0
LINE
  8
0
 10
211.313928
 11
225.843101
 20
1019.165034
 21
995.467315
  0
LINE
  8
0
 10
225.843101
 11
233.331054
 20
995.467315
 21
988.22946
  0
LINE
  8
0
 10
233.331054
 11
238.619739
 20
988.22946
 21
987.390985
  0
LINE
  8
0
 10
238.619739
 11
244.663958
 20
987.390985
 21
988.061767
  0
LINE
  8
0
 10
244.663958
 11
250.624228
 20
988.061767
 21
991.247973
  0
LINE
  8
0
 10
250.624228
 11
256.836338
 20
991.247973
 21
998.039618
  0
LINE
  8
0
 10
256.836338
 11
263.300287
 20
998.039618
 21
1008.101318
  0
LINE
  8
0
 10
263.300287
 11
266.238452
 20
1008.101318
 21
1013.216016
  0
LINE
  8
0
 10
266.238452
 11
276.440289
 20
1013.216016
 21
1035.403158
  0
LINE
  8
0
 10
276.440289
 11
283.656628
 20
1035.403158
 21
1049.227031
  0
LINE
  8
0
 10
283.656628
 11
290.45141
 20
1049.227031
 21
1052.092522
  0
LINE
  8
0
 10
290.45141
 11
296.247422
 20
1052.092522
 21
1054.536814
  0
LINE
  8
0
 10
296.247422
 11
299.519081
 20
1054.536814
 21
1054.92755
  0
LINE
  8
0
 10
202.240237
 11
200.287823
 20
1041.264813
 21
1034.066535
  0
LINE
  8
0
 10
200.287823
 11
204.158208
 20
1034.066535
 21
1018.886288
  0
LINE
  8
0
 10
204.158208
 11
207.273396
 20
1018.886288
 21
1011.720455
  0
LINE
  8
0
 10
207.273396
 11
224.37047
 20
1011.720455
 21
984.970486
  0
LINE
  8
0
 10
224.37047
 11
236.942111
 20
984.970486
 21
972.11593
  0
LINE
  8
0
 10
236.942111
 11
247.231668
 20
972.11593
 21
971.361631
  0
LINE
  8
0
 10
247.231668
 11
254.217241
 20
971.361631
 21
976.641717
  0
LINE
  8
0
 10
254.217241
 11
259.220423
 20
976.641717
 21
986.353305
  0
LINE
  8
0
 10
259.220423
 11
264.695601
 20
986.353305
 21
1000.684966
  0
LINE
  8
0
 10
264.695601
 11
265.955419
 20
1000.684966
 21
1006.352235
  0
LINE
  8
0
 10
265.955419
 11
280.207067
 20
1006.352235
 21
1026.336686
  0
LINE
  8
0
 10
280.207067
 11
284.062781
 20
1026.336686
 21
1028.967092
  0
LINE
  8
0
 10
284.062781
 11
287.053992
 20
1028.967092
 21
1030.067807
  0
LINE
  8
0
 10
287.053992
 11
289.765903
 20
1030.067807
 21
1031.065745
  0
LINE
  8
0
 10
289.765903
 11
292.144305
 20
1031.065745
 21
1030.067807
  0
LINE
  8
0
 10
292.144305
 11
294.29588
 20
1030.067807
 21
1029.858146
  0
LINE
  8
0
 10
294.29588
 11
297.593467
 20
1029.858146
 21
1027.815467
  0
LINE
  8
0
 10
297.843302
 11
288.367973
 20
1035.581537
 21
1038.629379
  0
LINE
  8
0
 10
288.367973
 11
276.440289
 20
1038.629379
 21
1035.403158
  0
LINE
  8
0
 10
207.273396
 11
209.299128
 20
1011.720455
 21
999.61588
  0
LINE
  8
0
 10
209.299128
 11
211.808008
 20
999.61588
 21
992.577263
  0
LINE
  8
0
 10
211.808008
 11
216.827819
 20
992.577263
 21
981.130158
  0
LINE
  8
0
 10
216.827819
 11
224.335605
 20
981.130158
 21
969.655525
  0
LINE
  8
0
 10
224.335605
 11
232.075619
 20
969.655525
 21
961.359052
  0
LINE
  8
0
 10
232.075619
 11
236.511971
 20
961.359052
 21
957.399376
  0
LINE
  8
0
 10
236.511971
 11
248.121995
 20
957.399376
 21
957.399376
  0
LINE
  8
0
 10
243.685644
 11
239.438072
 20
961.924722
 21
962.113278
  0
LINE
  8
0
 10
239.438072
 11
234.71855
 20
962.113278
 21
965.507289
  0
LINE
  8
0
 10
234.71855
 11
230.470979
 20
965.507289
 21
972.106754
  0
LINE
  8
0
 10
230.470979
 11
223.486087
 20
972.106754
 21
983.231568
  0
LINE
  8
0
 10
223.486087
 11
224.37047
 20
983.231568
 21
984.970486
  0
LINE
  8
0
 10
112.743225
 11
116.165402
 20
709.32745
 21
706.757193
  0
LINE
  8
0
 10
116.165402
 11
117.536802
 20
706.757193
 21
703.334589
  0
LINE
  8
0
 10
117.536802
 11
119.138199
 20
703.334589
 21
693.819283
  0
LINE
  8
0
 10
119.138199
 11
120.152422
 20
693.819283
 21
680.448424
  0
LINE
  8
0
 10
120.152422
 11
121.582462
 20
680.448424
 21
674.307503
  0
LINE
  8
0
 10
121.582462
 11
122.69392
 20
674.307503
 21
670.800177
  0
LINE
  8
0
 10
122.69392
 11
123.547126
 20
670.800177
 21
668.107792
  0
LINE
  8
0
 10
123.547126
 11
122.214181
 20
668.107792
 21
666.88179
  0
LINE
  8
0
 10
122.214181
 11
121.766928
 20
666.88179
 21
665.767047
  0
LINE
  8
0
 10
121.766928
 11
120.236397
 20
665.767047
 21
665.101151
  0
LINE
  8
0
 10
120.236397
 11
119.166461
 20
665.101151
 21
664.894438
  0
LINE
  8
0
 10
119.166461
 11
118.14811
 20
664.894438
 21
664.888311
  0
LINE
  8
0
 10
118.14811
 11
117.557184
 20
664.888311
 21
664.879485
  0
LINE
  8
0
 10
117.557184
 11
117.092458
 20
664.879485
 21
664.945205
  0
LINE
  8
0
 10
117.092458
 11
116.693131
 20
664.945205
 21
665.01553
  0
LINE
  8
0
 10
116.693131
 11
116.354606
 20
665.01553
 21
665.155795
  0
LINE
  8
0
 10
116.354606
 11
115.950682
 20
665.155795
 21
665.29145
  0
LINE
  8
0
 10
115.950682
 11
114.851282
 20
665.29145
 21
665.968929
  0
LINE
  8
0
 10
114.851282
 11
113.752355
 20
665.968929
 21
667.105988
  0
LINE
  8
0
 10
113.752355
 11
112.497772
 20
667.105988
 21
669.052695
  0
LINE
  8
0
 10
112.497772
 11
112.225958
 20
669.052695
 21
672.363184
  0
LINE
  8
0
 10
112.225958
 11
111.88298
 20
672.363184
 21
676.540394
  0
LINE
  8
0
 10
111.88298
 11
111.649721
 20
676.540394
 21
684.25663
  0
LINE
  8
0
 10
111.649721
 11
110.465015
 20
684.25663
 21
694.991417
  0
LINE
  8
0
 10
110.465015
 11
109.047601
 20
694.991417
 21
700.625622
  0
LINE
  8
0
 10
109.047601
 11
108.182245
 20
700.625622
 21
704.04405
  0
LINE
  8
0
 10
108.182245
 11
108.378508
 20
704.04405
 21
706.38844
  0
LINE
  8
0
 10
108.378508
 11
109.100948
 20
706.38844
 21
707.281262
  0
LINE
  8
0
 10
108.182245
 11
106.083005
 20
704.04405
 21
698.834839
  0
LINE
  8
0
 10
106.083005
 11
105.892074
 20
698.834839
 21
689.476647
  0
LINE
  8
0
 10
105.892074
 11
105.722663
 20
689.476647
 21
681.173147
  0
LINE
  8
0
 10
105.722663
 11
105.565574
 20
681.173147
 21
673.473632
  0
LINE
  8
0
 10
105.565574
 11
106.04356
 20
673.473632
 21
667.718337
  0
LINE
  8
0
 10
106.04356
 11
105.994306
 20
667.718337
 21
663.89202
  0
LINE
  8
0
 10
105.994306
 11
103.181105
 20
663.89202
 21
661.569932
  0
LINE
  8
0
 10
103.181105
 11
99.092487
 20
661.569932
 21
660.750799
  0
LINE
  8
0
 10
99.092487
 11
96.660813
 20
660.750799
 21
662.06607
  0
LINE
  8
0
 10
96.660813
 11
95.537398
 20
662.06607
 21
664.429261
  0
LINE
  8
0
 10
95.537398
 11
95.980024
 20
664.429261
 21
668.708065
  0
LINE
  8
0
 10
95.980024
 11
96.455422
 20
668.708065
 21
673.303673
  0
LINE
  8
0
 10
96.455422
 11
97.413944
 20
673.303673
 21
682.569571
  0
LINE
  8
0
 10
97.413944
 11
98.594156
 20
682.569571
 21
693.978522
  0
LINE
  8
0
 10
98.594156
 11
96.746639
 20
693.978522
 21
701.574863
  0
LINE
  8
0
 10
96.746639
 11
97.33763
 20
701.574863
 21
710.255127
  0
LINE
  8
0
 10
96.962424
 11
94.364057
 20
704.744236
 21
699.176935
  0
LINE
  8
0
 10
94.364057
 11
93.739629
 20
699.176935
 21
694.460556
  0
LINE
  8
0
 10
93.739629
 11
93.040732
 20
694.460556
 21
690.800832
  0
LINE
  8
0
 10
93.040732
 11
92.595048
 20
690.800832
 21
683.548484
  0
LINE
  8
0
 10
92.595048
 11
92.365798
 20
683.548484
 21
679.818025
  0
LINE
  8
0
 10
92.365798
 11
91.034753
 20
679.818025
 21
672.500923
  0
LINE
  8
0
 10
91.034753
 11
89.397108
 20
672.500923
 21
667.075986
  0
LINE
  8
0
 10
89.397108
 11
90.049623
 20
667.075986
 21
662.343419
  0
LINE
  8
0
 10
90.049623
 11
89.07956
 20
662.343419
 21
659.514103
  0
LINE
  8
0
 10
89.07956
 11
84.870261
 20
659.514103
 21
658.898843
  0
LINE
  8
0
 10
84.870261
 11
81.424793
 20
658.898843
 21
658.39523
  0
LINE
  8
0
 10
81.424793
 11
79.916016
 20
658.39523
 21
661.310596
  0
LINE
  8
0
 10
79.916016
 11
78.779071
 20
661.310596
 21
663.507481
  0
LINE
  8
0
 10
78.779071
 11
81.349531
 20
663.507481
 21
666.614954
  0
LINE
  8
0
 10
81.349531
 11
82.711029
 20
666.614954
 21
670.662294
  0
LINE
  8
0
 10
82.711029
 11
82.800977
 20
670.662294
 21
674.605684
  0
LINE
  8
0
 10
82.800977
 11
83.846995
 20
674.605684
 21
678.406483
  0
LINE
  8
0
 10
83.846995
 11
85.168201
 20
678.406483
 21
683.207199
  0
LINE
  8
0
 10
85.168201
 11
85.290763
 20
683.207199
 21
683.652539
  0
LINE
  8
0
 10
85.290763
 11
85.428036
 20
683.652539
 21
688.033943
  0
LINE
  8
0
 10
85.428036
 11
86.34076
 20
688.033943
 21
692.980217
  0
LINE
  8
0
 10
86.34076
 11
87.41235
 20
692.980217
 21
698.78742
  0
LINE
  8
0
 10
87.41235
 11
87.933272
 20
698.78742
 21
701.610424
  0
LINE
  8
0
 10
87.933272
 11
88.43107
 20
701.610424
 21
704.332795
  0
LINE
  8
0
 10
88.43107
 11
87.458852
 20
704.332795
 21
706.941465
  0
LINE
  8
0
 10
87.458852
 11
87.837122
 20
706.941465
 21
710.50633
  0
LINE
  8
0
 10
87.837122
 11
88.819054
 20
710.50633
 21
711.771035
  0
LINE
  8
0
 10
87.458852
 11
84.937602
 20
706.941465
 21
703.472759
  0
LINE
  8
0
 10
84.937602
 11
82.243655
 20
703.472759
 21
699.46016
  0
LINE
  8
0
 10
82.243655
 11
79.984701
 20
699.46016
 21
692.292614
  0
LINE
  8
0
 10
79.984701
 11
77.022633
 20
692.292614
 21
682.894126
  0
LINE
  8
0
 10
77.022633
 11
75.305637
 20
682.894126
 21
678.501411
  0
LINE
  8
0
 10
75.305637
 11
72.788124
 20
678.501411
 21
672.060675
  0
LINE
  8
0
 10
72.788124
 11
71.289707
 20
672.060675
 21
666.880017
  0
LINE
  8
0
 10
71.289707
 11
71.047303
 20
666.880017
 21
663.608409
  0
LINE
  8
0
 10
71.047303
 11
68.867812
 20
663.608409
 21
661.722544
  0
LINE
  8
0
 10
68.867812
 11
65.726428
 20
661.722544
 21
661.553621
  0
LINE
  8
0
 10
65.726428
 11
64.319647
 20
661.553621
 21
662.871758
  0
LINE
  8
0
 10
64.319647
 11
62.349425
 20
662.871758
 21
664.727596
  0
LINE
  8
0
 10
62.349425
 11
61.209307
 20
664.727596
 21
667.481819
  0
LINE
  8
0
 10
61.209307
 11
62.857818
 20
667.481819
 21
672.427306
  0
LINE
  8
0
 10
62.857818
 11
66.969469
 20
672.427306
 21
682.690644
  0
LINE
  8
0
 10
66.969469
 11
74.992281
 20
682.690644
 21
699.468986
  0
LINE
  8
0
 10
74.992281
 11
77.413957
 20
699.468986
 21
707.612657
  0
LINE
  8
0
 10
77.413957
 11
78.973553
 20
707.612657
 21
714.219758
  0
LINE
  8
0
 10
72.87623
 11
68.037134
 20
723.025187
 21
721.80289
  0
LINE
  8
0
 10
68.037134
 11
58.302197
 20
721.80289
 21
715.074038
  0
LINE
  8
0
 10
58.302197
 11
45.422111
 20
715.074038
 21
707.368164
  0
LINE
  8
0
 10
45.422111
 11
42.348454
 20
707.368164
 21
704.035753
  0
LINE
  8
0
 10
42.348454
 11
41.58662
 20
704.035753
 21
701.432794
  0
LINE
  8
0
 10
41.58662
 11
42.115178
 20
701.432794
 21
699.298454
  0
LINE
  8
0
 10
42.115178
 11
43.27568
 20
699.298454
 21
697.586323
  0
LINE
  8
0
 10
43.27568
 11
45.371544
 20
697.586323
 21
697.356377
  0
LINE
  8
0
 10
45.371544
 11
47.561465
 20
697.356377
 21
697.133063
  0
LINE
  8
0
 10
47.561465
 11
50.424427
 20
697.133063
 21
698.090193
  0
LINE
  8
0
 10
50.424427
 11
52.831673
 20
698.090193
 21
700.148209
  0
LINE
  8
0
 10
52.831673
 11
56.354425
 20
700.148209
 21
702.473683
  0
LINE
  8
0
 10
56.354425
 11
60.356823
 20
702.473683
 21
707.382227
  0
LINE
  8
0
 10
60.356823
 11
65.835019
 20
707.382227
 21
710.128782
  0
LINE
  8
0
 10
65.835019
 11
69.839967
 20
710.128782
 21
710.977566
  0
LINE
  8
0
 10
69.839967
 11
72.361144
 20
710.977566
 21
712.760362
  0
LINE
  8
0
 10
72.361144
 11
74.489201
 20
712.760362
 21
714.265172
  0
LINE
  8
0
 10
74.489201
 11
75.482513
 20
714.265172
 21
716.757054
  0
LINE
  8
0
 10
75.482513
 11
76.178091
 20
716.757054
 21
718.540615
  0
LINE
  8
0
 10
41.58662
 11
37.576513
 20
701.432794
 21
700.138814
  0
LINE
  8
0
 10
37.576513
 11
35.350775
 20
700.138814
 21
698.188011
  0
LINE
  8
0
 10
35.350775
 11
32.295626
 20
698.188011
 21
693.251813
  0
LINE
  8
0
 10
32.295626
 11
27.971309
 20
693.251813
 21
688.88708
  0
LINE
  8
0
 10
27.971309
 11
23.904049
 20
688.88708
 21
686.239976
  0
LINE
  8
0
 10
23.904049
 11
21.650465
 20
686.239976
 21
683.343037
  0
LINE
  8
0
 10
21.650465
 11
21.09662
 20
683.343037
 21
680.471485
  0
LINE
  8
0
 10
21.09662
 11
21.907365
 20
680.471485
 21
678.357031
  0
LINE
  8
0
 10
21.907365
 11
23.216265
 20
678.357031
 21
677.221866
  0
LINE
  8
0
 10
23.216265
 11
25.137243
 20
677.221866
 21
676.79076
  0
LINE
  8
0
 10
25.137243
 11
27.199997
 20
676.79076
 21
677.030567
  0
LINE
  8
0
 10
27.199997
 11
29.062734
 20
677.030567
 21
678.766951
  0
LINE
  8
0
 10
29.062734
 11
31.715143
 20
678.766951
 21
684.052432
  0
LINE
  8
0
 10
31.715143
 11
34.707987
 20
684.052432
 21
687.190311
  0
LINE
  8
0
 10
34.707987
 11
37.101391
 20
687.190311
 21
689.6997
  0
LINE
  8
0
 10
37.101391
 11
39.29989
 20
689.6997
 21
690.440897
  0
LINE
  8
0
 10
39.29989
 11
41.928368
 20
690.440897
 21
692.04242
  0
LINE
  8
0
 10
41.928368
 11
43.15389
 20
692.04242
 21
694.772481
  0
LINE
  8
0
 10
43.15389
 11
43.27568
 20
694.772481
 21
697.586323
  0
LINE
  8
0
 10
21.907365
 11
18.01634
 20
678.357031
 21
677.233023
  0
LINE
  8
0
 10
18.01634
 11
16.160225
 20
677.233023
 21
675.402689
  0
LINE
  8
0
 10
16.160225
 11
14.48426
 20
675.402689
 21
672.357629
  0
LINE
  8
0
 10
14.48426
 11
13.001682
 20
672.357629
 21
667.909939
  0
LINE
  8
0
 10
13.001682
 11
13.71174
 20
667.909939
 21
665.882808
  0
LINE
  8
0
 10
13.71174
 11
15.545283
 20
665.882808
 21
665.351123
  0
LINE
  8
0
 10
15.545283
 11
16.904593
 20
665.351123
 21
667.52411
  0
LINE
  8
0
 10
16.904593
 11
19.184672
 20
667.52411
 21
670.04525
  0
LINE
  8
0
 10
19.184672
 11
21.506644
 20
670.04525
 21
672.612713
  0
LINE
  8
0
 10
21.506644
 11
21.94439
 20
672.612713
 21
675.149458
  0
LINE
  8
0
 10
21.94439
 11
23.216265
 20
675.149458
 21
677.221866
  0
LINE
  8
0
 10
62.349425
 11
60.717245
 20
664.727596
 21
661.449724
  0
LINE
  8
0
 10
60.717245
 11
59.284674
 20
661.449724
 21
658.572724
  0
LINE
  8
0
 10
59.284674
 11
58.979819
 20
658.572724
 21
653.673074
  0
LINE
  8
0
 10
58.979819
 11
57.675843
 20
653.673074
 21
649.284077
  0
LINE
  8
0
 10
57.675843
 11
55.173416
 20
649.284077
 21
640.916371
  0
LINE
  8
0
 10
55.173416
 11
51.53483
 20
640.916371
 21
633.408574
  0
LINE
  8
0
 10
51.53483
 11
50.201238
 20
633.408574
 21
630.656865
  0
LINE
  8
0
 10
50.201238
 11
49.541189
 20
630.656865
 21
627.359559
  0
LINE
  8
0
 10
49.541189
 11
51.39334
 20
627.359559
 21
625.878695
  0
LINE
  8
0
 10
51.39334
 11
53.796747
 20
625.878695
 21
623.957079
  0
LINE
  8
0
 10
53.796747
 11
57.679047
 20
623.957079
 21
624.441758
  0
LINE
  8
0
 10
57.679047
 11
59.171384
 20
624.441758
 21
626.158352
  0
LINE
  8
0
 10
59.171384
 11
58.841753
 20
626.158352
 21
630.83506
  0
LINE
  8
0
 10
58.841753
 11
58.568629
 20
630.83506
 21
634.710047
  0
LINE
  8
0
 10
58.568629
 11
61.843555
 20
634.710047
 21
641.655075
  0
LINE
  8
0
 10
61.843555
 11
64.585288
 20
641.655075
 21
650.442502
  0
LINE
  8
0
 10
64.585288
 11
67.475782
 20
650.442502
 21
655.21189
  0
LINE
  8
0
 10
67.475782
 11
68.080676
 20
655.21189
 21
658.074488
  0
LINE
  8
0
 10
68.080676
 11
67.29712
 20
658.074488
 21
661.638083
  0
LINE
  8
0
 10
81.424793
 11
78.905474
 20
658.39523
 21
657.091769
  0
LINE
  8
0
 10
78.905474
 11
79.312377
 20
657.091769
 21
653.226212
  0
LINE
  8
0
 10
79.312377
 11
76.40861
 20
653.226212
 21
644.830218
  0
LINE
  8
0
 10
76.40861
 11
74.022835
 20
644.830218
 21
629.085116
  0
LINE
  8
0
 10
74.022835
 11
72.951401
 20
629.085116
 21
622.014103
  0
LINE
  8
0
 10
72.951401
 11
72.64932
 20
622.014103
 21
620.020495
  0
LINE
  8
0
 10
72.64932
 11
75.320817
 20
620.020495
 21
618.299597
  0
LINE
  8
0
 10
75.320817
 11
78.158439
 20
618.299597
 21
618.096749
  0
LINE
  8
0
 10
78.158439
 11
80.16406
 20
618.096749
 21
617.953377
  0
LINE
  8
0
 10
80.16406
 11
81.753578
 20
617.953377
 21
620.498692
  0
LINE
  8
0
 10
81.753578
 11
81.689571
 20
620.498692
 21
623.314146
  0
LINE
  8
0
 10
81.689571
 11
80.536503
 20
623.314146
 21
626.321404
  0
LINE
  8
0
 10
80.536503
 11
81.97426
 20
626.321404
 21
630.719834
  0
LINE
  8
0
 10
81.97426
 11
84.491887
 20
630.719834
 21
644.594253
  0
LINE
  8
0
 10
84.491887
 11
86.947223
 20
644.594253
 21
653.630061
  0
LINE
  8
0
 10
86.947223
 11
86.97491
 20
653.630061
 21
659.206473
  0
LINE
  8
0
 10
99.092487
 11
95.879958
 20
660.750799
 21
657.060811
  0
LINE
  8
0
 10
95.879958
 11
96.25668
 20
657.060811
 21
651.716001
  0
LINE
  8
0
 10
96.25668
 11
97.223103
 20
651.716001
 21
643.727078
  0
LINE
  8
0
 10
97.223103
 11
98.472286
 20
643.727078
 21
633.400723
  0
LINE
  8
0
 10
98.472286
 11
96.4125
 20
633.400723
 21
626.615874
  0
LINE
  8
0
 10
96.4125
 11
97.237653
 20
626.615874
 21
620.631253
  0
LINE
  8
0
 10
97.237653
 11
98.956023
 20
620.631253
 21
619.140962
  0
LINE
  8
0
 10
98.956023
 11
102.20633
 20
619.140962
 21
620.712895
  0
LINE
  8
0
 10
102.20633
 11
104.380749
 20
620.712895
 21
621.764501
  0
LINE
  8
0
 10
104.380749
 11
105.402057
 20
621.764501
 21
624.966662
  0
LINE
  8
0
 10
105.402057
 11
103.546271
 20
624.966662
 21
632.221481
  0
LINE
  8
0
 10
103.546271
 11
103.484411
 20
632.221481
 21
646.451227
  0
LINE
  8
0
 10
103.484411
 11
103.454509
 20
646.451227
 21
653.329747
  0
LINE
  8
0
 10
103.454509
 11
105.476336
 20
653.329747
 21
660.154311
  0
LINE
  8
0
 10
105.476336
 11
103.851255
 20
660.154311
 21
662.123091
  0
LINE
  8
0
 10
115.400982
 11
113.772592
 20
665.63019
 21
662.619038
  0
LINE
  8
0
 10
113.772592
 11
114.170078
 20
662.619038
 21
658.887102
  0
LINE
  8
0
 10
114.170078
 11
115.206274
 20
658.887102
 21
653.723059
  0
LINE
  8
0
 10
115.206274
 11
115.829793
 20
653.723059
 21
646.784239
  0
LINE
  8
0
 10
115.829793
 11
117.084539
 20
646.784239
 21
640.427043
  0
LINE
  8
0
 10
117.084539
 11
118.514586
 20
640.427043
 21
637.305022
  0
LINE
  8
0
 10
118.514586
 11
123.313562
 20
637.305022
 21
636.642172
  0
LINE
  8
0
 10
123.313562
 11
125.469562
 20
636.642172
 21
640.305222
  0
LINE
  8
0
 10
125.469562
 11
124.796988
 20
640.305222
 21
642.692428
  0
LINE
  8
0
 10
124.796988
 11
123.976011
 20
642.692428
 21
645.99265
  0
LINE
  8
0
 10
123.976011
 11
122.566233
 20
645.99265
 21
657.646584
  0
LINE
  8
0
 10
122.566233
 11
121.766928
 20
657.646584
 21
665.767047
  0
LINE
  8
0
 10
118.514586
 11
117.535425
 20
637.305022
 21
629.167429
  0
LINE
  8
0
 10
117.535425
 11
117.655585
 20
629.167429
 21
625.44672
  0
LINE
  8
0
 10
117.655585
 11
117.914649
 20
625.44672
 21
621.771204
  0
LINE
  8
0
 10
117.914649
 11
118.477606
 20
621.771204
 21
617.361565
  0
LINE
  8
0
 10
118.477606
 11
122.44721
 20
617.361565
 21
614.703126
  0
LINE
  8
0
 10
122.44721
 11
124.7254
 20
614.703126
 21
616.962437
  0
LINE
  8
0
 10
124.7254
 11
125.308561
 20
616.962437
 21
620.613364
  0
LINE
  8
0
 10
125.308561
 11
124.623165
 20
620.613364
 21
627.952606
  0
LINE
  8
0
 10
124.623165
 11
124.579677
 20
627.952606
 21
632.147013
  0
LINE
  8
0
 10
124.579677
 11
124.320613
 20
632.147013
 21
635.822528
  0
LINE
  8
0
 10
124.320613
 11
123.313562
 20
635.822528
 21
636.642172
  0
LINE
  8
0
 10
120.462408
 11
118.738296
 20
616.032345
 21
609.99983
  0
LINE
  8
0
 10
118.738296
 11
119.565768
 20
609.99983
 21
605.043671
  0
LINE
  8
0
 10
119.565768
 11
120.230571
 20
605.043671
 21
601.061826
  0
LINE
  8
0
 10
120.230571
 11
123.670184
 20
601.061826
 21
606.168712
  0
LINE
  8
0
 10
123.670184
 11
124.295167
 20
606.168712
 21
610.869069
  0
LINE
  8
0
 10
124.295167
 11
123.586305
 20
610.869069
 21
615.832781
  0
LINE
  8
0
 10
98.096838
 11
97.733948
 20
619.886107
 21
614.608385
  0
LINE
  8
0
 10
97.733948
 11
97.092218
 20
614.608385
 21
610.145632
  0
LINE
  8
0
 10
97.092218
 11
96.917896
 20
610.145632
 21
605.835213
  0
LINE
  8
0
 10
96.917896
 11
98.206103
 20
605.835213
 21
602.821806
  0
LINE
  8
0
 10
98.206103
 11
100.549779
 20
602.821806
 21
601.793073
  0
LINE
  8
0
 10
100.549779
 11
102.905247
 20
601.793073
 21
603.988766
  0
LINE
  8
0
 10
102.905247
 11
102.799814
 20
603.988766
 21
608.876427
  0
LINE
  8
0
 10
102.799814
 11
103.552109
 20
608.876427
 21
613.466367
  0
LINE
  8
0
 10
103.552109
 11
104.481967
 20
613.466367
 21
617.233074
  0
LINE
  8
0
 10
104.481967
 11
103.29354
 20
617.233074
 21
621.238698
  0
LINE
  8
0
 10
72.64932
 11
71.739507
 20
620.020495
 21
614.016115
  0
LINE
  8
0
 10
71.739507
 11
68.589265
 20
614.016115
 21
609.211169
  0
LINE
  8
0
 10
68.589265
 11
66.451512
 20
609.211169
 21
603.926617
  0
LINE
  8
0
 10
66.451512
 11
68.434922
 20
603.926617
 21
599.5295
  0
LINE
  8
0
 10
68.434922
 11
70.887448
 20
599.5295
 21
596.956335
  0
LINE
  8
0
 10
70.887448
 11
73.599756
 20
596.956335
 21
599.177183
  0
LINE
  8
0
 10
73.599756
 11
74.522949
 20
599.177183
 21
604.734305
  0
LINE
  8
0
 10
74.522949
 11
76.3642
 20
604.734305
 21
610.833709
  0
LINE
  8
0
 10
76.3642
 11
78.976017
 20
610.833709
 21
614.480181
  0
LINE
  8
0
 10
78.976017
 11
79.229077
 20
614.480181
 21
618.020215
  0
LINE
  8
0
 10
49.541189
 11
48.962194
 20
627.359559
 21
623.11002
  0
LINE
  8
0
 10
48.962194
 11
48.293868
 20
623.11002
 21
618.204835
  0
LINE
  8
0
 10
48.293868
 11
45.902957
 20
618.204835
 21
613.939957
  0
LINE
  8
0
 10
45.902957
 11
46.263023
 20
613.939957
 21
608.831461
  0
LINE
  8
0
 10
46.263023
 11
49.395721
 20
608.831461
 21
606.783807
  0
LINE
  8
0
 10
49.395721
 11
51.818177
 20
606.783807
 21
608.029081
  0
LINE
  8
0
 10
51.818177
 11
53.739055
 20
608.029081
 21
609.016517
  0
LINE
  8
0
 10
53.739055
 11
53.810154
 20
609.016517
 21
611.990044
  0
LINE
  8
0
 10
53.810154
 11
54.247491
 20
611.990044
 21
615.960821
  0
LINE
  8
0
 10
54.247491
 11
56.298083
 20
615.960821
 21
619.090166
  0
LINE
  8
0
 10
56.298083
 11
57.211193
 20
619.090166
 21
623.094476
  0
LINE
  8
0
 10
57.211193
 11
57.052755
 20
623.094476
 21
624.36357
  0
LINE
  8
0
 10
98.206103
 11
95.498751
 20
602.821806
 21
597.13893
  0
LINE
  8
0
 10
95.498751
 11
95.205481
 20
597.13893
 21
592.820128
  0
LINE
  8
0
 10
95.205481
 11
97.624513
 20
592.820128
 21
590.722172
  0
LINE
  8
0
 10
97.624513
 11
99.752183
 20
590.722172
 21
594.453913
  0
LINE
  8
0
 10
99.752183
 11
100.477649
 20
594.453913
 21
597.728645
  0
LINE
  8
0
 10
100.477649
 11
100.549779
 20
597.728645
 21
601.793073
  0
LINE
  8
0
 10
68.434922
 11
65.099356
 20
599.5295
 21
594.279912
  0
LINE
  8
0
 10
65.099356
 11
65.630319
 20
594.279912
 21
590.138601
  0
LINE
  8
0
 10
65.630319
 11
66.484621
 20
590.138601
 21
586.497647
  0
LINE
  8
0
 10
66.484621
 11
69.595623
 20
586.497647
 21
588.149633
  0
LINE
  8
0
 10
69.595623
 11
70.160274
 20
588.149633
 21
592.00999
  0
LINE
  8
0
 10
70.160274
 11
72.738596
 20
592.00999
 21
596.131671
  0
LINE
  8
0
 10
72.738596
 11
73.599756
 20
596.131671
 21
599.177183
  0
LINE
  8
0
 10
46.263023
 11
44.281989
 20
608.831461
 21
604.469808
  0
LINE
  8
0
 10
44.281989
 11
43.258531
 20
604.469808
 21
600.894302
  0
LINE
  8
0
 10
43.258531
 11
43.595119
 20
600.894302
 21
597.626985
  0
LINE
  8
0
 10
43.595119
 11
46.026163
 20
597.626985
 21
596.312055
  0
LINE
  8
0
 10
46.026163
 11
46.973634
 20
596.312055
 21
599.457553
  0
LINE
  8
0
 10
46.973634
 11
50.505637
 20
599.457553
 21
603.634521
  0
LINE
  8
0
 10
50.505637
 11
51.818177
 20
603.634521
 21
608.029081
  0
LINE
  8
0
 10
296.47159
 11
292.409018
 20
899.643434
 21
899.61749
  0
LINE
  8
0
 10
292.409018
 11
287.320748
 20
899.61749
 21
901.840957
  0
LINE
  8
0
 10
287.320748
 11
285.624662
 20
901.840957
 21
903.005632
  0
LINE
  8
0
 10
285.624662
 11
282.020466
 20
903.005632
 21
903.640907
  0
LINE
  8
0
 10
282.020466
 11
279.58234
 20
903.640907
 21
900.358646
  0
LINE
  8
0
 10
279.58234
 11
275.130109
 20
900.358646
 21
891.253019
  0
LINE
  8
0
 10
275.130109
 11
272.735992
 20
891.253019
 21
886.356612
  0
LINE
  8
0
 10
272.735992
 11
269.617817
 20
886.356612
 21
882.570909
  0
LINE
  8
0
 10
269.617817
 11
268.239744
 20
882.570909
 21
878.335732
  0
LINE
  8
0
 10
268.239744
 11
269.394754
 20
878.335732
 21
871.09664
  0
LINE
  8
0
 10
269.394754
 11
270.666818
 20
871.09664
 21
866.014427
  0
LINE
  8
0
 10
270.666818
 11
276.497129
 20
866.014427
 21
860.402823
  0
LINE
  8
0
 10
276.497129
 11
283.493495
 20
860.402823
 21
856.061766
  0
LINE
  8
0
 10
283.493495
 11
288.210501
 20
856.061766
 21
848.03087
  0
LINE
  8
0
 10
288.210501
 11
288.508625
 20
848.03087
 21
843.713174
  0
LINE
  8
0
 10
288.508625
 11
291.638958
 20
843.713174
 21
840.288795
  0
LINE
  8
0
 10
291.638958
 11
294.843825
 20
840.288795
 21
840.586567
  0
LINE
  8
0
 10
294.843825
 11
298.346823
 20
840.586567
 21
836.045541
  0
LINE
  8
0
 10
298.346823
 11
303.053846
 20
836.045541
 21
831.900521
  0
LINE
  8
0
 10
303.053846
 11
301.41415
 20
831.900521
 21
829.965003
  0
LINE
  8
0
 10
301.41415
 11
303.873702
 20
829.965003
 21
827.210609
  0
LINE
  8
0
 10
303.873702
 11
305.215273
 20
827.210609
 21
824.902877
  0
LINE
  8
0
 10
305.215273
 11
305.662463
 20
824.902877
 21
820.064079
  0
LINE
  8
0
 10
305.662463
 11
308.86733
 20
820.064079
 21
817.830785
  0
LINE
  8
0
 10
308.86733
 11
309.01814
 20
817.830785
 21
809.990479
  0
LINE
  8
0
 10
309.01814
 11
312.670196
 20
809.990479
 21
808.79939
  0
LINE
  8
0
 10
312.670196
 11
314.980682
 20
808.79939
 21
809.394935
  0
LINE
  8
0
 10
314.980682
 11
319.228995
 20
809.394935
 21
808.948276
  0
LINE
  8
0
 10
319.228995
 11
321.837604
 20
808.948276
 21
810.139365
  0
LINE
  8
0
 10
321.837604
 11
323.030117
 20
810.139365
 21
814.531505
  0
LINE
  8
0
 10
323.030117
 11
323.253709
 20
814.531505
 21
816.913682
  0
LINE
  8
0
 10
323.253709
 11
324.59528
 20
816.913682
 21
820.338061
  0
LINE
  8
0
 10
324.59528
 11
324.520747
 20
820.338061
 21
823.687999
  0
LINE
  8
0
 10
324.520747
 11
329.216251
 20
823.687999
 21
829.568999
  0
LINE
  8
0
 10
329.216251
 11
326.012616
 20
829.568999
 21
833.477025
  0
LINE
  8
0
 10
326.012616
 11
330.260929
 20
833.477025
 21
836.752522
  0
LINE
  8
0
 10
330.260929
 11
333.614861
 20
836.752522
 21
839.20914
  0
LINE
  8
0
 10
333.614861
 11
337.639576
 20
839.20914
 21
840.846886
  0
LINE
  8
0
 10
337.639576
 11
342.075017
 20
840.846886
 21
848.234397
  0
LINE
  8
0
 10
342.075017
 11
344.758167
 20
848.234397
 21
850.839905
  0
LINE
  8
0
 10
344.758167
 11
346.342727
 20
850.839905
 21
852.378612
  0
LINE
  8
0
 10
346.342727
 11
348.186625
 20
852.378612
 21
857.167564
  0
LINE
  8
0
 10
348.186625
 11
351.242425
 20
857.167564
 21
858.879755
  0
LINE
  8
0
 10
351.242425
 11
357.075957
 20
858.879755
 21
862.148333
  0
LINE
  8
0
 10
357.075957
 11
360.566609
 20
862.148333
 21
860.841365
  0
LINE
  8
0
 10
360.566609
 11
365.317026
 20
860.841365
 21
852.428028
  0
LINE
  8
0
 10
365.317026
 11
365.507703
 20
852.428028
 21
843.667325
  0
LINE
  8
0
 10
365.507703
 11
362.26619
 20
843.667325
 21
834.906625
  0
LINE
  8
0
 10
362.26619
 11
357.706573
 20
834.906625
 21
832.216256
  0
LINE
  8
0
 10
357.706573
 11
354.061554
 20
832.216256
 21
831.819092
  0
LINE
  8
0
 10
354.061554
 11
352.537275
 20
831.819092
 21
831.686702
  0
LINE
  8
0
 10
352.537275
 11
352.669827
 20
831.686702
 21
828.509389
  0
LINE
  8
0
 10
352.669827
 11
353.663922
 20
828.509389
 21
825.861626
  0
LINE
  8
0
 10
353.663922
 11
351.543181
 20
825.861626
 21
820.963268
  0
LINE
  8
0
 10
351.543181
 11
349.219837
 20
820.963268
 21
818.346486
  0
LINE
  8
0
 10
349.219837
 11
343.652908
 20
818.346486
 21
813.977678
  0
LINE
  8
0
 10
343.652908
 11
337.158155
 20
813.977678
 21
812.256633
  0
LINE
  8
0
 10
337.158155
 11
329.470492
 20
812.256633
 21
810.535587
  0
LINE
  8
0
 10
329.470492
 11
321.837604
 20
810.535587
 21
810.139365
  0
LINE
  8
0
 10
338.533698
 11
344.976068
 20
902.666281
 21
903.629642
  0
LINE
  8
0
 10
344.976068
 11
349.723417
 20
903.629642
 21
906.339183
  0
LINE
  8
0
 10
349.723417
 11
353.792572
 20
906.339183
 21
906.169836
  0
LINE
  8
0
 10
353.792572
 11
356.505348
 20
906.169836
 21
898.379905
  0
LINE
  8
0
 10
356.505348
 11
360.404953
 20
898.379905
 21
890.25128
  0
LINE
  8
0
 10
360.404953
 11
363.117728
 20
890.25128
 21
885.848275
  0
LINE
  8
0
 10
363.117728
 11
362.269984
 20
885.848275
 21
878.735729
  0
LINE
  8
0
 10
362.269984
 11
363.287279
 20
878.735729
 21
871.792526
  0
LINE
  8
0
 10
363.287279
 11
357.075957
 20
871.792526
 21
862.148333
  0
LINE
  8
0
 10
276.497129
 11
271.843382
 20
860.402823
 21
857.683181
  0
LINE
  8
0
 10
271.843382
 11
268.266172
 20
857.683181
 21
852.077403
  0
LINE
  8
0
 10
268.266172
 11
266.808219
 20
852.077403
 21
847.179203
  0
LINE
  8
0
 10
266.808219
 11
268.133636
 20
847.179203
 21
839.699517
  0
LINE
  8
0
 10
268.133636
 11
271.911069
 20
839.699517
 21
832.616985
  0
LINE
  8
0
 10
271.911069
 11
280.337477
 20
832.616985
 21
824.640108
  0
LINE
  8
0
 10
280.337477
 11
284.512542
 20
824.640108
 21
826.228715
  0
LINE
  8
0
 10
284.512542
 11
285.639142
 20
826.228715
 21
824.573918
  0
LINE
  8
0
 10
285.639142
 11
285.108974
 20
824.573918
 21
819.874291
  0
LINE
  8
0
 10
285.108974
 11
291.549051
 20
819.874291
 21
813.616088
  0
LINE
  8
0
 10
291.549051
 11
298.242397
 20
813.616088
 21
810.372684
  0
LINE
  8
0
 10
298.242397
 11
303.941687
 20
810.372684
 21
810.174107
  0
LINE
  8
0
 10
303.941687
 11
309.012731
 20
810.174107
 21
810.27165
  0
LINE
  8
0
 10
264.708245
 11
261.747141
 20
793.902776
 21
791.314757
  0
LINE
  8
0
 10
261.747141
 11
262.249964
 20
791.314757
 21
788.971055
  0
LINE
  8
0
 10
262.249964
 11
262.988177
 20
788.971055
 21
785.530173
  0
LINE
  8
0
 10
262.988177
 11
262.249964
 20
785.530173
 21
781.856243
  0
LINE
  8
0
 10
262.249964
 11
263.758424
 20
781.856243
 21
776.917728
  0
LINE
  8
0
 10
263.758424
 11
266.659398
 20
776.917728
 21
774.257362
  0
LINE
  8
0
 10
266.659398
 11
268.192205
 20
774.257362
 21
771.940193
  0
LINE
  8
0
 10
268.192205
 11
270.884986
 20
771.940193
 21
770.533338
  0
LINE
  8
0
 10
270.884986
 11
273.16349
 20
770.533338
 21
769.498888
  0
LINE
  8
0
 10
273.16349
 11
275.897698
 20
769.498888
 21
768.298926
  0
LINE
  8
0
 10
275.897698
 11
278.383333
 20
768.298926
 21
767.305854
  0
LINE
  8
0
 10
278.383333
 11
281.614673
 20
767.305854
 21
766.064514
  0
LINE
  8
0
 10
281.614673
 11
286.596545
 20
766.064514
 21
764.150695
  0
LINE
  8
0
 10
286.596545
 11
288.210248
 20
764.150695
 21
764.634627
  0
LINE
  8
0
 10
288.210248
 11
290.033056
 20
764.634627
 21
764.965652
  0
LINE
  8
0
 10
290.033056
 11
291.731574
 20
764.965652
 21
765.131163
  0
LINE
  8
0
 10
291.731574
 11
292.89154
 20
765.131163
 21
765.296674
  0
LINE
  8
0
 10
292.89154
 11
293.927223
 20
765.296674
 21
765.710456
  0
LINE
  8
0
 10
293.927223
 11
295.170044
 20
765.710456
 21
766.372503
  0
LINE
  8
0
 10
295.170044
 11
296.412865
 20
766.372503
 21
767.034553
  0
LINE
  8
0
 10
296.412865
 11
297.697114
 20
767.034553
 21
767.820736
  0
LINE
  8
0
 10
297.697114
 11
298.939936
 20
767.820736
 21
768.648294
  0
LINE
  8
0
 10
298.939936
 11
303.220627
 20
768.648294
 21
770.846362
  0
LINE
  8
0
 10
303.220627
 11
304.049172
 20
770.846362
 21
771.177388
  0
LINE
  8
0
 10
304.049172
 11
305.913408
 20
771.177388
 21
772.335974
  0
LINE
  8
0
 10
305.913408
 11
307.570498
 20
772.335974
 21
773.287668
  0
LINE
  8
0
 10
307.570498
 11
308.523326
 20
773.287668
 21
773.866961
  0
LINE
  8
0
 10
308.523326
 11
312.017765
 20
773.866961
 21
778.525096
  0
LINE
  8
0
 10
312.017765
 11
314.461979
 20
778.525096
 21
780.676755
  0
LINE
  8
0
 10
314.461979
 11
315.704801
 20
780.676755
 21
782.911167
  0
LINE
  8
0
 10
315.704801
 11
317.15476
 20
782.911167
 21
785.311094
  0
LINE
  8
0
 10
317.15476
 11
319.565701
 20
785.311094
 21
785.939072
  0
LINE
  8
0
 10
319.565701
 11
321.409315
 20
785.939072
 21
784.097653
  0
LINE
  8
0
 10
321.409315
 11
331.549201
 20
784.097653
 21
773.718735
  0
LINE
  8
0
 10
331.549201
 11
340.281291
 20
773.718735
 21
768.492343
  0
LINE
  8
0
 10
340.281291
 11
347.152953
 20
768.492343
 21
764.474698
  0
LINE
  8
0
 10
347.152953
 11
352.935198
 20
764.474698
 21
763.972493
  0
LINE
  8
0
 10
352.935198
 11
358.466047
 20
763.972493
 21
765.479109
  0
LINE
  8
0
 10
358.466047
 11
367.910715
 20
765.479109
 21
768.05186
  0
LINE
  8
0
 10
367.910715
 11
371.455161
 20
768.05186
 21
771.338177
  0
LINE
  8
0
 10
371.455161
 11
376.066109
 20
771.338177
 21
775.613325
  0
LINE
  8
0
 10
376.066109
 11
378.01848
 20
775.613325
 21
783.481023
  0
LINE
  8
0
 10
378.01848
 11
380.616305
 20
783.481023
 21
789.17269
  0
LINE
  8
0
 10
380.616305
 11
382.292318
 20
789.17269
 21
794.696952
  0
LINE
  8
0
 10
382.292318
 11
384.973939
 20
794.696952
 21
795.617661
  0
LINE
  8
0
 10
384.973939
 11
388.912578
 20
795.617661
 21
795.617661
  0
LINE
  8
0
 10
388.912578
 11
392.264605
 20
795.617661
 21
794.529549
  0
LINE
  8
0
 10
392.264605
 11
396.28704
 20
794.529549
 21
792.102222
  0
LINE
  8
0
 10
396.28704
 11
400.560878
 20
792.102222
 21
786.243155
  0
LINE
  8
0
 10
400.560878
 11
402.823495
 20
786.243155
 21
780.969995
  0
LINE
  8
0
 10
402.823495
 11
403.242499
 20
780.969995
 21
778.458967
  0
LINE
  8
0
 10
403.242499
 11
405.124907
 20
778.458967
 21
767.177965
  0
LINE
  8
0
 10
405.124907
 11
405.017308
 20
767.177965
 21
751.396467
  0
LINE
  8
0
 10
405.017308
 11
398.318585
 20
751.396467
 21
670.961353
  0
LINE
  8
0
 10
398.318585
 11
388.710441
 20
670.961353
 21
555.591295
  0
LINE
  8
0
 10
388.710441
 11
386.130835
 20
555.591295
 21
524.616604
  0
LINE
  8
0
 10
386.130835
 11
381.419103
 20
524.616604
 21
507.152741
  0
LINE
  8
0
 10
381.419103
 11
375.385845
 20
507.152741
 21
498.281014
  0
LINE
  8
0
 10
375.385845
 11
365.494509
 20
498.281014
 21
481.1538
  0
LINE
  8
0
 10
365.494509
 11
364.406047
 20
481.1538
 21
459.007788
  0
LINE
  8
0
 10
364.406047
 11
366.668518
 20
459.007788
 21
456.915397
  0
LINE
  8
0
 10
366.668518
 11
371.696238
 20
456.915397
 21
457.08279
  0
LINE
  8
0
 10
371.696238
 11
380.327153
 20
457.08279
 21
456.831702
  0
LINE
  8
0
 10
380.327153
 11
378.651246
 20
456.831702
 21
464.78278
  0
LINE
  8
0
 10
378.651246
 11
380.494745
 20
464.78278
 21
469.218642
  0
LINE
  8
0
 10
380.494745
 11
381.835467
 20
469.218642
 21
472.064292
  0
LINE
  8
0
 10
381.835467
 11
383.762762
 20
472.064292
 21
473.654507
  0
LINE
  8
0
 10
383.762762
 11
385.941438
 20
473.654507
 21
474.407766
  0
LINE
  8
0
 10
385.941438
 11
388.874278
 20
474.407766
 21
474.658854
  0
LINE
  8
0
 10
388.874278
 11
392.728861
 20
474.658854
 21
473.570812
  0
LINE
  8
0
 10
392.728861
 11
396.751035
 20
473.570812
 21
474.324071
  0
LINE
  8
0
 10
396.751035
 11
412.00178
 20
474.324071
 21
473.905592
  0
LINE
  8
0
 10
412.00178
 11
417.561313
 20
473.905592
 21
471.136047
  0
LINE
  8
0
 10
417.561313
 11
420.661746
 20
471.136047
 21
466.616487
  0
LINE
  8
0
 10
420.661746
 11
420.326562
 20
466.616487
 21
456.656718
  0
LINE
  8
0
 10
420.326562
 11
422.840422
 20
456.656718
 21
456.23824
  0
LINE
  8
0
 10
422.840422
 11
426.192235
 20
456.23824
 21
461.259973
  0
LINE
  8
0
 10
426.192235
 11
429.208864
 20
461.259973
 21
470.633873
  0
LINE
  8
0
 10
429.208864
 11
428.789891
 20
470.633873
 21
475.822997
  0
LINE
  8
0
 10
428.789891
 11
419.903948
 20
475.822997
 21
492.434056
  0
LINE
  8
0
 10
419.903948
 11
413.953109
 20
492.434056
 21
508.055614
  0
LINE
  8
0
 10
413.953109
 11
412.960666
 20
508.055614
 21
564.390984
  0
LINE
  8
0
 10
412.960666
 11
421.893384
 20
564.390984
 21
663.618243
  0
LINE
  8
0
 10
421.893384
 11
433.240042
 20
663.618243
 21
745.347145
  0
LINE
  8
0
 10
433.240042
 11
437.008315
 20
745.347145
 21
772.489663
  0
LINE
  8
0
 10
437.008315
 11
444.461728
 20
772.489663
 21
779.044055
  0
LINE
  8
0
 10
444.461728
 11
448.055368
 20
779.044055
 21
780.45626
  0
LINE
  8
0
 10
448.055368
 11
450.826178
 20
780.45626
 21
788.136161
  0
LINE
  8
0
 10
450.826178
 11
450.060325
 20
788.136161
 21
795.43256
  0
LINE
  8
0
 10
450.060325
 11
444.286326
 20
795.43256
 21
810.35887
  0
LINE
  8
0
 10
444.286326
 11
440.280306
 20
810.35887
 21
814.183597
  0
LINE
  8
0
 10
440.280306
 11
436.981226
 20
814.183597
 21
814.713173
  0
LINE
  8
0
 10
436.981226
 11
432.857387
 20
814.713173
 21
812.889075
  0
LINE
  8
0
 10
432.857387
 11
427.908766
 20
812.889075
 21
810.123504
  0
LINE
  8
0
 10
427.908766
 11
422.253214
 20
810.123504
 21
808.534771
  0
LINE
  8
0
 10
422.253214
 11
417.127861
 20
808.534771
 21
809.4174
  0
LINE
  8
0
 10
417.127861
 11
413.239668
 20
809.4174
 21
812.241813
  0
LINE
  8
0
 10
413.239668
 11
409.822768
 20
812.241813
 21
813.418652
  0
LINE
  8
0
 10
409.822768
 11
401.418107
 20
813.418652
 21
822.102622
  0
LINE
  8
0
 10
401.418107
 11
398.201537
 20
822.102622
 21
825.426086
  0
LINE
  8
0
 10
398.201537
 11
392.758027
 20
825.426086
 21
823.985565
  0
LINE
  8
0
 10
392.758027
 11
388.752007
 20
823.985565
 21
821.337679
  0
LINE
  8
0
 10
388.752007
 11
386.631174
 20
821.337679
 21
819.513578
  0
LINE
  8
0
 10
386.631174
 11
383.921221
 20
819.513578
 21
816.924534
  0
LINE
  8
0
 10
383.921221
 11
383.037542
 20
816.924534
 21
814.335487
  0
LINE
  8
0
 10
383.037542
 11
379.443901
 20
814.335487
 21
809.216241
  0
LINE
  8
0
 10
379.443901
 11
378.428641
 20
809.216241
 21
804.827727
  0
LINE
  8
0
 10
378.428641
 11
378.546461
 20
804.827727
 21
802.356366
  0
LINE
  8
0
 10
378.546461
 11
379.017761
 20
802.356366
 21
800.708792
  0
LINE
  8
0
 10
379.017761
 11
380.785121
 20
800.708792
 21
799.649636
  0
LINE
  8
0
 10
380.785121
 11
382.375747
 20
799.649636
 21
798.767008
  0
LINE
  8
0
 10
382.375747
 11
383.671814
 20
798.767008
 21
797.825538
  0
LINE
  8
0
 10
383.671814
 11
384.437667
 20
797.825538
 21
796.648699
  0
LINE
  8
0
 10
384.437667
 11
384.437667
 20
796.648699
 21
795.617661
  0
LINE
  8
0
 10
237.185621
 11
231.989008
 20
817.736782
 21
814.727442
  0
LINE
  8
0
 10
231.989008
 11
232.417672
 20
814.727442
 21
811.516251
  0
LINE
  8
0
 10
232.417672
 11
230.917336
 20
811.516251
 21
807.020583
  0
LINE
  8
0
 10
230.917336
 11
227.273647
 20
807.020583
 21
804.023472
  0
LINE
  8
0
 10
227.273647
 11
221.915279
 20
804.023472
 21
801.026361
  0
LINE
  8
0
 10
221.915279
 11
214.842238
 20
801.026361
 21
801.026361
  0
LINE
  8
0
 10
214.842238
 11
209.912541
 20
801.026361
 21
801.882679
  0
LINE
  8
0
 10
209.912541
 11
204.768516
 20
801.882679
 21
807.662821
  0
LINE
  8
0
 10
204.768516
 11
199.624483
 20
807.662821
 21
808.090982
  0
LINE
  8
0
 10
199.624483
 11
191.051098
 20
808.090982
 21
796.102533
  0
LINE
  8
0
 10
191.051098
 11
187.621746
 20
796.102533
 21
782.401452
  0
LINE
  8
0
 10
187.621746
 11
194.266122
 20
782.401452
 21
771.055244
  0
LINE
  8
0
 10
194.266122
 11
202.109101
 20
771.055244
 21
755.461153
  0
LINE
  8
0
 10
202.109101
 11
209.9497
 20
755.461153
 21
724.559409
  0
LINE
  8
0
 10
209.9497
 11
216.734622
 20
724.559409
 21
692.639314
  0
LINE
  8
0
 10
216.734622
 11
221.395965
 20
692.639314
 21
664.744611
  0
LINE
  8
0
 10
221.395965
 11
227.287011
 20
664.744611
 21
629.491041
  0
LINE
  8
0
 10
227.287011
 11
240.353802
 20
629.491041
 21
534.80428
  0
LINE
  8
0
 10
240.353802
 11
242.52798
 20
534.80428
 21
491.00199
  0
LINE
  8
0
 10
242.52798
 11
240.088393
 20
491.00199
 21
479.360047
  0
LINE
  8
0
 10
240.088393
 11
234.686952
 20
479.360047
 21
470.545324
  0
LINE
  8
0
 10
234.686952
 11
233.614966
 20
470.545324
 21
465.057929
  0
LINE
  8
0
 10
233.614966
 11
232.006984
 20
465.057929
 21
458.499823
  0
LINE
  8
0
 10
232.006984
 11
233.078977
 20
458.499823
 21
451.674039
  0
LINE
  8
0
 10
233.078977
 11
234.686952
 20
451.674039
 21
447.525036
  0
LINE
  8
0
 10
234.686952
 11
238.170911
 20
447.525036
 21
444.045222
  0
LINE
  8
0
 10
238.170911
 11
240.448888
 20
444.045222
 21
442.840674
  0
LINE
  8
0
 10
240.448888
 11
245.004833
 20
442.840674
 21
444.580578
  0
LINE
  8
0
 10
245.004833
 11
246.478819
 20
444.580578
 21
444.580578
  0
LINE
  8
0
 10
246.478819
 11
248.890785
 20
444.580578
 21
450.737169
  0
LINE
  8
0
 10
248.890785
 11
254.920716
 20
450.737169
 21
458.767501
  0
LINE
  8
0
 10
254.920716
 11
260.012658
 20
458.767501
 21
459.035179
  0
LINE
  8
0
 10
260.012658
 11
266.84658
 20
459.035179
 21
459.302856
  0
LINE
  8
0
 10
266.84658
 11
272.340514
 20
459.302856
 21
460.507408
  0
LINE
  8
0
 10
272.340514
 11
277.968445
 20
460.507408
 21
462.381152
  0
LINE
  8
0
 10
277.968445
 11
283.462386
 20
462.381152
 21
459.972052
  0
LINE
  8
0
 10
283.462386
 11
285.874353
 20
459.972052
 21
456.090723
  0
LINE
  8
0
 10
285.874353
 11
287.482335
 20
456.090723
 21
451.80788
  0
LINE
  8
0
 10
287.482335
 11
288.018332
 20
451.80788
 21
449.26494
  0
LINE
  8
0
 10
288.018332
 11
287.616332
 20
449.26494
 21
446.186644
  0
LINE
  8
0
 10
287.616332
 11
293.949941
 20
446.186644
 21
444.009358
  0
LINE
  8
0
 10
293.949941
 11
296.307545
 20
444.009358
 21
458.138143
  0
LINE
  8
0
 10
296.307545
 11
293.306956
 20
458.138143
 21
464.346243
  0
LINE
  8
0
 10
293.306956
 11
288.591748
 20
464.346243
 21
472.909139
  0
LINE
  8
0
 10
288.591748
 11
283.447884
 20
472.909139
 21
478.689098
  0
LINE
  8
0
 10
283.447884
 11
275.911421
 20
478.689098
 21
493.386823
  0
LINE
  8
0
 10
275.911421
 11
270.981885
 20
493.386823
 21
513.723707
  0
LINE
  8
0
 10
270.981885
 11
265.409364
 20
513.723707
 21
540.268692
  0
LINE
  8
0
 10
265.409364
 11
260.049504
 20
540.268692
 21
582.799805
  0
LINE
  8
0
 10
260.049504
 11
256.082093
 20
582.799805
 21
614.281666
  0
LINE
  8
0
 10
256.082093
 11
245.155646
 20
614.281666
 21
700.984296
  0
LINE
  8
0
 10
245.155646
 11
235.602934
 20
700.984296
 21
740.025641
  0
LINE
  8
0
 10
235.602934
 11
234.745628
 20
740.025641
 21
753.726278
  0
LINE
  8
0
 10
234.745628
 11
236.550568
 20
753.726278
 21
761.899198
  0
LINE
  8
0
 10
236.550568
 11
243.560336
 20
761.899198
 21
780.265087
  0
LINE
  8
0
 10
243.560336
 11
251.93043
 20
780.265087
 21
786.191256
  0
LINE
  8
0
 10
251.93043
 11
261.747141
 20
786.191256
 21
791.314757
  0
LINE
  8
0
 10
256.838786
 11
250.059088
 20
788.753007
 21
800.449669
  0
LINE
  8
0
 10
250.059088
 11
239.213135
 20
800.449669
 21
807.91243
  0
LINE
  8
0
 10
239.213135
 11
232.417672
 20
807.91243
 21
811.516251
  0
LINE
  8
0
 10
405.620438
 11
397.861611
 20
817.760637
 21
812.785184
  0
LINE
  8
0
 10
397.861611
 11
390.871999
 20
812.785184
 21
806.526094
  0
LINE
  8
0
 10
390.871999
 11
389.666888
 20
806.526094
 21
800.748475
  0
LINE
  8
0
 10
389.666888
 11
389.666888
 20
800.748475
 21
795.617661
  0
LINE
  8
0
 10
420.326562
 11
413.058606
 20
456.656718
 21
449.604519
  0
LINE
  8
0
 10
413.058606
 11
401.908469
 20
449.604519
 21
442.681603
  0
LINE
  8
0
 10
401.908469
 11
394.675944
 20
442.681603
 21
441.778614
  0
LINE
  8
0
 10
394.675944
 11
380.662926
 20
441.778614
 21
453.517473
  0
LINE
  8
0
 10
380.662926
 11
380.327153
 20
453.517473
 21
456.831702
  0
LINE
  8
0
 10
422.840422
 11
421.564491
 20
456.23824
 21
454.326623
  0
LINE
  8
0
 10
421.564491
 11
422.852653
 20
454.326623
 21
450.056015
  0
LINE
  8
0
 10
422.852653
 11
424.129986
 20
450.056015
 21
445.821307
  0
LINE
  8
0
 10
424.129986
 11
422.09926
 20
445.821307
 21
439.370642
  0
LINE
  8
0
 10
422.09926
 11
422.40062
 20
439.370642
 21
434.103206
  0
LINE
  8
0
 10
422.40062
 11
414.565383
 20
434.103206
 21
430.039755
  0
LINE
  8
0
 10
414.565383
 11
409.894379
 20
430.039755
 21
425.073314
  0
LINE
  8
0
 10
409.894379
 11
408.839635
 20
425.073314
 21
420.257371
  0
LINE
  8
0
 10
408.839635
 11
410.798444
 20
420.257371
 21
417.548404
  0
LINE
  8
0
 10
410.798444
 11
411.539789
 20
417.548404
 21
406.75505
  0
LINE
  8
0
 10
411.539789
 11
411.690469
 20
406.75505
 21
402.240102
  0
LINE
  8
0
 10
411.690469
 11
410.937084
 20
402.240102
 21
396.220175
  0
LINE
  8
0
 10
410.937084
 11
409.430307
 20
396.220175
 21
365.217547
  0
LINE
  8
0
 10
409.430307
 11
406.936463
 20
365.217547
 21
313.90557
  0
LINE
  8
0
 10
406.936463
 11
401.914367
 20
313.90557
 21
273.968789
  0
LINE
  8
0
 10
401.914367
 11
396.829225
 20
273.968789
 21
233.530661
  0
LINE
  8
0
 10
396.829225
 11
395.886325
 20
233.530661
 21
209.621013
  0
LINE
  8
0
 10
395.886325
 11
393.49977
 20
209.621013
 21
188.772988
  0
LINE
  8
0
 10
393.49977
 11
393.285472
 20
188.772988
 21
176.144349
  0
LINE
  8
0
 10
393.285472
 11
395.428472
 20
176.144349
 21
165.656157
  0
LINE
  8
0
 10
395.428472
 11
393.071174
 20
165.656157
 21
159.020774
  0
LINE
  8
0
 10
393.071174
 11
391.287108
 20
159.020774
 21
153.998936
  0
LINE
  8
0
 10
391.287108
 11
384.284876
 20
153.998936
 21
155.596056
  0
LINE
  8
0
 10
384.284876
 11
379.355982
 20
155.596056
 21
157.736504
  0
LINE
  8
0
 10
379.355982
 11
373.569883
 20
157.736504
 21
156.66628
  0
LINE
  8
0
 10
373.569883
 11
370.141088
 20
156.66628
 21
155.382011
  0
LINE
  8
0
 10
370.141088
 11
364.354989
 20
155.382011
 21
154.097745
  0
LINE
  8
0
 10
364.354989
 11
360.711897
 20
154.097745
 21
151.529207
  0
LINE
  8
0
 10
360.711897
 11
357.068797
 20
151.529207
 21
153.455611
  0
LINE
  8
0
 10
357.068797
 11
355.997293
 20
153.455611
 21
157.950549
  0
LINE
  8
0
 10
355.997293
 11
358.354591
 20
157.950549
 21
164.371892
  0
LINE
  8
0
 10
358.354591
 11
361.35479
 20
164.371892
 21
172.291545
  0
LINE
  8
0
 10
361.35479
 11
364.354989
 20
172.291545
 21
190.913437
  0
LINE
  8
0
 10
364.354989
 11
365.426493
 20
190.913437
 21
211.889816
  0
LINE
  8
0
 10
365.426493
 11
366.772301
 20
211.889816
 21
238.236145
  0
LINE
  8
0
 10
366.772301
 11
373.351301
 20
238.236145
 21
305.813076
  0
LINE
  8
0
 10
373.351301
 11
374.647315
 20
305.813076
 21
343.31503
  0
LINE
  8
0
 10
374.647315
 11
375.6085
 20
343.31503
 21
371.12828
  0
LINE
  8
0
 10
375.6085
 11
372.682952
 20
371.12828
 21
397.596565
  0
LINE
  8
0
 10
372.682952
 11
371.101351
 20
397.596565
 21
420.178366
  0
LINE
  8
0
 10
371.101351
 11
370.19733
 20
420.178366
 21
433.085806
  0
LINE
  8
0
 10
370.19733
 11
366.330595
 20
433.085806
 21
442.333437
  0
LINE
  8
0
 10
366.330595
 11
364.84093
 20
442.333437
 21
448.656993
  0
LINE
  8
0
 10
364.84093
 11
364.690219
 20
448.656993
 21
453.081561
  0
LINE
  8
0
 10
364.690219
 11
366.328851
 20
453.081561
 21
455.239008
  0
LINE
  8
0
 10
366.328851
 11
366.668518
 20
455.239008
 21
456.915397
  0
LINE
  8
0
 10
422.40062
 11
428.670366
 20
434.103206
 21
430.246402
  0
LINE
  8
0
 10
428.670366
 11
429.507968
 20
430.246402
 21
425.059461
  0
LINE
  8
0
 10
429.507968
 11
429.675491
 20
425.059461
 21
419.788863
  0
LINE
  8
0
 10
429.675491
 11
428.586608
 20
419.788863
 21
416.358789
  0
LINE
  8
0
 10
428.586608
 11
427.162687
 20
416.358789
 21
413.096037
  0
LINE
  8
0
 10
427.162687
 11
425.319968
 20
413.096037
 21
409.749625
  0
LINE
  8
0
 10
425.319968
 11
424.984929
 20
409.749625
 21
406.570532
  0
LINE
  8
0
 10
424.984929
 11
423.825162
 20
406.570532
 21
375.793021
  0
LINE
  8
0
 10
423.825162
 11
420.295307
 20
375.793021
 21
339.912752
  0
LINE
  8
0
 10
420.295307
 11
417.407212
 20
339.912752
 21
310.555841
  0
LINE
  8
0
 10
417.407212
 11
414.541321
 20
310.555841
 21
281.424628
  0
LINE
  8
0
 10
414.541321
 11
408.500411
 20
281.424628
 21
225.478291
  0
LINE
  8
0
 10
408.500411
 11
407.971391
 20
225.478291
 21
196.77115
  0
LINE
  8
0
 10
407.971391
 11
404.756053
 20
196.77115
 21
176.699217
  0
LINE
  8
0
 10
404.756053
 11
404.882814
 20
176.699217
 21
164.389812
  0
LINE
  8
0
 10
404.882814
 11
404.950258
 20
164.389812
 21
157.840572
  0
LINE
  8
0
 10
404.950258
 11
402.33734
 20
157.840572
 21
154.220031
  0
LINE
  8
0
 10
402.33734
 11
400.461723
 20
154.220031
 21
149.670392
  0
LINE
  8
0
 10
400.461723
 11
398.184197
 20
149.670392
 21
152.079025
  0
LINE
  8
0
 10
398.184197
 11
393.629132
 20
152.079025
 21
152.881903
  0
LINE
  8
0
 10
393.629132
 11
391.287108
 20
152.881903
 21
153.998936
  0
LINE
  8
0
 10
287.616332
 11
283.341102
 20
446.186644
 21
438.084829
  0
LINE
  8
0
 10
283.341102
 11
274.004885
 20
438.084829
 21
431.424044
  0
LINE
  8
0
 10
274.004885
 11
266.383494
 20
431.424044
 21
427.617885
  0
LINE
  8
0
 10
266.383494
 11
261.048517
 20
427.617885
 21
428.379117
  0
LINE
  8
0
 10
261.048517
 11
253.236578
 20
428.379117
 21
433.707741
  0
LINE
  8
0
 10
253.236578
 11
247.711069
 20
433.707741
 21
440.558833
  0
LINE
  8
0
 10
247.711069
 11
245.741826
 20
440.558833
 21
444.580578
  0
LINE
  8
0
 10
240.448888
 11
237.612717
 20
442.840674
 21
439.607294
  0
LINE
  8
0
 10
237.612717
 11
233.99255
 20
439.607294
 21
434.84959
  0
LINE
  8
0
 10
233.99255
 11
233.99255
 20
434.84959
 21
427.808191
  0
LINE
  8
0
 10
233.99255
 11
235.326296
 20
427.808191
 21
423.431107
  0
LINE
  8
0
 10
235.326296
 11
238.755924
 20
423.431107
 21
421.718332
  0
LINE
  8
0
 10
238.755924
 11
244.662505
 20
421.718332
 21
418.673402
  0
LINE
  8
0
 10
244.662505
 11
247.139465
 20
418.673402
 21
414.676934
  0
LINE
  8
0
 10
247.139465
 11
247.520529
 20
414.676934
 21
408.96769
  0
LINE
  8
0
 10
247.520529
 11
246.377323
 20
408.96769
 21
405.542144
  0
LINE
  8
0
 10
246.377323
 11
249.425879
 20
405.542144
 21
392.601196
  0
LINE
  8
0
 10
249.425879
 11
251.140697
 20
392.601196
 21
378.32809
  0
LINE
  8
0
 10
251.140697
 11
254.934017
 20
378.32809
 21
333.394616
  0
LINE
  8
0
 10
254.934017
 11
252.984211
 20
333.394616
 21
268.153862
  0
LINE
  8
0
 10
252.984211
 11
251.848087
 20
268.153862
 21
230.139016
  0
LINE
  8
0
 10
251.848087
 11
249.441797
 20
230.139016
 21
203.506938
  0
LINE
  8
0
 10
249.441797
 11
246.82117
 20
203.506938
 21
178.521668
  0
LINE
  8
0
 10
246.82117
 11
244.799042
 20
178.521668
 21
145.839419
  0
LINE
  8
0
 10
244.799042
 11
244.632192
 20
145.839419
 21
143.14274
  0
LINE
  8
0
 10
244.632192
 11
248.253498
 20
143.14274
 21
142.032138
  0
LINE
  8
0
 10
248.253498
 11
252.780033
 20
142.032138
 21
142.389071
  0
LINE
  8
0
 10
252.780033
 11
258.140398
 20
142.389071
 21
142.627025
  0
LINE
  8
0
 10
258.140398
 11
263.381651
 20
142.627025
 21
141.437251
  0
LINE
  8
0
 10
263.381651
 11
266.597869
 20
141.437251
 21
142.746003
  0
LINE
  8
0
 10
266.597869
 11
271.005283
 20
142.746003
 21
144.173734
  0
LINE
  8
0
 10
271.005283
 11
274.8171
 20
144.173734
 21
143.34089
  0
LINE
  8
0
 10
274.8171
 11
281.130422
 20
143.34089
 21
143.578847
  0
LINE
  8
0
 10
281.130422
 11
282.2025
 20
143.578847
 21
152.85909
  0
LINE
  8
0
 10
282.2025
 11
278.986275
 20
152.85909
 21
163.210127
  0
LINE
  8
0
 10
278.986275
 11
278.033325
 20
163.210127
 21
172.13344
  0
LINE
  8
0
 10
278.033325
 11
277.318606
 20
172.13344
 21
188.076422
  0
LINE
  8
0
 10
277.318606
 11
275.566212
 20
188.076422
 21
227.166479
  0
LINE
  8
0
 10
275.566212
 11
273.700851
 20
227.166479
 21
268.77646
  0
LINE
  8
0
 10
273.700851
 11
273.869947
 20
268.77646
 21
314.219022
  0
LINE
  8
0
 10
273.869947
 11
275.419009
 20
314.219022
 21
353.918487
  0
LINE
  8
0
 10
275.419009
 11
277.687454
 20
353.918487
 21
379.922788
  0
LINE
  8
0
 10
277.687454
 11
283.759547
 20
379.922788
 21
410.327049
  0
LINE
  8
0
 10
283.759547
 11
292.228705
 20
410.327049
 21
434.668608
  0
LINE
  8
0
 10
292.228705
 11
293.949941
 20
434.668608
 21
444.009358
  0
LINE
  8
0
 10
235.326296
 11
228.694877
 20
423.431107
 21
423.034813
  0
LINE
  8
0
 10
228.694877
 11
225.952155
 20
423.034813
 21
414.816447
  0
LINE
  8
0
 10
225.952155
 11
224.002387
 20
414.816447
 21
408.974109
  0
LINE
  8
0
 10
224.002387
 11
230.218612
 20
408.974109
 21
403.554243
  0
LINE
  8
0
 10
230.218612
 11
231.470933
 20
403.554243
 21
333.757644
  0
LINE
  8
0
 10
231.470933
 11
232.762743
 20
333.757644
 21
261.760213
  0
LINE
  8
0
 10
232.762743
 11
234.087097
 20
261.760213
 21
187.948982
  0
LINE
  8
0
 10
234.087097
 11
234.61735
 20
187.948982
 21
158.395941
  0
LINE
  8
0
 10
234.61735
 11
236.267069
 20
158.395941
 21
148.116222
  0
LINE
  8
0
 10
236.267069
 11
236.005278
 20
148.116222
 21
138.096145
  0
LINE
  8
0
 10
236.005278
 11
237.576032
 20
138.096145
 21
134.958366
  0
LINE
  8
0
 10
237.576032
 11
240.717548
 20
134.958366
 21
131.872886
  0
LINE
  8
0
 10
240.717548
 11
242.759534
 20
131.872886
 21
132.709627
  0
LINE
  8
0
 10
242.759534
 11
245.094912
 20
132.709627
 21
133.666591
  0
LINE
  8
0
 10
245.094912
 11
246.634073
 20
133.666591
 21
136.265774
  0
LINE
  8
0
 10
246.634073
 11
246.791155
 20
136.265774
 21
139.351258
  0
LINE
  8
0
 10
246.791155
 11
244.632192
 20
139.351258
 21
143.14274
  0
LINE
  8
0
 10
281.130422
 11
280.003593
 20
143.578847
 21
133.824654
  0
LINE
  8
0
 10
280.003593
 11
281.774815
 20
133.824654
 21
124.566998
  0
LINE
  8
0
 10
281.774815
 11
275.133238
 20
124.566998
 21
125.208965
  0
LINE
  8
0
 10
275.133238
 11
266.563463
 20
125.208965
 21
129.702743
  0
LINE
  8
0
 10
266.563463
 11
259.017886
 20
129.702743
 21
133.659457
  0
LINE
  8
0
 10
259.017886
 11
254.137285
 20
133.659457
 21
131.628647
  0
LINE
  8
0
 10
254.137285
 11
250.495134
 20
131.628647
 21
132.912581
  0
LINE
  8
0
 10
250.495134
 11
245.094912
 20
132.912581
 21
133.666591
  0
LINE
  8
0
 10
281.774815
 11
281.850969
 20
124.566998
 21
118.901273
  0
LINE
  8
0
 10
281.850969
 11
279.966181
 20
118.901273
 21
117.541661
  0
LINE
  8
0
 10
279.966181
 11
278.76201
 20
117.541661
 21
114.87472
  0
LINE
  8
0
 10
278.76201
 11
276.091894
 20
114.87472
 21
113.41052
  0
LINE
  8
0
 10
276.091894
 11
274.887724
 20
113.41052
 21
113.462812
  0
LINE
  8
0
 10
274.887724
 11
271.118146
 20
113.462812
 21
116.914143
  0
LINE
  8
0
 10
271.118146
 11
265.987331
 20
116.914143
 21
119.005861
  0
LINE
  8
0
 10
265.987331
 11
261.74656
 20
119.005861
 21
119.633375
  0
LINE
  8
0
 10
261.74656
 11
259.076444
 20
119.633375
 21
119.16274
  0
LINE
  8
0
 10
259.076444
 11
256.668103
 20
119.16274
 21
120.679233
  0
LINE
  8
0
 10
256.668103
 11
252.479683
 20
120.679233
 21
121.72509
  0
LINE
  8
0
 10
252.479683
 11
250.437827
 20
121.72509
 21
124.182856
  0
LINE
  8
0
 10
250.437827
 11
252.165556
 20
124.182856
 21
126.117694
  0
LINE
  8
0
 10
252.165556
 11
254.111488
 20
126.117694
 21
131.637742
  0
LINE
  8
0
 10
252.479683
 11
246.839176
 20
121.72509
 21
118.423164
  0
LINE
  8
0
 10
246.839176
 11
243.83985
 20
118.423164
 21
112.645642
  0
LINE
  8
0
 10
243.83985
 11
240.620034
 20
112.645642
 21
106.443398
  0
LINE
  8
0
 10
240.620034
 11
238.912386
 20
106.443398
 21
101.304575
  0
LINE
  8
0
 10
238.912386
 11
244.482559
 20
101.304575
 21
98.950768
  0
LINE
  8
0
 10
244.482559
 11
248.124596
 20
98.950768
 21
103.016434
  0
LINE
  8
0
 10
248.124596
 11
251.117586
 20
103.016434
 21
106.357559
  0
LINE
  8
0
 10
251.117586
 11
254.400039
 20
106.357559
 21
110.021816
  0
LINE
  8
0
 10
254.400039
 11
250.052732
 20
110.021816
 21
113.073606
  0
LINE
  8
0
 10
250.052732
 11
245.339513
 20
113.073606
 21
115.534403
  0
LINE
  8
0
 10
254.400039
 11
256.051385
 20
110.021816
 21
114.999449
  0
LINE
  8
0
 10
256.051385
 11
259.076444
 20
114.999449
 21
119.16274
  0
LINE
  8
0
 10
276.091894
 11
268.905631
 20
113.41052
 21
107.510064
  0
LINE
  8
0
 10
268.905631
 11
264.835121
 20
107.510064
 21
105.370241
  0
LINE
  8
0
 10
264.835121
 11
262.906985
 20
105.370241
 21
98.950768
  0
LINE
  8
0
 10
262.906985
 11
255.194432
 20
98.950768
 21
103.658382
  0
LINE
  8
0
 10
255.194432
 11
249.621091
 20
103.658382
 21
104.686997
  0
LINE
  8
0
 10
245.094912
 11
245.982223
 20
133.666591
 21
128.694319
  0
LINE
  8
0
 10
245.982223
 11
246.574335
 20
128.694319
 21
125.376265
  0
LINE
  8
0
 10
246.574335
 11
238.912386
 20
125.376265
 21
120.990954
  0
LINE
  8
0
 10
238.912386
 11
238.483913
 20
120.990954
 21
115.427413
  0
LINE
  8
0
 10
238.483913
 11
235.056114
 20
115.427413
 21
108.365992
  0
LINE
  8
0
 10
235.056114
 11
233.093552
 20
108.365992
 21
104.323029
  0
LINE
  8
0
 10
233.093552
 11
230.557124
 20
104.323029
 21
100.234663
  0
LINE
  8
0
 10
230.557124
 11
233.770687
 20
100.234663
 21
97.880857
  0
LINE
  8
0
 10
233.770687
 11
238.912386
 20
97.880857
 21
101.304575
  0
LINE
  8
0
 10
238.912386
 11
233.984923
 20
120.990954
 21
119.279095
  0
LINE
  8
0
 10
233.984923
 11
233.451872
 20
119.279095
 21
117.200847
  0
LINE
  8
0
 10
233.451872
 11
235.127182
 20
117.200847
 21
115.788984
  0
LINE
  8
0
 10
235.127182
 11
237.221327
 20
115.788984
 21
115.945857
  0
LINE
  8
0
 10
237.221327
 11
238.531399
 20
115.945857
 21
116.043994
  0
LINE
  8
0
 10
235.127182
 11
231.671853
 20
115.788984
 21
111.135067
  0
LINE
  8
0
 10
231.671853
 11
227.221802
 20
111.135067
 21
106.95177
  0
LINE
  8
0
 10
227.221802
 11
225.180015
 20
106.95177
 21
104.180339
  0
LINE
  8
0
 10
225.180015
 11
225.389425
 20
104.180339
 21
101.827235
  0
LINE
  8
0
 10
225.389425
 11
221.724678
 20
101.827235
 21
101.565778
  0
LINE
  8
0
 10
221.724678
 11
228.000291
 20
101.565778
 21
100.174939
  0
LINE
  8
0
 10
228.000291
 11
230.557124
 20
100.174939
 21
100.234663
  0
LINE
  8
0
 10
221.724678
 11
219.990194
 20
101.565778
 21
102.684916
  0
LINE
  8
0
 10
219.990194
 11
217.948407
 20
102.684916
 21
101.691386
  0
LINE
  8
0
 10
217.948407
 11
215.69721
 20
101.691386
 21
99.338282
  0
LINE
  8
0
 10
215.69721
 11
211.342544
 20
99.338282
 21
92.310347
  0
LINE
  8
0
 10
211.342544
 11
206.683075
 20
92.310347
 21
87.133516
  0
LINE
  8
0
 10
206.683075
 11
199.039463
 20
87.133516
 21
79.551293
  0
LINE
  8
0
 10
199.039463
 11
192.955859
 20
79.551293
 21
72.677426
  0
LINE
  8
0
 10
192.955859
 11
189.919357
 20
72.677426
 21
72.206804
  0
LINE
  8
0
 10
189.919357
 11
186.51179
 20
72.206804
 21
68.269115
  0
LINE
  8
0
 10
186.51179
 11
184.574704
 20
68.269115
 21
64.870186
  0
LINE
  8
0
 10
184.574704
 11
184.731763
 20
64.870186
 21
61.314387
  0
LINE
  8
0
 10
184.731763
 11
186.040604
 20
61.314387
 21
58.752118
  0
LINE
  8
0
 10
186.040604
 11
188.605927
 20
58.752118
 21
57.863166
  0
LINE
  8
0
 10
188.605927
 11
190.647714
 20
57.863166
 21
58.542953
  0
LINE
  8
0
 10
190.647714
 11
191.485369
 20
58.542953
 21
60.948349
  0
LINE
  8
0
 10
191.485369
 11
192.689501
 20
60.948349
 21
64.504148
  0
LINE
  8
0
 10
192.689501
 11
193.893633
 20
64.504148
 21
66.857252
  0
LINE
  8
0
 10
193.893633
 11
194.993056
 20
66.857252
 21
68.3737
  0
LINE
  8
0
 10
194.993056
 11
194.312461
 20
68.3737
 21
70.465347
  0
LINE
  8
0
 10
194.312461
 11
192.955859
 20
70.465347
 21
72.677426
  0
LINE
  8
0
 10
194.993056
 11
196.720725
 20
68.3737
 21
67.693912
  0
LINE
  8
0
 10
196.720725
 11
198.134274
 20
67.693912
 21
70.413055
  0
LINE
  8
0
 10
198.134274
 11
199.809584
 20
70.413055
 21
73.027616
  0
LINE
  8
0
 10
199.809584
 11
203.57904
 20
73.027616
 21
77.158621
  0
LINE
  8
0
 10
203.57904
 11
206.458482
 20
77.158621
 21
79.982344
  0
LINE
  8
0
 10
206.458482
 11
213.073723
 20
79.982344
 21
87.91001
  0
LINE
  8
0
 10
213.073723
 11
217.314356
 20
87.91001
 21
94.39412
  0
LINE
  8
0
 10
217.314356
 11
221.921566
 20
94.39412
 21
101.43874
  0
LINE
  8
0
 10
228.000291
 11
224.284433
 20
100.174939
 21
96.518217
  0
LINE
  8
0
 10
224.284433
 11
221.038514
 20
96.518217
 21
90.243273
  0
LINE
  8
0
 10
221.038514
 11
214.33185
 20
90.243273
 21
80.431181
  0
LINE
  8
0
 10
214.33185
 11
210.009537
 20
80.431181
 21
74.107481
  0
LINE
  8
0
 10
210.009537
 11
203.17128
 20
74.107481
 21
67.488625
  0
LINE
  8
0
 10
203.17128
 11
202.961863
 20
67.488625
 21
63.200747
  0
LINE
  8
0
 10
202.961863
 11
204.951299
 20
63.200747
 21
61.475137
  0
LINE
  8
0
 10
204.951299
 11
206.678968
 20
61.475137
 21
61.056807
  0
LINE
  8
0
 10
206.678968
 11
209.348992
 20
61.056807
 21
59.331195
  0
LINE
  8
0
 10
209.348992
 11
211.547846
 20
59.331195
 21
60.638477
  0
LINE
  8
0
 10
211.547846
 11
212.594911
 20
60.638477
 21
63.88053
  0
LINE
  8
0
 10
212.594911
 11
213.389232
 20
63.88053
 21
66.340006
  0
LINE
  8
0
 10
213.389232
 11
214.769537
 20
66.340006
 21
70.613879
  0
LINE
  8
0
 10
214.769537
 11
221.913841
 20
70.613879
 21
79.93393
  0
LINE
  8
0
 10
221.913841
 11
228.060765
 20
79.93393
 21
90.624836
  0
LINE
  8
0
 10
228.060765
 11
233.770687
 20
90.624836
 21
97.880857
  0
LINE
  8
0
 10
244.482559
 11
243.302698
 20
98.950768
 21
91.924003
  0
LINE
  8
0
 10
243.302698
 11
242.588724
 20
91.924003
 21
87.671868
  0
LINE
  8
0
 10
242.588724
 11
235.132498
 20
87.671868
 21
82.827085
  0
LINE
  8
0
 10
235.132498
 11
226.29261
 20
82.827085
 21
70.519486
  0
LINE
  8
0
 10
226.29261
 11
220.848515
 20
70.519486
 21
62.939782
  0
LINE
  8
0
 10
220.848515
 11
219.997537
 20
62.939782
 21
58.613223
  0
LINE
  8
0
 10
219.997537
 11
215.309721
 20
58.613223
 21
56.338993
  0
LINE
  8
0
 10
215.309721
 11
209.348992
 20
56.338993
 21
59.331195
  0
LINE
  8
0
 10
262.906985
 11
258.269531
 20
98.950768
 21
93.38293
  0
LINE
  8
0
 10
258.269531
 11
251.887067
 20
93.38293
 21
84.065828
  0
LINE
  8
0
 10
251.887067
 11
247.528393
 20
84.065828
 21
75.933103
  0
LINE
  8
0
 10
247.528393
 11
247.659315
 20
75.933103
 21
70.571684
  0
LINE
  8
0
 10
247.659315
 11
245.957218
 20
70.571684
 21
62.927921
  0
LINE
  8
0
 10
245.957218
 11
242.880551
 20
62.927921
 21
60.476051
  0
LINE
  8
0
 10
242.880551
 11
238.020323
 20
60.476051
 21
63.39971
  0
LINE
  8
0
 10
238.020323
 11
233.33266
 20
63.39971
 21
63.39971
  0
LINE
  8
0
 10
233.33266
 11
231.993322
 20
63.39971
 21
67.41293
  0
LINE
  8
0
 10
231.993322
 11
239.225725
 20
67.41293
 21
80.255224
  0
LINE
  8
0
 10
239.225725
 11
242.588724
 20
80.255224
 21
87.671868
  0
LINE
  8
0
 10
202.961863
 11
201.168894
 20
63.200747
 21
64.755942
  0
LINE
  8
0
 10
201.168894
 11
197.974247
 20
64.755942
 21
64.871224
  0
LINE
  8
0
 10
197.974247
 11
196.720725
 20
64.871224
 21
67.693912
  0
LINE
  8
0
 10
242.880551
 11
240.361244
 20
60.476051
 21
54.786175
  0
LINE
  8
0
 10
240.361244
 11
236.564619
 20
54.786175
 21
50.961384
  0
LINE
  8
0
 10
236.564619
 11
233.124589
 20
50.961384
 21
47.026119
  0
LINE
  8
0
 10
233.124589
 11
229.720715
 20
47.026119
 21
47.320333
  0
LINE
  8
0
 10
229.720715
 11
228.411538
 20
47.320333
 21
49.412528
  0
LINE
  8
0
 10
228.411538
 11
225.5968
 20
49.412528
 21
50.752837
  0
LINE
  8
0
 10
225.5968
 11
228.377614
 20
50.752837
 21
55.775718
  0
LINE
  8
0
 10
228.377614
 11
229.752253
 20
55.775718
 21
57.181409
  0
LINE
  8
0
 10
229.752253
 11
231.290544
 20
57.181409
 21
61.038893
  0
LINE
  8
0
 10
231.290544
 11
233.33266
 20
61.038893
 21
63.39971
  0
LINE
  8
0
 10
229.720715
 11
227.301842
 20
47.320333
 21
44.020963
  0
LINE
  8
0
 10
227.301842
 11
223.911921
 20
44.020963
 21
40.164813
  0
LINE
  8
0
 10
223.911921
 11
221.746134
 20
40.164813
 21
40.352918
  0
LINE
  8
0
 10
221.746134
 11
220.521992
 20
40.352918
 21
43.832858
  0
LINE
  8
0
 10
220.521992
 11
221.746134
 20
43.832858
 21
45.807956
  0
LINE
  8
0
 10
221.746134
 11
223.629423
 20
45.807956
 21
48.535475
  0
LINE
  8
0
 10
223.629423
 11
225.5968
 20
48.535475
 21
50.752837
  0
LINE
  8
0
 10
215.309721
 11
214.589633
 20
56.338993
 21
52.297574
  0
LINE
  8
0
 10
214.589633
 11
212.518007
 20
52.297574
 21
51.074893
  0
LINE
  8
0
 10
212.518007
 11
209.693072
 20
51.074893
 21
46.278221
  0
LINE
  8
0
 10
209.693072
 11
206.303151
 20
46.278221
 21
43.362593
  0
LINE
  8
0
 10
206.303151
 11
202.91323
 20
43.362593
 21
44.679329
  0
LINE
  8
0
 10
202.91323
 11
200.653282
 20
44.679329
 21
47.783058
  0
LINE
  8
0
 10
200.653282
 11
201.31243
 20
47.783058
 21
49.570052
  0
LINE
  8
0
 10
201.31243
 11
205.832333
 20
49.570052
 21
52.109469
  0
LINE
  8
0
 10
205.832333
 11
208.563099
 20
52.109469
 21
56.623985
  0
LINE
  8
0
 10
208.563099
 11
209.348992
 20
56.623985
 21
59.331195
  0
LINE
  8
0
 10
206.303151
 11
201.971585
 20
43.362593
 21
41.387494
  0
LINE
  8
0
 10
201.971585
 11
201.31243
 20
41.387494
 21
38.377816
  0
LINE
  8
0
 10
201.31243
 11
199.240811
 20
38.377816
 21
36.778928
  0
LINE
  8
0
 10
199.240811
 11
197.45169
 20
36.778928
 21
37.531345
  0
LINE
  8
0
 10
197.45169
 11
197.357522
 20
37.531345
 21
39.694552
  0
LINE
  8
0
 10
197.357522
 11
198.581664
 20
39.694552
 21
41.29344
  0
LINE
  8
0
 10
198.581664
 11
199.711637
 20
41.29344
 21
44.115014
  0
LINE
  8
0
 10
199.711637
 11
200.653282
 20
44.115014
 21
47.783058
  0
LINE
  8
0
 10
201.31243
 11
198.578332
 20
49.570052
 21
48.033953
  0
LINE
  8
0
 10
198.578332
 11
197.148831
 20
48.033953
 21
50.730288
  0
LINE
  8
0
 10
197.148831
 11
199.31461
 20
50.730288
 21
54.77454
  0
LINE
  8
0
 10
199.31461
 11
201.009578
 20
54.77454
 21
60.135527
  0
LINE
  8
0
 10
201.009578
 11
204.951299
 20
60.135527
 21
61.475137
  0
LINE
  8
0
 10
198.578332
 11
195.512539
 20
48.033953
 21
46.311499
  0
LINE
  8
0
 10
195.512539
 11
194.700554
 20
46.311499
 21
42.641782
  0
LINE
  8
0
 10
194.700554
 11
193.005593
 20
42.641782
 21
40.29047
  0
LINE
  8
0
 10
193.005593
 11
191.404793
 20
40.29047
 21
41.230995
  0
LINE
  8
0
 10
191.404793
 11
191.593122
 20
41.230995
 21
42.829887
  0
LINE
  8
0
 10
191.593122
 11
191.781451
 20
42.829887
 21
44.334725
  0
LINE
  8
0
 10
191.781451
 11
192.911425
 20
44.334725
 21
46.215772
  0
LINE
  8
0
 10
192.911425
 11
194.135567
 20
46.215772
 21
48.567081
  0
LINE
  8
0
 10
194.135567
 11
197.148831
 20
48.567081
 21
50.730288
  0
LINE
  8
0
 10
201.009578
 11
196.678004
 20
60.135527
 21
57.408008
  0
LINE
  8
0
 10
196.678004
 11
194.794715
 20
57.408008
 21
54.680489
  0
LINE
  8
0
 10
194.794715
 11
191.958117
 20
54.680489
 21
50.572319
  0
LINE
  8
0
 10
191.958117
 11
188.768188
 20
50.572319
 21
48.284925
  0
LINE
  8
0
 10
188.768188
 11
186.79073
 20
48.284925
 21
45.651457
  0
LINE
  8
0
 10
186.79073
 11
185.001609
 20
45.651457
 21
45.087142
  0
LINE
  8
0
 10
185.001609
 11
184.342453
 20
45.087142
 21
46.591983
  0
LINE
  8
0
 10
184.342453
 11
183.743934
 20
46.591983
 21
47.958392
  0
LINE
  8
0
 10
183.743934
 11
185.189938
 20
47.958392
 21
50.071922
  0
LINE
  8
0
 10
185.189938
 11
186.319911
 20
50.071922
 21
51.858916
  0
LINE
  8
0
 10
186.319911
 11
187.747281
 20
51.858916
 21
54.116226
  0
LINE
  8
0
 10
187.747281
 11
188.84608
 20
54.116226
 21
55.853917
  0
LINE
  8
0
 10
188.84608
 11
189.626821
 20
55.853917
 21
58.203059
  0
LINE
  8
0
 10
192.705124
 11
190.180659
 20
51.65419
 21
52.987546
  0
LINE
  8
0
 10
190.180659
 11
188.296681
 20
52.987546
 21
54.985071
  0
LINE
  8
0
 10
186.040604
 11
183.21248
 20
58.752118
 21
55.338855
  0
LINE
  8
0
 10
183.21248
 11
180.481713
 20
55.338855
 21
52.893492
  0
LINE
  8
0
 10
180.481713
 11
177.75094
 20
52.893492
 21
53.081597
  0
LINE
  8
0
 10
177.75094
 11
176.809295
 20
53.081597
 21
55.432909
  0
LINE
  8
0
 10
176.809295
 11
177.75094
 20
55.432909
 21
57.219903
  0
LINE
  8
0
 10
177.75094
 11
179.069242
 20
57.219903
 21
59.289056
  0
LINE
  8
0
 10
179.069242
 11
182.176674
 20
59.289056
 21
61.734419
  0
LINE
  8
0
 10
182.176674
 11
184.708271
 20
61.734419
 21
61.846239
  0
LINE
  8
0
 10
400.461723
 11
399.353686
 20
149.670392
 21
146.454672
  0
LINE
  8
0
 10
399.353686
 11
399.989038
 20
146.454672
 21
144.550882
  0
LINE
  8
0
 10
399.989038
 11
399.459581
 20
144.550882
 21
141.060596
  0
LINE
  8
0
 10
399.459581
 11
397.447625
 20
141.060596
 21
140.320234
  0
LINE
  8
0
 10
397.447625
 11
393.529609
 20
140.320234
 21
142.541322
  0
LINE
  8
0
 10
393.529609
 11
389.929276
 20
142.541322
 21
142.964386
  0
LINE
  8
0
 10
389.929276
 11
386.709958
 20
142.964386
 21
143.342679
  0
LINE
  8
0
 10
386.709958
 11
384.846444
 20
143.342679
 21
146.666206
  0
LINE
  8
0
 10
384.846444
 11
380.081295
 20
146.666206
 21
148.993061
  0
LINE
  8
0
 10
380.081295
 11
375.422033
 20
148.993061
 21
148.041165
  0
LINE
  8
0
 10
375.422033
 11
368.750815
 20
148.041165
 21
146.348905
  0
LINE
  8
0
 10
368.750815
 11
362.291386
 20
146.348905
 21
144.127817
  0
LINE
  8
0
 10
362.291386
 11
361.550141
 20
144.127817
 21
147.935401
  0
LINE
  8
0
 10
361.550141
 11
360.711897
 20
147.935401
 21
151.529207
  0
LINE
  8
0
 10
362.291386
 11
357.420343
 20
144.127817
 21
141.060596
  0
LINE
  8
0
 10
357.420343
 11
356.043746
 20
141.060596
 21
138.733738
  0
LINE
  8
0
 10
356.043746
 11
356.467316
 20
138.733738
 21
136.406883
  0
LINE
  8
0
 10
356.467316
 11
357.526237
 20
136.406883
 21
134.397326
  0
LINE
  8
0
 10
357.526237
 11
359.114623
 20
134.397326
 21
132.599299
  0
LINE
  8
0
 10
359.114623
 11
361.444254
 20
132.599299
 21
131.435872
  0
LINE
  8
0
 10
361.444254
 11
364.197447
 20
131.435872
 21
134.185792
  0
LINE
  8
0
 10
364.197447
 11
365.627309
 20
134.185792
 21
135.613953
  0
LINE
  8
0
 10
365.627309
 11
367.48099
 20
135.613953
 21
137.46543
  0
LINE
  8
0
 10
367.48099
 11
369.492061
 20
137.46543
 21
137.253013
  0
LINE
  8
0
 10
369.492061
 11
371.715805
 20
137.253013
 21
138.41644
  0
LINE
  8
0
 10
371.715805
 11
374.045428
 20
138.41644
 21
138.627974
  0
LINE
  8
0
 10
374.045428
 11
376.057384
 20
138.627974
 21
138.522207
  0
LINE
  8
0
 10
376.057384
 11
378.387015
 20
138.522207
 21
140.1087
  0
LINE
  8
0
 10
378.387015
 11
380.062631
 20
140.1087
 21
141.249804
  0
LINE
  8
0
 10
380.062631
 11
382.093242
 20
141.249804
 21
142.435558
  0
LINE
  8
0
 10
382.093242
 11
383.893417
 20
142.435558
 21
142.647089
  0
LINE
  8
0
 10
383.893417
 11
386.333001
 20
142.647089
 21
144.014973
  0
LINE
  8
0
 10
361.444254
 11
362.00648
 20
131.435872
 21
126.239651
  0
LINE
  8
0
 10
362.00648
 11
367.087483
 20
126.239651
 21
122.34885
  0
LINE
  8
0
 10
367.087483
 11
370.813561
 20
122.34885
 21
126.916312
  0
LINE
  8
0
 10
370.813561
 11
374.370263
 20
126.916312
 21
128.269633
  0
LINE
  8
0
 10
374.370263
 11
376.741399
 20
128.269633
 21
127.592973
  0
LINE
  8
0
 10
376.741399
 11
378.604433
 20
127.592973
 21
125.901322
  0
LINE
  8
0
 10
378.604433
 11
379.53274
 20
125.901322
 21
125.058412
  0
LINE
  8
0
 10
379.53274
 11
381.991777
 20
125.058412
 21
126.239651
  0
LINE
  8
0
 10
381.991777
 11
382.789647
 20
126.239651
 21
126.622921
  0
LINE
  8
0
 10
382.789647
 11
381.991777
 20
126.622921
 21
129.284626
  0
LINE
  8
0
 10
381.991777
 11
381.144943
 20
129.284626
 21
130.976279
  0
LINE
  8
0
 10
381.144943
 11
379.959368
 20
130.976279
 21
132.667933
  0
LINE
  8
0
 10
379.959368
 11
377.080132
 20
132.667933
 21
136.05124
  0
LINE
  8
0
 10
377.080132
 11
375.606496
 20
136.05124
 21
138.21515
  0
LINE
  8
0
 10
375.606496
 11
375.623836
 20
138.21515
 21
138.544999
  0
LINE
  8
0
 10
381.991777
 11
384.181796
 20
129.284626
 21
131.34379
  0
LINE
  8
0
 10
384.181796
 11
388.111332
 20
131.34379
 21
133.365686
  0
LINE
  8
0
 10
388.111332
 11
389.905433
 20
133.365686
 21
134.288819
  0
LINE
  8
0
 10
389.905433
 11
388.34948
 20
134.288819
 21
139.431372
  0
LINE
  8
0
 10
388.34948
 11
386.709958
 20
139.431372
 21
143.342679
  0
LINE
  8
0
 10
389.905433
 11
393.469785
 20
134.288819
 21
130.63018
  0
LINE
  8
0
 10
393.469785
 11
402.162389
 20
130.63018
 21
131.462724
  0
LINE
  8
0
 10
402.162389
 11
399.899933
 20
131.462724
 21
136.101192
  0
LINE
  8
0
 10
399.899933
 11
397.447625
 20
136.101192
 21
140.320234
  0
LINE
  8
0
 10
402.162389
 11
406.091926
 20
131.462724
 21
134.079296
  0
LINE
  8
0
 10
406.091926
 11
406.330081
 20
134.079296
 21
136.576929
  0
LINE
  8
0
 10
406.330081
 11
405.377467
 20
136.576929
 21
138.360954
  0
LINE
  8
0
 10
405.377467
 11
404.663001
 20
138.360954
 21
139.669242
  0
LINE
  8
0
 10
404.663001
 11
402.6387
 20
139.669242
 21
140.382853
  0
LINE
  8
0
 10
402.6387
 11
399.430593
 20
140.382853
 21
140.869504
  0
LINE
  8
0
 10
399.430593
 11
399.459581
 20
140.869504
 21
141.060596
  0
LINE
  8
0
 10
379.53274
 11
381.305873
 20
125.058412
 21
120.837965
  0
LINE
  8
0
 10
381.305873
 11
382.152623
 20
120.837965
 21
118.300733
  0
LINE
  8
0
 10
382.152623
 11
382.830021
 20
118.300733
 21
115.256055
  0
LINE
  8
0
 10
382.830021
 11
383.168724
 20
115.256055
 21
113.395419
  0
LINE
  8
0
 10
383.168724
 11
384.015474
 20
113.395419
 21
111.365634
  0
LINE
  8
0
 10
384.015474
 11
384.862231
 20
111.365634
 21
109.166702
  0
LINE
  8
0
 10
384.862231
 11
385.878333
 20
109.166702
 21
106.967766
  0
LINE
  8
0
 10
385.878333
 11
386.894434
 20
106.967766
 21
104.768831
  0
LINE
  8
0
 10
386.894434
 11
388.926637
 20
104.768831
 21
102.062452
  0
LINE
  8
0
 10
388.926637
 11
390.11209
 20
102.062452
 21
100.032667
  0
LINE
  8
0
 10
390.11209
 11
390.958847
 20
100.032667
 21
97.495435
  0
LINE
  8
0
 10
390.958847
 11
391.128191
 20
97.495435
 21
95.634799
  0
LINE
  8
0
 10
391.128191
 11
388.757285
 20
95.634799
 21
94.958203
  0
LINE
  8
0
 10
388.757285
 11
386.654941
 20
94.958203
 21
94.358247
  0
LINE
  8
0
 10
386.654941
 11
384.184825
 20
94.358247
 21
92.420971
  0
LINE
  8
0
 10
384.184825
 11
381.136521
 20
92.420971
 21
93.77416
  0
LINE
  8
0
 10
381.136521
 11
376.733413
 20
93.77416
 21
100.540113
  0
LINE
  8
0
 10
376.733413
 11
374.701203
 20
100.540113
 21
110.012445
  0
LINE
  8
0
 10
374.701203
 11
369.281993
 20
110.012445
 21
117.62414
  0
LINE
  8
0
 10
369.281993
 11
367.087483
 20
117.62414
 21
122.34885
  0
LINE
  8
0
 10
382.789647
 11
384.109701
 20
126.622921
 21
122.219206
  0
LINE
  8
0
 10
384.109701
 11
387.233137
 20
122.219206
 21
121.345412
  0
LINE
  8
0
 10
387.233137
 11
389.26534
 20
121.345412
 21
117.962437
  0
LINE
  8
0
 10
389.26534
 11
390.281441
 20
117.962437
 21
115.932651
  0
LINE
  8
0
 10
390.281441
 11
391.128191
 20
115.932651
 21
113.902866
  0
LINE
  8
0
 10
391.128191
 11
391.974948
 20
113.902866
 21
111.87308
  0
LINE
  8
0
 10
391.974948
 11
393.329753
 20
111.87308
 21
109.335848
  0
LINE
  8
0
 10
393.329753
 11
394.345854
 20
109.335848
 21
107.475213
  0
LINE
  8
0
 10
394.345854
 11
395.023252
 20
107.475213
 21
104.937981
  0
LINE
  8
0
 10
395.023252
 11
396.039354
 20
104.937981
 21
102.739045
  0
LINE
  8
0
 10
396.039354
 11
397.224807
 20
102.739045
 21
100.70926
  0
LINE
  8
0
 10
397.224807
 11
399.257017
 20
100.70926
 21
98.848624
  0
LINE
  8
0
 10
399.257017
 11
402.135969
 20
98.848624
 21
95.803946
  0
LINE
  8
0
 10
402.135969
 11
405.692328
 20
95.803946
 21
97.326285
  0
LINE
  8
0
 10
405.692328
 11
407.858914
 20
97.326285
 21
98.253716
  0
LINE
  8
0
 10
407.858914
 11
408.063234
 20
98.253716
 21
100.370963
  0
LINE
  8
0
 10
408.063234
 11
405.01493
 20
100.370963
 21
105.952873
  0
LINE
  8
0
 10
405.01493
 11
401.28922
 20
105.952873
 21
113.22627
  0
LINE
  8
0
 10
401.28922
 11
397.114733
 20
113.22627
 21
121.375776
  0
LINE
  8
0
 10
397.114733
 11
393.469785
 20
121.375776
 21
130.63018
  0
LINE
  8
0
 10
408.063234
 11
409.42281
 20
100.370963
 21
97.88137
  0
LINE
  8
0
 10
409.42281
 11
414.498552
 20
97.88137
 21
99.694367
  0
LINE
  8
0
 10
414.498552
 11
416.761941
 20
99.694367
 21
100.502823
  0
LINE
  8
0
 10
416.761941
 11
416.361404
 20
100.502823
 21
104.092238
  0
LINE
  8
0
 10
416.361404
 11
410.942194
 20
104.092238
 21
112.549677
  0
LINE
  8
0
 10
410.942194
 11
407.047132
 20
112.549677
 21
121.176265
  0
LINE
  8
0
 10
407.047132
 11
402.162389
 20
121.176265
 21
131.462724
  0
LINE
  8
0
 10
416.761941
 11
420.256465
 20
100.502823
 21
98.679474
  0
LINE
  8
0
 10
420.256465
 11
423.304769
 20
98.679474
 21
101.047559
  0
LINE
  8
0
 10
423.304769
 11
425.040149
 20
101.047559
 21
102.395695
  0
LINE
  8
0
 10
425.040149
 11
424.151527
 20
102.395695
 21
106.798616
  0
LINE
  8
0
 10
424.151527
 11
418.562958
 20
106.798616
 21
114.072016
  0
LINE
  8
0
 10
418.562958
 11
412.974397
 20
114.072016
 21
119.823073
  0
LINE
  8
0
 10
412.974397
 11
411.111545
 20
119.823073
 21
129.126257
  0
LINE
  8
0
 10
411.111545
 11
406.211003
 20
129.126257
 21
135.328113
  0
LINE
  8
0
 10
411.111545
 11
415.927069
 20
129.126257
 21
123.031997
  0
LINE
  8
0
 10
415.927069
 11
421.780621
 20
123.031997
 21
116.609248
  0
LINE
  8
0
 10
421.780621
 11
425.167628
 20
116.609248
 21
112.887973
  0
LINE
  8
0
 10
425.167628
 11
431.433595
 20
112.887973
 21
109.335848
  0
LINE
  8
0
 10
431.433595
 11
431.264244
 20
109.335848
 21
106.29117
  0
LINE
  8
0
 10
431.264244
 11
430.078791
 20
106.29117
 21
102.400749
  0
LINE
  8
0
 10
430.078791
 11
424.172459
 20
102.400749
 21
101.721627
  0
LINE
  8
0
 10
430.078791
 11
434.989219
 20
102.400749
 21
99.149954
  0
LINE
  8
0
 10
434.989219
 11
435.497266
 20
99.149954
 21
95.42868
  0
LINE
  8
0
 10
435.497266
 11
437.360125
 20
95.42868
 21
92.214855
  0
LINE
  8
0
 10
437.360125
 11
436.513375
 20
92.214855
 21
88.49358
  0
LINE
  8
0
 10
436.513375
 11
432.957017
 20
88.49358
 21
87.140391
  0
LINE
  8
0
 10
432.957017
 11
431.094158
 20
87.140391
 21
89.677623
  0
LINE
  8
0
 10
431.094158
 11
429.739353
 20
89.677623
 21
94.413787
  0
LINE
  8
0
 10
429.739353
 11
427.876502
 20
94.413787
 21
99.488251
  0
LINE
  8
0
 10
427.876502
 11
424.172459
 20
99.488251
 21
101.721627
  0
LINE
  8
0
 10
432.025587
 11
430.545242
 20
88.409007
 21
85.554476
  0
LINE
  8
0
 10
430.545242
 11
428.014362
 20
85.554476
 21
84.290541
  0
LINE
  8
0
 10
428.014362
 11
425.870244
 20
84.290541
 21
83.219757
  0
LINE
  8
0
 10
425.870244
 11
423.845852
 20
83.219757
 21
88.454084
  0
LINE
  8
0
 10
423.845852
 11
421.463848
 20
88.454084
 21
94.550702
  0
LINE
  8
0
 10
421.463848
 11
420.256465
 20
94.550702
 21
98.679474
  0
LINE
  8
0
 10
425.141745
 11
423.696978
 20
85.103386
 21
82.877911
  0
LINE
  8
0
 10
423.696978
 11
419.081843
 20
82.877911
 21
81.911375
  0
LINE
  8
0
 10
419.081843
 11
415.434407
 20
81.911375
 21
87.859294
  0
LINE
  8
0
 10
415.434407
 11
411.489213
 20
87.859294
 21
93.138069
  0
LINE
  8
0
 10
411.489213
 11
409.752852
 20
93.138069
 21
97.999258
  0
LINE
  8
0
 10
417.258125
 11
416.029906
 20
84.885334
 21
82.506165
  0
LINE
  8
0
 10
416.029906
 11
414.317842
 20
82.506165
 21
80.64744
  0
LINE
  8
0
 10
414.317842
 11
410.968147
 20
80.64744
 21
79.309158
  0
LINE
  8
0
 10
410.968147
 11
408.735018
 20
79.309158
 21
82.134422
  0
LINE
  8
0
 10
408.735018
 11
406.94852
 20
82.134422
 21
86.446661
  0
LINE
  8
0
 10
406.94852
 11
405.162015
 20
86.446661
 21
89.569319
  0
LINE
  8
0
 10
405.162015
 11
402.407819
 20
89.569319
 21
91.130649
  0
LINE
  8
0
 10
402.407819
 11
402.135969
 20
91.130649
 21
95.803946
  0
LINE
  8
0
 10
391.128191
 11
393.847499
 20
95.634799
 21
92.320232
  0
LINE
  8
0
 10
393.847499
 11
393.921932
 20
92.320232
 21
89.346272
  0
LINE
  8
0
 10
393.921932
 11
397.718251
 20
89.346272
 21
84.43924
  0
LINE
  8
0
 10
397.718251
 11
398.090442
 20
84.43924
 21
80.79614
  0
LINE
  8
0
 10
398.090442
 11
394.591873
 20
80.79614
 21
79.383509
  0
LINE
  8
0
 10
394.591873
 11
390.200054
 20
79.383509
 21
79.23481
  0
LINE
  8
0
 10
390.200054
 11
387.148109
 20
79.23481
 21
83.918795
  0
LINE
  8
0
 10
387.148109
 11
384.245047
 20
83.918795
 21
87.636247
  0
LINE
  8
0
 10
384.245047
 11
384.184825
 20
87.636247
 21
92.420971
  0
LINE
  8
0
 10
398.090442
 11
398.497496
 20
80.79614
 21
76.811791
  0
LINE
  8
0
 10
398.497496
 11
399.729365
 20
76.811791
 21
74.087868
  0
LINE
  8
0
 10
399.729365
 11
399.133866
 20
74.087868
 21
71.560002
  0
LINE
  8
0
 10
399.133866
 11
396.081921
 20
71.560002
 21
71.262607
  0
LINE
  8
0
 10
396.081921
 11
395.188672
 20
71.262607
 21
72.898285
  0
LINE
  8
0
 10
395.188672
 11
393.104417
 20
72.898285
 21
74.83136
  0
LINE
  8
0
 10
393.104417
 11
392.583352
 20
74.83136
 21
77.136179
  0
LINE
  8
0
 10
392.583352
 11
391.615985
 20
77.136179
 21
79.282751
  0
LINE
  8
0
 10
415.173874
 11
416.626706
 20
81.576803
 21
79.589693
  0
LINE
  8
0
 10
416.626706
 11
417.668829
 20
79.589693
 21
75.872244
  0
LINE
  8
0
 10
417.668829
 11
417.37108
 20
75.872244
 21
72.60089
  0
LINE
  8
0
 10
417.37108
 11
415.13795
 20
72.60089
 21
73.046984
  0
LINE
  8
0
 10
415.13795
 11
412.90482
 20
73.046984
 21
75.203103
  0
LINE
  8
0
 10
412.90482
 11
411.564947
 20
75.203103
 21
77.359226
  0
LINE
  8
0
 10
411.564947
 11
410.968147
 20
77.359226
 21
79.309158
  0
LINE
  8
0
 10
424.419361
 11
425.112593
 20
83.990648
 21
81.820163
  0
LINE
  8
0
 10
425.112593
 11
425.484776
 20
81.820163
 21
79.143599
  0
LINE
  8
0
 10
425.484776
 11
423.698278
 20
79.143599
 21
77.210527
  0
LINE
  8
0
 10
423.698278
 11
421.390707
 20
77.210527
 21
77.284874
  0
LINE
  8
0
 10
421.390707
 11
420.274142
 20
77.284874
 21
79.887091
  0
LINE
  8
0
 10
420.274142
 11
419.817917
 20
79.887091
 21
82.065529
  0
LINE
  8
0
 10
431.285415
 11
432.705223
 20
86.981741
 21
84.348029
  0
LINE
  8
0
 10
432.705223
 11
433.716275
 20
84.348029
 21
82.47255
  0
LINE
  8
0
 10
433.716275
 11
432.33304
 20
82.47255
 21
79.440997
  0
LINE
  8
0
 10
432.33304
 11
430.323218
 20
79.440997
 21
79.143599
  0
LINE
  8
0
 10
430.323218
 11
428.685596
 20
79.143599
 21
80.927975
  0
LINE
  8
0
 10
428.685596
 11
427.345715
 20
80.927975
 21
82.489305
  0
LINE
  8
0
 10
427.345715
 11
426.75921
 20
82.489305
 21
83.663711
  0
LINE
  8
0
 10
435.735225
 11
437.097041
 20
88.197495
 21
86.801547
  0
LINE
  8
0
 10
437.097041
 11
436.873733
 20
86.801547
 21
85.388913
  0
LINE
  8
0
 10
436.873733
 11
434.938353
 20
85.388913
 21
85.463264
  0
LINE
  8
0
 10
434.938353
 11
434.268412
 20
85.463264
 21
86.652847
  0
LINE
  8
0
 10
434.268412
 11
433.940513
 20
86.652847
 21
87.51461
  0
LINE
  8
0
 10
337.082567
 11
331.684507
 20
1373.034721
 21
1375.254807
  0
LINE
  8
0
 10
331.684507
 11
327.027363
 20
1375.254807
 21
1375.57196
  0
LINE
  8
0
 10
327.027363
 11
321.735144
 20
1375.57196
 21
1372.506131
  0
LINE
  8
0
 10
321.735144
 11
320.676705
 20
1372.506131
 21
1366.691627
  0
LINE
  8
0
 10
320.676705
 11
322.052682
 20
1366.691627
 21
1360.771404
  0
LINE
  8
0
 10
322.052682
 11
325.545538
 20
1360.771404
 21
1353.05397
  0
LINE
  8
0
 10
325.545538
 11
334.542302
 20
1353.05397
 21
1350.305298
  0
LINE
  8
0
 10
334.542302
 11
342.268937
 20
1350.305298
 21
1351.362478
  0
LINE
  8
0
 10
342.268937
 11
345.338422
 20
1351.362478
 21
1353.899716
  0
LINE
  8
0
 10
345.338422
 11
346.502709
 20
1353.899716
 21
1359.397068
  0
LINE
  8
0
 10
346.502709
 11
346.926088
 20
1359.397068
 21
1366.163037
  0
LINE
  8
0
 10
346.926088
 11
341.845558
 20
1366.163037
 21
1370.70892
  0
LINE
  8
0
 10
341.845558
 11
337.082567
 20
1370.70892
 21
1373.034721
  0
LINE
  8
0
 10
300.46045
 11
299.613693
 20
1368.383119
 21
1361.828587
  0
LINE
  8
0
 10
299.613693
 11
298.343564
 20
1361.828587
 21
1354.111154
  0
LINE
  8
0
 10
298.343564
 11
294.321481
 20
1354.111154
 21
1351.256762
  0
LINE
  8
0
 10
294.321481
 11
289.55849
 20
1351.256762
 21
1350.833888
  0
LINE
  8
0
 10
289.55849
 11
280.350036
 20
1350.833888
 21
1351.362478
  0
LINE
  8
0
 10
280.350036
 11
277.91562
 20
1351.362478
 21
1354.745462
  0
LINE
  8
0
 10
277.91562
 11
275.904575
 20
1354.745462
 21
1360.982841
  0
LINE
  8
0
 10
275.904575
 11
275.375355
 20
1360.982841
 21
1363.837232
  0
LINE
  8
0
 10
275.375355
 11
276.857173
 20
1363.837232
 21
1367.643092
  0
LINE
  8
0
 10
276.857173
 11
283.101991
 20
1367.643092
 21
1370.920357
  0
LINE
  8
0
 10
283.101991
 11
290.19355
 20
1370.920357
 21
1373.14044
  0
LINE
  8
0
 10
290.19355
 11
294.850701
 20
1373.14044
 21
1371.131795
  0
LINE
  8
0
 10
294.850701
 11
300.46045
 20
1371.131795
 21
1368.383119
  0
LINE
  8
0
 10
314.491693
 11
314.75465
 20
1358.514084
 21
1351.160094
  0
LINE
  8
0
 10
314.75465
 11
315.007157
 20
1351.160094
 21
1344.098371
  0
LINE
  8
0
 10
315.007157
 11
318.274851
 20
1344.098371
 21
1339.530212
  0
LINE
  8
0
 10
318.274851
 11
318.545638
 20
1339.530212
 21
1332.768653
  0
LINE
  8
0
 10
318.545638
 11
314.10729
 20
1332.768653
 21
1329.412816
  0
LINE
  8
0
 10
314.10729
 11
309.589735
 20
1329.412816
 21
1329.318814
  0
LINE
  8
0
 10
309.589735
 11
306.578032
 20
1329.318814
 21
1332.890954
  0
LINE
  8
0
 10
306.578032
 11
305.542762
 20
1332.890954
 21
1336.933111
  0
LINE
  8
0
 10
305.542762
 11
307.895654
 20
1336.933111
 21
1343.889383
  0
LINE
  8
0
 10
307.895654
 11
307.80154
 20
1343.889383
 21
1357.707925
  0
LINE
  8
0
 10
307.80154
 11
310.060317
 20
1357.707925
 21
1358.271947
  0
LINE
  8
0
 10
310.060317
 11
312.977905
 20
1358.271947
 21
1358.459955
  0
LINE
  8
0
 10
312.977905
 11
314.491693
 20
1358.459955
 21
1358.514084
  0
LINE
  8
0
 10
333.941073
 11
326.715341
 20
1316.606344
 21
1316.305629
  0
LINE
  8
0
 10
326.715341
 11
309.609516
 20
1316.305629
 21
1317.25018
  0
LINE
  8
0
 10
309.609516
 11
292.493847
 20
1317.25018
 21
1316.655564
  0
LINE
  8
0
 10
292.493847
 11
289.814873
 20
1316.655564
 21
1315.763634
  0
LINE
  8
0
 10
289.814873
 11
291.52644
 20
1315.763634
 21
1313.236506
  0
LINE
  8
0
 10
291.52644
 11
290.856698
 20
1313.236506
 21
1309.445812
  0
LINE
  8
0
 10
290.856698
 11
289.29396
 20
1309.445812
 21
1308.330902
  0
LINE
  8
0
 10
289.29396
 11
291.079945
 20
1308.330902
 21
1305.506464
  0
LINE
  8
0
 10
291.079945
 11
295.916981
 20
1305.506464
 21
1304.094243
  0
LINE
  8
0
 10
295.916981
 11
301.498176
 20
1304.094243
 21
1303.276641
  0
LINE
  8
0
 10
301.498176
 11
306.409629
 20
1303.276641
 21
1303.573952
  0
LINE
  8
0
 10
306.409629
 11
308.175645
 20
1303.573952
 21
1303.680857
  0
LINE
  8
0
 10
308.175645
 11
312.586155
 20
1303.680857
 21
1302.905004
  0
LINE
  8
0
 10
312.586155
 11
319.283586
 20
1302.905004
 21
1303.425298
  0
LINE
  8
0
 10
319.283586
 11
327.320508
 20
1303.425298
 21
1305.283481
  0
LINE
  8
0
 10
327.320508
 11
331.711049
 20
1305.283481
 21
1304.763187
  0
LINE
  8
0
 10
331.711049
 11
334.241187
 20
1304.763187
 21
1306.770027
  0
LINE
  8
0
 10
334.241187
 11
333.943529
 20
1306.770027
 21
1311.081012
  0
LINE
  8
0
 10
333.943529
 11
333.632666
 20
1311.081012
 21
1315.58324
  0
LINE
  8
0
 10
333.632666
 11
333.941073
 20
1315.58324
 21
1316.606344
  0
LINE
  8
0
 10
330.328207
 11
330.594806
 20
1316.455986
 21
1310.412068
  0
LINE
  8
0
 10
330.594806
 11
333.943529
 20
1310.412068
 21
1311.081012
  0
LINE
  8
0
 10
330.594806
 11
324.790363
 20
1310.412068
 21
1310.337739
  0
LINE
  8
0
 10
324.790363
 11
320.391977
 20
1310.337739
 21
1310.281416
  0
LINE
  8
0
 10
320.391977
 11
316.524887
 20
1310.281416
 21
1310.231896
  0
LINE
  8
0
 10
316.524887
 11
312.211375
 20
1310.231896
 21
1310.176659
  0
LINE
  8
0
 10
312.211375
 11
307.525865
 20
1310.176659
 21
1308.999847
  0
LINE
  8
0
 10
307.525865
 11
303.730655
 20
1308.999847
 21
1309.668791
  0
LINE
  8
0
 10
303.730655
 11
300.300371
 20
1309.668791
 21
1310.273414
  0
LINE
  8
0
 10
300.300371
 11
294.503079
 20
1310.273414
 21
1309.891774
  0
LINE
  8
0
 10
294.503079
 11
291.191569
 20
1309.891774
 21
1311.341159
  0
LINE
  8
0
 10
330.594806
 11
330.839423
 20
1310.412068
 21
1304.866478
  0
LINE
  8
0
 10
325.836068
 11
325.912927
 20
1316.354181
 21
1310.352114
  0
LINE
  8
0
 10
325.912927
 11
327.096784
 20
1310.352114
 21
1305.231755
  0
LINE
  8
0
 10
320.86126
 11
320.391977
 20
1316.62888
 21
1310.281416
  0
LINE
  8
0
 10
320.391977
 11
321.84047
 20
1310.281416
 21
1304.016465
  0
LINE
  8
0
 10
317.135412
 11
316.524887
 20
1316.834614
 21
1310.231896
  0
LINE
  8
0
 10
316.524887
 11
317.067038
 20
1310.231896
 21
1303.253104
  0
LINE
  8
0
 10
312.218429
 11
312.211375
 20
1317.106121
 21
1310.176659
  0
LINE
  8
0
 10
312.211375
 11
312.586155
 20
1310.176659
 21
1302.905004
  0
LINE
  8
0
 10
307.974341
 11
307.525865
 20
1317.193372
 21
1308.999847
  0
LINE
  8
0
 10
307.525865
 11
307.849043
 20
1308.999847
 21
1303.661086
  0
LINE
  8
0
 10
303.763068
 11
303.730655
 20
1317.047068
 21
1309.668791
  0
LINE
  8
0
 10
303.730655
 11
303.703161
 20
1309.668791
 21
1303.410118
  0
LINE
  8
0
 10
298.97055
 11
299.409366
 20
1316.880571
 21
1310.214758
  0
LINE
  8
0
 10
299.409366
 11
298.707578
 20
1310.214758
 21
1303.685442
  0
LINE
  8
0
 10
295.392569
 11
295.838676
 20
1316.756269
 21
1309.979697
  0
LINE
  8
0
 10
295.838676
 11
294.261475
 20
1309.979697
 21
1304.577584
  0
LINE
  8
0
 10
289.814873
 11
287.472633
 20
1315.763634
 21
1319.221949
  0
LINE
  8
0
 10
287.472633
 11
287.939416
 20
1319.221949
 21
1324.086633
  0
LINE
  8
0
 10
287.939416
 11
285.931583
 20
1324.086633
 21
1327.295336
  0
LINE
  8
0
 10
285.931583
 11
277.766416
 20
1327.295336
 21
1330.10295
  0
LINE
  8
0
 10
277.766416
 11
278.703403
 20
1330.10295
 21
1324.354027
  0
LINE
  8
0
 10
278.703403
 11
281.38051
 20
1324.354027
 21
1318.872494
  0
LINE
  8
0
 10
281.38051
 11
282.71906
 20
1318.872494
 21
1312.989876
  0
LINE
  8
0
 10
282.71906
 11
289.29396
 20
1312.989876
 21
1308.330902
  0
LINE
  8
0
 10
333.78687
 11
336.930441
 20
1316.094792
 21
1318.605103
  0
LINE
  8
0
 10
336.930441
 11
335.591891
 20
1318.605103
 21
1323.819242
  0
LINE
  8
0
 10
335.591891
 11
336.261166
 20
1323.819242
 21
1327.830118
  0
LINE
  8
0
 10
336.261166
 11
339.473689
 20
1327.830118
 21
1330.370341
  0
LINE
  8
0
 10
339.473689
 11
344.158629
 20
1330.370341
 21
1328.632294
  0
LINE
  8
0
 10
344.158629
 11
342.284648
 20
1328.632294
 21
1322.348589
  0
LINE
  8
0
 10
342.284648
 11
340.11011
 20
1322.348589
 21
1315.057074
  0
LINE
  8
0
 10
340.11011
 11
338.466755
 20
1315.057074
 21
1309.546687
  0
LINE
  8
0
 10
338.466755
 11
334.241187
 20
1309.546687
 21
1306.770027
  0
LINE
  8
0
 10
362.607593
 11
358.449343
 20
1349.0591
 21
1347.922146
  0
LINE
  8
0
 10
358.449343
 11
354.855525
 20
1347.922146
 21
1354.602687
  0
LINE
  8
0
 10
354.855525
 11
356.759276
 20
1354.602687
 21
1363.349486
  0
LINE
  8
0
 10
356.759276
 11
353.857544
 20
1363.349486
 21
1371.451636
  0
LINE
  8
0
 10
353.857544
 11
352.93119
 20
1371.451636
 21
1375.813511
  0
LINE
  8
0
 10
352.93119
 11
351.938678
 20
1375.813511
 21
1380.241476
  0
LINE
  8
0
 10
351.938678
 11
350.56822
 20
1380.241476
 21
1386.355602
  0
LINE
  8
0
 10
350.56822
 11
353.468349
 20
1386.355602
 21
1390.448478
  0
LINE
  8
0
 10
353.468349
 11
356.909076
 20
1390.448478
 21
1396.132133
  0
LINE
  8
0
 10
356.909076
 11
356.909076
 20
1396.132133
 21
1399.965295
  0
LINE
  8
0
 10
356.909076
 11
357.901136
 20
1399.965295
 21
1404.0932
  0
LINE
  8
0
 10
260.965639
 11
264.646815
 20
1343.975676
 21
1345.44553
  0
LINE
  8
0
 10
264.646815
 11
267.205675
 20
1345.44553
 21
1348.9034
  0
LINE
  8
0
 10
267.205675
 11
265.549939
 20
1348.9034
 21
1355.819145
  0
LINE
  8
0
 10
265.549939
 11
267.506722
 20
1355.819145
 21
1365.140363
  0
LINE
  8
0
 10
267.506722
 11
267.958287
 20
1365.140363
 21
1371.154051
  0
LINE
  8
0
 10
267.958287
 11
271.570798
 20
1371.154051
 21
1379.272532
  0
LINE
  8
0
 10
271.570798
 11
271.570798
 20
1379.272532
 21
1383.933143
  0
LINE
  8
0
 10
271.570798
 11
266.903068
 20
1383.933143
 21
1389.082902
  0
LINE
  8
0
 10
266.903068
 11
266.150464
 20
1389.082902
 21
1392.991802
  0
LINE
  8
0
 10
266.150464
 11
264.494728
 20
1392.991802
 21
1399.456518
  0
LINE
  8
0
 10
353.792572
 11
358.519521
 20
906.169836
 21
918.78774
  0
LINE
  8
0
 10
358.519521
 11
374.540602
 20
918.78774
 21
932.19483
  0
LINE
  8
0
 10
374.540602
 11
398.355729
 20
932.19483
 21
935.654725
  0
LINE
  8
0
 10
398.355729
 11
403.649286
 20
935.654725
 21
934.945978
  0
LINE
  8
0
 10
403.649286
 11
414.334578
 20
934.945978
 21
928.782944
  0
LINE
  8
0
 10
414.334578
 11
430.287275
 20
928.782944
 21
905.784302
  0
LINE
  8
0
 10
430.287275
 11
431.36128
 20
905.784302
 21
889.927465
  0
LINE
  8
0
 10
431.36128
 11
426.244379
 20
889.927465
 21
875.196307
  0
LINE
  8
0
 10
426.244379
 11
417.365052
 20
875.196307
 21
863.32119
  0
LINE
  8
0
 10
417.365052
 11
411.495661
 20
863.32119
 21
861.066423
  0
LINE
  8
0
 10
411.495661
 11
402.766831
 20
861.066423
 21
850.093212
  0
LINE
  8
0
 10
402.766831
 11
399.609136
 20
850.093212
 21
839.789152
  0
LINE
  8
0
 10
399.609136
 11
399.609136
 20
839.789152
 21
831.97262
  0
LINE
  8
0
 10
399.609136
 11
403.522066
 20
831.97262
 21
827.914035
  0
LINE
  8
0
 10
403.522066
 11
401.418107
 20
827.914035
 21
822.102622
  0
LINE
  8
0
 10
149.906174
 11
152.358836
 20
929.448433
 21
934.566204
  0
LINE
  8
0
 10
152.358836
 11
147.471191
 20
934.566204
 21
936.572465
  0
LINE
  8
0
 10
270.65337
 11
269.57187
 20
792.935408
 21
794.47074
  0
LINE
  8
0
 10
269.57187
 11
270.402843
 20
794.47074
 21
795.798713
  0
LINE
  8
0
 10
270.402843
 11
271.758699
 20
795.798713
 21
797.965499
  0
LINE
  8
0
 10
271.758699
 11
277.23891
 20
797.965499
 21
801.540189
  0
LINE
  8
0
 10
277.23891
 11
280.726159
 20
801.540189
 21
801.916738
  0
LINE
  8
0
 10
280.726159
 11
283.930666
 20
801.916738
 21
802.669841
  0
LINE
  8
0
 10
283.930666
 11
287.040912
 20
802.669841
 21
803.140531
  0
LINE
  8
0
 10
287.040912
 11
289.774164
 20
803.140531
 21
802.858117
  0
LINE
  8
0
 10
289.774164
 11
291.659167
 20
802.858117
 21
801.916738
  0
LINE
  8
0
 10
291.659167
 11
293.072916
 20
801.916738
 21
801.257775
  0
LINE
  8
0
 10
293.072916
 11
297.703126
 20
801.257775
 21
794.159202
  0
LINE
  8
0
 10
297.703126
 11
298.928378
 20
794.159202
 21
791.052652
  0
LINE
  8
0
 10
298.928378
 11
300.059376
 20
791.052652
 21
788.510933
  0
LINE
  8
0
 10
300.059376
 11
300.624876
 20
788.510933
 21
785.969212
  0
LINE
  8
0
 10
300.624876
 11
299.682374
 20
785.969212
 21
784.180594
  0
LINE
  8
0
 10
299.682374
 11
298.080121
 20
784.180594
 21
782.297838
  0
LINE
  8
0
 10
298.080121
 11
295.818123
 20
782.297838
 21
780.603358
  0
LINE
  8
0
 10
295.818123
 11
293.556126
 20
780.603358
 21
778.908877
  0
LINE
  8
0
 10
293.556126
 11
291.388373
 20
778.908877
 21
777.496808
  0
LINE
  8
0
 10
291.388373
 11
289.691875
 20
777.496808
 21
775.896466
  0
LINE
  8
0
 10
289.691875
 11
288.655121
 20
775.896466
 21
774.296124
  0
LINE
  8
0
 10
288.655121
 11
287.14712
 20
774.296124
 21
773.448882
  0
LINE
  8
0
 10
287.14712
 11
281.774868
 20
773.448882
 21
775.70819
  0
LINE
  8
0
 10
281.774868
 11
280.832367
 20
775.70819
 21
776.837845
  0
LINE
  8
0
 10
280.832367
 11
279.230121
 20
776.837845
 21
778.626464
  0
LINE
  8
0
 10
279.230121
 11
277.439371
 20
778.626464
 21
781.168182
  0
LINE
  8
0
 10
277.439371
 11
276.496869
 20
781.168182
 21
782.391976
  0
LINE
  8
0
 10
276.496869
 11
275.837117
 20
782.391976
 21
783.521628
  0
LINE
  8
0
 10
275.837117
 11
274.800371
 20
783.521628
 21
785.12197
  0
LINE
  8
0
 10
274.800371
 11
274.234872
 20
785.12197
 21
786.157488
  0
LINE
  8
0
 10
274.234872
 11
272.915368
 20
786.157488
 21
787.28714
  0
LINE
  8
0
 10
272.915368
 11
271.313115
 20
787.28714
 21
788.887485
  0
LINE
  8
0
 10
271.313115
 11
270.65337
 20
788.887485
 21
792.935408
  0
LINE
  8
0
 10
338.820209
 11
341.806104
 20
798.491984
 21
803.200936
  0
LINE
  8
0
 10
341.806104
 11
346.101597
 20
803.200936
 21
804.5613
  0
LINE
  8
0
 10
346.101597
 11
353.435366
 20
804.5613
 21
804.456658
  0
LINE
  8
0
 10
353.435366
 11
356.683175
 20
804.456658
 21
804.24737
  0
LINE
  8
0
 10
356.683175
 11
362.235884
 20
804.24737
 21
804.142728
  0
LINE
  8
0
 10
362.235884
 11
367.237651
 20
804.142728
 21
801.899581
  0
LINE
  8
0
 10
367.237651
 11
366.05997
 20
801.899581
 21
796.955344
  0
LINE
  8
0
 10
366.05997
 11
361.968242
 20
796.955344
 21
789.18207
  0
LINE
  8
0
 10
361.968242
 11
354.32017
 20
789.18207
 21
779.868809
  0
LINE
  8
0
 10
354.32017
 11
352.120039
 20
779.868809
 21
778.351479
  0
LINE
  8
0
 10
352.120039
 11
349.605605
 20
778.351479
 21
777.932907
  0
LINE
  8
0
 10
349.605605
 11
346.51494
 20
777.932907
 21
779.031663
  0
LINE
  8
0
 10
346.51494
 11
337.820187
 20
779.031663
 21
788.161743
  0
LINE
  8
0
 10
337.820187
 11
338.820209
 20
788.161743
 21
798.491984
  0
LINE
  8
0
 10
600.0
 11
600.0
 20
1475.0
 21
0.0
  0
LINE
  8
0
 10
600.0
 11
0.0
 20
0.0
 21
0.0
  0
LINE
  8
0
 10
0.0
 11
0.0
 20
0.0
 21
1475.0
  0
LINE
  8
0
 10
0.0
 11
600.0
 20
1475.0
 21
1475.0
  0
ARC
  8
0
 10
947.134812
 20
1435.198217
 40
692.20639
 50
183.394946
 51
187.572763
  0
ARC
  8
0
 10
306.13231
 20
1388.666239
 40
50.295226
 50
113.457691
 51
173.675277
  0
ARC
  8
0
 10
311.861275
 20
1351.977682
 40
86.737503
 50
67.263617
 51
107.269921
  0
ARC
  8
0
 10
321.411955
 20
1391.171152
 40
47.32491
 50
11.574539
 51
59.565393
  0
ARC
  8
0
 10
243.198834
 20
1387.076584
 40
125.314727
 50
342.339512
 51
6.225779
  0
ARC
  8
0
 10
361.689258
 20
1344.245198
 40
4.900714
 50
284.613891
 51
79.19961
  0
ARC
  8
0
 10
370.941668
 20
1325.419235
 40
16.205204
 50
119.64682
 51
160.225408
  0
ARC
  8
0
 10
351.366575
 20
1331.007462
 40
4.326786
 50
261.820224
 51
358.600542
  0
ARC
  8
0
 10
300.968141
 20
1329.725184
 40
49.87316
 50
341.002126
 51
356.550864
  0
ARC
  8
0
 10
299.771912
 20
1308.020659
 40
48.661155
 50
350.909785
 51
6.453268
  0
ARC
  8
0
 10
329.782045
 20
1305.708401
 40
18.823794
 50
279.298371
 51
343.406507
  0
ARC
  8
0
 10
304.026487
 20
1368.469057
 40
86.28438
 50
282.587425
 51
289.496273
  0
ARC
  8
0
 10
299.309884
 20
1311.034202
 40
27.71406
 50
200.361462
 51
267.288646
  0
ARC
  8
0
 10
242.19302
 20
1307.591806
 40
31.745897
 50
348.736824
 51
11.263176
  0
ARC
  8
0
 10
285.740672
 20
1321.211553
 40
14.461409
 50
180.890823
 51
210.866483
  0
ARC
  8
0
 10
277.659348
 20
1325.719897
 40
7.942679
 50
161.388316
 51
216.57803
  0
ARC
  8
0
 10
274.988215
 20
1324.886975
 40
5.90972
 50
61.958757
 51
145.257944
  0
ARC
  8
0
 10
325.133192
 20
1279.09645
 40
3.311904
 50
266.83117
 51
86.83117
  0
ARC
  8
0
 10
325.133192
 20
1279.09645
 40
3.311904
 50
86.83117
 51
146.353476
  0
ARC
  8
0
 10
295.73984
 20
1262.553683
 40
3.043401
 50
138.645217
 51
258.265506
  0
ARC
  8
0
 10
293.104397
 20
1269.392255
 40
4.840478
 50
274.157975
 51
94.157975
  0
ARC
  8
0
 10
293.104397
 20
1269.392255
 40
4.840478
 50
94.157975
 51
102.050456
  0
ARC
  8
0
 10
293.943998
 20
1277.668985
 40
3.996918
 50
44.647175
 51
224.647175
  0
ARC
  8
0
 10
293.943998
 20
1277.668985
 40
3.996918
 50
224.647175
 51
242.425791
  0
ARC
  8
0
 10
327.039176
 20
1270.021004
 40
6.070518
 50
108.298883
 51
273.138356
  0
ARC
  8
0
 10
326.288587
 20
1261.826002
 40
2.253179
 50
234.041198
 51
54.041198
  0
ARC
  8
0
 10
326.288587
 20
1261.826002
 40
2.253179
 50
54.041198
 51
70.541486
  0
ARC
  8
0
 10
326.130327
 20
1255.47676
 40
4.672933
 50
104.434213
 51
274.512576
  0
ARC
  8
0
 10
295.976093
 20
1255.913783
 40
3.855092
 50
311.156322
 51
105.861214
  0
ARC
  8
0
 10
295.180149
 20
1253.030398
 40
3.333096
 50
279.265548
 51
359.670332
  0
ARC
  8
0
 10
290.477967
 20
1253.277249
 40
6.320762
 50
230.723386
 51
325.978852
  0
ARC
  8
0
 10
286.315144
 20
1243.740643
 40
4.646516
 50
88.009752
 51
142.844664
  0
ARC
  8
0
 10
277.95014
 20
1254.760072
 40
9.443815
 50
247.915275
 51
299.579276
  0
ARC
  8
0
 10
370.254395
 20
1131.464741
 40
149.360599
 50
129.923812
 51
140.491786
  0
ARC
  8
0
 10
8130.234431
 20
1299.698295
 40
7663.736568
 50
181.212069
 51
181.688604
  0
ARC
  8
0
 10
297.537272
 20
1174.321648
 40
174.583802
 50
347.853493
 51
5.771991
  0
ARC
  8
0
 10
458.397187
 20
1190.831597
 40
12.881442
 50
4.666287
 51
112.736927
  0
ARC
  8
0
 10
434.910125
 20
1213.288911
 40
21.317383
 50
330.253523
 51
38.978733
  0
ARC
  8
0
 10
443.347775
 20
1199.033972
 40
28.835283
 50
73.615222
 51
106.384778
  0
ARC
  8
0
 10
414.831137
 20
1189.732307
 40
42.212902
 50
61.128151
 51
114.449025
  0
ARC
  8
0
 10
421.081332
 20
1111.524026
 40
119.023735
 50
101.496022
 51
108.979557
  0
ARC
  8
0
 10
372.469614
 20
1216.503307
 40
12.466002
 50
37.412394
 51
95.296694
  0
ARC
  8
0
 10
366.55293
 20
1229.599821
 40
4.814705
 50
278.096009
 51
351.835765
  0
ARC
  8
0
 10
350.002873
 20
1222.19187
 40
17.42941
 50
8.716111
 51
50.134414
  0
ARC
  8
0
 10
414.818437
 20
1315.485067
 40
96.250054
 50
225.390177
 51
236.128316
  0
ARC
  8
0
 10
342.242175
 20
1256.993043
 40
11.198316
 50
263.148807
 51
296.417589
  0
ARC
  8
0
 10
336.016548
 20
1245.476806
 40
4.905929
 50
4.651962
 51
68.559385
  0
ARC
  8
0
 10
333.091456
 20
1267.642997
 40
18.221278
 50
247.540331
 51
285.007731
  0
ARC
  8
0
 10
478.077502
 20
954.451912
 40
15.859461
 50
282.606121
 51
18.768752
  0
ARC
  8
0
 10
621.451025
 20
1044.854299
 40
154.115684
 50
194.120021
 51
213.605936
  0
ARC
  8
0
 10
488.991788
 20
928.783535
 40
4.418638
 50
294.249678
 51
49.617136
  0
ARC
  8
0
 10
-861.02775
 20
623.39454
 40
1385.017711
 50
8.55701
 51
12.567277
  0
ARC
  8
0
 10
-84.018384
 20
734.023574
 40
600.229098
 50
4.657504
 51
9.150411
  0
ARC
  8
0
 10
195.82136
 20
682.553224
 40
333.803796
 50
13.264775
 51
17.469727
  0
ARC
  8
0
 10
513.290517
 20
755.108972
 40
8.454363
 50
325.184844
 51
28.514849
  0
ARC
  8
0
 10
513.827999
 20
741.876219
 40
10.567137
 50
305.481382
 51
52.700182
  0
ARC
  8
0
 10
517.502986
 20
725.262107
 40
8.378108
 50
27.908869
 51
72.935179
  0
ARC
  8
0
 10
526.830076
 20
720.890608
 40
8.513141
 50
12.346587
 51
103.057845
  0
ARC
  8
0
 10
533.081801
 20
711.435658
 40
11.462721
 50
21.291832
 51
79.623965
  0
ARC
  8
0
 10
593.830717
 20
760.645911
 40
67.351178
 50
221.978476
 51
240.558876
  0
ARC
  8
0
 10
555.55773
 20
695.817266
 40
8.052303
 50
356.43124
 51
50.074146
  0
ARC
  8
0
 10
565.4871
 20
690.703239
 40
4.985998
 50
6.285097
 51
112.308869
  0
ARC
  8
0
 10
628.286672
 20
724.096421
 40
66.519343
 50
209.590736
 51
225.617093
  0
ARC
  8
0
 10
577.207217
 20
674.415678
 40
5.030643
 50
318.366558
 51
25.18319
  0
ARC
  8
0
 10
578.475909
 20
676.366564
 40
5.850028
 50
225.556774
 51
295.204782
  0
ARC
  8
0
 10
537.896922
 20
655.432971
 40
40.147111
 50
24.669906
 51
48.58132
  0
ARC
  8
0
 10
567.377501
 20
692.522735
 40
7.569895
 50
197.243479
 51
247.302193
  0
ARC
  8
0
 10
566.103554
 20
689.901518
 40
5.967645
 50
114.863408
 51
176.375573
  0
ARC
  8
0
 10
623.484378
 20
609.999462
 40
62.978759
 50
123.581843
 51
128.477322
  0
ARC
  8
0
 10
587.816045
 20
659.039445
 40
3.52719
 50
175.720257
 51
355.720257
  0
ARC
  8
0
 10
587.816045
 20
659.039445
 40
3.52719
 50
355.720257
 51
76.338908
  0
ARC
  8
0
 10
586.78758
 20
666.363983
 40
7.487107
 50
141.022305
 51
250.584069
  0
ARC
  8
0
 10
580.980264
 20
663.154972
 40
7.699637
 50
349.867825
 51
94.582004
  0
ARC
  8
0
 10
558.233306
 20
698.144174
 40
7.173328
 50
238.02429
 51
286.709868
  0
ARC
  8
0
 10
516.973952
 20
670.215978
 40
43.363903
 50
30.246408
 51
60.024787
  0
ARC
  8
0
 10
544.020117
 20
721.549434
 40
14.783701
 50
195.737135
 51
248.657296
  0
ARC
  8
0
 10
550.237741
 20
701.721824
 40
25.851369
 50
125.716584
 51
142.274506
  0
ARC
  8
0
 10
526.781767
 20
721.559302
 40
5.020936
 50
224.424393
 51
306.816235
  0
ARC
  8
0
 10
519.950203
 20
714.12662
 40
5.08793
 50
50.362429
 51
159.948483
  0
ARC
  8
0
 10
511.939884
 20
715.257304
 40
3.288582
 50
267.848365
 51
10.756905
  0
ARC
  8
0
 10
504.278492
 20
704.341226
 40
10.725408
 50
45.347108
 51
74.503167
  0
ARC
  8
0
 10
502.075946
 20
719.930298
 40
7.299792
 50
313.971141
 51
11.403021
  0
ARC
  8
0
 10
517.522794
 20
731.92677
 40
13.420654
 50
199.917367
 51
231.845059
  0
ARC
  8
0
 10
501.591851
 20
731.517517
 40
5.320173
 50
216.08397
 51
308.515974
  0
ARC
  8
0
 10
495.006931
 20
725.367792
 40
3.784324
 50
52.849457
 51
177.183507
  0
ARC
  8
0
 10
520.561887
 20
730.259735
 40
4.476058
 50
247.829699
 51
346.088921
  0
ARC
  8
0
 10
509.044173
 20
722.230433
 40
10.568287
 50
21.563437
 51
55.067643
  0
ARC
  8
0
 10
518.244681
 20
730.616993
 40
3.161226
 50
57.104464
 51
174.961695
  0
ARC
  8
0
 10
479.695201
 20
617.210591
 40
20.147231
 50
338.405125
 51
12.751395
  0
ARC
  8
0
 10
507.852992
 20
607.340144
 40
9.739314
 50
165.397268
 51
218.083132
  0
ARC
  8
0
 10
495.765485
 20
601.578591
 40
4.428353
 50
234.266231
 51
356.819458
  0
ARC
  8
0
 10
499.088839
 20
603.602905
 40
8.154528
 50
140.039503
 51
223.555976
  0
ARC
  8
0
 10
524.634078
 20
614.274399
 40
32.256617
 50
163.60364
 51
189.698692
  0
ARC
  8
0
 10
491.820465
 20
607.093285
 40
16.393397
 50
62.675412
 51
83.454176
  0
ARC
  8
0
 10
498.29419
 20
626.748801
 40
5.198708
 50
281.667571
 51
63.365432
  0
ARC
  8
0
 10
1052.454241
 20
576.640574
 40
554.53937
 50
172.290693
 51
174.333376
  0
ARC
  8
0
 10
497.650195
 20
656.117477
 40
7.329646
 50
316.049727
 51
28.696139
  0
ARC
  8
0
 10
499.929103
 20
652.823047
 40
7.978434
 50
58.653328
 51
92.189285
  0
ARC
  8
0
 10
503.875335
 20
666.271004
 40
6.931851
 50
147.888477
 51
232.174516
  0
ARC
  8
0
 10
415.237217
 20
691.467686
 40
85.516639
 50
345.4306
 51
8.950672
  0
ARC
  8
0
 10
504.349928
 20
696.474459
 40
9.506147
 50
63.486566
 51
119.198425
  0
ARC
  8
0
 10
507.813302
 20
709.578639
 40
4.66353
 50
279.63129
 51
30.864019
  0
ARC
  8
0
 10
517.682335
 20
716.430311
 40
7.368452
 50
217.242091
 51
288.34153
  0
ARC
  8
0
 10
540.582567
 20
708.228189
 40
20.616943
 50
176.640957
 51
199.124909
  0
ARC
  8
0
 10
-575.26254
 20
378.084292
 40
1143.065685
 50
14.755542
 51
16.434194
  0
ARC
  8
0
 10
541.84775
 20
669.448398
 40
11.743678
 50
181.124338
 51
225.279381
  0
ARC
  8
0
 10
535.146986
 20
667.497797
 40
6.58202
 50
256.265885
 51
358.862584
  0
ARC
  8
0
 10
707.514202
 20
748.540287
 40
184.592092
 50
195.21865
 51
206.087507
  0
ARC
  8
0
 10
517.128682
 20
705.364844
 40
13.355174
 50
336.709305
 51
24.470523
  0
ARC
  8
0
 10
531.492251
 20
715.647818
 40
5.23896
 50
169.989966
 51
245.072987
  0
ARC
  8
0
 10
524.889536
 20
708.683769
 40
4.946058
 50
66.691931
 51
171.249843
  0
ARC
  8
0
 10
511.766414
 20
724.040172
 40
7.620195
 50
64.093815
 51
154.215771
  0
ARC
  8
0
 10
524.544933
 20
722.368987
 40
6.797263
 50
146.561033
 51
209.347702
  0
ARC
  8
0
 10
491.96426
 20
705.467959
 40
7.77936
 50
318.726663
 51
69.607729
  0
ARC
  8
0
 10
542.393068
 20
673.484774
 40
52.04387
 50
148.939692
 51
184.700783
  0
ARC
  8
0
 10
486.528795
 20
675.626054
 40
7.550201
 50
181.446899
 51
301.950508
  0
ARC
  8
0
 10
429.655336
 20
706.204593
 40
58.135738
 50
328.044224
 51
356.503412
  0
ARC
  8
0
 10
495.29997
 20
704.856633
 40
7.927821
 50
87.742656
 51
196.093876
  0
ARC
  8
0
 10
519.036688
 20
727.908647
 40
27.886064
 50
184.530364
 51
212.859261
  0
ARC
  8
0
 10
504.890429
 20
731.434033
 40
2.951592
 50
70.52936
 51
250.52936
  0
ARC
  8
0
 10
504.890429
 20
731.434033
 40
2.951592
 50
250.52936
 51
284.851089
  0
ARC
  8
0
 10
508.234876
 20
733.48464
 40
2.471556
 50
294.659354
 51
114.659354
  0
ARC
  8
0
 10
508.234876
 20
733.48464
 40
2.471556
 50
114.659354
 51
162.76768
  0
ARC
  8
0
 10
498.004128
 20
729.288721
 40
4.623718
 50
31.401387
 51
186.103646
  0
ARC
  8
0
 10
479.314411
 20
636.10197
 40
4.728272
 50
109.209286
 51
197.229048
  0
ARC
  8
0
 10
457.040122
 20
631.99601
 40
17.963092
 50
326.667296
 51
8.662475
  0
ARC
  8
0
 10
475.548845
 20
622.325012
 40
3.506363
 50
183.265261
 51
327.956424
  0
ARC
  8
0
 10
441.697219
 20
633.014883
 40
38.903708
 50
341.179945
 51
0.126831
  0
ARC
  8
0
 10
479.533076
 20
635.981301
 40
3.071845
 50
290.34026
 51
59.29394
  0
ARC
  8
0
 10
483.242922
 20
646.14944
 40
7.825618
 50
196.897193
 51
254.120113
  0
ARC
  8
0
 10
426.137478
 20
662.013265
 40
52.829107
 50
339.919461
 51
357.210608
  0
ARC
  8
0
 10
491.704218
 20
661.908574
 40
13.035647
 50
141.602773
 51
190.905584
  0
ARC
  8
0
 10
482.249856
 20
665.183316
 40
6.215081
 50
312.456059
 51
28.695365
  0
ARC
  8
0
 10
583.552758
 20
644.528085
 40
98.428237
 50
170.603606
 51
179.14158
  0
ARC
  8
0
 10
550.731409
 20
605.356664
 40
77.168097
 50
148.21584
 51
154.463732
  0
ARC
  8
0
 10
470.168516
 20
616.620297
 40
4.349919
 50
295.067143
 51
49.814092
  0
ARC
  8
0
 10
474.463111
 20
611.338847
 40
2.794526
 50
151.317652
 51
331.317652
  0
ARC
  8
0
 10
474.463111
 20
611.338847
 40
2.794526
 50
331.317652
 51
338.977325
  0
ARC
  8
0
 10
557.605202
 20
605.674677
 40
80.668379
 50
169.722941
 51
176.687143
  0
ARC
  8
0
 10
494.941234
 20
699.005406
 40
14.902732
 50
327.340362
 51
23.63836
  0
ARC
  8
0
 10
432.006721
 20
684.714809
 40
75.739172
 50
348.199082
 51
4.732201
  0
ARC
  8
0
 10
501.433379
 20
665.22359
 40
6.181705
 50
295.345368
 51
40.341409
  0
ARC
  8
0
 10
520.211158
 20
654.142381
 40
4.873272
 50
331.215259
 51
70.370116
  0
ARC
  8
0
 10
903.789174
 20
694.961921
 40
381.755217
 50
186.492478
 51
190.521059
  0
ARC
  8
0
 10
523.47334
 20
625.721746
 40
5.000607
 50
211.421035
 51
354.639712
  0
ARC
  8
0
 10
440.869309
 20
624.435533
 40
78.347848
 50
359.034113
 51
19.871703
  0
ARC
  8
0
 10
516.917707
 20
654.764585
 40
4.389475
 50
123.028635
 51
237.388161
  0
ARC
  8
0
 10
520.15146
 20
608.581758
 40
50.17937
 50
88.062146
 51
96.437723
  0
ARC
  8
0
 10
514.670455
 20
663.674025
 40
8.714402
 50
325.454493
 51
37.81375
  0
ARC
  8
0
 10
1305.663806
 20
679.793909
 40
784.182964
 50
180.076892
 51
180.787447
  0
ARC
  8
0
 10
539.340778
 20
690.770086
 40
21.532267
 50
166.251346
 51
213.961097
  0
ARC
  8
0
 10
525.573218
 20
698.056091
 40
7.469483
 50
132.728105
 51
196.877437
  0
ARC
  8
0
 10
471.015014
 20
689.017099
 40
39.723972
 50
350.490002
 51
12.586584
  0
ARC
  8
0
 10
492.185099
 20
673.503497
 40
20.109607
 50
356.896784
 51
26.428569
  0
ARC
  8
0
 10
525.351733
 20
667.364013
 40
14.027401
 50
158.895475
 51
219.482932
  0
ARC
  8
0
 10
539.384241
 20
656.980278
 40
5.304901
 50
322.174003
 51
92.425694
  0
ARC
  8
0
 10
594.754538
 20
652.231927
 40
51.20191
 50
178.32679
 51
209.048395
  0
ARC
  8
0
 10
544.805571
 20
627.346051
 40
5.18781
 50
187.394592
 51
0.274795
  0
ARC
  8
0
 10
479.149178
 20
627.004743
 40
60.512608
 50
359.690975
 51
23.666582
  0
ARC
  8
0
 10
552.655515
 20
658.071219
 40
19.310841
 50
170.964337
 51
200.541473
  0
ARC
  8
0
 10
497.890066
 20
627.647103
 40
5.988021
 50
133.240142
 51
225.449941
  0
ARC
  8
0
 10
67.792536
 20
694.546041
 40
430.561163
 50
351.64855
 51
354.512561
  0
ARC
  8
0
 10
500.465972
 20
656.007561
 40
4.861507
 50
99.96962
 51
212.821018
  0
ARC
  8
0
 10
544.112967
 20
617.247306
 40
6.692014
 50
335.418047
 51
58.725678
  0
ARC
  8
0
 10
558.289477
 20
611.829707
 40
8.508888
 50
161.969073
 51
228.351856
  0
ARC
  8
0
 10
548.451065
 20
605.957113
 40
4.211879
 50
193.131637
 51
353.379667
  0
ARC
  8
0
 10
541.97323
 20
608.218498
 40
4.000392
 50
306.438896
 51
69.817709
  0
ARC
  8
0
 10
549.998506
 20
617.809449
 40
8.844122
 50
146.804856
 51
221.291791
  0
ARC
  8
0
 10
548.793801
 20
599.022448
 40
4.885247
 50
323.964077
 51
56.047654
  0
ARC
  8
0
 10
547.558425
 20
592.939513
 40
6.098386
 50
306.747575
 51
31.749177
  0
ARC
  8
0
 10
553.825891
 20
593.558571
 40
5.177721
 50
157.547902
 51
248.961581
  0
ARC
  8
0
 10
549.339277
 20
598.770316
 40
3.248075
 50
112.913926
 51
264.724705
  0
ARC
  8
0
 10
522.72848
 20
614.889369
 40
6.247686
 50
343.839992
 51
72.561351
  0
ARC
  8
0
 10
544.644292
 20
610.467487
 40
16.139557
 50
170.43079
 51
215.833764
  0
ARC
  8
0
 10
526.416074
 20
600.931316
 40
5.144317
 50
208.035066
 51
0.974603
  0
ARC
  8
0
 10
509.930022
 20
603.23399
 40
12.844281
 50
338.437087
 51
31.323648
  0
ARC
  8
0
 10
525.556248
 20
615.489142
 40
7.26443
 50
127.116733
 51
233.663742
  0
ARC
  8
0
 10
526.372951
 20
592.543831
 40
4.709802
 50
309.897389
 51
56.451252
  0
ARC
  8
0
 10
527.643695
 20
586.736504
 40
2.80656
 50
237.752977
 51
51.419922
  0
ARC
  8
0
 10
528.164567
 20
587.285406
 40
3.551788
 50
137.586081
 51
235.370426
  0
ARC
  8
0
 10
545.453109
 20
597.264572
 40
21.306105
 50
182.584352
 51
200.850649
  0
ARC
  8
0
 10
471.543407
 20
593.027119
 40
22.196377
 50
353.177339
 51
12.903866
  0
ARC
  8
0
 10
495.960641
 20
590.91962
 40
2.436244
 50
192.549576
 51
12.549576
  0
ARC
  8
0
 10
495.960641
 20
590.91962
 40
2.436244
 50
12.549576
 51
38.437156
  0
ARC
  8
0
 10
495.792262
 20
594.934
 40
3.249909
 50
309.716688
 51
54.598815
  0
ARC
  8
0
 10
478.709391
 20
930.598064
 40
4.863028
 50
51.064631
 51
231.064631
  0
ARC
  8
0
 10
478.709391
 20
930.598064
 40
4.863028
 50
231.064631
 51
244.497098
  0
ARC
  8
0
 10
455.0521
 20
917.084024
 40
23.414667
 50
336.470859
 51
22.936242
  0
ARC
  8
0
 10
412.261156
 20
875.302598
 40
71.980271
 50
10.620213
 51
26.781846
  0
ARC
  8
0
 10
215.158317
 20
806.140048
 40
280.246537
 50
4.903838
 51
17.105261
  0
ARC
  8
0
 10
316.451126
 20
776.707129
 40
185.765363
 50
350.419922
 51
16.702508
  0
ARC
  8
0
 10
485.805187
 20
742.87364
 40
14.125157
 50
319.323249
 51
11.919292
  0
ARC
  8
0
 10
492.937896
 20
746.305508
 40
9.542533
 50
252.102576
 51
313.345716
  0
ARC
  8
0
 10
1280.746706
 20
927.704501
 40
813.359967
 50
184.804807
 51
193.543807
  0
ARC
  8
0
 10
237.981726
 20
852.110023
 40
232.383267
 50
1.841179
 51
22.994363
  0
ARC
  8
0
 10
463.35565
 20
946.39967
 40
11.981148
 50
52.837921
 51
197.041842
  0
ARC
  8
0
 10
476.283505
 20
940.575192
 40
16.392
 50
20.294731
 51
110.31272
  0
ARC
  8
0
 10
570.817479
 20
1070.433981
 40
165.721005
 50
229.401641
 51
235.063628
  0
ARC
  8
0
 10
457.267329
 20
943.95183
 40
5.743906
 50
223.585746
 51
6.516355
  0
ARC
  8
0
 10
456.003319
 20
951.797194
 40
12.155591
 50
191.499641
 51
256.214389
  0
ARC
  8
0
 10
461.495064
 20
956.261126
 40
18.716583
 50
134.479376
 51
201.590974
  0
ARC
  8
0
 10
409.575058
 20
990.366329
 40
44.005894
 50
331.865202
 51
10.615073
  0
ARC
  8
0
 10
-5372.89612
 20
788.518674
 40
5829.506047
 50
2.063996
 51
3.465248
  0
ARC
  8
0
 10
384.911687
 20
1144.226183
 40
61.131898
 50
356.854922
 51
34.166419
  0
ARC
  8
0
 10
459.374683
 20
1179.562981
 40
23.903006
 50
104.429066
 51
182.410218
  0
ARC
  8
0
 10
500.962964
 20
751.65226
 40
6.011892
 50
167.500206
 51
257.148782
  0
ARC
  8
0
 10
905.428229
 20
857.865816
 40
423.534101
 50
175.842898
 51
194.341866
  0
ARC
  8
0
 10
447.548034
 20
1224.186389
 40
12.58747
 50
168.48933
 51
313.160117
  0
ARC
  8
0
 10
429.56175
 20
1227.899068
 40
9.711079
 50
214.655811
 51
308.313308
  0
ARC
  8
0
 10
414.860757
 20
1167.887364
 40
54.90148
 50
82.976849
 51
124.573301
  0
ARC
  8
0
 10
308.419847
 20
1560.958797
 40
355.919188
 50
273.920965
 51
282.211852
  0
ARC
  8
0
 10
335.55337
 20
1219.100618
 40
13.520113
 50
185.064857
 51
258.066469
  0
ARC
  8
0
 10
329.934312
 20
1189.888601
 40
29.096854
 50
63.129996
 51
105.648138
  0
ARC
  8
0
 10
349.601145
 20
1247.96768
 40
32.777881
 50
258.53365
 51
298.938177
  0
ARC
  8
0
 10
372.478154
 20
1226.75142
 40
10.248116
 50
226.787721
 51
344.872545
  0
ARC
  8
0
 10
363.180772
 20
1223.236503
 40
11.522018
 50
165.306085
 51
221.71098
  0
ARC
  8
0
 10
340.632056
 20
1221.831469
 40
12.197093
 50
20.781816
 51
102.840324
  0
ARC
  8
0
 10
331.93824
 20
1253.006735
 40
20.190092
 50
238.528658
 51
287.238102
  0
ARC
  8
0
 10
335.687761
 20
1229.595366
 40
4.693743
 50
241.473894
 51
61.473894
  0
ARC
  8
0
 10
335.687761
 20
1229.595366
 40
4.693743
 50
61.473894
 51
61.583092
  0
ARC
  8
0
 10
325.012153
 20
1195.657328
 40
30.984111
 50
74.204407
 51
95.419026
  0
ARC
  8
0
 10
431.94504
 20
1178.636957
 40
6.342509
 50
221.475913
 51
330.187126
  0
ARC
  8
0
 10
446.948524
 20
1189.176889
 40
24.648847
 50
102.980637
 51
216.728525
  0
ARC
  8
0
 10
449.208578
 20
1191.276776
 40
18.053129
 50
69.261184
 51
220.455046
  0
ARC
  8
0
 10
378.298665
 20
1200.951807
 40
11.406269
 50
286.739316
 51
82.616503
  0
ARC
  8
0
 10
327.956848
 20
1301.315496
 40
123.533675
 50
269.033623
 51
295.728583
  0
ARC
  8
0
 10
325.703939
 20
1180.682077
 40
2.88766
 50
93.094655
 51
273.094655
  0
ARC
  8
0
 10
325.703939
 20
1180.682077
 40
2.88766
 50
273.094655
 51
273.363741
  0
ARC
  8
0
 10
351.737105
 20
1170.859675
 40
29.108511
 50
98.240405
 51
154.119252
  0
ARC
  8
0
 10
347.223013
 20
1211.084451
 40
11.421921
 50
271.716129
 51
347.23651
  0
ARC
  8
0
 10
389.555816
 20
1180.954684
 40
13.506818
 50
299.841066
 51
98.430031
  0
ARC
  8
0
 10
353.262592
 20
1208.177056
 40
58.02077
 50
273.788008
 51
317.847222
  0
ARC
  8
0
 10
371.10573
 20
1297.137282
 40
147.521007
 50
252.233919
 51
264.550437
  0
ARC
  8
0
 10
331.665408
 20
1160.790575
 40
6.941905
 50
147.353424
 51
216.6012
  0
ARC
  8
0
 10
342.38249
 20
1171.101152
 40
17.816212
 50
157.916147
 51
201.624709
  0
ARC
  8
0
 10
395.838082
 20
1156.957022
 40
16.619205
 50
308.009246
 51
73.990503
  0
ARC
  8
0
 10
360.939943
 20
1188.063909
 40
63.171685
 50
271.23316
 51
315.596907
  0
ARC
  8
0
 10
382.11249
 20
1278.883836
 40
155.24647
 50
248.308295
 51
262.667742
  0
ARC
  8
0
 10
348.177634
 20
1140.21229
 40
24.101296
 50
175.703804
 51
193.389959
  0
ARC
  8
0
 10
323.665482
 20
1115.047237
 40
26.974788
 50
52.801834
 51
88.983425
  0
ARC
  8
0
 10
358.934276
 20
1201.273014
 40
67.458464
 50
253.675925
 51
305.051439
  0
ARC
  8
0
 10
396.243509
 20
1157.599643
 40
11.639152
 50
277.071878
 51
89.836357
  0
ARC
  8
0
 10
387.872205
 20
1182.854371
 40
9.099131
 50
294.797093
 51
114.307558
  0
ARC
  8
0
 10
353.597309
 20
1210.770767
 40
52.532642
 50
272.359802
 51
316.476704
  0
ARC
  8
0
 10
-20.756885
 20
-569.790408
 40
1768.615783
 50
77.708345
 51
78.699218
  0
ARC
  8
0
 10
375.720938
 20
1203.256974
 40
8.132237
 50
259.713375
 51
79.713375
  0
ARC
  8
0
 10
375.720938
 20
1203.256974
 40
8.132237
 50
79.713375
 51
93.040004
  0
ARC
  8
0
 10
318.054383
 20
1322.170112
 40
138.80701
 50
273.094686
 51
293.890008
  0
ARC
  8
0
 10
400.456103
 20
1137.716998
 40
16.381114
 50
323.648279
 51
49.78326
  0
ARC
  8
0
 10
354.229625
 20
1169.533396
 40
72.492236
 50
287.394386
 51
325.051788
  0
ARC
  8
0
 10
392.039601
 20
1185.660385
 40
86.817333
 50
224.312447
 51
259.286877
  0
ARC
  8
0
 10
328.816522
 20
1122.36552
 40
2.866952
 50
67.400812
 51
194.90341
  0
ARC
  8
0
 10
408.768477
 20
1197.60795
 40
112.320673
 50
222.567173
 51
252.985006
  0
ARC
  8
0
 10
360.267047
 20
1155.167787
 40
66.818751
 50
283.531227
 51
333.263215
  0
ARC
  8
0
 10
397.684954
 20
1135.290532
 40
24.476057
 50
335.412653
 51
23.188315
  0
ARC
  8
0
 10
437.682578
 20
1156.358044
 40
20.901042
 50
120.123657
 51
213.151898
  0
ARC
  8
0
 10
398.637875
 20
1112.687595
 40
27.669535
 50
320.367498
 51
35.221855
  0
ARC
  8
0
 10
380.100741
 20
1106.517229
 40
41.467326
 50
286.493999
 51
343.929547
  0
ARC
  8
0
 10
901.306354
 20
-141.345882
 40
1311.118715
 50
112.864175
 51
113.914261
  0
ARC
  8
0
 10
-306.164496
 20
448.18962
 40
909.872986
 50
42.017276
 51
45.712654
  0
ARC
  8
0
 10
334.230722
 20
1104.088033
 40
6.824623
 50
124.471601
 51
222.02298
  0
ARC
  8
0
 10
331.412802
 20
1113.697413
 40
4.117864
 50
110.383032
 51
255.302013
  0
ARC
  8
0
 10
375.703982
 20
1117.971352
 40
43.490452
 50
308.828843
 51
6.778575
  0
ARC
  8
0
 10
301.914895
 20
1241.051135
 40
186.67884
 50
292.530825
 51
302.775163
  0
ARC
  8
0
 10
687.106301
 20
1440.559056
 40
486.539276
 50
222.84333
 51
229.858684
  0
ARC
  8
0
 10
351.971428
 20
1145.906732
 40
28.020957
 50
157.45211
 51
187.98076
  0
ARC
  8
0
 10
339.160619
 20
1129.995447
 40
12.115134
 50
163.024053
 51
203.66754
  0
ARC
  8
0
 10
401.868509
 20
1095.766515
 40
24.070215
 50
329.86065
 51
18.468396
  0
ARC
  8
0
 10
225.357698
 20
1179.660316
 40
219.431041
 50
319.134947
 51
334.061766
  0
ARC
  8
0
 10
380.433276
 20
1054.933504
 40
21.752915
 50
215.806414
 51
299.979558
  0
ARC
  8
0
 10
547.883645
 20
1219.938707
 40
256.607853
 50
210.124925
 51
223.837858
  0
ARC
  8
0
 10
341.118608
 20
1090.104041
 40
15.219629
 50
141.783483
 51
176.057209
  0
ARC
  8
0
 10
401.08068
 20
1094.424452
 40
30.514576
 50
323.968701
 51
34.306009
  0
ARC
  8
0
 10
244.084363
 20
1149.070562
 40
195.640794
 50
321.099443
 51
338.218636
  0
ARC
  8
0
 10
383.054181
 20
1044.82935
 40
22.869828
 50
232.851131
 51
305.513904
  0
ARC
  8
0
 10
480.142711
 20
1160.40451
 40
173.787727
 50
205.568
 51
230.347402
  0
ARC
  8
0
 10
326.815031
 20
1087.312993
 40
3.937168
 50
102.915783
 51
209.055938
  0
ARC
  8
0
 10
380.786628
 20
1063.212252
 40
52.14235
 50
342.743416
 51
21.79847
  0
ARC
  8
0
 10
321.55029
 20
1070.594332
 40
111.400217
 50
318.91583
 51
348.1636
  0
ARC
  8
0
 10
393.189705
 20
1011.608184
 40
18.821657
 50
202.960246
 51
310.91866
  0
ARC
  8
0
 10
444.912984
 20
1077.481088
 40
100.642323
 50
198.225947
 51
226.675392
  0
ARC
  8
0
 10
387.200094
 20
1064.921847
 40
42.265946
 50
335.940957
 51
18.912525
  0
ARC
  8
0
 10
228.906227
 20
1135.727659
 40
215.674159
 50
324.354936
 51
335.908622
  0
ARC
  8
0
 10
392.1683
 20
1020.624176
 40
16.003149
 50
215.290914
 51
318.598968
  0
ARC
  8
0
 10
412.431385
 20
1049.842824
 40
50.892685
 50
203.467115
 51
229.094334
  0
ARC
  8
0
 10
367.253235
 20
1031.381996
 40
63.456187
 50
299.101287
 51
10.877317
  0
ARC
  8
0
 10
394.62948
 20
992.833761
 40
17.253166
 50
201.054338
 51
281.65682
  0
ARC
  8
0
 10
460.531849
 20
1044.073868
 40
100.118803
 50
201.587048
 51
215.008786
  0
ARC
  8
0
 10
326.210186
 20
981.810488
 40
48.436704
 50
31.666803
 51
55.310594
  0
ARC
  8
0
 10
335.979748
 20
1007.449397
 40
22.76049
 50
38.562423
 51
102.00847
  0
ARC
  8
0
 10
358.198828
 20
1033.868656
 40
27.273187
 50
171.2331
 51
188.7669
  0
ARC
  8
0
 10
324.126735
 20
1037.952985
 40
7.117919
 50
0.583692
 51
74.759698
  0
ARC
  8
0
 10
317.374058
 20
944.276839
 40
100.912897
 50
85.097675
 51
98.267684
  0
ARC
  8
0
 10
307.650784
 20
1035.581537
 40
9.807483
 50
119.22096
 51
205.250048
  0
ARC
  8
0
 10
310.484714
 20
1025.532414
 40
13.091852
 50
153.382603
 51
213.789861
  0
ARC
  8
0
 10
314.356721
 20
982.7104
 40
38.48112
 50
68.126876
 51
112.542447
  0
ARC
  8
0
 10
310.844882
 20
1009.223751
 40
20.078568
 50
349.049844
 51
27.263172
  0
ARC
  8
0
 10
322.389899
 20
999.450245
 40
10.110948
 50
317.39784
 51
36.115067
  0
ARC
  8
0
 10
282.501421
 20
978.415726
 40
49.412318
 50
349.219218
 51
16.689385
  0
ARC
  8
0
 10
272.181084
 20
951.575991
 40
61.434671
 50
358.726503
 51
16.644674
  0
ARC
  8
0
 10
337.07
 20
1013.335755
 40
25.367741
 50
41.254535
 51
103.276498
  0
ARC
  8
0
 10
377.297016
 20
1027.862282
 40
46.796922
 50
301.610224
 51
359.003297
  0
ARC
  8
0
 10
396.347056
 20
1003.366349
 40
16.30562
 50
203.048886
 51
289.630788
  0
ARC
  8
0
 10
387.45835
 20
1012.409059
 40
41.882481
 50
316.746816
 51
6.414666
  0
ARC
  8
0
 10
366.849992
 20
1008.582477
 40
56.843145
 50
303.431563
 51
334.051708
  0
ARC
  8
0
 10
395.310421
 20
968.893389
 40
8.258863
 50
201.455855
 51
290.236924
  0
ARC
  8
0
 10
393.049324
 20
963.268777
 40
6.017825
 50
55.638865
 51
154.363741
  0
ARC
  8
0
 10
378.710076
 20
1000.278475
 40
36.623039
 50
298.965216
 51
339.410249
  0
ARC
  8
0
 10
340.624001
 20
1065.091448
 40
11.737867
 50
146.782581
 51
192.94117
  0
ARC
  8
0
 10
291.776083
 20
1057.554743
 40
37.728782
 50
353.891164
 51
7.474589
  0
ARC
  8
0
 10
317.302432
 20
1053.085764
 40
11.996784
 50
316.452951
 51
2.168689
  0
ARC
  8
0
 10
340.673719
 20
1077.340159
 40
19.086038
 50
155.017925
 51
206.656445
  0
ARC
  8
0
 10
325.804626
 20
1066.155589
 40
3.415077
 50
17.061542
 51
129.850628
  0
ARC
  8
0
 10
302.145472
 20
1070.880086
 40
21.573528
 50
304.71149
 51
354.406735
  0
ARC
  8
0
 10
322.941926
 20
1066.396045
 40
15.748326
 50
173.796621
 51
237.284221
  0
ARC
  8
0
 10
302.182539
 20
996.992647
 40
71.288029
 50
85.894873
 51
91.093831
  0
ARC
  8
0
 10
330.539106
 20
1058.632295
 40
31.240471
 50
162.035569
 51
207.63675
  0
ARC
  8
0
 10
278.08341
 20
1035.791105
 40
53.507349
 50
341.057171
 51
353.476198
  0
ARC
  8
0
 10
336.804853
 20
923.335697
 40
16.454859
 50
273.300155
 51
346.533833
  0
ARC
  8
0
 10
349.763166
 20
919.925238
 40
3.07319
 50
352.118643
 51
101.045941
  0
ARC
  8
0
 10
322.065007
 20
940.810906
 40
32.468949
 50
297.139666
 51
326.608706
  0
ARC
  8
0
 10
847.847282
 20
998.704261
 40
518.289128
 50
189.639575
 51
191.717448
  0
ARC
  8
0
 10
322.668431
 20
899.85085
 40
18.813673
 50
262.142973
 51
340.100642
  0
ARC
  8
0
 10
314.534322
 20
898.440808
 40
18.102724
 50
170.909805
 51
287.894203
  0
ARC
  8
0
 10
253.648203
 20
919.8428
 40
46.837259
 50
336.679098
 51
353.004505
  0
ARC
  8
0
 10
334.201508
 20
926.293184
 40
36.168257
 50
155.790056
 51
199.637093
  0
ARC
  8
0
 10
313.376942
 20
950.041745
 40
15.080999
 50
164.653572
 51
216.245727
  0
ARC
  8
0
 10
312.099244
 20
958.195085
 40
13.903169
 50
138.264044
 51
197.419307
  0
ARC
  8
0
 10
311.565779
 20
976.07043
 40
13.082708
 50
158.812377
 51
221.21502
  0
ARC
  8
0
 10
307.133245
 20
985.978964
 40
9.334968
 50
113.249014
 51
213.705054
  0
ARC
  8
0
 10
309.180642
 20
1002.6567
 40
9.923735
 50
150.230669
 51
234.716525
  0
ARC
  8
0
 10
313.379341
 20
1014.116804
 40
14.382164
 50
163.292808
 51
207.015697
  0
ARC
  8
0
 10
431.533719
 20
924.376893
 40
95.47419
 50
177.960257
 51
187.498868
  0
ARC
  8
0
 10
327.015535
 20
930.347484
 40
9.46092
 50
344.222749
 51
50.849232
  0
ARC
  8
0
 10
2620.378528
 20
841.412459
 40
2289.414769
 50
177.24194
 51
177.589953
  0
ARC
  8
0
 10
317.474699
 20
976.424881
 40
65.122179
 50
254.504858
 51
287.084145
  0
ARC
  8
0
 10
323.76675
 20
1000.955322
 40
63.939563
 50
249.346513
 51
278.292745
  0
ARC
  8
0
 10
301.861221
 20
1215.452893
 40
248.002522
 50
269.968393
 51
276.75717
  0
ARC
  8
0
 10
320.189407
 20
1041.604726
 40
49.938459
 50
250.413397
 51
281.133468
  0
ARC
  8
0
 10
334.494306
 20
999.433691
 40
6.101165
 50
34.788712
 51
123.415884
  0
ARC
  8
0
 10
342.188381
 20
1006.772742
 40
4.699477
 50
235.17969
 51
28.796357
  0
ARC
  8
0
 10
384.198001
 20
1143.697094
 40
139.890077
 50
247.282223
 51
254.284268
  0
ARC
  8
0
 10
346.513634
 20
895.620241
 40
93.541708
 50
90.028848
 51
99.545543
  0
ARC
  8
0
 10
345.825902
 20
985.523825
 40
3.694087
 50
317.969576
 51
80.013174
  0
ARC
  8
0
 10
331.721717
 20
1049.972233
 40
69.009939
 50
270.104903
 51
284.131039
  0
ARC
  8
0
 10
349.546722
 20
930.460017
 40
28.292821
 50
95.860688
 51
124.368636
  0
ARC
  8
0
 10
349.14515
 20
962.995184
 40
5.04592
 50
240.465046
 51
60.465046
  0
ARC
  8
0
 10
349.14515
 20
962.995184
 40
5.04592
 50
60.465046
 51
114.655852
  0
ARC
  8
0
 10
264.796216
 20
1175.517593
 40
223.610522
 50
287.663601
 51
291.58
  0
ARC
  8
0
 10
348.611509
 20
929.804324
 40
15.000944
 50
100.354902
 51
156.860808
  0
ARC
  8
0
 10
345.356254
 20
939.984075
 40
4.610877
 50
352.778502
 51
83.037719
  0
ARC
  8
0
 10
311.663498
 20
970.833611
 40
49.51928
 50
299.59585
 51
320.603368
  0
ARC
  8
0
 10
308.097897
 20
934.793665
 40
32.033117
 50
217.911166
 51
251.3958
  0
ARC
  8
0
 10
286.209002
 20
915.728747
 40
3.439965
 50
55.067636
 51
190.340686
  0
ARC
  8
0
 10
306.484721
 20
932.175466
 40
22.820843
 50
216.663147
 51
252.261553
  0
ARC
  8
0
 10
311.298059
 20
963.065444
 40
37.727354
 50
216.352051
 51
249.461705
  0
ARC
  8
0
 10
284.067477
 20
940.547437
 40
3.158478
 50
60.276668
 51
177.181619
  0
ARC
  8
0
 10
340.805712
 20
1004.68516
 40
82.542696
 50
228.055665
 51
239.399024
  0
ARC
  8
0
 10
288.629508
 20
930.735059
 40
34.471364
 50
72.039784
 51
103.777936
  0
ARC
  8
0
 10
284.204576
 20
961.35222
 40
4.745233
 50
142.900554
 51
252.301309
  0
ARC
  8
0
 10
287.39371
 20
940.498814
 40
16.976821
 50
48.536332
 51
105.83257
  0
ARC
  8
0
 10
281.841284
 20
1013.275175
 40
34.108005
 50
276.404612
 51
298.62277
  0
ARC
  8
0
 10
288.934581
 20
983.28352
 40
5.10411
 50
169.364605
 51
229.886685
  0
ARC
  8
0
 10
299.95625
 20
967.270324
 40
23.338798
 50
92.307145
 51
133.407779
  0
ARC
  8
0
 10
279.44825
 20
1040.813892
 40
31.933904
 50
277.221996
 51
307.92647
  0
ARC
  8
0
 10
287.133754
 20
1006.123829
 40
4.746903
 50
140.654628
 51
261.186413
  0
ARC
  8
0
 10
309.802846
 20
930.166864
 40
75.008339
 50
97.955898
 51
108.174825
  0
ARC
  8
0
 10
289.539838
 20
1209.81222
 40
10.393611
 50
44.000422
 51
151.075995
  0
ARC
  8
0
 10
277.346739
 20
1222.018118
 40
7.818157
 50
166.726539
 51
293.328165
  0
ARC
  8
0
 10
279.896769
 20
1222.269644
 40
10.275911
 50
79.749147
 51
171.361077
  0
ARC
  8
0
 10
213.45761
 20
1561.658502
 40
346.46756
 50
279.439065
 51
284.173238
  0
ARC
  8
0
 10
287.875067
 20
1214.19408
 40
9.413242
 50
253.975751
 51
2.090779
  0
ARC
  8
0
 10
272.546129
 20
1270.649671
 40
66.728692
 50
268.08703
 51
280.99828
  0
ARC
  8
0
 10
338.370491
 20
1382.528792
 40
243.926033
 50
243.332944
 51
253.772506
  0
ARC
  8
0
 10
233.460174
 20
1176.396768
 40
12.69654
 50
167.633942
 51
248.927795
  0
ARC
  8
0
 10
254.043728
 20
1150.457998
 40
43.695715
 50
108.490947
 51
139.015894
  0
ARC
  8
0
 10
226.162824
 20
1122.934584
 40
21.627748
 50
115.523591
 51
160.629206
  0
ARC
  8
0
 10
273.60898
 20
1132.047375
 40
69.156206
 50
209.1605
 51
254.247411
  0
ARC
  8
0
 10
226.782874
 20
1110.112071
 40
17.954039
 50
162.82734
 51
220.926824
  0
ARC
  8
0
 10
269.501151
 20
1118.154592
 40
63.893657
 50
198.408596
 51
254.074272
  0
ARC
  8
0
 10
220.0353
 20
1108.453973
 40
15.305659
 50
141.689689
 51
223.194879
  0
ARC
  8
0
 10
245.339515
 20
959.108842
 40
3.26565
 50
328.434775
 51
120.42731
  0
ARC
  8
0
 10
242.105136
 20
989.008296
 40
8.808581
 50
185.072591
 51
5.072591
  0
ARC
  8
0
 10
242.105136
 20
989.008296
 40
8.808581
 50
5.072591
 51
14.729794
  0
ARC
  8
0
 10
162.669222
 20
1073.974354
 40
113.161677
 50
319.493704
 51
339.116246
  0
ARC
  8
0
 10
240.105538
 20
1008.4323
 40
11.721697
 50
238.284269
 51
317.227796
  0
ARC
  8
0
 10
425.665846
 20
1133.6301
 40
234.580855
 50
199.378891
 51
215.184779
  0
ARC
  8
0
 10
210.211715
 20
1059.672636
 40
7.008346
 50
105.184296
 51
213.61271
  0
ARC
  8
0
 10
175.541008
 20
1308.909421
 40
97.039052
 50
265.96949
 51
270.809651
  0
ARC
  8
0
 10
175.028796
 20
1186.512248
 40
25.437631
 50
323.794113
 51
85.753864
  0
ARC
  8
0
 10
108.891359
 20
722.037676
 40
5.387505
 50
157.782734
 51
293.354321
  0
ARC
  8
0
 10
108.854591
 20
722.347981
 40
5.687664
 50
292.455166
 51
49.420278
  0
ARC
  8
0
 10
106.91862
 20
729.743417
 40
6.420447
 50
241.994307
 51
331.377323
  0
ARC
  8
0
 10
116.34887
 20
725.191355
 40
12.495018
 50
149.019895
 51
185.126798
  0
ARC
  8
0
 10
99.877718
 20
728.93119
 40
6.114381
 50
205.766141
 51
310.946149
  0
ARC
  8
0
 10
100.987462
 20
729.066308
 40
7.181591
 50
151.16582
 51
202.887049
  0
ARC
  8
0
 10
91.226131
 20
730.83284
 40
5.539083
 50
200.25345
 51
304.597351
  0
ARC
  8
0
 10
88.905411
 20
729.911575
 40
3.043544
 50
85.490108
 51
199.106302
  0
ARC
  8
0
 10
82.849117
 20
716.523986
 40
4.50882
 50
157.67122
 51
333.287186
  0
ARC
  8
0
 10
72.471331
 20
722.251928
 40
16.360045
 50
331.705421
 51
13.542854
  0
ARC
  8
0
 10
77.912699
 20
729.100107
 40
10.890076
 50
267.699694
 51
343.915733
  0
ARC
  8
0
 10
78.069808
 20
723.39125
 40
5.206462
 50
85.550041
 51
263.446644
  0
ARC
  8
0
 10
82.435722
 20
724.576316
 40
5.634067
 50
50.366779
 51
134.68541
  0
ARC
  8
0
 10
107.817646
 20
713.643797
 40
6.549212
 50
281.828994
 51
42.762383
  0
ARC
  8
0
 10
116.19819
 20
716.052331
 40
11.28284
 50
169.075913
 51
231.407286
  0
ARC
  8
0
 10
82.796671
 20
720.67576
 40
15.875302
 50
325.730343
 51
8.319911
  0
ARC
  8
0
 10
92.389936
 20
716.37025
 40
5.822712
 50
198.764695
 51
307.269516
  0
ARC
  8
0
 10
101.666371
 20
715.832093
 40
7.059783
 50
215.459098
 51
311.548202
  0
ARC
  8
0
 10
158.968786
 20
1176.077732
 40
29.382805
 50
4.395398
 51
73.538358
  0
ARC
  8
0
 10
346.883964
 20
1324.411395
 40
5.024284
 50
26.850386
 51
122.84938
  0
ARC
  8
0
 10
287.365178
 20
1335.302362
 40
9.231409
 50
67.692339
 51
221.567794
  0
ARC
  8
0
 10
335.482289
 20
1336.357507
 40
9.334091
 50
312.732301
 51
104.645144
  0
ARC
  8
0
 10
321.918846
 20
1314.655018
 40
19.6989
 50
305.395029
 51
11.857848
  0
ARC
  8
0
 10
296.283141
 20
1313.915767
 40
15.705335
 50
161.602486
 51
241.466048
  0
ARC
  8
0
 10
392.293139
 20
1126.469621
 40
34.390922
 50
41.609467
 51
54.489355
  0
ARC
  8
0
 10
269.302644
 20
1332.388408
 40
4.215973
 50
229.715339
 51
281.345694
  0
ARC
  8
0
 10
257.235194
 20
1331.054934
 40
9.529285
 50
348.605444
 51
84.283972
  0
ARC
  8
0
 10
260.979095
 20
1343.94991
 40
4.411346
 50
97.521593
 51
230.687593
  0
ARC
  8
0
 10
187.269356
 20
1195.189438
 40
19.642985
 50
88.582385
 51
121.821084
  0
ARC
  8
0
 10
500.038151
 20
735.742047
 40
10.141777
 50
171.593343
 51
225.39093
  0
ARC
  8
0
 10
219.757699
 20
129.759143
 40
21.066162
 50
335.403739
 51
5.758654
  0
ARC
  8
0
 10
156.913048
 20
947.777113
 40
13.973867
 50
250.979334
 51
270.571437
  0
LINE
  8
0
 10
282.020466
 11
277.152559
 20
903.640907
 21
911.694633
  0
LINE
  8
0
 10
277.152559
 11
269.732883
 20
911.694633
 21
921.011113
  0
LINE
  8
0
 10
269.732883
 11
260.080689
 20
921.011113
 21
928.687165
  0
LINE
  8
0
 10
260.080689
 11
249.799141
 20
928.687165
 21
931.228023
  0
LINE
  8
0
 10
249.799141
 11
234.111838
 20
931.228023
 21
929.639987
  0
LINE
  8
0
 10
234.111838
 11
222.34636
 20
929.639987
 21
924.875878
  0
LINE
  8
0
 10
222.34636
 11
214.078726
 20
924.875878
 21
918.52373
  0
LINE
  8
0
 10
214.078726
 11
208.566969
 20
918.52373
 21
914.077229
  0
LINE
  8
0
 10
208.566969
 11
204.433148
 20
914.077229
 21
906.031177
  0
LINE
  8
0
 10
204.433148
 11
203.14418
 20
906.031177
 21
895.362191
  0
LINE
  8
0
 10
203.14418
 11
207.489981
 20
895.362191
 21
877.258575
  0
LINE
  8
0
 10
207.489981
 11
212.365766
 20
877.258575
 21
861.589946
  0
LINE
  8
0
 10
212.365766
 11
222.662414
 20
861.589946
 21
853.047511
  0
LINE
  8
0
 10
222.662414
 11
231.354032
 20
853.047511
 21
847.33058
  0
LINE
  8
0
 10
231.354032
 11
233.367945
 20
847.33058
 21
845.319067
  0
LINE
  8
0
 10
233.367945
 11
236.6538
 20
845.319067
 21
835.261502
  0
LINE
  8
0
 10
236.6538
 11
236.867632
 20
835.261502
 21
829.699991
  0
LINE
  8
0
 10
236.867632
 11
234.535736
 20
829.699991
 21
824.830012
  0
LINE
  8
0
 10
234.535736
 11
235.065713
 20
824.830012
 21
819.854163
  0
LINE
  8
0
 10
235.065713
 11
237.185621
 20
819.854163
 21
817.736782
  0
LINE
  8
0
 10
237.185621
 11
246.316239
 20
817.736782
 21
818.259291
  0
LINE
  8
0
 10
246.316239
 11
252.505544
 20
818.259291
 21
814.487248
  0
LINE
  8
0
 10
252.505544
 11
257.657792
 20
814.487248
 21
806.903494
  0
LINE
  8
0
 10
257.657792
 11
264.708245
 20
806.903494
 21
793.902776
  0
LINE
  8
0
 10
264.708245
 11
269.046986
 20
793.902776
 21
793.631926
  0
LINE
  8
0
 10
269.046986
 11
269.57187
 20
793.631926
 21
794.47074
  0
LINE
  8
0
 10
378.782111
 11
375.828499
 20
801.532579
 21
797.985615
  0
LINE
  8
0
 10
375.828499
 11
367.237651
 20
797.985615
 21
801.899581
  0
ENDSEC
  0
EOF
