  0
SECTION
  2
HEADER
  9
$ACADVER
  1
AC1015
  9
$ACADMAINTVER
 70
     6
  9
$DWGCODEPAGE
  3
ANSI_1252
  9
$INSBASE
 10
0.0
 20
0.0
 30
0.0
  9
$EXTMIN
 10
0.0
 20
0.0
 30
0.0
  9
$EXTMAX
 10
20.0
 20
30.0
 30
0.0
  9
$LIMMIN
 10
0.0
 20
0.0
  9
$LIMMAX
 10
20.0
 20
30.0
  9
$ORTHOMODE
 70
     0
  9
$REGENMODE
 70
     1
  9
$FILLMODE
 70
     1
  9
$QTEXTMODE
 70
     0
  9
$MIRRTEXT
 70
     1
  9
$LTSCALE
 40
1.0
  9
$ATTMODE
 70
     1
  9
$TEXTSIZE
 40
0.1388888889
  9
$TRACEWID
 40
0.05
  9
$TEXTSTYLE
  7
Standard
  9
$CLAYER
  8
0
  9
$CELTYPE
  6
ByLayer
  9
$CECOLOR
 62
   256
  9
$CELTSCALE
 40
1.0
  9
$DISPSILH
 70
     0
  9
$DIMSCALE
 40
1.0
  9
$DIMASZ
 40
0.13
  9
$DIMEXO
 40
0.05
  9
$DIMDLI
 40
0.38
  9
$DIMRND
 40
0.0
  9
$DIMDLE
 40
0.0
  9
$DIMEXE
 40
0.08
  9
$DIMTP
 40
0.0
  9
$DIMTM
 40
0.0
  9
$DIMTXT
 40
0.1388888889
  9
$DIMCEN
 40
0.09
  9
$DIMTSZ
 40
0.0
  9
$DIMTOL
 70
     0
  9
$DIMLIM
 70
     0
  9
$DIMTIH
 70
     1
  9
$DIMTOH
 70
     1
  9
$DIMSE1
 70
     0
  9
$DIMSE2
 70
     0
  9
$DIMTAD
 70
     0
  9
$DIMZIN
 70
     0
  9
$DIMBLK
  1

  9
$DIMASO
 70
     1
  9
$DIMSHO
 70
     1
  9
$DIMPOST
  1

  9
$DIMAPOST
  1

  9
$DIMALT
 70
     0
  9
$DIMALTD
 70
     2
  9
$DIMALTF
 40
25.4
  9
$DIMLFAC
 40
1.0
  9
$DIMTOFL
 70
     0
  9
$DIMTVP
 40
0.0
  9
$DIMTIX
 70
     0
  9
$DIMSOXD
 70
     0
  9
$DIMSAH
 70
     0
  9
$DIMBLK1
  1

  9
$DIMBLK2
  1

  9
$DIMSTYLE
  2
Standard
  9
$DIMCLRD
 70
     0
  9
$DIMCLRE
 70
     0
  9
$DIMCLRT
 70
     0
  9
$DIMTFAC
 40
1.0
  9
$DIMGAP
 40
0.06
  9
$DIMJUST
 70
     0
  9
$DIMSD1
 70
     0
  9
$DIMSD2
 70
     0
  9
$DIMTOLJ
 70
     1
  9
$DIMTZIN
 70
     0
  9
$DIMALTZ
 70
     0
  9
$DIMALTTZ
 70
     0
  9
$DIMUPT
 70
     0
  9
$DIMDEC
 70
     4
  9
$DIMTDEC
 70
     4
  9
$DIMALTU
 70
     2
  9
$DIMALTTD
 70
     2
  9
$DIMTXSTY
  7
Standard
  9
$DIMAUNIT
 70
     0
  9
$DIMADEC
 70
     0
  9
$DIMALTRND
 40
0.0
  9
$DIMAZIN
 70
     0
  9
$DIMDSEP
 70
    46
  9
$DIMATFIT
 70
     3
  9
$DIMFRAC
 70
     0
  9
$DIMLDRBLK
  1

  9
$DIMLUNIT
 70
     2
  9
$DIMLWD
 70
    -2
  9
$DIMLWE
 70
    -2
  9
$DIMTMOVE
 70
     0
  9
$LUNITS
 70
     2
  9
$LUPREC
 70
     2
  9
$SKETCHINC
 40
0.1
  9
$FILLETRAD
 40
0.5
  9
$AUNITS
 70
     0
  9
$AUPREC
 70
     0
  9
$MENU
  1
.
  9
$ELEVATION
 40
0.0
  9
$PELEVATION
 40
0.0
  9
$THICKNESS
 40
0.0
  9
$LIMCHECK
 70
     0
  9
$CHAMFERA
 40
0.5
  9
$CHAMFERB
 40
0.5
  9
$CHAMFERC
 40
1.0
  9
$CHAMFERD
 40
0.0
  9
$SKPOLY
 70
     0
  9
$TDCREATE
 40
2454608.451851991
  9
$TDUCREATE
 40
2454608.743518658
  9
$TDUPDATE
 40
2454608.451852002
  9
$TDUUPDATE
 40
2454608.743518669
  9
$TDINDWG
 40
0.0000000116
  9
$TDUSRTIMER
 40
0.0000000116
  9
$USRTIMER
 70
     1
  9
$ANGBASE
 50
0.0
  9
$ANGDIR
 70
     0
  9
$PDMODE
 70
     0
  9
$PDSIZE
 40
-1.0
  9
$PLINEWID
 40
0.0
  9
$SPLFRAME
 70
     0
  9
$SPLINETYPE
 70
     6
  9
$SPLINESEGS
 70
     8
  9
$HANDSEED
  5
CD
  9
$SURFTAB1
 70
     6
  9
$SURFTAB2
 70
     6
  9
$SURFTYPE
 70
     6
  9
$SURFU
 70
     6
  9
$SURFV
 70
     6
  9
$UCSBASE
  2

  9
$UCSNAME
  2

  9
$UCSORG
 10
0.0
 20
0.0
 30
0.0
  9
$UCSXDIR
 10
1.0
 20
0.0
 30
0.0
  9
$UCSYDIR
 10
0.0
 20
1.0
 30
0.0
  9
$UCSORTHOREF
  2

  9
$UCSORTHOVIEW
 70
     0
  9
$UCSORGTOP
 10
0.0
 20
0.0
 30
0.0
  9
$UCSORGBOTTOM
 10
0.0
 20
0.0
 30
0.0
  9
$UCSORGLEFT
 10
0.0
 20
0.0
 30
0.0
  9
$UCSORGRIGHT
 10
0.0
 20
0.0
 30
0.0
  9
$UCSORGFRONT
 10
0.0
 20
0.0
 30
0.0
  9
$UCSORGBACK
 10
0.0
 20
0.0
 30
0.0
  9
$PUCSBASE
  2

  9
$PUCSNAME
  2

  9
$PUCSORG
 10
0.0
 20
0.0
 30
0.0
  9
$PUCSXDIR
 10
1.0
 20
0.0
 30
0.0
  9
$PUCSYDIR
 10
0.0
 20
1.0
 30
0.0
  9
$PUCSORTHOREF
  2

  9
$PUCSORTHOVIEW
 70
     0
  9
$PUCSORGTOP
 10
0.0
 20
0.0
 30
0.0
  9
$PUCSORGBOTTOM
 10
0.0
 20
0.0
 30
0.0
  9
$PUCSORGLEFT
 10
0.0
 20
0.0
 30
0.0
  9
$PUCSORGRIGHT
 10
0.0
 20
0.0
 30
0.0
  9
$PUCSORGFRONT
 10
0.0
 20
0.0
 30
0.0
  9
$PUCSORGBACK
 10
0.0
 20
0.0
 30
0.0
  9
$USERI1
 70
     0
  9
$USERI2
 70
     0
  9
$USERI3
 70
     0
  9
$USERI4
 70
     0
  9
$USERI5
 70
     0
  9
$USERR1
 40
0.0
  9
$USERR2
 40
0.0
  9
$USERR3
 40
0.0
  9
$USERR4
 40
0.0
  9
$USERR5
 40
0.0
  9
$WORLDVIEW
 70
     1
  9
$SHADEDGE
 70
     3
  9
$SHADEDIF
 70
    70
  9
$TILEMODE
 70
     1
  9
$MAXACTVP
 70
    64
  9
$PINSBASE
 10
0.0
 20
0.0
 30
0.0
  9
$PLIMCHECK
 70
     0
  9
$PEXTMIN
 10
1.0000000000E+20
 20
1.0000000000E+20
 30
1.0000000000E+20
  9
$PEXTMAX
 10
-1.0000000000E+20
 20
-1.0000000000E+20
 30
-1.0000000000E+20
  9
$PLIMMIN
 10
0.0
 20
0.0
  9
$PLIMMAX
 10
12.0
 20
9.0
  9
$UNITMODE
 70
     0
  9
$VISRETAIN
 70
     1
  9
$PLINEGEN
 70
     0
  9
$PSLTSCALE
 70
     1
  9
$TREEDEPTH
 70
  3020
  9
$CMLSTYLE
  2
Standard
  9
$CMLJUST
 70
     0
  9
$CMLSCALE
 40
1.0
  9
$PROXYGRAPHICS
 70
     1
  9
$MEASUREMENT
 70
     0
  9
$CELWEIGHT
370
    -1
  9
$ENDCAPS
280
     0
  9
$JOINSTYLE
280
     0
  9
$LWDISPLAY
290
     1
  9
$INSUNITS
 70
     1
  9
$HYPERLINKBASE
  1

  9
$STYLESHEET
  1

  9
$XEDIT
290
     1
  9
$CEPSNTYPE
380
     0
  9
$PSTYLEMODE
290
     1
  9
$FINGERPRINTGUID
  2
{C46ACCB2-CAD2-468D-9C0D-EEE93993989D}
  9
$VERSIONGUID
  2
{FAEB1C32-E019-11D5-929B-00C0DF256EC4}
  9
$EXTNAMES
290
     1
  9
$PSVPSCALE
 40
0.0
  9
$OLESTARTUP
290
     0
  0
ENDSEC
  0
SECTION
  2
CLASSES
  0
CLASS
  1
ACDBDICTIONARYWDFLT
  2
AcDbDictionaryWithDefault
  3
ObjectDBX Classes
 90
        0
280
     0
281
     0
  0
CLASS
  1
VISUALSTYLE
  2
AcDbVisualStyle
  3
ObjectDBX Classes
 90
     4095
280
     0
281
     0
  0
CLASS
  1
SCALE
  2
AcDbScale
  3
ObjectDBX Classes
 90
     1153
280
     0
281
     0
  0
CLASS
  1
DICTIONARYVAR
  2
AcDbDictionaryVar
  3
ObjectDBX Classes
 90
        0
280
     0
281
     0
  0
CLASS
  1
ACDBPLACEHOLDER
  2
AcDbPlaceHolder
  3
ObjectDBX Classes
 90
        0
280
     0
281
     0
  0
CLASS
  1
LAYOUT
  2
AcDbLayout
  3
ObjectDBX Classes
 90
        0
280
     0
281
     0
  0
ENDSEC
  0
SECTION
  2
TABLES
  0
TABLE
  2
VPORT
  5
8
330
0
100
AcDbSymbolTable
 70
     1
  0
VPORT
  5
29
330
8
100
AcDbSymbolTableRecord
100
AcDbViewportTableRecord
  2
*Active
 70
     0
 10
0.0
 20
0.0
 11
1.0
 21
1.0
 12
10.0
 22
15.0
 13
0.0
 23
0.0
 14
0.5
 24
0.5
 15
0.5
 25
0.5
 16
0.0
 26
0.0
 36
1.0
 17
0.0
 27
0.0
 37
0.0
 40
30.0
 41
0.6666666667
 42
50.0
 43
0.0
 44
0.0
 50
0.0
 51
0.0
 71
     0
 72
  2000
 73
     1
 74
     3
 75
     0
 76
     0
 77
     0
 78
     0
281
     0
 65
     1
110
0.0
120
0.0
130
0.0
111
1.0
121
0.0
131
0.0
112
0.0
122
1.0
132
0.0
 79
     0
146
0.0
  0
ENDTAB
  0
TABLE
  2
LTYPE
  5
5
330
0
100
AcDbSymbolTable
 70
     6
  0
LTYPE
  5
14
330
5
100
AcDbSymbolTableRecord
100
AcDbLinetypeTableRecord
  2
ByBlock
 70
     0
  3

 72
    65
 73
     0
 40
0.0
  0
LTYPE
  5
15
330
5
100
AcDbSymbolTableRecord
100
AcDbLinetypeTableRecord
  2
ByLayer
 70
     0
  3

 72
    65
 73
     0
 40
0.0
  0
LTYPE
  5
16
330
5
100
AcDbSymbolTableRecord
100
AcDbLinetypeTableRecord
  2
Continuous
 70
     0
  3
Solid line
 72
    65
 73
     0
 40
0.0
  0
LTYPE
  5
5D
330
5
100
AcDbSymbolTableRecord
100
AcDbLinetypeTableRecord
  2
HIDDEN
 70
     0
  3
Hidden __ __ __ __ __ __ __ __ __ __ __ __ __ __
 72
    65
 73
     2
 40
0.075
 49
0.05
 74
     0
 49
-0.025
 74
     0
  0
LTYPE
  5
5E
330
5
100
AcDbSymbolTableRecord
100
AcDbLinetypeTableRecord
  2
PHANTOM
 70
     0
  3
Phantom ______  __  __  ______  __  __  ______
 72
    65
 73
     6
 40
0.5
 49
0.25
 74
     0
 49
-0.05
 74
     0
 49
0.05
 74
     0
 49
-0.05
 74
     0
 49
0.05
 74
     0
 49
-0.05
 74
     0
  0
LTYPE
  5
5F
330
5
100
AcDbSymbolTableRecord
100
AcDbLinetypeTableRecord
  2
CENTER
 70
     0
  3
Center ____ _ ____ _ ____ _ ____ _ ____ _ ____
 72
    65
 73
     4
 40
0.4
 49
0.25
 74
     0
 49
-0.05
 74
     0
 49
0.05
 74
     0
 49
-0.05
 74
     0
  0
LTYPE
  5
60
330
5
100
AcDbSymbolTableRecord
100
AcDbLinetypeTableRecord
  2
CENTERX2
 70
     0
  3
Center (2x) ________  __  ________  __  _____
 72
    65
 73
     4
 40
0.8
 49
0.5
 74
     0
 49
-0.1
 74
     0
 49
0.1
 74
     0
 49
-0.1
 74
     0
  0
LTYPE
  5
61
330
5
100
AcDbSymbolTableRecord
100
AcDbLinetypeTableRecord
  2
DOT2
 70
     0
  3
Dot (.5x) ........................................
 72
    65
 73
     2
 40
0.025
 49
0.0
 74
     0
 49
-0.025
 74
     0
  0
ENDTAB
  0
TABLE
  2
LAYER
  5
2
330
0
100
AcDbSymbolTable
 70
     2
  0
LAYER
  5
10
330
2
100
AcDbSymbolTableRecord
100
AcDbLayerTableRecord
  2
0
 70
     0
 62
     7
  6
Continuous
370
    -3
390
F
  0
LAYER
  5
62
330
2
100
AcDbSymbolTableRecord
100
AcDbLayerTableRecord
  2
FORMAT
 70
     0
 62
     7
  6
Continuous
370
    -3
390
F
  0
ENDTAB
  0
TABLE
  2
STYLE
  5
3
330
0
100
AcDbSymbolTable
 70
     1
  0
STYLE
  5
11
330
3
100
AcDbSymbolTableRecord
100
AcDbTextStyleTableRecord
  2
Standard
 70
     0
 40
0.0
 41
1.0
 50
0.0
 71
     0
 42
0.2
  3
txt
  4

  0
ENDTAB
  0
TABLE
  2
VIEW
  5
6
330
0
100
AcDbSymbolTable
 70
     0
  0
ENDTAB
  0
TABLE
  2
UCS
  5
7
330
0
100
AcDbSymbolTable
 70
     0
  0
ENDTAB
  0
TABLE
  2
APPID
  5
9
330
0
100
AcDbSymbolTable
 70
     1
  0
APPID
  5
12
330
9
100
AcDbSymbolTableRecord
100
AcDbRegAppTableRecord
  2
ACAD
 70
     0
  0
ENDTAB
  0
TABLE
  2
DIMSTYLE
  5
A
330
0
100
AcDbSymbolTable
 70
     1
100
AcDbDimStyleTable
  0
DIMSTYLE
105
27
330
A
100
AcDbSymbolTableRecord
100
AcDbDimStyleTableRecord
  2
Standard
 70
     0
340
11
  0
ENDTAB
  0
TABLE
  2
BLOCK_RECORD
  5
1
330
0
100
AcDbSymbolTable
 70
     1
  0
BLOCK_RECORD
  5
1F
330
1
100
AcDbSymbolTableRecord
100
AcDbBlockTableRecord
  2
*Model_Space
340
22
  0
BLOCK_RECORD
  5
1B
330
1
100
AcDbSymbolTableRecord
100
AcDbBlockTableRecord
  2
*Paper_Space
340
1E
  0
BLOCK_RECORD
  5
23
330
1
100
AcDbSymbolTableRecord
100
AcDbBlockTableRecord
  2
*Paper_Space0
340
26
  0
ENDTAB
  0
ENDSEC
  0
SECTION
  2
BLOCKS
  0
BLOCK
  5
20
330
1F
100
AcDbEntity
  8
0
100
AcDbBlockBegin
  2
*Model_Space
 70
     0
 10
0.0
 20
0.0
 30
0.0
  3
*Model_Space
  1

  0
ENDBLK
  5
21
330
1F
100
AcDbEntity
  8
0
100
AcDbBlockEnd
  0
BLOCK
  5
1C
330
1B
100
AcDbEntity
 67
     1
  8
0
100
AcDbBlockBegin
  2
*Paper_Space
 70
     0
 10
0.0
 20
0.0
 30
0.0
  3
*Paper_Space
  1

  0
ENDBLK
  5
1D
330
1B
100
AcDbEntity
 67
     1
  8
0
100
AcDbBlockEnd
  0
BLOCK
  5
24
330
23
100
AcDbEntity
  8
0
100
AcDbBlockBegin
  2
*Paper_Space0
 70
     0
 10
0.0
 20
0.0
 30
0.0
  3
*Paper_Space0
  1

  0
ENDBLK
  5
25
330
23
100
AcDbEntity
  8
0
100
AcDbBlockEnd
  0
ENDSEC
  0
SECTION
  2
ENTITIES
  0
LINE
  5
63
330
1F
100
AcDbEntity
  8
0
  6
Continuous
 62
     7
370
     0
100
AcDbLine
 10
13.8301114485
 20
15.9561447762
 30
0.0
 11
13.7179859984
 21
15.8165168572
 31
0.0
  0
LINE
  5
64
330
1F
100
AcDbEntity
  8
0
  6
Continuous
 62
     7
370
     0
100
AcDbLine
 10
13.7179859984
 20
15.8165168572
 30
0.0
 11
13.7499260067
 21
15.7908680627
 31
0.0
  0
LINE
  5
65
330
1F
100
AcDbEntity
  8
0
  6
Continuous
 62
     7
370
     0
100
AcDbLine
 10
13.7499260067
 20
15.7908680627
 30
0.0
 11
13.8620514568
 21
15.9304959817
 31
0.0
  0
LINE
  5
66
330
1F
100
AcDbEntity
  8
0
  6
Continuous
 62
     7
370
     0
100
AcDbLine
 10
14.0988188187
 20
13.6879829477
 30
0.0
 11
13.9514353056
 21
13.6656014431
 31
0.0
  0
LINE
  5
67
330
1F
100
AcDbEntity
  8
0
  6
Continuous
 62
     7
370
     0
100
AcDbLine
 10
13.9514353056
 20
13.6656014431
 30
0.0
 11
13.9514353056
 21
13.6265050814
 31
0.0
  0
LINE
  5
68
330
1F
100
AcDbEntity
  8
0
  6
Continuous
 62
     7
370
     0
100
AcDbLine
 10
13.9514353056
 20
13.6265050814
 30
0.0
 11
14.1336726365
 21
13.6541794499
 31
0.0
  0
LINE
  5
69
330
1F
100
AcDbEntity
  8
0
  6
Continuous
 62
     7
370
     0
100
AcDbLine
 10
13.1712213633
 20
12.8904183324
 30
0.0
 11
13.1991694016
 21
12.6388859881
 31
0.0
  0
LINE
  5
6A
330
1F
100
AcDbEntity
  8
0
  6
Continuous
 62
     7
370
     0
100
AcDbLine
 10
13.1991694016
 20
12.6388859881
 30
0.0
 11
12.9497869064
 21
12.7646521602
 31
0.0
  0
LINE
  5
6B
330
1F
100
AcDbEntity
  8
0
  6
Continuous
 62
     7
370
     0
100
AcDbLine
 10
13.1712213633
 20
12.8904183324
 30
0.0
 11
13.4807996331
 21
12.8560207468
 31
0.0
  0
LINE
  5
6C
330
1F
100
AcDbEntity
  8
0
  6
Continuous
 62
     7
370
     0
100
AcDbLine
 10
13.4807996331
 20
12.8560207468
 30
0.0
 11
13.1518727214
 21
13.2730914715
 31
0.0
  0
LINE
  5
6D
330
1F
100
AcDbEntity
  8
0
  6
Continuous
 62
     7
370
     0
100
AcDbLine
 10
11.8005628861
 20
15.4951995145
 30
0.0
 11
11.9450129833
 21
15.3646388497
 31
0.0
  0
LINE
  5
6E
330
1F
100
AcDbEntity
  8
0
  6
Continuous
 62
     7
370
     0
100
AcDbLine
 10
11.9450129833
 20
15.3646388497
 30
0.0
 11
12.3700296157
 21
15.5729803361
 31
0.0
  0
LINE
  5
6F
330
1F
100
AcDbEntity
  8
0
  6
Continuous
 62
     7
370
     0
100
AcDbLine
 10
13.8301114485
 20
15.9561447762
 30
0.0
 11
13.5478534856
 21
15.9304959817
 31
0.0
  0
LINE
  5
70
330
1F
100
AcDbEntity
  8
0
  6
Continuous
 62
     7
370
     0
100
AcDbLine
 10
3.1195527657
 20
21.5512080093
 30
0.0
 11
16.6195527657
 21
21.5512080093
 31
0.0
  0
LINE
  5
71
330
1F
100
AcDbEntity
  8
0
  6
Continuous
 62
     7
370
     0
100
AcDbLine
 10
3.1195527657
 20
21.5512080093
 30
0.0
 11
3.1195527657
 21
6.5512080093
 31
0.0
  0
LINE
  5
72
330
1F
100
AcDbEntity
  8
0
  6
Continuous
 62
     7
370
     0
100
AcDbLine
 10
3.1195527657
 20
6.5512080093
 30
0.0
 11
16.6195527657
 21
6.5512080093
 31
0.0
  0
LINE
  5
73
330
1F
100
AcDbEntity
  8
0
  6
Continuous
 62
     7
370
     0
100
AcDbLine
 10
16.6195527657
 20
21.5512080093
 30
0.0
 11
16.6195527657
 21
6.5512080093
 31
0.0
  0
ARC
  5
74
330
1F
100
AcDbEntity
  8
0
  6
Continuous
 62
     7
370
     0
100
AcDbCircle
 10
7.7071893227
 20
9.3253584648
 30
0.0
 40
0.0489835253670394
100
AcDbArc
 50
0.0
 51
180.0
  0
SPLINE
  5
75
330
1F
100
AcDbEntity
  8
0
  6
Continuous
 62
     5
370
     0
100
AcDbSpline
210
0.0
220
0.0
230
1.0
 70
     8
 71
     3
 72
    26
 73
    22
 74
     0
 42
0.00000001
 43
0.00000001
 40
0.0
 40
0.0
 40
0.0
 40
0.0
 40
0.0747936681373364
 40
0.1528226004864292
 40
0.2619044203560844
 40
0.3358809902947529
 40
0.3947008983665792
 40
0.460685351916102
 40
0.5134950525477776
 40
0.5624214751308597
 40
0.6022035855119838
 40
0.6366982857224159
 40
0.6934551106776976
 40
0.7324508478097475
 40
0.7547389428463745
 40
0.7820254660396553
 40
0.8345132548293308
 40
0.8794810441385104
 40
0.945217034635207
 40
0.9853228370502496
 40
1.0
 40
1.0
 40
1.0
 40
1.0
 10
10.49450494418461
 20
17.62537334645612
 30
0.0
 10
10.50562843474894
 20
17.5186590385905
 30
0.0
 10
10.52835657199454
 20
17.30061440402078
 30
0.0
 10
10.49448666432431
 20
16.9275390075171
 30
0.0
 10
10.42864755075658
 20
16.55216254777436
 30
0.0
 10
10.23140236460774
 20
16.26050177999146
 30
0.0
 10
10.16743103989633
 20
15.98024081260244
 30
0.0
 10
10.08100958426897
 20
15.74436659823376
 30
0.0
 10
10.01056042915211
 20
15.5065626972604
 30
0.0
 10
9.847744685020567
 20
15.37708563065043
 30
0.0
 10
9.720831648200871
 20
15.25382589255122
 30
0.0
 10
9.64196635044764
 20
15.07743703408044
 30
0.0
 10
9.466578516952623
 20
14.98726632799173
 30
0.0
 10
9.368860461259526
 20
14.84677695771325
 30
0.0
 10
9.256707248855827
 20
14.77965204960357
 30
0.0
 10
9.197722484817898
 20
14.63994556639751
 30
0.0
 10
9.028164828679966
 20
14.54226437597786
 30
0.0
 10
8.788285904127205
 20
14.5468548777916
 30
0.0
 10
8.614674982318189
 20
14.39065130003866
 30
0.0
 10
8.511882820583464
 20
14.25326518535763
 30
0.0
 10
8.479862920662171
 20
14.18153314635213
 30
0.0
 10
8.47128431806828
 20
14.16231507704554
 30
0.0
  0
SPLINE
  5
76
330
1F
100
AcDbEntity
  8
0
  6
Continuous
 62
     5
370
     0
100
AcDbSpline
210
0.0
220
0.0
230
1.0
 70
     8
 71
     3
 72
    14
 73
    10
 74
     0
 42
0.00000001
 43
0.00000001
 40
0.0
 40
0.0
 40
0.0
 40
0.0
 40
0.1464476776548738
 40
0.2808846776564378
 40
0.406699246640001
 40
0.591811387853302
 40
0.792366131774074
 40
0.9484707123223878
 40
1.0
 40
1.0
 40
1.0
 40
1.0
 10
8.47128431806828
 20
14.16231507704554
 30
0.0
 10
8.460898662128255
 20
14.12855527672423
 30
0.0
 10
8.440979113606362
 20
14.06380443340023
 30
0.0
 10
8.380424832868023
 20
13.98623174247693
 30
0.0
 10
8.29866050470266
 20
13.91452384949939
 30
0.0
 10
8.277544245208938
 20
13.78342448310862
 30
0.0
 10
8.323090051902183
 20
13.65655857368256
 30
0.0
 10
8.402440344081032
 20
13.59114629286451
 30
0.0
 10
8.449724047899556
 20
13.57586200405083
 30
0.0
 10
8.461458624716652
 20
13.5720688438985
 30
0.0
  0
SPLINE
  5
77
330
1F
100
AcDbEntity
  8
0
  6
Continuous
 62
     5
370
     0
100
AcDbSpline
210
0.0
220
0.0
230
1.0
 70
     8
 71
     3
 72
    17
 73
    13
 74
     0
 42
0.00000001
 43
0.00000001
 40
0.0
 40
0.0
 40
0.0
 40
0.0
 40
0.123854936226606
 40
0.2312704934391373
 40
0.3614609315052045
 40
0.4521422803998777
 40
0.539777731449817
 40
0.5717447349974885
 40
0.6014532182897334
 40
0.6596158071119312
 40
0.8283154186053958
 40
1.0
 40
1.0
 40
1.0
 40
1.0
 10
8.42460275172176
 20
13.66560144314511
 30
0.0
 10
8.470575684897351
 20
13.70730484480645
 30
0.0
 10
8.556419521762363
 20
13.78517631746753
 30
0.0
 10
8.722398708607278
 20
13.85885787207477
 30
0.0
 10
8.874324180400071
 20
13.91735174152195
 30
0.0
 10
9.018758330724646
 20
13.97090661329135
 30
0.0
 10
9.126584921418514
 20
13.97542299477948
 30
0.0
 10
9.19836894852574
 20
13.95026601808464
 30
0.0
 10
9.235961866882072
 20
13.89501164069078
 30
0.0
 10
9.160099111681891
 20
13.77048160830655
 30
0.0
 10
9.060256576044237
 20
13.61386593734914
 30
0.0
 10
8.968418057691165
 20
13.46895003217542
 30
0.0
 10
8.92209611352106
 20
13.39585666580588
 30
0.0
  0
SPLINE
  5
78
330
1F
100
AcDbEntity
  8
0
  6
Continuous
 62
     5
370
     0
100
AcDbSpline
210
0.0
220
0.0
230
1.0
 70
     8
 71
     3
 72
     9
 73
     5
 74
     0
 42
0.00000001
 43
0.00000001
 40
0.0
 40
0.0
 40
0.0
 40
0.0
 40
0.368888409207911
 40
1.0
 40
1.0
 40
1.0
 40
1.0
 10
8.42460275172176
 20
13.66560144314511
 30
0.0
 10
8.4264717287354
 20
13.65316252296081
 30
0.0
 10
8.431538239276222
 20
13.61944251475829
 30
0.0
 10
8.449881794437829
 20
13.59039871963892
 30
0.0
 10
8.461458624716652
 20
13.5720688438985
 30
0.0
  0
SPLINE
  5
79
330
1F
100
AcDbEntity
  8
0
  6
Continuous
 62
     5
370
     0
100
AcDbSpline
210
0.0
220
0.0
230
1.0
 70
     8
 71
     3
 72
    14
 73
    10
 74
     0
 42
0.00000001
 43
0.00000001
 40
0.0
 40
0.0
 40
0.0
 40
0.0
 40
0.1508200023313974
 40
0.384132584126462
 40
0.5826484773522234
 40
0.6736089187757428
 40
0.8220491929686414
 40
0.9350636646815955
 40
1.0
 40
1.0
 40
1.0
 40
1.0
 10
8.92209611352106
 20
13.39585666580588
 30
0.0
 10
8.81673783918308
 20
13.24589613203194
 30
0.0
 10
8.54839447918482
 20
12.86395258034713
 30
0.0
 10
8.214028895359457
 20
12.22908566760964
 30
0.0
 10
7.705593387144474
 20
11.8218864278738
 30
0.0
 10
7.461257964590366
 20
11.33778230311493
 30
0.0
 10
7.113798516489253
 20
11.07876230792458
 30
0.0
 10
6.845919583530112
 20
10.76625771507802
 30
0.0
 10
6.633589442430741
 20
10.70845784198803
 30
0.0
 10
6.556107685136979
 20
10.68736599080204
 30
0.0
  0
SPLINE
  5
7A
330
1F
100
AcDbEntity
  8
0
  6
Continuous
 62
     5
370
     0
100
AcDbSpline
210
0.0
220
0.0
230
1.0
 70
     8
 71
     3
 72
     9
 73
     5
 74
     0
 42
0.00000001
 43
0.00000001
 40
0.0
 40
0.0
 40
0.0
 40
0.0
 40
0.3982252393682514
 40
1.0
 40
1.0
 40
1.0
 40
1.0
 10
7.07533179650809
 20
10.77263422347708
 30
0.0
 10
7.011144072903421
 20
10.73855215219081
 30
0.0
 10
6.849959604268291
 20
10.65296724215262
 30
0.0
 10
6.666505646599851
 20
10.67444263900296
 30
0.0
 10
6.556107685136979
 20
10.68736599080204
 30
0.0
  0
SPLINE
  5
7B
330
1F
100
AcDbEntity
  8
0
  6
Continuous
 62
     5
370
     0
100
AcDbSpline
210
0.0
220
0.0
230
1.0
 70
     8
 71
     3
 72
    14
 73
    10
 74
     0
 42
0.00000001
 43
0.00000001
 40
0.0
 40
0.0
 40
0.0
 40
0.0
 40
0.0453456689850534
 40
0.0835734431337565
 40
0.201974288503646
 40
0.293619043878566
 40
0.5099820166803263
 40
0.7699340223983663
 40
1.0
 40
1.0
 40
1.0
 40
1.0
 10
7.07533179650809
 20
10.77263422347708
 30
0.0
 10
7.058899221274983
 20
10.73489190261374
 30
0.0
 10
7.028613486771032
 20
10.66533166065441
 30
0.0
 10
7.03084121216521
 20
10.47549245944903
 30
0.0
 10
6.817892772181668
 20
10.33280768011282
 30
0.0
 10
6.620544333177656
 20
10.00628877266348
 30
0.0
 10
6.180772032921816
 20
9.712917877438509
 30
0.0
 10
5.52595736695411
 20
9.528184257565728
 30
0.0
 10
5.119939275962627
 20
9.735823002478375
 30
0.0
 10
4.929311682266814
 20
9.833310467147891
 30
0.0
  0
SPLINE
  5
7C
330
1F
100
AcDbEntity
  8
0
  6
Continuous
 62
     5
370
     0
100
AcDbSpline
210
0.0
220
0.0
230
1.0
 70
     8
 71
     3
 72
    11
 73
     7
 74
     0
 42
0.00000001
 43
0.00000001
 40
0.0
 40
0.0
 40
0.0
 40
0.0
 40
0.1999242127836131
 40
0.4448829988638974
 40
0.7266956947753723
 40
1.0
 40
1.0
 40
1.0
 40
1.0
 10
6.326673830411767
 20
9.69804950445728
 30
0.0
 10
6.232334693789743
 20
9.661419308237548
 30
0.0
 10
6.02240575408666
 20
9.579907662817963
 30
0.0
 10
5.666480948400845
 20
9.481569507681861
 30
0.0
 10
5.238418787366635
 20
9.536757782956503
 30
0.0
 10
5.031289144640914
 20
9.73547483123037
 30
0.0
 10
4.929311682266816
 20
9.833310467147893
 30
0.0
  0
SPLINE
  5
7D
330
1F
100
AcDbEntity
  8
0
  6
Continuous
 62
     5
370
     0
100
AcDbSpline
210
0.0
220
0.0
230
1.0
 70
     8
 71
     3
 72
    13
 73
     9
 74
     0
 42
0.00000001
 43
0.00000001
 40
0.0
 40
0.0
 40
0.0
 40
0.0
 40
0.1184021349604962
 40
0.3612060322443923
 40
0.5519504413578988
 40
0.7066958101819825
 40
0.949847091429606
 40
1.0
 40
1.0
 40
1.0
 40
1.0
 10
6.326673830411767
 20
9.69804950445728
 30
0.0
 10
6.273253911008693
 20
9.629165895420922
 30
0.0
 10
6.110287279225933
 20
9.419024624615302
 30
0.0
 10
5.742033431021731
 20
9.233159766347159
 30
0.0
 10
5.352131074155304
 20
9.042403854719614
 30
0.0
 10
4.920174198556035
 20
9.013919647621481
 30
0.0
 10
4.577570305937736
 20
9.067249939597856
 30
0.0
 10
4.405022313004967
 20
9.19541252996425
 30
0.0
 10
4.375517846263693
 20
9.217327411851135
 30
0.0
  0
SPLINE
  5
7E
330
1F
100
AcDbEntity
  8
0
  6
Continuous
 62
     5
370
     0
100
AcDbSpline
210
0.0
220
0.0
230
1.0
 70
     8
 71
     3
 72
    12
 73
     8
 74
     0
 42
0.00000001
 43
0.00000001
 40
0.0
 40
0.0
 40
0.0
 40
0.0
 40
0.2195704508355042
 40
0.4924215367663382
 40
0.7063906367667904
 40
0.8659792584740367
 40
1.0
 40
1.0
 40
1.0
 40
1.0
 10
6.15803022026793
 20
9.325358464821091
 30
0.0
 10
6.035221444968026
 20
9.255326272215559
 30
0.0
 10
5.759803301809611
 20
9.098267980561513
 30
0.0
 10
5.327328092521463
 20
8.92735300348596
 30
0.0
 10
4.904103117174624
 20
8.934299931490571
 30
0.0
 10
4.580727741781852
 20
9.028250701211242
 30
0.0
 10
4.439831331352161
 20
9.158070122237442
 30
0.0
 10
4.375517846263693
 20
9.217327411851135
 30
0.0
  0
SPLINE
  5
7F
330
1F
100
AcDbEntity
  8
0
  6
Continuous
 62
     5
370
     0
100
AcDbSpline
210
0.0
220
0.0
230
1.0
 70
     8
 71
     3
 72
    11
 73
     7
 74
     0
 42
0.00000001
 43
0.00000001
 40
0.0
 40
0.0
 40
0.0
 40
0.0
 40
0.2736988025982128
 40
0.5958080545327215
 40
0.8351222196408599
 40
1.0
 40
1.0
 40
1.0
 40
1.0
 10
6.15803022026793
 20
9.325358464821091
 30
0.0
 10
6.035963715288362
 20
9.185651666424398
 30
0.0
 10
5.770240204023136
 20
8.881527443126568
 30
0.0
 10
5.270288689774797
 20
8.608149405011465
 30
0.0
 10
4.806939437902666
 20
8.433384664087104
 30
0.0
 10
4.533355601817559
 20
8.427746062240825
 30
0.0
 10
4.421755417445494
 20
8.42544596653835
 30
0.0
  0
SPLINE
  5
80
330
1F
100
AcDbEntity
  8
0
  6
Continuous
 62
     5
370
     0
100
AcDbSpline
210
0.0
220
0.0
230
1.0
 70
     8
 71
     3
 72
    11
 73
     7
 74
     0
 42
0.00000001
 43
0.00000001
 40
0.0
 40
0.0
 40
0.0
 40
0.0
 40
0.2781491940109161
 40
0.5236276907126963
 40
0.7781650749125878
 40
1.0
 40
1.0
 40
1.0
 40
1.0
 10
6.193401694285114
 20
9.084276925738084
 30
0.0
 10
6.053310640310553
 20
8.969737185570663
 30
0.0
 10
5.789583271467885
 20
8.754111251970638
 30
0.0
 10
5.336744378258811
 20
8.52305488075098
 30
0.0
 10
4.876213174853791
 20
8.404348390666287
 30
0.0
 10
4.566146076273812
 20
8.418742828941536
 30
0.0
 10
4.421755417445493
 20
8.42544596653835
 30
0.0
  0
SPLINE
  5
81
330
1F
100
AcDbEntity
  8
0
  6
Continuous
 62
     5
370
     0
100
AcDbSpline
210
0.0
220
0.0
230
1.0
 70
     8
 71
     3
 72
    11
 73
     7
 74
     0
 42
0.00000001
 43
0.00000001
 40
0.0
 40
0.0
 40
0.0
 40
0.0
 40
0.183990623821077
 40
0.4658749246191983
 40
0.7948397526098222
 40
1.0
 40
1.0
 40
1.0
 40
1.0
 10
6.193401694285114
 20
9.084276925738084
 30
0.0
 10
6.128863852877799
 20
8.991629506899226
 30
0.0
 10
5.965450297467734
 20
8.757040872047439
 30
0.0
 10
5.599091326049275
 20
8.431948880046104
 30
0.0
 10
5.202044805918455
 20
8.126791466098762
 30
0.0
 10
4.912475457119161
 20
7.974048378959757
 30
0.0
 10
4.801250349041392
 20
7.915378956779499
 30
0.0
  0
SPLINE
  5
82
330
1F
100
AcDbEntity
  8
0
  6
Continuous
 62
     5
370
     0
100
AcDbSpline
210
0.0
220
0.0
230
1.0
 70
     8
 71
     3
 72
    11
 73
     7
 74
     0
 42
0.00000001
 43
0.00000001
 40
0.0
 40
0.0
 40
0.0
 40
0.0
 40
0.3376502414163309
 40
0.5072041342173651
 40
0.7521663808653882
 40
1.0
 40
1.0
 40
1.0
 40
1.0
 10
6.259161327880681
 20
8.824462443584693
 30
0.0
 10
6.12339581787065
 20
8.681166625035598
 30
0.0
 10
5.919454521479544
 20
8.465913612689766
 30
0.0
 10
5.538974681294825
 20
8.250003767338391
 30
0.0
 10
5.212835589370195
 20
8.04417688347236
 30
0.0
 10
4.938977325580105
 20
7.958478046080397
 30
0.0
 10
4.801250349041392
 20
7.915378956779499
 30
0.0
  0
SPLINE
  5
83
330
1F
100
AcDbEntity
  8
0
  6
Continuous
 62
     5
370
     0
100
AcDbSpline
210
0.0
220
0.0
230
1.0
 70
     8
 71
     3
 72
    11
 73
     7
 74
     0
 42
0.00000001
 43
0.00000001
 40
0.0
 40
0.0
 40
0.0
 40
0.0
 40
0.1694719739211549
 40
0.409916074339322
 40
0.633913945532575
 40
1.0
 40
1.0
 40
1.0
 40
1.0
 10
6.259161327880681
 20
8.824462443584693
 30
0.0
 10
6.222060082727383
 20
8.745397233236911
 30
0.0
 10
6.132320189962478
 20
8.554155578981716
 30
0.0
 10
5.905602367396087
 20
8.316374423984382
 30
0.0
 10
5.621906163623535
 20
7.999529107899095
 30
0.0
 10
5.384675152636155
 20
7.810380568554637
 30
0.0
 10
5.237497842709518
 20
7.693033460006711
 30
0.0
  0
SPLINE
  5
84
330
1F
100
AcDbEntity
  8
0
  6
Continuous
 62
     5
370
     0
100
AcDbSpline
210
0.0
220
0.0
230
1.0
 70
     8
 71
     3
 72
    12
 73
     8
 74
     0
 42
0.00000001
 43
0.00000001
 40
0.0
 40
0.0
 40
0.0
 40
0.0
 40
0.0739730266077303
 40
0.1787101949408471
 40
0.4713732124891837
 40
0.7346471898250461
 40
1.0
 40
1.0
 40
1.0
 40
1.0
 10
6.467434324857723
 20
8.627447446444249
 30
0.0
 10
6.430516566620699
 20
8.613344909263215
 30
0.0
 10
6.341327573363689
 20
8.579274826094284
 30
0.0
 10
6.207941488721354
 20
8.360813422830391
 30
0.0
 10
5.974121381501869
 20
8.107869678623551
 30
0.0
 10
5.608006838231264
 20
7.877531036227322
 30
0.0
 10
5.361324202282683
 20
7.754693672011281
 30
0.0
 10
5.237497842709518
 20
7.693033460006711
 30
0.0
  0
SPLINE
  5
85
330
1F
100
AcDbEntity
  8
0
  6
Continuous
 62
     5
370
     0
100
AcDbSpline
210
0.0
220
0.0
230
1.0
 70
     8
 71
     3
 72
    12
 73
     8
 74
     0
 42
0.00000001
 43
0.00000001
 40
0.0
 40
0.0
 40
0.0
 40
0.0
 40
0.0668388868304865
 40
0.2623819404017922
 40
0.5488753654780133
 40
0.7335534547239471
 40
1.0
 40
1.0
 40
1.0
 40
1.0
 10
6.467434324857723
 20
8.627447446444249
 30
0.0
 10
6.463704946539936
 20
8.599356895036246
 30
0.0
 10
6.449064943303573
 20
8.48908496001613
 30
0.0
 10
6.297398034970586
 20
8.302245654207304
 30
0.0
 10
6.148000493035042
 20
8.070154783960733
 30
0.0
 10
5.952378117147082
 20
7.826724752185814
 30
0.0
 10
5.80251867457855
 20
7.709631189863189
 30
0.0
 10
5.714007589849847
 20
7.640472529999739
 30
0.0
  0
SPLINE
  5
86
330
1F
100
AcDbEntity
  8
0
  6
Continuous
 62
     5
370
     0
100
AcDbSpline
210
0.0
220
0.0
230
1.0
 70
     8
 71
     3
 72
    12
 73
     8
 74
     0
 42
0.00000001
 43
0.00000001
 40
0.0
 40
0.0
 40
0.0
 40
0.0
 40
0.1116129235783949
 40
0.2898064700779244
 40
0.4460187415591156
 40
0.6077514834140308
 40
1.0
 40
1.0
 40
1.0
 40
1.0
 10
6.714106745206487
 20
8.42544596653835
 30
0.0
 10
6.675910179151921
 20
8.39639145107138
 30
0.0
 10
6.576731592815574
 20
8.320950486912853
 30
0.0
 10
6.444801541201286
 20
8.180184334584483
 30
0.0
 10
6.337593031436602
 20
7.991036784798196
 30
0.0
 10
6.07205295282315
 20
7.827674070828017
 30
0.0
 10
5.862431118894656
 20
7.718074745265493
 30
0.0
 10
5.714007589849846
 20
7.640472529999737
 30
0.0
  0
SPLINE
  5
87
330
1F
100
AcDbEntity
  8
0
  6
Continuous
 62
     5
370
     0
100
AcDbSpline
210
0.0
220
0.0
230
1.0
 70
     8
 71
     3
 72
    10
 73
     6
 74
     0
 42
0.00000001
 43
0.00000001
 40
0.0
 40
0.0
 40
0.0
 40
0.0
 40
0.183082020310537
 40
0.643058181963663
 40
1.0
 40
1.0
 40
1.0
 40
1.0
 10
6.714106745206487
 20
8.42544596653835
 30
0.0
 10
6.716112737527333
 20
8.388627779258684
 30
0.0
 10
6.723158594748529
 20
8.259307398507476
 30
0.0
 10
6.618661280865418
 20
8.078249473554784
 30
0.0
 10
6.544502631468238
 20
7.934912737973142
 30
0.0
 10
6.512099962170874
 20
7.872283592499622
 30
0.0
  0
SPLINE
  5
88
330
1F
100
AcDbEntity
  8
0
  6
Continuous
 62
     5
370
     0
100
AcDbSpline
210
0.0
220
0.0
230
1.0
 70
     8
 71
     3
 72
    11
 73
     7
 74
     0
 42
0.00000001
 43
0.00000001
 40
0.0
 40
0.0
 40
0.0
 40
0.0
 40
0.1778660422099201
 40
0.4401906214007403
 40
0.7072414459463281
 40
1.0
 40
1.0
 40
1.0
 40
1.0
 10
7.025395886277758
 20
8.378956343392225
 30
0.0
 10
6.985788582960131
 20
8.358947765128038
 30
0.0
 10
6.887766705131326
 20
8.30942966493293
 30
0.0
 10
6.824152903320257
 20
8.1362114611163
 30
0.0
 10
6.658908707819024
 20
8.017628204858907
 30
0.0
 10
6.562511799694067
 20
7.922192669447179
 30
0.0
 10
6.512099962170872
 20
7.872283592499621
 30
0.0
  0
SPLINE
  5
89
330
1F
100
AcDbEntity
  8
0
  6
Continuous
 62
     5
370
     0
100
AcDbSpline
210
0.0
220
0.0
230
1.0
 70
     8
 71
     3
 72
     9
 73
     5
 74
     0
 42
0.00000001
 43
0.00000001
 40
0.0
 40
0.0
 40
0.0
 40
0.0
 40
0.2938531841840235
 40
1.0
 40
1.0
 40
1.0
 40
1.0
 10
10.98981444623413
 20
13.62650508144607
 30
0.0
 10
11.04569139963872
 20
13.61135727047833
 30
0.0
 10
11.23584402146499
 20
13.55980836176122
 30
0.0
 10
11.04647461868787
 20
13.40411542840573
 30
0.0
 10
10.91275201790384
 20
13.2941733592717
 30
0.0
  0
SPLINE
  5
8A
330
1F
100
AcDbEntity
  8
0
  6
Continuous
 62
     5
370
     0
100
AcDbSpline
210
0.0
220
0.0
230
1.0
 70
     8
 71
     3
 72
    12
 73
     8
 74
     0
 42
0.00000001
 43
0.00000001
 40
0.0
 40
0.0
 40
0.0
 40
0.0
 40
0.1842206928187715
 40
0.2646961347383132
 40
0.4237661582162286
 40
0.7805269732047615
 40
1.0
 40
1.0
 40
1.0
 40
1.0
 10
10.91275201790384
 20
13.2941733592717
 30
0.0
 10
10.98256003735077
 20
13.2749658374837
 30
0.0
 10
11.08286317180656
 20
13.24736765240799
 30
0.0
 10
11.15976486299117
 20
13.08337673521381
 30
0.0
 10
10.94634432650421
 20
12.91672415908477
 30
0.0
 10
10.71838063647815
 20
12.79192960264869
 30
0.0
 10
10.49914109821286
 20
12.77821507642287
 30
0.0
 10
10.41563825341756
 20
12.77299155714374
 30
0.0
  0
SPLINE
  5
8B
330
1F
100
AcDbEntity
  8
0
  6
Continuous
 62
     5
370
     0
100
AcDbSpline
210
0.0
220
0.0
230
1.0
 70
     8
 71
     3
 72
    12
 73
     8
 74
     0
 42
0.00000001
 43
0.00000001
 40
0.0
 40
0.0
 40
0.0
 40
0.0
 40
0.216138771060717
 40
0.445383521025108
 40
0.6177831334603473
 40
0.751295630914145
 40
1.0
 40
1.0
 40
1.0
 40
1.0
 10
10.41563825341756
 20
12.77299155714374
 30
0.0
 10
10.47931395160805
 20
12.7331705346645
 30
0.0
 10
10.61052644312281
 20
12.65111386747986
 30
0.0
 10
10.81638076563587
 20
12.63907137765478
 30
0.0
 10
11.00056763287593
 20
12.52235061238891
 30
0.0
 10
10.94000927814167
 20
12.30741236171777
 30
0.0
 10
10.81180287266979
 20
12.25931297219801
 30
0.0
 10
10.72838035530597
 20
12.22801522117978
 30
0.0
  0
SPLINE
  5
8C
330
1F
100
AcDbEntity
  8
0
  6
Continuous
 62
     5
370
     0
100
AcDbSpline
210
0.0
220
0.0
230
1.0
 70
     8
 71
     3
 72
     9
 73
     5
 74
     0
 42
0.00000001
 43
0.00000001
 40
0.0
 40
0.0
 40
0.0
 40
0.0
 40
0.4035697333114387
 40
1.0
 40
1.0
 40
1.0
 40
1.0
 10
10.72838035530597
 20
12.22801522117978
 30
0.0
 10
10.79543989771695
 20
12.1679092439149
 30
0.0
 10
10.96160583355345
 20
12.01897345338449
 30
0.0
 10
10.72810708475864
 20
11.94231932728402
 30
0.0
 10
10.5888413637435
 20
11.89660048641113
 30
0.0
  0
SPLINE
  5
8D
330
1F
100
AcDbEntity
  8
0
  6
Continuous
 62
     5
370
     0
100
AcDbSpline
210
0.0
220
0.0
230
1.0
 70
     8
 71
     3
 72
     9
 73
     5
 74
     0
 42
0.00000001
 43
0.00000001
 40
0.0
 40
0.0
 40
0.0
 40
0.0
 40
0.310587653534651
 40
1.0
 40
1.0
 40
1.0
 40
1.0
 10
10.5888413637435
 20
11.89660048641114
 30
0.0
 10
10.64000501172149
 20
11.84358454269948
 30
0.0
 10
10.80473676263212
 20
11.67288894965738
 30
0.0
 10
10.5212110631344
 20
11.618429678362
 30
0.0
 10
10.32574494536044
 20
11.58088478435146
 30
0.0
  0
SPLINE
  5
8E
330
1F
100
AcDbEntity
  8
0
  6
Continuous
 62
     5
370
     0
100
AcDbSpline
210
0.0
220
0.0
230
1.0
 70
     8
 71
     3
 72
     9
 73
     5
 74
     0
 42
0.00000001
 43
0.00000001
 40
0.0
 40
0.0
 40
0.0
 40
0.0
 40
0.4803360494332202
 40
1.0
 40
1.0
 40
1.0
 40
1.0
 10
10.32574494536044
 20
11.58088478435146
 30
0.0
 10
10.40446764361434
 20
11.49732348155659
 30
0.0
 10
10.56835852448159
 20
11.32335922696135
 30
0.0
 10
10.3362213300009
 20
11.24971095492313
 30
0.0
 10
10.21558799844357
 20
11.21143860292334
 30
0.0
  0
SPLINE
  5
8F
330
1F
100
AcDbEntity
  8
0
  6
Continuous
 62
     5
370
     0
100
AcDbSpline
210
0.0
220
0.0
230
1.0
 70
     8
 71
     3
 72
     9
 73
     5
 74
     0
 42
0.00000001
 43
0.00000001
 40
0.0
 40
0.0
 40
0.0
 40
0.0
 40
0.3298475999409025
 40
1.0
 40
1.0
 40
1.0
 40
1.0
 10
10.21558799844357
 20
11.21143860292334
 30
0.0
 10
10.24243999378425
 20
11.16466917161675
 30
0.0
 10
10.32384727201056
 20
11.02287814050124
 30
0.0
 10
10.14086545381907
 20
10.97597318602887
 30
0.0
 10
10.01823974919086
 20
10.94453971821455
 30
0.0
  0
SPLINE
  5
90
330
1F
100
AcDbEntity
  8
0
  6
Continuous
 62
     5
370
     0
100
AcDbSpline
210
0.0
220
0.0
230
1.0
 70
     8
 71
     3
 72
     9
 73
     5
 74
     0
 42
0.00000001
 43
0.00000001
 40
0.0
 40
0.0
 40
0.0
 40
0.0
 40
0.4486553859144671
 40
1.0
 40
1.0
 40
1.0
 40
1.0
 10
10.01823974919086
 20
10.94453971821455
 30
0.0
 10
10.01759648269963
 20
10.87957196102333
 30
0.0
 10
10.01616271747264
 20
10.73476648396704
 30
0.0
 10
9.870576987519526
 20
10.70421202641156
 30
0.0
 10
9.790309079422164
 20
10.68736599080204
 30
0.0
  0
SPLINE
  5
91
330
1F
100
AcDbEntity
  8
0
  6
Continuous
 62
     5
370
     0
100
AcDbSpline
210
0.0
220
0.0
230
1.0
 70
     8
 71
     3
 72
     9
 73
     5
 74
     0
 42
0.00000001
 43
0.00000001
 40
0.0
 40
0.0
 40
0.0
 40
0.0
 40
0.4991853488963285
 40
1.0
 40
1.0
 40
1.0
 40
1.0
 10
9.790309079422164
 20
10.68736599080204
 30
0.0
 10
9.793379505178885
 20
10.60017776425068
 30
0.0
 10
9.799530378323523
 20
10.42551673554837
 30
0.0
 10
9.625026821827984
 20
10.43688940134687
 30
0.0
 10
9.53763288406532
 20
10.44258499900086
 30
0.0
  0
SPLINE
  5
92
330
1F
100
AcDbEntity
  8
0
  6
Continuous
 62
     5
370
     0
100
AcDbSpline
210
0.0
220
0.0
230
1.0
 70
     8
 71
     3
 72
     9
 73
     5
 74
     0
 42
0.00000001
 43
0.00000001
 40
0.0
 40
0.0
 40
0.0
 40
0.0
 40
0.3909241240372194
 40
1.0
 40
1.0
 40
1.0
 40
1.0
 10
9.53763288406532
 20
10.44258499900086
 30
0.0
 10
9.535842673675145
 20
10.3713067119994
 30
0.0
 10
9.531263241810748
 20
10.18897391998505
 30
0.0
 10
9.338361020005614
 20
10.16668957703359
 30
0.0
 10
9.220868930284484
 20
10.15311672133018
 30
0.0
  0
SPLINE
  5
93
330
1F
100
AcDbEntity
  8
0
  6
Continuous
 62
     5
370
     0
100
AcDbSpline
210
0.0
220
0.0
230
1.0
 70
     8
 71
     3
 72
    10
 73
     6
 74
     0
 42
0.00000001
 43
0.00000001
 40
0.0
 40
0.0
 40
0.0
 40
0.0
 40
0.3196536346515343
 40
0.5780116535953199
 40
1.0
 40
1.0
 40
1.0
 40
1.0
 10
9.220868930284484
 20
10.15311672133018
 30
0.0
 10
9.243809227152681
 20
10.08999036727045
 30
0.0
 10
9.285290873188739
 20
9.975842538683182
 30
0.0
 10
9.084317910160395
 20
9.86711263452309
 30
0.0
 10
8.972366908231947
 20
9.938248602185993
 30
0.0
 10
8.902928721172719
 20
9.982371053473857
 30
0.0
  0
SPLINE
  5
94
330
1F
100
AcDbEntity
  8
0
  6
Continuous
 62
     5
370
     0
100
AcDbSpline
210
0.0
220
0.0
230
1.0
 70
     8
 71
     3
 72
    12
 73
     8
 74
     0
 42
0.00000001
 43
0.00000001
 40
0.0
 40
0.0
 40
0.0
 40
0.0
 40
0.1581670488769131
 40
0.3223398966776252
 40
0.5630964976679593
 40
0.7565220450402405
 40
1.0
 40
1.0
 40
1.0
 40
1.0
 10
8.902928721172719
 20
9.982371053473857
 30
0.0
 10
8.89725248398217
 20
9.9429412869065
 30
0.0
 10
8.885684475838175
 20
9.862584556654575
 30
0.0
 10
8.941319484255835
 20
9.739380828686013
 30
0.0
 10
8.895649727133714
 20
9.541716639959436
 30
0.0
 10
8.699825479480909
 20
9.601292787115058
 30
0.0
 10
8.618114525195741
 20
9.663424622467002
 30
0.0
 10
8.572578575172521
 20
9.69804950445728
 30
0.0
  0
SPLINE
  5
95
330
1F
100
AcDbEntity
  8
0
  6
Continuous
 62
     5
370
     0
100
AcDbSpline
210
0.0
220
0.0
230
1.0
 70
     8
 71
     3
 72
    11
 73
     7
 74
     0
 42
0.00000001
 43
0.00000001
 40
0.0
 40
0.0
 40
0.0
 40
0.0
 40
0.3548478291492452
 40
0.7090454810131118
 40
0.7708439697398194
 40
1.0
 40
1.0
 40
1.0
 40
1.0
 10
8.572578575172521
 20
9.69804950445728
 30
0.0
 10
8.592123660638181
 20
9.629415836785356
 30
0.0
 10
8.631178019681792
 20
9.492274256900794
 30
0.0
 10
8.523032022378603
 20
9.324221457674465
 30
0.0
 10
8.388556255539374
 20
9.322372195186608
 30
0.0
 10
8.353676339653921
 20
9.37709945145922
 30
0.0
 10
8.326204887799692
 20
9.420202685731475
 30
0.0
  0
SPLINE
  5
96
330
1F
100
AcDbEntity
  8
0
  6
Continuous
 62
     5
370
     0
100
AcDbSpline
210
0.0
220
0.0
230
1.0
 70
     8
 71
     3
 72
    12
 73
     8
 74
     0
 42
0.00000001
 43
0.00000001
 40
0.0
 40
0.0
 40
0.0
 40
0.0
 40
0.1005560050865329
 40
0.2554488635038434
 40
0.5856114685854678
 40
0.7310082089619759
 40
1.0
 40
1.0
 40
1.0
 40
1.0
 10
8.32620488779969
 20
9.420202685731475
 30
0.0
 10
8.307718399097396
 20
9.416527141138037
 30
0.0
 10
8.260755987204504
 20
9.407189919672808
 30
0.0
 10
8.27024307034912
 20
9.287915003168502
 30
0.0
 10
8.272622056212985
 20
9.181752370789498
 30
0.0
 10
8.148147558305226
 20
9.093590355476152
 30
0.0
 10
8.10307894896446
 20
9.168622098984317
 30
0.0
 10
8.073823588289342
 20
9.217327411851137
 30
0.0
  0
SPLINE
  5
97
330
1F
100
AcDbEntity
  8
0
  6
Continuous
 62
     5
370
     0
100
AcDbSpline
210
0.0
220
0.0
230
1.0
 70
     8
 71
     3
 72
    12
 73
     8
 74
     0
 42
0.00000001
 43
0.00000001
 40
0.0
 40
0.0
 40
0.0
 40
0.0
 40
0.237235532319111
 40
0.4308330438800775
 40
0.7660373457644986
 40
0.874768626759442
 40
1.0
 40
1.0
 40
1.0
 40
1.0
 10
8.073823588289342
 20
9.217327411851137
 30
0.0
 10
8.051742777464657
 20
9.174099870849789
 30
0.0
 10
8.011642785503321
 20
9.095596229818435
 30
0.0
 10
8.015438005030317
 20
8.936264405369107
 30
0.0
 10
7.882501015503083
 20
8.834359259442415
 30
0.0
 10
7.759505691797913
 20
8.867495595062001
 30
0.0
 10
7.745732777746873
 20
8.9162930451606
 30
0.0
 10
7.738360656987807
 20
8.942412477368505
 30
0.0
  0
SPLINE
  5
98
330
1F
100
AcDbEntity
  8
0
  6
Continuous
 62
     5
370
     0
100
AcDbSpline
210
0.0
220
0.0
230
1.0
 70
     8
 71
     3
 72
     9
 73
     5
 74
     0
 42
0.00000001
 43
0.00000001
 40
0.0
 40
0.0
 40
0.0
 40
0.0
 40
0.4979645663570522
 40
1.0
 40
1.0
 40
1.0
 40
1.0
 10
7.738360656987807
 20
8.942412477368505
 30
0.0
 10
7.748737035053854
 20
9.005629515896766
 30
0.0
 10
7.769574618221582
 20
9.132580393126315
 30
0.0
 10
7.760652212071206
 20
9.260924949703934
 30
0.0
 10
7.756172848030364
 20
9.32535846482109
 30
0.0
  0
SPLINE
  5
99
330
1F
100
AcDbEntity
  8
0
  6
Continuous
 62
     5
370
     0
100
AcDbSpline
210
0.0
220
0.0
230
1.0
 70
    24
 71
     3
 72
     8
 73
     4
 74
     0
 42
0.00000001
 43
0.00000001
 40
0.0
 40
0.0
 40
0.0
 40
0.0
 40
1.0
 40
1.0
 40
1.0
 40
1.0
 10
7.658205797296289
 20
9.325358464821091
 30
0.0
 10
7.654714816930031
 20
9.269502678278338
 30
0.0
 10
7.651223836563775
 20
9.213646891735587
 30
0.0
 10
7.647732856197517
 20
9.157791105192835
 30
0.0
  0
SPLINE
  5
9A
330
1F
100
AcDbEntity
  8
0
  6
Continuous
 62
     5
370
     0
100
AcDbSpline
210
0.0
220
0.0
230
1.0
 70
     8
 71
     3
 72
    13
 73
     9
 74
     0
 42
0.00000001
 43
0.00000001
 40
0.0
 40
0.0
 40
0.0
 40
0.0
 40
0.2341347749722392
 40
0.4196107908349518
 40
0.6498826175052833
 40
0.8543574265823504
 40
0.9266189403988084
 40
1.0
 40
1.0
 40
1.0
 40
1.0
 10
7.647732856197517
 20
9.157791105192835
 30
0.0
 10
7.656799044882018
 20
9.094040651059402
 30
0.0
 10
7.673047253223611
 20
8.979788599102616
 30
0.0
 10
7.614220947516597
 20
8.813567448936908
 30
0.0
 10
7.54694358564752
 20
8.650716403444196
 30
0.0
 10
7.465213729907014
 20
8.56701069391165
 30
0.0
 10
7.363253368944226
 20
8.486765159770371
 30
0.0
 10
7.35783415317098
 20
8.53857734181831
 30
0.0
 10
7.355103716689967
 20
8.564682571420542
 30
0.0
  0
SPLINE
  5
9B
330
1F
100
AcDbEntity
  8
0
  6
Continuous
 62
     5
370
     0
100
AcDbSpline
210
0.0
220
0.0
230
1.0
 70
     8
 71
     3
 72
     9
 73
     5
 74
     0
 42
0.00000001
 43
0.00000001
 40
0.0
 40
0.0
 40
0.0
 40
0.0
 40
0.576710428572161
 40
1.0
 40
1.0
 40
1.0
 40
1.0
 10
7.355103716689968
 20
8.564682571420542
 30
0.0
 10
7.350920078292104
 20
8.596938598622689
 30
0.0
 10
7.343665764531519
 20
8.652869661430078
 30
0.0
 10
7.321510232840528
 20
8.606564626512744
 30
0.0
 10
7.312132027326292
 20
8.586964188127634
 30
0.0
  0
SPLINE
  5
9C
330
1F
100
AcDbEntity
  8
0
  6
Continuous
 62
     5
370
     0
100
AcDbSpline
210
0.0
220
0.0
230
1.0
 70
     8
 71
     3
 72
    12
 73
     8
 74
     0
 42
0.00000001
 43
0.00000001
 40
0.0
 40
0.0
 40
0.0
 40
0.0
 40
0.319794421190935
 40
0.5574012017963915
 40
0.774789179936114
 40
0.8498825724722062
 40
1.0
 40
1.0
 40
1.0
 40
1.0
 10
7.312132027326292
 20
8.586964188127634
 30
0.0
 10
7.29419740373744
 20
8.524998469226649
 30
0.0
 10
7.262937381423842
 20
8.416992313093727
 30
0.0
 10
7.137531599127064
 20
8.369813004164
 30
0.0
 10
7.063707859986637
 20
8.223404579005404
 30
0.0
 10
7.013148308608558
 20
8.310974171718371
 30
0.0
 10
7.020497307860214
 20
8.35176598723088
 30
0.0
 10
7.025395886277758
 20
8.378956343392225
 30
0.0
  0
SPLINE
  5
9D
330
1F
100
AcDbEntity
  8
0
  6
Continuous
 62
     5
370
     0
100
AcDbSpline
210
0.0
220
0.0
230
1.0
 70
     8
 71
     3
 72
    10
 73
     6
 74
     0
 42
0.00000001
 43
0.00000001
 40
0.0
 40
0.0
 40
0.0
 40
0.0
 40
0.3004361732829625
 40
0.626818522005221
 40
1.0
 40
1.0
 40
1.0
 40
1.0
 10
10.98981444623413
 20
13.62650508144607
 30
0.0
 10
11.01292529011108
 20
13.64321980233719
 30
0.0
 10
11.0611428693824
 20
13.67809275565108
 30
0.0
 10
11.15649397769995
 20
13.65700678673121
 30
0.0
 10
11.21750630845406
 20
13.67720710978717
 30
0.0
 10
11.25005326256628
 20
13.68798294771089
 30
0.0
  0
SPLINE
  5
9E
330
1F
100
AcDbEntity
  8
0
  6
Continuous
 62
     5
370
     0
100
AcDbSpline
210
0.0
220
0.0
230
1.0
 70
     8
 71
     3
 72
    15
 73
    11
 74
     0
 42
0.00000001
 43
0.00000001
 40
0.0
 40
0.0
 40
0.0
 40
0.0
 40
0.1913352267009285
 40
0.3630485855020619
 40
0.5058909828944687
 40
0.6195984229481044
 40
0.7404948713729573
 40
0.7971862909829257
 40
0.8842366657140371
 40
1.0
 40
1.0
 40
1.0
 40
1.0
 10
11.25005326256628
 20
13.68798294771089
 30
0.0
 10
11.29686379467045
 20
13.56987773274806
 30
0.0
 10
11.38568433106639
 20
13.34577926446289
 30
0.0
 10
11.49178993026817
 20
13.02521414746381
 30
0.0
 10
11.51288517965199
 20
12.73788288428721
 30
0.0
 10
11.60931284368704
 20
12.50564034158329
 30
0.0
 10
11.5855894849966
 20
12.29277872216848
 30
0.0
 10
11.74560165169989
 20
12.16906967295254
 30
0.0
 10
11.92568798448044
 20
12.27101473090096
 30
0.0
 10
11.98148481555416
 20
12.39300041485488
 30
0.0
 10
12.01333289544475
 20
12.462628200758
 30
0.0
  0
SPLINE
  5
9F
330
1F
100
AcDbEntity
  8
0
  6
Continuous
 62
     5
370
     0
100
AcDbSpline
210
0.0
220
0.0
230
1.0
 70
     8
 71
     3
 72
    16
 73
    12
 74
     0
 42
0.00000001
 43
0.00000001
 40
0.0
 40
0.0
 40
0.0
 40
0.0
 40
0.2276913520093818
 40
0.4240411071186778
 40
0.5974643093338011
 40
0.6974801966218573
 40
0.7381263138749329
 40
0.7851685889481794
 40
0.8290387772379444
 40
0.9098631127093224
 40
1.0
 40
1.0
 40
1.0
 40
1.0
 10
12.37002961565715
 20
15.57298033611126
 30
0.0
 10
12.50335077059654
 20
15.63608582606822
 30
0.0
 10
12.75164149241767
 20
15.75361036791166
 30
0.0
 10
13.07458243677376
 20
15.97144658308581
 30
0.0
 10
13.31486754487624
 20
16.1495991677618
 30
0.0
 10
13.43867288578313
 20
16.33537264317592
 30
0.0
 10
13.56208407436523
 20
16.35040586350552
 30
0.0
 10
13.65616595083493
 20
16.32839731230418
 30
0.0
 10
13.68475891130961
 20
16.20660464904569
 30
0.0
 10
13.6405217244355
 20
16.07242055311395
 30
0.0
 10
13.57984462715267
 20
15.97949150716679
 30
0.0
 10
13.54785348559117
 20
15.93049598171815
 30
0.0
  0
SPLINE
  5
A0
330
1F
100
AcDbEntity
  8
0
  6
Continuous
 62
     5
370
     0
100
AcDbSpline
210
0.0
220
0.0
230
1.0
 70
     8
 71
     3
 72
    14
 73
    10
 74
     0
 42
0.00000001
 43
0.00000001
 40
0.0
 40
0.0
 40
0.0
 40
0.0
 40
0.1235976641312998
 40
0.1977166094064461
 40
0.2433063122966013
 40
0.3414986332781514
 40
0.5338227270821488
 40
0.7697532865215921
 40
1.0
 40
1.0
 40
1.0
 40
1.0
 10
13.86205145680202
 20
15.93049598171815
 30
0.0
 10
13.89394979033624
 20
15.92646287632047
 30
0.0
 10
13.94497689021252
 20
15.92001120160466
 30
0.0
 10
13.91638681293936
 20
15.85463325090638
 30
0.0
 10
13.96529283395003
 20
15.84005246754458
 30
0.0
 10
13.99303316661733
 20
15.77135074081887
 30
0.0
 10
13.95262005272481
 20
15.66812567481746
 30
0.0
 10
13.86751527083953
 20
15.5682606945196
 30
0.0
 10
13.7888025274955
 20
15.51935447888447
 30
0.0
 10
13.74992600665956
 20
15.49519951451185
 30
0.0
  0
SPLINE
  5
A1
330
1F
100
AcDbEntity
  8
0
  6
Continuous
 62
     5
370
     0
100
AcDbSpline
210
0.0
220
0.0
230
1.0
 70
     8
 71
     3
 72
    19
 73
    15
 74
     0
 42
0.00000001
 43
0.00000001
 40
0.0
 40
0.0
 40
0.0
 40
0.0
 40
0.2886629765634607
 40
0.3394963978913409
 40
0.3678639377716496
 40
0.4368928611391155
 40
0.5146429427641778
 40
0.5840001435877376
 40
0.6229875980095481
 40
0.6599743448530269
 40
0.7545328111207222
 40
0.8582171291807144
 40
0.9398233605551627
 40
1.0
 40
1.0
 40
1.0
 40
1.0
 10
13.74992600665956
 20
15.49519951451185
 30
0.0
 10
13.83569000514848
 20
15.5004437341134
 30
0.0
 10
13.93655700549046
 20
15.50661145844602
 30
0.0
 10
14.06383435555596
 20
15.47356606105838
 30
0.0
 10
14.06734674410109
 20
15.41728562044203
 30
0.0
 10
14.13687335351243
 20
15.44069320902231
 30
0.0
 10
14.22441070328328
 20
15.41534587055608
 30
0.0
 10
14.1769176673033
 20
15.34417206226251
 30
0.0
 10
14.21556263510533
 20
15.31051060503549
 30
0.0
 10
14.22469969380595
 20
15.25820651792565
 30
0.0
 10
14.20578953236565
 20
15.16750025430569
 30
0.0
 10
14.09506867866889
 20
15.18537047258977
 30
0.0
 10
14.05077307215672
 20
15.11382882134168
 30
0.0
 10
14.00901962316203
 20
15.09765356685825
 30
0.0
 10
13.99129828467302
 20
15.09078833376377
 30
0.0
  0
SPLINE
  5
A2
330
1F
100
AcDbEntity
  8
0
  6
Continuous
 62
     5
370
     0
100
AcDbSpline
210
0.0
220
0.0
230
1.0
 70
     8
 71
     3
 72
    18
 73
    14
 74
     0
 42
0.00000001
 43
0.00000001
 40
0.0
 40
0.0
 40
0.0
 40
0.0
 40
0.1219094126271388
 40
0.273967348338033
 40
0.4074209240472044
 40
0.4625840252943721
 40
0.4951122863481971
 40
0.5719777552260886
 40
0.6167890236430923
 40
0.6792410094295916
 40
0.7712867882891308
 40
0.9665354827589787
 40
1.0
 40
1.0
 40
1.0
 40
1.0
 10
13.99129828467302
 20
15.09078833376377
 30
0.0
 10
14.02719955636615
 20
15.0663481835942
 30
0.0
 10
14.10788058005225
 20
15.01142376889441
 30
0.0
 10
14.22648600366269
 20
15.04010156920081
 30
0.0
 10
14.40571101640954
 20
14.96645011646279
 30
0.0
 10
14.33116163522494
 20
14.91602830512145
 30
0.0
 10
14.30209639124655
 20
14.85795317727684
 30
0.0
 10
14.4024908765273
 20
14.83897233608282
 30
0.0
 10
14.34490288217564
 20
14.78045591244854
 30
0.0
 10
14.32308329598915
 20
14.72164422906511
 30
0.0
 10
14.20723399157904
 20
14.66094130881947
 30
0.0
 10
14.08298904358834
 20
14.71319754478916
 30
0.0
 10
14.02735584146044
 20
14.65779772266856
 30
0.0
 10
14.01921578589541
 20
14.64969181444999
 30
0.0
  0
SPLINE
  5
A3
330
1F
100
AcDbEntity
  8
0
  6
Continuous
 62
     5
370
     0
100
AcDbSpline
210
0.0
220
0.0
230
1.0
 70
     8
 71
     3
 72
    27
 73
    23
 74
     0
 42
0.00000001
 43
0.00000001
 40
0.0
 40
0.0
 40
0.0
 40
0.0
 40
0.0394555028769541
 40
0.0703856723445552
 40
0.1674445357495007
 40
0.2313781650145709
 40
0.2704228045306462
 40
0.2911601564454915
 40
0.3160881441223172
 40
0.3756336004377152
 40
0.3933516016805553
 40
0.4348263055102458
 40
0.4823189162459006
 40
0.5674810375046083
 40
0.6144043084256934
 40
0.6943816438519278
 40
0.7591446983385456
 40
0.7886180131193619
 40
0.8093553650342071
 40
0.8653584856382526
 40
0.9383434201593147
 40
1.0
 40
1.0
 40
1.0
 40
1.0
 10
14.01921578589541
 20
14.64969181444999
 30
0.0
 10
14.03580482713249
 20
14.62685683251484
 30
0.0
 10
14.06539843856523
 20
14.58612092904673
 30
0.0
 10
14.18173890462922
 20
14.62740456973374
 30
0.0
 10
14.26065147119991
 20
14.51869665635963
 30
0.0
 10
14.42535413079062
 20
14.4783358278487
 30
0.0
 10
14.37217155210294
 20
14.37661236050153
 30
0.0
 10
14.30228597570835
 20
14.3923588059489
 30
0.0
 10
14.32048463986257
 20
14.30135532512753
 30
0.0
 10
14.34711515285374
 20
14.25360943936699
 30
0.0
 10
14.3176889562908
 20
14.1683442055332
 30
0.0
 10
14.23388583808841
 20
14.22130231244292
 30
0.0
 10
14.13261332994924
 20
14.16991693691791
 30
0.0
 10
14.01442230769139
 20
14.20162533387646
 30
0.0
 10
13.88274243399948
 20
14.19678345722356
 30
0.0
 10
13.74931355599089
 20
14.19119373666145
 30
0.0
 10
13.6722012206819
 20
14.24545685769138
 30
0.0
 10
13.56286061317718
 20
14.25861614605227
 30
0.0
 10
13.60653319384416
 20
14.16321397447185
 30
0.0
 10
13.44553141094381
 20
14.24573203587758
 30
0.0
 10
13.37387729472021
 20
14.30812104121768
 30
0.0
 10
13.28226818944113
 20
14.29538725121635
 30
0.0
 10
13.24031750179068
 20
14.28955604868113
 30
0.0
  0
SPLINE
  5
A4
330
1F
100
AcDbEntity
  8
0
  6
Continuous
 62
     5
370
     0
100
AcDbSpline
210
0.0
220
0.0
230
1.0
 70
     8
 71
     3
 72
    16
 73
    12
 74
     0
 42
0.00000001
 43
0.00000001
 40
0.0
 40
0.0
 40
0.0
 40
0.0
 40
0.1261736295503707
 40
0.236303971377158
 40
0.2844099125438557
 40
0.4907355482135026
 40
0.5933549756091729
 40
0.751834907613762
 40
0.8146449643455221
 40
0.9065859221021931
 40
1.0
 40
1.0
 40
1.0
 40
1.0
 10
13.24031750179068
 20
14.28955604868113
 30
0.0
 10
13.28069928083522
 20
14.26816880180784
 30
0.0
 10
13.35632819627105
 20
14.22811374917129
 30
0.0
 10
13.41307428094871
 20
14.13734813328174
 30
0.0
 10
13.53164091833834
 20
14.08098827911205
 30
0.0
 10
13.67196901992195
 20
14.0601748069672
 30
0.0
 10
13.74571154446746
 20
13.88648139973064
 30
0.0
 10
13.90143416808291
 20
13.91526769043645
 30
0.0
 10
13.95400894257684
 20
13.80774198819623
 30
0.0
 10
14.01820675484938
 20
13.74674446897302
 30
0.0
 10
14.07180613601631
 20
13.7076736274086
 30
0.0
 10
14.09881881873045
 20
13.68798294771089
 30
0.0
  0
SPLINE
  5
A5
330
1F
100
AcDbEntity
  8
0
  6
Continuous
 62
     5
370
     0
100
AcDbSpline
210
0.0
220
0.0
230
1.0
 70
     8
 71
     3
 72
    30
 73
    26
 74
     0
 42
0.00000001
 43
0.00000001
 40
0.0
 40
0.0
 40
0.0
 40
0.0
 40
0.0219510208869986
 40
0.0450510180334707
 40
0.0946401616724423
 40
0.1391899549865849
 40
0.1645511554956995
 40
0.1874791350340892
 40
0.2630910802555843
 40
0.3322717823946456
 40
0.3527371092553485
 40
0.3815005177049725
 40
0.4026836614294695
 40
0.4596217079359405
 40
0.5428516563191222
 40
0.5942977018345381
 40
0.6286277073519018
 40
0.6870817270311793
 40
0.7617878653350022
 40
0.7795460500257158
 40
0.8214731155690203
 40
0.8773085349508704
 40
0.934164131392554
 40
0.9750664898938235
 40
1.0
 40
1.0
 40
1.0
 40
1.0
 10
14.13367263647658
 20
13.65417944994588
 30
0.0
 10
14.14713725565202
 20
13.64597148669428
 30
0.0
 10
14.17477126886761
 20
13.62912593302416
 30
0.0
 10
14.1351196544065
 20
13.56674569981496
 30
0.0
 10
14.04338686486505
 20
13.56257309314865
 30
0.0
 10
14.06976738292997
 20
13.46267421789789
 30
0.0
 10
14.01744998284547
 20
13.43140548402503
 30
0.0
 10
13.97680909252571
 20
13.36020514711907
 30
0.0
 10
13.83402667681206
 20
13.43285306850664
 30
0.0
 10
13.83354781355662
 20
13.55153690726007
 30
0.0
 10
13.73124027448676
 20
13.55519906857777
 30
0.0
 10
13.76571178354381
 20
13.49206286257081
 30
0.0
 10
13.69223238496215
 20
13.45380490240374
 30
0.0
 10
13.61426993666445
 20
13.54575974314539
 30
0.0
 10
13.49113876931737
 20
13.53625188869487
 30
0.0
 10
13.41567285330035
 20
13.65073298413509
 30
0.0
 10
13.33007857426763
 20
13.58098836652172
 30
0.0
 10
13.2395951734296
 20
13.63238110240412
 30
0.0
 10
13.11067383422444
 20
13.6734590201563
 30
0.0
 10
13.08715354584599
 20
13.57098049549746
 30
0.0
 10
13.19978146787448
 20
13.59083490260397
 30
0.0
 10
13.22154381292584
 20
13.47659617851274
 30
0.0
 10
13.21924350504412
 20
13.37937573927467
 30
0.0
 10
13.14380967865234
 20
13.33162621262446
 30
0.0
 10
13.14965787804305
 20
13.28917042431072
 30
0.0
 10
13.1518727214361
 20
13.27309147146363
 30
0.0
  0
SPLINE
  5
A6
330
1F
100
AcDbEntity
  8
0
  6
Continuous
 62
     5
370
     0
100
AcDbSpline
210
0.0
220
0.0
230
1.0
 70
     8
 71
     3
 72
    10
 73
     6
 74
     0
 42
0.00000001
 43
0.00000001
 40
0.0
 40
0.0
 40
0.0
 40
0.0
 40
0.4275370154975346
 40
0.6632113784579243
 40
1.0
 40
1.0
 40
1.0
 40
1.0
 10
12.01333289544475
 20
12.462628200758
 30
0.0
 10
12.09480913078546
 20
12.37048472129738
 30
0.0
 10
12.22119810856551
 20
12.22754831622875
 30
0.0
 10
12.51112805421356
 20
12.34393739073076
 30
0.0
 10
12.50064822910446
 20
12.50773487109762
 30
0.0
 10
12.4944827896821
 20
12.60409940316036
 30
0.0
  0
SPLINE
  5
A7
330
1F
100
AcDbEntity
  8
0
  6
Continuous
 62
     5
370
     0
100
AcDbSpline
210
0.0
220
0.0
230
1.0
 70
     8
 71
     3
 72
    12
 73
     8
 74
     0
 42
0.00000001
 43
0.00000001
 40
0.0
 40
0.0
 40
0.0
 40
0.0
 40
0.3671258875452106
 40
0.5500369836450457
 40
0.7209100199228411
 40
0.7932567818695626
 40
1.0
 40
1.0
 40
1.0
 40
1.0
 10
12.4944827896821
 20
12.60409940316036
 30
0.0
 10
12.57418107265813
 20
12.5202862902392
 30
0.0
 10
12.69358698942128
 20
12.39471543461443
 30
0.0
 10
12.88780085274342
 20
12.45838521549918
 30
0.0
 10
13.02230267618014
 20
12.51034902274959
 30
0.0
 10
13.01103029171983
 20
12.64550036131066
 30
0.0
 10
12.97584863832237
 20
12.71394787232915
 30
0.0
 10
12.94978690640161
 20
12.76465216023324
 30
0.0
  0
SPLINE
  5
A8
330
1F
100
AcDbEntity
  8
0
  6
Continuous
 62
     5
370
     0
100
AcDbSpline
210
0.0
220
0.0
230
1.0
 70
     8
 71
     3
 72
    15
 73
    11
 74
     0
 42
0.00000001
 43
0.00000001
 40
0.0
 40
0.0
 40
0.0
 40
0.0
 40
0.0592085530602652
 40
0.221007791694205
 40
0.4517595501449554
 40
0.5008342754422905
 40
0.6611206736609564
 40
0.7807908053802602
 40
0.8929424168693997
 40
1.0
 40
1.0
 40
1.0
 40
1.0
 10
11.84213227926013
 20
15.81651685719948
 30
0.0
 10
11.84964048101332
 20
15.80764568053418
 30
0.0
 10
11.87766634895473
 20
15.77453223554704
 30
0.0
 10
11.94955658838848
 20
15.73432146246092
 30
0.0
 10
12.06240834550952
 20
15.6976604088948
 30
0.0
 10
12.04300034177238
 20
15.60736979354108
 30
0.0
 10
11.98013432384348
 20
15.5722513758036
 30
0.0
 10
11.909435713166
 20
15.5520377766961
 30
0.0
 10
11.83754394454904
 20
15.55145689970451
 30
0.0
 10
11.81269744287061
 20
15.51365919261178
 30
0.0
 10
11.80056288609
 20
15.49519951451185
 30
0.0
  0
SPLINE
  5
A9
330
1F
100
AcDbEntity
  8
0
  6
Continuous
 62
     5
370
     0
100
AcDbSpline
210
0.0
220
0.0
230
1.0
 70
     8
 71
     3
 72
    17
 73
    13
 74
     0
 42
0.00000001
 43
0.00000001
 40
0.0
 40
0.0
 40
0.0
 40
0.0
 40
0.0658412422576456
 40
0.1213514278189864
 40
0.1625185896244971
 40
0.2393214775066336
 40
0.2692960166794415
 40
0.4210360022243277
 40
0.5373273321197477
 40
0.778977822530821
 40
0.8605818166980919
 40
1.0
 40
1.0
 40
1.0
 40
1.0
 10
11.84213227926013
 20
15.81651685719948
 30
0.0
 10
11.87488518407486
 20
15.81884455709601
 30
0.0
 10
11.93525178148706
 20
15.82313472077295
 30
0.0
 10
12.03712426753085
 20
15.82139497099968
 30
0.0
 10
12.05490009575518
 20
15.93471651588772
 30
0.0
 10
12.1721101281252
 20
15.89752713132582
 30
0.0
 10
12.22607151224762
 20
16.04191181108382
 30
0.0
 10
12.43726755649208
 20
15.93851841138308
 30
0.0
 10
12.66779766111688
 20
16.07345934792582
 30
0.0
 10
12.87968274030598
 20
16.16975313905805
 30
0.0
 10
12.99994466103461
 20
16.41938117106926
 30
0.0
 10
12.88590299505683
 20
16.49512739676648
 30
0.0
 10
12.81396685691267
 20
16.54290722275319
 30
0.0
  0
SPLINE
  5
AA
330
1F
100
AcDbEntity
  8
0
  6
Continuous
 62
     5
370
     0
100
AcDbSpline
210
0.0
220
0.0
230
1.0
 70
     8
 71
     3
 72
    10
 73
     6
 74
     0
 42
0.00000001
 43
0.00000001
 40
0.0
 40
0.0
 40
0.0
 40
0.0
 40
0.3879289839231785
 40
0.6361972431985751
 40
1.0
 40
1.0
 40
1.0
 40
1.0
 10
12.81396685691268
 20
16.54290722275319
 30
0.0
 10
12.88309587420117
 20
16.53910698136045
 30
0.0
 10
12.99646634159753
 20
16.53287464709891
 30
0.0
 10
13.16346740416578
 20
16.70106046264745
 30
0.0
 10
13.02944634220346
 20
16.75691176175321
 30
0.0
 10
12.94978690640161
 20
16.79010865566243
 30
0.0
  0
SPLINE
  5
AB
330
1F
100
AcDbEntity
  8
0
  6
Continuous
 62
     5
370
     0
100
AcDbSpline
210
0.0
220
0.0
230
1.0
 70
    24
 71
     3
 72
     8
 73
     4
 74
     0
 42
0.00000001
 43
0.00000001
 40
0.0
 40
0.0
 40
0.0
 40
0.0
 40
1.0
 40
1.0
 40
1.0
 40
1.0
 10
12.94978690640161
 20
16.79010865566242
 30
0.0
 10
12.95741442367565
 20
16.78691480792685
 30
0.0
 10
12.96504194094968
 20
16.78372096019127
 30
0.0
 10
12.97266945822372
 20
16.7805271124557
 30
0.0
  0
SPLINE
  5
AC
330
1F
100
AcDbEntity
  8
0
  6
Continuous
 62
     5
370
     0
100
AcDbSpline
210
0.0
220
0.0
230
1.0
 70
     8
 71
     3
 72
    11
 73
     7
 74
     0
 42
0.00000001
 43
0.00000001
 40
0.0
 40
0.0
 40
0.0
 40
0.0
 40
0.409738214467893
 40
0.621706724868593
 40
0.7633041324327906
 40
1.0
 40
1.0
 40
1.0
 40
1.0
 10
12.94978690640161
 20
16.79010865566242
 30
0.0
 10
13.01057461371188
 20
16.78983854988912
 30
0.0
 10
13.10280942386551
 20
16.7894287111927
 30
0.0
 10
13.2718001805909
 20
16.85563404865701
 30
0.0
 10
13.18388231569046
 20
16.94461488523532
 30
0.0
 10
13.13554794756126
 20
16.97714217227207
 30
0.0
 10
13.10530541894725
 20
16.99749430362333
 30
0.0
  0
SPLINE
  5
AD
330
1F
100
AcDbEntity
  8
0
  6
Continuous
 62
     5
370
     0
100
AcDbSpline
210
0.0
220
0.0
230
1.0
 70
     8
 71
     3
 72
    11
 73
     7
 74
     0
 42
0.00000001
 43
0.00000001
 40
0.0
 40
0.0
 40
0.0
 40
0.0
 40
0.4130997671779997
 40
0.6127000758390245
 40
0.8180934380230968
 40
1.0
 40
1.0
 40
1.0
 40
1.0
 10
13.10530541894725
 20
16.99749430362333
 30
0.0
 10
13.15877328847068
 20
17.00826711894129
 30
0.0
 10
13.23807560310462
 20
17.02424511091018
 30
0.0
 10
13.36734770507375
 20
17.08683156141808
 30
0.0
 10
13.30939018779929
 20
17.18003156662578
 30
0.0
 10
13.26239169655889
 20
17.20411493491591
 30
0.0
 10
13.24031750179068
 20
17.21542638233221
 30
0.0
  0
SPLINE
  5
AE
330
1F
100
AcDbEntity
  8
0
  6
Continuous
 62
     5
370
     0
100
AcDbSpline
210
0.0
220
0.0
230
1.0
 70
     8
 71
     3
 72
    10
 73
     6
 74
     0
 42
0.00000001
 43
0.00000001
 40
0.0
 40
0.0
 40
0.0
 40
0.0
 40
0.4151763958468114
 40
0.5462971034459829
 40
1.0
 40
1.0
 40
1.0
 40
1.0
 10
13.24031750179068
 20
17.21542638233221
 30
0.0
 10
13.28022426690437
 20
17.23488590901375
 30
0.0
 10
13.33273435757327
 20
17.26049112926928
 30
0.0
 10
13.37133683552253
 20
17.36800120469573
 30
0.0
 10
13.29755614825588
 20
17.39301786207712
 30
0.0
 10
13.24031750179068
 20
17.41242564561293
 30
0.0
  0
SPLINE
  5
AF
330
1F
100
AcDbEntity
  8
0
  6
Continuous
 62
     5
370
     0
100
AcDbSpline
210
0.0
220
0.0
230
1.0
 70
     8
 71
     3
 72
    17
 73
    13
 74
     0
 42
0.00000001
 43
0.00000001
 40
0.0
 40
0.0
 40
0.0
 40
0.0
 40
0.1559071660699984
 40
0.2084532263270943
 40
0.323889439555486
 40
0.3693058180512592
 40
0.4483577570694072
 40
0.5433663635876695
 40
0.6285966104422582
 40
0.6830137632211191
 40
0.7056092560450938
 40
1.0
 40
1.0
 40
1.0
 40
1.0
 10
13.24031750179068
 20
17.41242564561293
 30
0.0
 10
13.29050502222751
 20
17.42477439956537
 30
0.0
 10
13.35760745773529
 20
17.44128510697795
 30
0.0
 10
13.43188565330782
 20
17.55643716272239
 30
0.0
 10
13.25543878471205
 20
17.58335104599714
 30
0.0
 10
13.35796266815345
 20
17.6083313421342
 30
0.0
 10
13.44276845226329
 20
17.68573230408147
 30
0.0
 10
13.23804725100421
 20
17.69697556983077
 30
0.0
 10
13.40609635889894
 20
17.73487303483634
 30
0.0
 10
13.35895443345987
 20
17.79875569862784
 30
0.0
 10
13.24061442764819
 20
17.82743649345181
 30
0.0
 10
13.13278259926747
 20
17.81571755124916
 30
0.0
 10
13.03263726645555
 20
17.80483396163827
 30
0.0
  0
SPLINE
  5
B0
330
1F
100
AcDbEntity
  8
0
  6
Continuous
 62
     5
370
     0
100
AcDbSpline
210
0.0
220
0.0
230
1.0
 70
     8
 71
     3
 72
    14
 73
    10
 74
     0
 42
0.00000001
 43
0.00000001
 40
0.0
 40
0.0
 40
0.0
 40
0.0
 40
0.3111351625025146
 40
0.5194227530870491
 40
0.5829668975764122
 40
0.669704302412194
 40
0.7956482499934696
 40
0.916558975203
 40
1.0
 40
1.0
 40
1.0
 40
1.0
 10
13.03263726645554
 20
17.80483396163827
 30
0.0
 10
13.12220338604699
 20
17.84516367355053
 30
0.0
 10
13.27172901358238
 20
17.9124918720871
 30
0.0
 10
13.43988840933608
 20
17.97634766072797
 30
0.0
 10
13.50147421157411
 20
18.10864655647749
 30
0.0
 10
13.37732331947126
 20
18.1150599290461
 30
0.0
 10
13.28951438111831
 20
18.09137665633906
 30
0.0
 10
13.1825121005064
 20
18.0741466159203
 30
0.0
 10
13.11873252048359
 20
18.07987954845613
 30
0.0
 10
13.09269000546694
 20
18.08222042278613
 30
0.0
  0
SPLINE
  5
B1
330
1F
100
AcDbEntity
  8
0
  6
Continuous
 62
     5
370
     0
100
AcDbSpline
210
0.0
220
0.0
230
1.0
 70
     8
 71
     3
 72
    13
 73
     9
 74
     0
 42
0.00000001
 43
0.00000001
 40
0.0
 40
0.0
 40
0.0
 40
0.0
 40
0.2941212896855847
 40
0.5840239415668148
 40
0.6077537811901048
 40
0.7401224532718902
 40
0.869309385997951
 40
1.0
 40
1.0
 40
1.0
 40
1.0
 10
13.09269000546694
 20
18.08222042278613
 30
0.0
 10
13.16414580873402
 20
18.1142076566567
 30
0.0
 10
13.30603251104134
 20
18.17772332539622
 30
0.0
 10
13.43287857202949
 20
18.26252490827167
 30
0.0
 10
13.51326115243219
 20
18.36787200191464
 30
0.0
 10
13.36686015874409
 20
18.35238599194324
 30
0.0
 10
13.2937807072519
 20
18.32234667569253
 30
0.0
 10
13.22236078454879
 20
18.31367183778165
 30
0.0
 10
13.18644420126731
 20
18.30930932202293
 30
0.0
  0
SPLINE
  5
B2
330
1F
100
AcDbEntity
  8
0
  6
Continuous
 62
     5
370
     0
100
AcDbSpline
210
0.0
220
0.0
230
1.0
 70
     8
 71
     3
 72
    11
 73
     7
 74
     0
 42
0.00000001
 43
0.00000001
 40
0.0
 40
0.0
 40
0.0
 40
0.0
 40
0.5070591698353938
 40
0.5618710639301938
 40
0.7422814053249198
 40
1.0
 40
1.0
 40
1.0
 40
1.0
 10
13.01432695083752
 20
18.62710508422919
 30
0.0
 10
13.0846894827223
 20
18.64546327838225
 30
0.0
 10
13.16265803748437
 20
18.66580594979862
 30
0.0
 10
13.28983605857843
 20
18.64467896753139
 30
0.0
 10
13.21006559674966
 20
18.55205705983985
 30
0.0
 10
13.17342541133335
 20
18.51106215953032
 30
0.0
 10
13.1518727214361
 20
18.48694791546465
 30
0.0
  0
SPLINE
  5
B3
330
1F
100
AcDbEntity
  8
0
  6
Continuous
 62
     5
370
     0
100
AcDbSpline
210
0.0
220
0.0
230
1.0
 70
    24
 71
     3
 72
     8
 73
     4
 74
     0
 42
0.00000001
 43
0.00000001
 40
0.0
 40
0.0
 40
0.0
 40
0.0
 40
1.0
 40
1.0
 40
1.0
 40
1.0
 10
13.18644420126731
 20
18.30930932202293
 30
0.0
 10
13.19068593469506
 20
18.30982648469187
 30
0.0
 10
13.19492766812282
 20
18.31034364736081
 30
0.0
 10
13.19916940155058
 20
18.31086081002975
 30
0.0
  0
SPLINE
  5
B4
330
1F
100
AcDbEntity
  8
0
  6
Continuous
 62
     5
370
     0
100
AcDbSpline
210
0.0
220
0.0
230
1.0
 70
     8
 71
     3
 72
    11
 73
     7
 74
     0
 42
0.00000001
 43
0.00000001
 40
0.0
 40
0.0
 40
0.0
 40
0.0
 40
0.2293688129691515
 40
0.4710640126961426
 40
0.6871354912938167
 40
1.0
 40
1.0
 40
1.0
 40
1.0
 10
13.1518727214361
 20
18.48694791546465
 30
0.0
 10
13.18713695221701
 20
18.48637107422039
 30
0.0
 10
13.25956052995308
 20
18.48518639201493
 30
0.0
 10
13.45159198586566
 20
18.50978396625846
 30
0.0
 10
13.29916096657695
 20
18.3708442915262
 30
0.0
 10
13.22833663964041
 20
18.33217947723564
 30
0.0
 10
13.18644420126731
 20
18.30930932202293
 30
0.0
  0
SPLINE
  5
B5
330
1F
100
AcDbEntity
  8
0
  6
Continuous
 62
     5
370
     0
100
AcDbSpline
210
0.0
220
0.0
230
1.0
 70
     8
 71
     3
 72
     9
 73
     5
 74
     0
 42
0.00000001
 43
0.00000001
 40
0.0
 40
0.0
 40
0.0
 40
0.0
 40
0.5459557344599516
 40
1.0
 40
1.0
 40
1.0
 40
1.0
 10
12.45896977315368
 20
19.28305201393268
 30
0.0
 10
12.5244989931835
 20
19.35197277940818
 30
0.0
 10
12.64452561053306
 20
19.47821152208514
 30
0.0
 10
12.70464427589476
 20
19.64123588177359
 30
0.0
 10
12.73194081115417
 20
19.71525615743346
 30
0.0
  0
SPLINE
  5
B6
330
1F
100
AcDbEntity
  8
0
  6
Continuous
 62
     5
370
     0
100
AcDbSpline
210
0.0
220
0.0
230
1.0
 70
     8
 71
     3
 72
     9
 73
     5
 74
     0
 42
0.00000001
 43
0.00000001
 40
0.0
 40
0.0
 40
0.0
 40
0.0
 40
0.4888885817654681
 40
1.0
 40
1.0
 40
1.0
 40
1.0
 10
12.64744977558259
 20
19.20830994400397
 30
0.0
 10
12.68249790453186
 20
19.28729386067468
 30
0.0
 10
12.75418730423662
 20
19.44885197353852
 30
0.0
 10
12.73946536327714
 20
19.6251488241084
 30
0.0
 10
12.73194081115417
 20
19.71525615743346
 30
0.0
  0
SPLINE
  5
B7
330
1F
100
AcDbEntity
  8
0
  6
Continuous
 62
     5
370
     0
100
AcDbSpline
210
0.0
220
0.0
230
1.0
 70
     8
 71
     3
 72
    11
 73
     7
 74
     0
 42
0.00000001
 43
0.00000001
 40
0.0
 40
0.0
 40
0.0
 40
0.0
 40
0.439006962320998
 40
0.6160878030650858
 40
0.7784123882606654
 40
1.0
 40
1.0
 40
1.0
 40
1.0
 10
13.01432695083752
 20
18.62710508422919
 30
0.0
 10
13.08062615646701
 20
18.67641109354473
 30
0.0
 10
13.17366826159739
 20
18.74560551086448
 30
0.0
 10
13.25625074676907
 20
18.95016618937342
 30
0.0
 10
13.09924791197895
 20
18.93949254778043
 30
0.0
 10
13.0329674463381
 20
18.91019326892857
 30
0.0
 10
12.99471148520015
 20
18.89328222187588
 30
0.0
  0
SPLINE
  5
B8
330
1F
100
AcDbEntity
  8
0
  6
Continuous
 62
     5
370
     0
100
AcDbSpline
210
0.0
220
0.0
230
1.0
 70
     8
 71
     3
 72
     9
 73
     5
 74
     0
 42
0.00000001
 43
0.00000001
 40
0.0
 40
0.0
 40
0.0
 40
0.0
 40
0.5390604598915556
 40
1.0
 40
1.0
 40
1.0
 40
1.0
 10
12.99471148520015
 20
18.89328222187588
 30
0.0
 10
13.0348482117502
 20
18.93563241384434
 30
0.0
 10
13.10930502974446
 20
19.01419538612575
 30
0.0
 10
13.10656733205924
 20
19.12158093733195
 30
0.0
 10
13.10530541894725
 20
19.17107918391923
 30
0.0
  0
SPLINE
  5
B9
330
1F
100
AcDbEntity
  8
0
  6
Continuous
 62
     5
370
     0
100
AcDbSpline
210
0.0
220
0.0
230
1.0
 70
     8
 71
     3
 72
     9
 73
     5
 74
     0
 42
0.00000001
 43
0.00000001
 40
0.0
 40
0.0
 40
0.0
 40
0.0
 40
0.5410107788160102
 40
1.0
 40
1.0
 40
1.0
 40
1.0
 10
12.85060431114016
 20
19.03044447188478
 30
0.0
 10
12.88820235761469
 20
19.07160699769203
 30
0.0
 10
12.95769828624813
 20
19.14769148143806
 30
0.0
 10
13.05886910406907
 20
19.16372155358773
 30
0.0
 10
13.10530541894725
 20
19.17107918391923
 30
0.0
  0
SPLINE
  5
BA
330
1F
100
AcDbEntity
  8
0
  6
Continuous
 62
     5
370
     0
100
AcDbSpline
210
0.0
220
0.0
230
1.0
 70
     8
 71
     3
 72
     9
 73
     5
 74
     0
 42
0.00000001
 43
0.00000001
 40
0.0
 40
0.0
 40
0.0
 40
0.0
 40
0.3864362288411519
 40
1.0
 40
1.0
 40
1.0
 40
1.0
 10
12.85060431114016
 20
19.03044447188478
 30
0.0
 10
12.8667553548217
 20
19.07694293265842
 30
0.0
 10
12.90855020343093
 20
19.19726928226872
 30
0.0
 10
12.90491913410949
 20
19.32522509105187
 30
0.0
 10
12.9026912415233
 20
19.40373413963053
 30
0.0
  0
SPLINE
  5
BB
330
1F
100
AcDbEntity
  8
0
  6
Continuous
 62
     5
370
     0
100
AcDbSpline
210
0.0
220
0.0
230
1.0
 70
     8
 71
     3
 72
     9
 73
     5
 74
     0
 42
0.00000001
 43
0.00000001
 40
0.0
 40
0.0
 40
0.0
 40
0.0
 40
0.5601037143914976
 40
1.0
 40
1.0
 40
1.0
 40
1.0
 10
12.64744977558259
 20
19.20830994400397
 30
0.0
 10
12.68910671206637
 20
19.25285951582467
 30
0.0
 10
12.76348032433394
 20
19.332397591856
 30
0.0
 10
12.86016153573836
 20
19.3819404294114
 30
0.0
 10
12.90269124152329
 20
19.40373413963053
 30
0.0
  0
SPLINE
  5
BC
330
1F
100
AcDbEntity
  8
0
  6
Continuous
 62
     5
370
     0
100
AcDbSpline
210
0.0
220
0.0
230
1.0
 70
     8
 71
     3
 72
     9
 73
     5
 74
     0
 42
0.00000001
 43
0.00000001
 40
0.0
 40
0.0
 40
0.0
 40
0.0
 40
0.2531025553149135
 40
1.0
 40
1.0
 40
1.0
 40
1.0
 10
11.90780448049417
 20
18.89328222187588
 30
0.0
 10
11.98553425644837
 20
18.97198844227744
 30
0.0
 10
12.29264208417253
 20
19.28295417039358
 30
0.0
 10
12.38785528028041
 20
19.72113628258648
 30
0.0
 10
12.45896977315368
 20
20.04841338249008
 30
0.0
  0
SPLINE
  5
BD
330
1F
100
AcDbEntity
  8
0
  6
Continuous
 62
     5
370
     0
100
AcDbSpline
210
0.0
220
0.0
230
1.0
 70
     8
 71
     3
 72
     9
 73
     5
 74
     0
 42
0.00000001
 43
0.00000001
 40
0.0
 40
0.0
 40
0.0
 40
0.0
 40
0.5641442486780641
 40
1.0
 40
1.0
 40
1.0
 40
1.0
 10
12.45896977315368
 20
19.28305201393268
 30
0.0
 10
12.47846841418896
 20
19.42721280733005
 30
0.0
 10
12.513031632871
 20
19.68275169429944
 30
0.0
 10
12.47538031610917
 20
19.93741633443059
 30
0.0
 10
12.45896977315368
 20
20.04841338249008
 30
0.0
  0
SPLINE
  5
BE
330
1F
100
AcDbEntity
  8
0
  6
Continuous
 62
     5
370
     0
100
AcDbSpline
210
0.0
220
0.0
230
1.0
 70
     8
 71
     3
 72
    11
 73
     7
 74
     0
 42
0.00000001
 43
0.00000001
 40
0.0
 40
0.0
 40
0.0
 40
0.0
 40
0.3180859064536242
 40
0.5712194894485025
 40
0.9214965866062204
 40
1.0
 40
1.0
 40
1.0
 40
1.0
 10
11.90780448049417
 20
18.89328222187588
 30
0.0
 10
11.94352496568845
 20
19.04219123673023
 30
0.0
 10
12.00767190493207
 20
19.30960242884409
 30
0.0
 10
12.10265853138459
 20
19.77405751227525
 30
0.0
 10
11.86451237653542
 20
20.05457659388529
 30
0.0
 10
11.72764814007619
 20
20.21065153123637
 30
0.0
 10
11.70259030869351
 20
20.23922655977841
 30
0.0
  0
SPLINE
  5
BF
330
1F
100
AcDbEntity
  8
0
  6
Continuous
 62
     5
370
     0
100
AcDbSpline
210
0.0
220
0.0
230
1.0
 70
     8
 71
     3
 72
    10
 73
     6
 74
     0
 42
0.00000001
 43
0.00000001
 40
0.0
 40
0.0
 40
0.0
 40
0.0
 40
0.3535901447749343
 40
0.6542544833807494
 40
1.0
 40
1.0
 40
1.0
 40
1.0
 10
11.60898384436338
 20
18.84953058933886
 30
0.0
 10
11.66747309211298
 20
19.00799096608755
 30
0.0
 10
11.77569684533467
 20
19.30119317621144
 30
0.0
 10
11.88953468737877
 20
19.7862439370623
 30
0.0
 10
11.76773653742122
 20
20.08137153489518
 30
0.0
 10
11.70259030869351
 20
20.23922655977842
 30
0.0
  0
SPLINE
  5
C0
330
1F
100
AcDbEntity
  8
0
  6
Continuous
 62
     5
370
     0
100
AcDbSpline
210
0.0
220
0.0
230
1.0
 70
     8
 71
     3
 72
    10
 73
     6
 74
     0
 42
0.00000001
 43
0.00000001
 40
0.0
 40
0.0
 40
0.0
 40
0.0
 40
0.389172069104067
 40
0.6158784549577035
 40
1.0
 40
1.0
 40
1.0
 40
1.0
 10
11.60898384436338
 20
18.84953058933886
 30
0.0
 10
11.6029766197631
 20
19.01511134662286
 30
0.0
 10
11.59346997604656
 20
19.2771487050632
 30
0.0
 10
11.64018894919164
 20
19.72551365666727
 30
0.0
 10
11.4397081799274
 20
19.923751030706
 30
0.0
 10
11.31363506023869
 20
20.04841338249008
 30
0.0
  0
SPLINE
  5
C1
330
1F
100
AcDbEntity
  8
0
  6
Continuous
 62
     5
370
     0
100
AcDbSpline
210
0.0
220
0.0
230
1.0
 70
     8
 71
     3
 72
    11
 73
     7
 74
     0
 42
0.00000001
 43
0.00000001
 40
0.0
 40
0.0
 40
0.0
 40
0.0
 40
0.2404855892312396
 40
0.6176731984380269
 40
0.8140163908426555
 40
1.0
 40
1.0
 40
1.0
 40
1.0
 10
11.31363506023869
 20
18.53358147646213
 30
0.0
 10
11.34379015410982
 20
18.65254803753715
 30
0.0
 10
11.42124175252003
 20
18.95810670540279
 30
0.0
 10
11.42669938845854
 20
19.38514710236394
 30
0.0
 10
11.29448959357262
 20
19.75577015509324
 30
0.0
 10
11.30736957060064
 20
19.95264381255061
 30
0.0
 10
11.31363506023869
 20
20.04841338249009
 30
0.0
  0
SPLINE
  5
C2
330
1F
100
AcDbEntity
  8
0
  6
Continuous
 62
     5
370
     0
100
AcDbSpline
210
0.0
220
0.0
230
1.0
 70
     8
 71
     3
 72
    11
 73
     7
 74
     0
 42
0.00000001
 43
0.00000001
 40
0.0
 40
0.0
 40
0.0
 40
0.0
 40
0.2043776889003867
 40
0.5253173411006107
 40
0.8347351358989162
 40
1.0
 40
1.0
 40
1.0
 40
1.0
 10
11.31363506023869
 20
18.53358147646213
 30
0.0
 10
11.29422005986043
 20
18.63886704373157
 30
0.0
 10
11.24431717451592
 20
18.9094853022696
 30
0.0
 10
11.1089956414693
 20
19.3404708691002
 30
0.0
 10
10.74913546685162
 20
19.61513242372914
 30
0.0
 10
10.50176308346277
 20
19.65478426400946
 30
0.0
 10
10.41563825341756
 20
19.66858939438956
 30
0.0
  0
SPLINE
  5
C3
330
1F
100
AcDbEntity
  8
0
  6
Continuous
 62
     5
370
     0
100
AcDbSpline
210
0.0
220
0.0
230
1.0
 70
     8
 71
     3
 72
    11
 73
     7
 74
     0
 42
0.00000001
 43
0.00000001
 40
0.0
 40
0.0
 40
0.0
 40
0.0
 40
0.259090241410494
 40
0.508682146419445
 40
0.8012773011838759
 40
1.0
 40
1.0
 40
1.0
 40
1.0
 10
11.03712149349629
 20
18.25113746447392
 30
0.0
 10
11.04210799257687
 20
18.39013428961148
 30
0.0
 10
11.05189818398514
 20
18.66303226898555
 30
0.0
 10
10.87361793502124
 20
19.06409957172655
 30
0.0
 10
10.60894102549489
 20
19.35672841621215
 30
0.0
 10
10.47130693610936
 20
19.57877749127227
 30
0.0
 10
10.41563825341756
 20
19.66858939438956
 30
0.0
  0
SPLINE
  5
C4
330
1F
100
AcDbEntity
  8
0
  6
Continuous
 62
     5
370
     0
100
AcDbSpline
210
0.0
220
0.0
230
1.0
 70
     8
 71
     3
 72
     9
 73
     5
 74
     0
 42
0.00000001
 43
0.00000001
 40
0.0
 40
0.0
 40
0.0
 40
0.0
 40
0.4986329037641435
 40
1.0
 40
1.0
 40
1.0
 40
1.0
 10
10.49450494418461
 20
17.62537334645612
 30
0.0
 10
10.53653891455378
 20
17.61623137745906
 30
0.0
 10
10.6208373434217
 20
17.59789731059735
 30
0.0
 10
10.69246740122295
 20
17.64601871161663
 30
0.0
 10
10.72838035530597
 20
17.67014519871248
 30
0.0
  0
SPLINE
  5
C5
330
1F
100
AcDbEntity
  8
0
  6
Continuous
 62
     5
370
     0
100
AcDbSpline
210
0.0
220
0.0
230
1.0
 70
     8
 71
     3
 72
    10
 73
     6
 74
     0
 42
0.00000001
 43
0.00000001
 40
0.0
 40
0.0
 40
0.0
 40
0.0
 40
0.2212052940382825
 40
0.5915216889343085
 40
1.0
 40
1.0
 40
1.0
 40
1.0
 10
10.72838035530597
 20
17.67014519871247
 30
0.0
 10
10.66277950519555
 20
17.73838359818566
 30
0.0
 10
10.4873572766203
 20
17.92085885711671
 30
0.0
 10
10.11845913498469
 20
18.14387258313668
 30
0.0
 10
9.821287683589864
 20
18.29145473648802
 30
0.0
 10
9.665421071203488
 20
18.36886166835713
 30
0.0
  0
SPLINE
  5
C6
330
1F
100
AcDbEntity
  8
0
  6
Continuous
 62
     5
370
     0
100
AcDbSpline
210
0.0
220
0.0
230
1.0
 70
     8
 71
     3
 72
    12
 73
     8
 74
     0
 42
0.00000001
 43
0.00000001
 40
0.0
 40
0.0
 40
0.0
 40
0.0
 40
0.1662156337882071
 40
0.4070224194143566
 40
0.6207583689740396
 40
0.867989912183824
 40
1.0
 40
1.0
 40
1.0
 40
1.0
 10
10.83180434124775
 20
17.88449248222896
 30
0.0
 10
10.78893687854386
 20
17.94525495678212
 30
0.0
 10
10.68396469279793
 20
18.09404775586227
 30
0.0
 10
10.45253229408643
 20
18.25775913697298
 30
0.0
 10
10.15830168009143
 20
18.36713857011174
 30
0.0
 10
9.891323252196521
 20
18.40117035067839
 30
0.0
 10
9.723751176808403
 20
18.37720407941076
 30
0.0
 10
9.665421071203488
 20
18.36886166835713
 30
0.0
  0
SPLINE
  5
C7
330
1F
100
AcDbEntity
  8
0
  6
Continuous
 62
     5
370
     0
100
AcDbSpline
210
0.0
220
0.0
230
1.0
 70
     8
 71
     3
 72
    11
 73
     7
 74
     0
 42
0.00000001
 43
0.00000001
 40
0.0
 40
0.0
 40
0.0
 40
0.0
 40
0.1139253299560962
 40
0.328032198231978
 40
0.6022958929586238
 40
1.0
 40
1.0
 40
1.0
 40
1.0
 10
10.83180434124775
 20
17.88449248222896
 30
0.0
 10
10.84460339614387
 20
17.95136556230942
 30
0.0
 10
10.88145650084395
 20
18.14391732818793
 30
0.0
 10
10.66124873629177
 20
18.45344647267567
 30
0.0
 10
10.34695084475483
 20
18.84891085712837
 30
0.0
 10
10.03248196983388
 20
19.08770451808712
 30
0.0
 10
9.846363583262859
 20
19.22903453337784
 30
0.0
  0
SPLINE
  5
C8
330
1F
100
AcDbEntity
  8
0
  6
Continuous
 62
     5
370
     0
100
AcDbSpline
210
0.0
220
0.0
230
1.0
 70
     8
 71
     3
 72
    12
 73
     8
 74
     0
 42
0.00000001
 43
0.00000001
 40
0.0
 40
0.0
 40
0.0
 40
0.0
 40
0.148575519773033
 40
0.3545148054904824
 40
0.6270217707841584
 40
0.8422942878363783
 40
1.0
 40
1.0
 40
1.0
 40
1.0
 10
11.03712149349629
 20
18.25113746447392
 30
0.0
 10
11.01574842036906
 20
18.33114611277662
 30
0.0
 10
10.96475030928043
 20
18.52205407953934
 30
0.0
 10
10.77020170145403
 20
18.81725904713815
 30
0.0
 10
10.48328268946039
 20
19.08244289964436
 30
0.0
 10
10.14199282267572
 20
19.22061147917293
 30
0.0
 10
9.93421704198408
 20
19.22653141681749
 30
0.0
 10
9.84636358326286
 20
19.22903453337784
 30
0.0
  0
ENDSEC
  0
SECTION
  2
OBJECTS
  0
DICTIONARY
  5
C
330
0
100
AcDbDictionary
281
     1
  3
ACAD_GROUP
350
D
  3
ACAD_LAYOUT
350
1A
  3
ACAD_MLEADERSTYLE
350
CC
  3
ACAD_MLINESTYLE
350
17
  3
ACAD_PLOTSETTINGS
350
19
  3
ACAD_PLOTSTYLENAME
350
E
  3
ACAD_SCALELIST
350
3B
  3
ACAD_TABLESTYLE
350
CB
  3
ACAD_VISUALSTYLE
350
2A
  3
AcDbVariableDictionary
350
C9
  0
DICTIONARY
  5
D
102
{ACAD_REACTORS
330
C
102
}
330
C
100
AcDbDictionary
281
     1
  0
DICTIONARY
  5
1A
102
{ACAD_REACTORS
330
C
102
}
330
C
100
AcDbDictionary
281
     1
  3
Layout1
350
1E
  3
Layout2
350
26
  3
Model
350
22
  0
DICTIONARY
  5
CC
102
{ACAD_REACTORS
330
C
102
}
330
C
100
AcDbDictionary
281
     1
  0
DICTIONARY
  5
17
102
{ACAD_REACTORS
330
C
102
}
330
C
100
AcDbDictionary
281
     1
  3
Standard
350
18
  0
DICTIONARY
  5
19
102
{ACAD_REACTORS
330
C
102
}
330
C
100
AcDbDictionary
281
     1
  0
ACDBDICTIONARYWDFLT
  5
E
102
{ACAD_REACTORS
330
C
102
}
330
C
100
AcDbDictionary
281
     1
  3
Normal
350
F
100
AcDbDictionaryWithDefault
340
F
  0
DICTIONARY
  5
3B
102
{ACAD_REACTORS
330
C
102
}
330
C
100
AcDbDictionary
281
     1
  3
A0
350
3C
  3
A1
350
3D
  3
A2
350
3E
  3
A3
350
3F
  3
A4
350
40
  3
A5
350
41
  3
A6
350
42
  3
A7
350
43
  3
A8
350
44
  3
A9
350
45
  3
B0
350
46
  3
B1
350
47
  3
B2
350
48
  3
B3
350
49
  3
B4
350
4A
  3
B5
350
4B
  3
B6
350
4C
  3
B7
350
4D
  3
B8
350
4E
  3
B9
350
4F
  3
C0
350
50
  3
C1
350
51
  3
C2
350
52
  3
C3
350
53
  3
C4
350
54
  3
C5
350
55
  3
C6
350
56
  3
C7
350
57
  3
C8
350
58
  3
C9
350
59
  3
D0
350
5A
  3
D1
350
5B
  3
D2
350
5C
  0
DICTIONARY
  5
CB
102
{ACAD_REACTORS
330
C
102
}
330
C
100
AcDbDictionary
281
     1
  0
DICTIONARY
  5
2A
102
{ACAD_REACTORS
330
C
102
}
330
C
100
AcDbDictionary
281
     1
  3
2dWireframe
350
2F
  3
3D Hidden
350
31
  3
3dWireframe
350
30
  3
Basic
350
32
  3
Brighten
350
36
  3
ColorChange
350
3A
  3
Conceptual
350
34
  3
Dim
350
35
  3
Facepattern
350
39
  3
Flat
350
2B
  3
FlatWithEdges
350
2C
  3
Gouraud
350
2D
  3
GouraudWithEdges
350
2E
  3
Linepattern
350
38
  3
Realistic
350
33
  3
Thicken
350
37
  0
DICTIONARY
  5
C9
102
{ACAD_REACTORS
330
C
102
}
330
C
100
AcDbDictionary
281
     1
  3
CANNOSCALE
350
CA
  0
LAYOUT
  5
1E
102
{ACAD_REACTORS
330
1A
102
}
330
1A
100
AcDbPlotSettings
  1

  2
none_device
  4

  6

 40
0.0
 41
0.0
 42
0.0
 43
0.0
 44
0.0
 45
0.0
 46
0.0
 47
0.0
 48
0.0
 49
0.0
140
0.0
141
0.0
142
1.0
143
1.0
 70
   688
 72
     0
 73
     0
 74
     5
  7

 75
    16
147
1.0
148
0.0
149
0.0
100
AcDbLayout
  1
Layout1
 70
     1
 71
     1
 10
0.0
 20
0.0
 11
12.0
 21
9.0
 12
0.0
 22
0.0
 32
0.0
 14
1.0000000000E+20
 24
1.0000000000E+20
 34
1.0000000000E+20
 15
-1.0000000000E+20
 25
-1.0000000000E+20
 35
-1.0000000000E+20
146
0.0
 13
0.0
 23
0.0
 33
0.0
 16
1.0
 26
0.0
 36
0.0
 17
0.0
 27
1.0
 37
0.0
 76
     0
330
1B
  0
LAYOUT
  5
26
102
{ACAD_REACTORS
330
1A
102
}
330
1A
100
AcDbPlotSettings
  1

  2
none_device
  4

  6

 40
0.0
 41
0.0
 42
0.0
 43
0.0
 44
0.0
 45
0.0
 46
0.0
 47
0.0
 48
0.0
 49
0.0
140
0.0
141
0.0
142
1.0
143
1.0
 70
   688
 72
     0
 73
     0
 74
     5
  7

 75
    16
147
1.0
148
0.0
149
0.0
100
AcDbLayout
  1
Layout2
 70
     1
 71
     2
 10
0.0
 20
0.0
 11
0.0
 21
0.0
 12
0.0
 22
0.0
 32
0.0
 14
0.0
 24
0.0
 34
0.0
 15
0.0
 25
0.0
 35
0.0
146
0.0
 13
0.0
 23
0.0
 33
0.0
 16
1.0
 26
0.0
 36
0.0
 17
0.0
 27
1.0
 37
0.0
 76
     0
330
23
  0
LAYOUT
  5
22
102
{ACAD_REACTORS
330
1A
102
}
330
1A
100
AcDbPlotSettings
  1

  2
none_device
  4

  6

 40
0.0
 41
0.0
 42
0.0
 43
0.0
 44
0.0
 45
0.0
 46
0.0
 47
0.0
 48
0.0
 49
0.0
140
0.0
141
0.0
142
1.0
143
1.0
 70
  1712
 72
     0
 73
     0
 74
     0
  7

 75
     0
147
1.0
148
0.0
149
0.0
100
AcDbLayout
  1
Model
 70
     1
 71
     0
 10
0.0
 20
0.0
 11
20.0
 21
30.0
 12
0.0
 22
0.0
 32
0.0
 14
0.0
 24
0.0
 34
0.0
 15
20.0
 25
30.0
 35
0.0
146
0.0
 13
0.0
 23
0.0
 33
0.0
 16
1.0
 26
0.0
 36
0.0
 17
0.0
 27
1.0
 37
0.0
 76
     0
330
1F
331
29
  0
MLINESTYLE
  5
18
102
{ACAD_REACTORS
330
17
102
}
330
17
100
AcDbMlineStyle
  2
Standard
 70
     0
  3

 62
   256
 51
90.0
 52
90.0
 71
     2
 49
0.5
 62
   256
  6
BYLAYER
 49
-0.5
 62
   256
  6
BYLAYER
  0
ACDBPLACEHOLDER
  5
F
102
{ACAD_REACTORS
330
E
102
}
330
E
  0
SCALE
  5
3C
102
{ACAD_REACTORS
330
3B
102
}
330
3B
100
AcDbScale
 70
     0
300
1:1
140
1.0
141
1.0
290
     1
  0
SCALE
  5
3D
102
{ACAD_REACTORS
330
3B
102
}
330
3B
100
AcDbScale
 70
     0
300
1:2
140
1.0
141
2.0
290
     0
  0
SCALE
  5
3E
102
{ACAD_REACTORS
330
3B
102
}
330
3B
100
AcDbScale
 70
     0
300
1:4
140
1.0
141
4.0
290
     0
  0
SCALE
  5
3F
102
{ACAD_REACTORS
330
3B
102
}
330
3B
100
AcDbScale
 70
     0
300
1:5
140
1.0
141
5.0
290
     0
  0
SCALE
  5
40
102
{ACAD_REACTORS
330
3B
102
}
330
3B
100
AcDbScale
 70
     0
300
1:8
140
1.0
141
8.0
290
     0
  0
SCALE
  5
41
102
{ACAD_REACTORS
330
3B
102
}
330
3B
100
AcDbScale
 70
     0
300
1:10
140
1.0
141
10.0
290
     0
  0
SCALE
  5
42
102
{ACAD_REACTORS
330
3B
102
}
330
3B
100
AcDbScale
 70
     0
300
1:16
140
1.0
141
16.0
290
     0
  0
SCALE
  5
43
102
{ACAD_REACTORS
330
3B
102
}
330
3B
100
AcDbScale
 70
     0
300
1:20
140
1.0
141
20.0
290
     0
  0
SCALE
  5
44
102
{ACAD_REACTORS
330
3B
102
}
330
3B
100
AcDbScale
 70
     0
300
1:30
140
1.0
141
30.0
290
     0
  0
SCALE
  5
45
102
{ACAD_REACTORS
330
3B
102
}
330
3B
100
AcDbScale
 70
     0
300
1:40
140
1.0
141
40.0
290
     0
  0
SCALE
  5
46
102
{ACAD_REACTORS
330
3B
102
}
330
3B
100
AcDbScale
 70
     0
300
1:50
140
1.0
141
50.0
290
     0
  0
SCALE
  5
47
102
{ACAD_REACTORS
330
3B
102
}
330
3B
100
AcDbScale
 70
     0
300
1:100
140
1.0
141
100.0
290
     0
  0
SCALE
  5
48
102
{ACAD_REACTORS
330
3B
102
}
330
3B
100
AcDbScale
 70
     0
300
2:1
140
2.0
141
1.0
290
     0
  0
SCALE
  5
49
102
{ACAD_REACTORS
330
3B
102
}
330
3B
100
AcDbScale
 70
     0
300
4:1
140
4.0
141
1.0
290
     0
  0
SCALE
  5
4A
102
{ACAD_REACTORS
330
3B
102
}
330
3B
100
AcDbScale
 70
     0
300
8:1
140
8.0
141
1.0
290
     0
  0
SCALE
  5
4B
102
{ACAD_REACTORS
330
3B
102
}
330
3B
100
AcDbScale
 70
     0
300
10:1
140
10.0
141
1.0
290
     0
  0
SCALE
  5
4C
102
{ACAD_REACTORS
330
3B
102
}
330
3B
100
AcDbScale
 70
     0
300
100:1
140
100.0
141
1.0
290
     0
  0
SCALE
  5
4D
102
{ACAD_REACTORS
330
3B
102
}
330
3B
100
AcDbScale
 70
     0
300
1/128\" = 1\'-0\"
140
0.0078125
141
12.0
290
     0
  0
SCALE
  5
4E
102
{ACAD_REACTORS
330
3B
102
}
330
3B
100
AcDbScale
 70
     0
300
1/64\" = 1\'-0\"
140
0.015625
141
12.0
290
     0
  0
SCALE
  5
4F
102
{ACAD_REACTORS
330
3B
102
}
330
3B
100
AcDbScale
 70
     0
300
1/32\" = 1\'-0\"
140
0.03125
141
12.0
290
     0
  0
SCALE
  5
50
102
{ACAD_REACTORS
330
3B
102
}
330
3B
100
AcDbScale
 70
     0
300
1/16\" = 1\'-0\"
140
0.0625
141
12.0
290
     0
  0
SCALE
  5
51
102
{ACAD_REACTORS
330
3B
102
}
330
3B
100
AcDbScale
 70
     0
300
3/32\" = 1\'-0\"
140
0.09375
141
12.0
290
     0
  0
SCALE
  5
52
102
{ACAD_REACTORS
330
3B
102
}
330
3B
100
AcDbScale
 70
     0
300
1/8\" = 1\'-0\"
140
0.125
141
12.0
290
     0
  0
SCALE
  5
53
102
{ACAD_REACTORS
330
3B
102
}
330
3B
100
AcDbScale
 70
     0
300
3/16\" = 1\'-0\"
140
0.1875
141
12.0
290
     0
  0
SCALE
  5
54
102
{ACAD_REACTORS
330
3B
102
}
330
3B
100
AcDbScale
 70
     0
300
1/4\" = 1\'-0\"
140
0.25
141
12.0
290
     0
  0
SCALE
  5
55
102
{ACAD_REACTORS
330
3B
102
}
330
3B
100
AcDbScale
 70
     0
300
3/8\" = 1\'-0\"
140
0.375
141
12.0
290
     0
  0
SCALE
  5
56
102
{ACAD_REACTORS
330
3B
102
}
330
3B
100
AcDbScale
 70
     0
300
1/2\" = 1\'-0\"
140
0.5
141
12.0
290
     0
  0
SCALE
  5
57
102
{ACAD_REACTORS
330
3B
102
}
330
3B
100
AcDbScale
 70
     0
300
3/4\" = 1\'-0\"
140
0.75
141
12.0
290
     0
  0
SCALE
  5
58
102
{ACAD_REACTORS
330
3B
102
}
330
3B
100
AcDbScale
 70
     0
300
1\" = 1\'-0\"
140
1.0
141
12.0
290
     0
  0
SCALE
  5
59
102
{ACAD_REACTORS
330
3B
102
}
330
3B
100
AcDbScale
 70
     0
300
1-1/2\" = 1\'-0\"
140
1.5
141
12.0
290
     0
  0
SCALE
  5
5A
102
{ACAD_REACTORS
330
3B
102
}
330
3B
100
AcDbScale
 70
     0
300
3\" = 1\'-0\"
140
3.0
141
12.0
290
     0
  0
SCALE
  5
5B
102
{ACAD_REACTORS
330
3B
102
}
330
3B
100
AcDbScale
 70
     0
300
6\" = 1\'-0\"
140
6.0
141
12.0
290
     0
  0
SCALE
  5
5C
102
{ACAD_REACTORS
330
3B
102
}
330
3B
100
AcDbScale
 70
     0
300
1\'-0\" = 1\'-0\"
140
12.0
141
12.0
290
     0
  0
VISUALSTYLE
  5
2F
102
{ACAD_REACTORS
330
2A
102
}
330
2A
100
AcDbVisualStyle
  2
2dWireframe
 70
     4
 71
     0
 72
     2
 73
     0
 90
        0
 40
-0.6
 41
-30.0
 62
     5
 63
     7
 74
     1
 91
        4
 64
     7
 65
   257
 75
     1
175
     1
 42
1.0
 92
        0
 66
   257
 43
1.0
 76
     1
 77
     6
 78
     2
 67
     7
 79
     5
170
     0
171
     0
290
     0
174
     0
 93
        1
 44
0.0
173
     0
291
     0
 45
0.0
1001
ACAD
1000
AcDbSavedByObjectVersion
1070
     0
  0
VISUALSTYLE
  5
31
102
{ACAD_REACTORS
330
2A
102
}
330
2A
100
AcDbVisualStyle
  2
3D Hidden
 70
     6
 71
     1
 72
     2
 73
     2
 90
        0
 40
-0.6
 41
-30.0
 62
     5
 63
     7
 74
     2
 91
        2
 64
     7
 65
   257
 75
     2
175
     1
 42
40.0
 92
        0
 66
   257
 43
1.0
 76
     1
 77
     6
 78
     2
 67
     7
 79
     3
170
     0
171
     0
290
     0
174
     0
 93
        1
 44
0.0
173
     0
291
     0
 45
0.0
1001
ACAD
1000
AcDbSavedByObjectVersion
1070
     0
  0
VISUALSTYLE
  5
30
102
{ACAD_REACTORS
330
2A
102
}
330
2A
100
AcDbVisualStyle
  2
3dWireframe
 70
     5
 71
     0
 72
     2
 73
     0
 90
        0
 40
-0.6
 41
-30.0
 62
     5
 63
     7
 74
     1
 91
        4
 64
     7
 65
   257
 75
     1
175
     1
 42
1.0
 92
        0
 66
   257
 43
1.0
 76
     1
 77
     6
 78
     2
 67
     7
 79
     5
170
     0
171
     0
290
     0
174
     0
 93
        1
 44
0.0
173
     0
291
     0
 45
0.0
1001
ACAD
1000
AcDbSavedByObjectVersion
1070
     0
  0
VISUALSTYLE
  5
32
102
{ACAD_REACTORS
330
2A
102
}
330
2A
100
AcDbVisualStyle
  2
Basic
 70
     7
 71
     1
 72
     0
 73
     1
 90
        0
 40
-0.6
 41
-30.0
 62
     5
 63
     7
 74
     0
 91
        4
 64
     7
 65
   257
 75
     1
175
     1
 42
1.0
 92
        8
 66
     7
 43
1.0
 76
     1
 77
     6
 78
     2
 67
     7
 79
     5
170
     0
171
     0
290
     0
174
     0
 93
        1
 44
0.0
173
     0
291
     1
 45
0.0
1001
ACAD
1000
AcDbSavedByObjectVersion
1070
     0
  0
VISUALSTYLE
  5
36
102
{ACAD_REACTORS
330
2A
102
}
330
2A
100
AcDbVisualStyle
  2
Brighten
 70
    12
 71
     2
 72
     2
 73
     0
 90
        0
 40
-0.6
 41
-30.0
 62
     5
 63
     7
 74
     1
 91
        4
 64
     7
 65
   257
 75
     1
175
     1
 42
1.0
 92
        8
 66
     7
 43
1.0
 76
     1
 77
     6
 78
     2
 67
     7
 79
     5
170
     0
171
     0
290
     0
174
     0
 93
        1
 44
50.0
173
     0
291
     1
 45
0.0
1001
ACAD
1000
AcDbSavedByObjectVersion
1070
     0
  0
VISUALSTYLE
  5
3A
102
{ACAD_REACTORS
330
2A
102
}
330
2A
100
AcDbVisualStyle
  2
ColorChange
 70
    16
 71
     2
 72
     2
 73
     3
 90
        0
 40
-0.6
 41
-30.0
 62
     5
 63
     8
 74
     1
 91
        4
 64
     7
 65
   257
 75
     1
175
     1
 42
1.0
 92
        8
 66
     8
 43
1.0
 76
     1
 77
     6
 78
     2
 67
     7
 79
     5
170
     0
171
     0
290
     0
174
     0
 93
        1
 44
0.0
173
     0
291
     1
 45
0.0
1001
ACAD
1000
AcDbSavedByObjectVersion
1070
     0
  0
VISUALSTYLE
  5
34
102
{ACAD_REACTORS
330
2A
102
}
330
2A
100
AcDbVisualStyle
  2
Conceptual
 70
     9
 71
     3
 72
     2
 73
     0
 90
        0
 40
-0.6
 41
-30.0
 62
     5
 63
     7
 74
     2
 91
        2
 64
     7
 65
   257
 75
     1
175
     1
 42
40.0
 92
        8
 66
     7
 43
1.0
 76
     1
 77
     6
 78
     2
 67
     7
 79
     3
170
     0
171
     0
290
     0
174
     0
 93
        1
 44
0.0
173
     0
291
     0
 45
0.0
1001
ACAD
1000
AcDbSavedByObjectVersion
1070
     0
  0
VISUALSTYLE
  5
35
102
{ACAD_REACTORS
330
2A
102
}
330
2A
100
AcDbVisualStyle
  2
Dim
 70
    11
 71
     2
 72
     2
 73
     0
 90
        0
 40
-0.6
 41
-30.0
 62
     5
 63
     7
 74
     1
 91
        4
 64
     7
 65
   257
 75
     1
175
     1
 42
1.0
 92
        8
 66
     7
 43
1.0
 76
     1
 77
     6
 78
     2
 67
     7
 79
     5
170
     0
171
     0
290
     0
174
     0
 93
        1
 44
-50.0
173
     0
291
     1
 45
0.0
1001
ACAD
1000
AcDbSavedByObjectVersion
1070
     0
  0
VISUALSTYLE
  5
39
102
{ACAD_REACTORS
330
2A
102
}
330
2A
100
AcDbVisualStyle
  2
Facepattern
 70
    15
 71
     2
 72
     2
 73
     0
 90
        0
 40
-0.6
 41
-30.0
 62
     5
 63
     7
 74
     1
 91
        4
 64
     7
 65
   257
 75
     1
175
     1
 42
1.0
 92
        8
 66
     7
 43
1.0
 76
     1
 77
     6
 78
     2
 67
     7
 79
     5
170
     0
171
     0
290
     0
174
     0
 93
        1
 44
0.0
173
     0
291
     1
 45
0.0
1001
ACAD
1000
AcDbSavedByObjectVersion
1070
     0
  0
VISUALSTYLE
  5
2B
102
{ACAD_REACTORS
330
2A
102
}
330
2A
100
AcDbVisualStyle
  2
Flat
 70
     0
 71
     2
 72
     1
 73
     1
 90
        2
 40
-0.6
 41
30.0
 62
     5
 63
     7
 74
     0
 91
        4
 64
     7
 65
   257
 75
     1
175
     1
 42
1.0
 92
        8
 66
     7
 43
1.0
 76
     1
 77
     6
 78
     2
 67
     7
 79
     5
170
     0
171
     0
290
     0
174
     0
 93
       13
 44
0.0
173
     0
291
     1
 45
0.0
1001
ACAD
1000
AcDbSavedByObjectVersion
1070
     0
  0
VISUALSTYLE
  5
2C
102
{ACAD_REACTORS
330
2A
102
}
330
2A
100
AcDbVisualStyle
  2
FlatWithEdges
 70
     1
 71
     2
 72
     1
 73
     1
 90
        2
 40
-0.6
 41
30.0
 62
     5
 63
     7
 74
     1
 91
        4
 64
     7
 65
   257
 75
     1
175
     1
 42
1.0
 92
        0
 66
   257
 43
1.0
 76
     1
 77
     6
 78
     2
 67
     7
 79
     5
170
     0
171
     0
290
     0
174
     0
 93
       13
 44
0.0
173
     0
291
     1
 45
0.0
1001
ACAD
1000
AcDbSavedByObjectVersion
1070
     0
  0
VISUALSTYLE
  5
2D
102
{ACAD_REACTORS
330
2A
102
}
330
2A
100
AcDbVisualStyle
  2
Gouraud
 70
     2
 71
     2
 72
     2
 73
     1
 90
        2
 40
-0.6
 41
30.0
 62
     5
 63
     7
 74
     0
 91
        4
 64
     7
 65
   257
 75
     1
175
     1
 42
1.0
 92
        0
 66
     7
 43
1.0
 76
     1
 77
     6
 78
     2
 67
     7
 79
     5
170
     0
171
     0
290
     0
174
     0
 93
       13
 44
0.0
173
     0
291
     1
 45
0.0
1001
ACAD
1000
AcDbSavedByObjectVersion
1070
     0
  0
VISUALSTYLE
  5
2E
102
{ACAD_REACTORS
330
2A
102
}
330
2A
100
AcDbVisualStyle
  2
GouraudWithEdges
 70
     3
 71
     2
 72
     2
 73
     1
 90
        2
 40
-0.6
 41
30.0
 62
     5
 63
     7
 74
     1
 91
        4
 64
     7
 65
   257
 75
     1
175
     1
 42
1.0
 92
        0
 66
   257
 43
1.0
 76
     1
 77
     6
 78
     2
 67
     7
 79
     5
170
     0
171
     0
290
     0
174
     0
 93
       13
 44
0.0
173
     0
291
     1
 45
0.0
1001
ACAD
1000
AcDbSavedByObjectVersion
1070
     0
  0
VISUALSTYLE
  5
38
102
{ACAD_REACTORS
330
2A
102
}
330
2A
100
AcDbVisualStyle
  2
Linepattern
 70
    14
 71
     2
 72
     2
 73
     0
 90
        0
 40
-0.6
 41
-30.0
 62
     5
 63
     7
 74
     1
 91
        4
 64
     7
 65
   257
 75
     7
175
     7
 42
1.0
 92
        8
 66
     7
 43
1.0
 76
     1
 77
     6
 78
     2
 67
     7
 79
     5
170
     0
171
     0
290
     0
174
     0
 93
        1
 44
0.0
173
     0
291
     1
 45
0.0
1001
ACAD
1000
AcDbSavedByObjectVersion
1070
     0
  0
VISUALSTYLE
  5
33
102
{ACAD_REACTORS
330
2A
102
}
330
2A
100
AcDbVisualStyle
  2
Realistic
 70
     8
 71
     2
 72
     2
 73
     0
 90
        0
 40
-0.6
 41
-30.0
 62
     5
 63
     7
 74
     1
 91
        0
 64
     7
 65
   257
 75
     1
175
     1
 42
1.0
 92
        8
 66
     8
 43
1.0
 76
     1
 77
     6
 78
     2
 67
     7
 79
     5
170
     0
171
     0
290
     0
174
     0
 93
       13
 44
0.0
173
     0
291
     0
 45
0.0
1001
ACAD
1000
AcDbSavedByObjectVersion
1070
     0
  0
VISUALSTYLE
  5
37
102
{ACAD_REACTORS
330
2A
102
}
330
2A
100
AcDbVisualStyle
  2
Thicken
 70
    13
 71
     2
 72
     2
 73
     0
 90
        0
 40
-0.6
 41
-30.0
 62
     5
 63
     7
 74
     1
 91
        4
 64
     7
 65
   257
 75
     1
175
     1
 42
1.0
 92
       12
 66
     7
 43
1.0
 76
     1
 77
     6
 78
     2
 67
     7
 79
     5
170
     0
171
     0
290
     0
174
     0
 93
        1
 44
0.0
173
     0
291
     1
 45
0.0
1001
ACAD
1000
AcDbSavedByObjectVersion
1070
     0
  0
DICTIONARYVAR
  5
CA
102
{ACAD_REACTORS
330
C9
102
}
330
C9
100
DictionaryVariables
280
     0
  1
1:1
  0
ENDSEC
  0
EOF
