  0
SECTION
  2
ENTITIES
  0
POLYLINE
  5
3E8
  100
AcDbEntity
  8
Layer 1
  62
0
  100
AcDb2dPolyline
 66
     1
  10
0
  20
0
  30
0
  70
1
  0
VERTEX
  5
3E9
  100
AcDbEntity
  8
Layer 1
  62
0
  100
AcDb2dVertex
  10
15.75695
  20
20.80614
  30
0.00000
  42
-0.0249
  70
32
  0
VERTEX
  5
3EA
  100
AcDbEntity
  8
Layer 1
  62
0
  100
AcDb2dVertex
  10
14.26837
  20
21.08627
  30
0.00000
  42
-0.1559
  70
32
  0
VERTEX
  5
3EB
  100
AcDbEntity
  8
Layer 1
  62
0
  100
AcDb2dVertex
  10
14.23217
  20
21.09846
  30
0.00000
  42
-0.4824
  70
32
  0
VERTEX
  5
3EC
  100
AcDbEntity
  8
Layer 1
  62
0
  100
AcDb2dVertex
  10
14.23217
  20
21.11853
  30
0.00000
  70
32
  0
VERTEX
  5
3ED
  100
AcDbEntity
  8
Layer 1
  62
0
  100
AcDb2dVertex
  10
14.24607
  20
21.12625
  30
0.00000
  42
-0.0998
  70
32
  0
VERTEX
  5
3EE
  100
AcDbEntity
  8
Layer 1
  62
0
  100
AcDb2dVertex
  10
14.30058
  20
21.13004
  30
0.00000
  42
0.0364
  70
32
  0
VERTEX
  5
3EF
  100
AcDbEntity
  8
Layer 1
  62
0
  100
AcDb2dVertex
  10
15.59468
  20
20.88679
  30
0.00000
  42
-0.0318
  70
32
  0
VERTEX
  5
3F0
  100
AcDbEntity
  8
Layer 1
  62
0
  100
AcDb2dVertex
  10
15.79786
  20
20.84700
  30
0.00000
  42
0.0116
  70
32
  0
VERTEX
  5
3F1
  100
AcDbEntity
  8
Layer 1
  62
0
  100
AcDb2dVertex
  10
16.17957
  20
20.84010
  30
0.00000
  42
0.0623
  70
32
  0
VERTEX
  5
3F2
  100
AcDbEntity
  8
Layer 1
  62
0
  100
AcDb2dVertex
  10
16.87849
  20
20.79049
  30
0.00000
  42
-0.1589
  70
32
  0
VERTEX
  5
3F3
  100
AcDbEntity
  8
Layer 1
  62
0
  100
AcDb2dVertex
  10
16.91483
  20
20.77845
  30
0.00000
  42
-0.4833
  70
32
  0
VERTEX
  5
3F4
  100
AcDbEntity
  8
Layer 1
  62
0
  100
AcDb2dVertex
  10
16.91483
  20
20.75838
  30
0.00000
  42
-0.1589
  70
32
  0
VERTEX
  5
3F5
  100
AcDbEntity
  8
Layer 1
  62
0
  100
AcDb2dVertex
  10
16.87849
  20
20.74633
  30
0.00000
  42
-0.0493
  70
32
  0
VERTEX
  5
3F6
  100
AcDbEntity
  8
Layer 1
  62
0
  100
AcDb2dVertex
  10
16.35083
  20
20.76844
  30
0.00000
  42
0.0143
  70
32
  0
VERTEX
  5
3F7
  100
AcDbEntity
  8
Layer 1
  62
0
  100
AcDb2dVertex
  10
15.75695
  20
20.80614
  30
0.00000
  70
32
  0
SEQEND
  5
3F8
  100
AcDbEntity
  8
Layer 1
  62
0
  0
POLYLINE
  5
3F9
  100
AcDbEntity
  8
Layer 1
  62
0
  100
AcDb2dPolyline
 66
     1
  10
0
  20
0
  30
0
  70
1
  0
VERTEX
  5
3FA
  100
AcDbEntity
  8
Layer 1
  62
0
  100
AcDb2dVertex
  10
10.35627
  20
20.25288
  30
0.00000
  42
-0.1147
  70
32
  0
VERTEX
  5
3FB
  100
AcDbEntity
  8
Layer 1
  62
0
  100
AcDb2dVertex
  10
11.71115
  20
21.08423
  30
0.00000
  42
-0.0930
  70
32
  0
VERTEX
  5
3FC
  100
AcDbEntity
  8
Layer 1
  62
0
  100
AcDb2dVertex
  10
12.55460
  20
21.27632
  30
0.00000
  42
-0.1590
  70
32
  0
VERTEX
  5
3FD
  100
AcDbEntity
  8
Layer 1
  62
0
  100
AcDb2dVertex
  10
12.59094
  20
21.26428
  30
0.00000
  42
-0.4833
  70
32
  0
VERTEX
  5
3FE
  100
AcDbEntity
  8
Layer 1
  62
0
  100
AcDb2dVertex
  10
12.59094
  20
21.24421
  30
0.00000
  42
-0.1590
  70
32
  0
VERTEX
  5
3FF
  100
AcDbEntity
  8
Layer 1
  62
0
  100
AcDb2dVertex
  10
12.55460
  20
21.23216
  30
0.00000
  70
32
  0
VERTEX
  5
400
  100
AcDbEntity
  8
Layer 1
  62
0
  100
AcDb2dVertex
  10
12.43713
  20
21.22891
  30
0.00000
  42
0.0746
  70
32
  0
VERTEX
  5
401
  100
AcDbEntity
  8
Layer 1
  62
0
  100
AcDb2dVertex
  10
11.16868
  20
20.80079
  30
0.00000
  42
0.0316
  70
32
  0
VERTEX
  5
402
  100
AcDbEntity
  8
Layer 1
  62
0
  100
AcDb2dVertex
  10
11.01151
  20
20.71505
  30
0.00000
  42
0.1336
  70
32
  0
VERTEX
  5
403
  100
AcDbEntity
  8
Layer 1
  62
0
  100
AcDb2dVertex
  10
10.21523
  20
19.98562
  30
0.00000
  42
-0.4678
  70
32
  0
VERTEX
  5
404
  100
AcDbEntity
  8
Layer 1
  62
0
  100
AcDb2dVertex
  10
10.19522
  20
19.98562
  30
0.00000
  70
32
  0
VERTEX
  5
405
  100
AcDbEntity
  8
Layer 1
  62
0
  100
AcDb2dVertex
  10
10.18837
  20
19.99869
  30
0.00000
  42
-0.2407
  70
32
  0
VERTEX
  5
406
  100
AcDbEntity
  8
Layer 1
  62
0
  100
AcDb2dVertex
  10
10.21144
  20
20.06418
  30
0.00000
  42
0.0464
  70
32
  0
VERTEX
  5
407
  100
AcDbEntity
  8
Layer 1
  62
0
  100
AcDb2dVertex
  10
10.35627
  20
20.25288
  30
0.00000
  70
32
  0
SEQEND
  5
408
  100
AcDbEntity
  8
Layer 1
  62
0
  0
POLYLINE
  5
409
  100
AcDbEntity
  8
Layer 1
  62
0
  100
AcDb2dPolyline
 66
     1
  10
0
  20
0
  30
0
  70
1
  0
VERTEX
  5
40A
  100
AcDbEntity
  8
Layer 1
  62
0
  100
AcDb2dVertex
  10
7.66429
  20
18.68491
  30
0.00000
  70
32
  0
VERTEX
  5
40B
  100
AcDbEntity
  8
Layer 1
  62
0
  100
AcDb2dVertex
  10
7.67721
  20
18.69001
  30
0.00000
  42
-0.4971
  70
32
  0
VERTEX
  5
40C
  100
AcDbEntity
  8
Layer 1
  62
0
  100
AcDb2dVertex
  10
7.68945
  20
18.67781
  30
0.00000
  70
32
  0
VERTEX
  5
40D
  100
AcDbEntity
  8
Layer 1
  62
0
  100
AcDb2dVertex
  10
7.68430
  20
18.66484
  30
0.00000
  42
0.0270
  70
32
  0
VERTEX
  5
40E
  100
AcDbEntity
  8
Layer 1
  62
0
  100
AcDb2dVertex
  10
7.55736
  20
18.48504
  30
0.00000
  42
0.0146
  70
32
  0
VERTEX
  5
40F
  100
AcDbEntity
  8
Layer 1
  62
0
  100
AcDb2dVertex
  10
7.48327
  20
18.37130
  30
0.00000
  42
-0.1154
  70
32
  0
VERTEX
  5
410
  100
AcDbEntity
  8
Layer 1
  62
0
  100
AcDb2dVertex
  10
7.44926
  20
18.33093
  30
0.00000
  70
32
  0
VERTEX
  5
411
  100
AcDbEntity
  8
Layer 1
  62
0
  100
AcDb2dVertex
  10
7.43634
  20
18.32559
  30
0.00000
  42
-0.4203
  70
32
  0
VERTEX
  5
412
  100
AcDbEntity
  8
Layer 1
  62
0
  100
AcDb2dVertex
  10
7.42215
  20
18.33977
  30
0.00000
  70
32
  0
VERTEX
  5
413
  100
AcDbEntity
  8
Layer 1
  62
0
  100
AcDb2dVertex
  10
7.42720
  20
18.35304
  30
0.00000
  42
-0.0127
  70
32
  0
VERTEX
  5
414
  100
AcDbEntity
  8
Layer 1
  62
0
  100
AcDb2dVertex
  10
7.48968
  20
18.45686
  30
0.00000
  42
-0.0754
  70
32
  0
VERTEX
  5
415
  100
AcDbEntity
  8
Layer 1
  62
0
  100
AcDb2dVertex
  10
7.66429
  20
18.68491
  30
0.00000
  70
32
  0
SEQEND
  5
416
  100
AcDbEntity
  8
Layer 1
  62
0
  0
POLYLINE
  5
417
  100
AcDbEntity
  8
Layer 1
  62
0
  100
AcDb2dPolyline
 66
     1
  10
0
  20
0
  30
0
  70
1
  0
VERTEX
  5
418
  100
AcDbEntity
  8
Layer 1
  62
0
  100
AcDb2dVertex
  10
11.01758
  20
23.86687
  30
0.00000
  42
-0.0804
  70
32
  0
VERTEX
  5
419
  100
AcDbEntity
  8
Layer 1
  62
0
  100
AcDb2dVertex
  10
11.32137
  20
23.90316
  30
0.00000
  42
0.0155
  70
32
  0
VERTEX
  5
41A
  100
AcDbEntity
  8
Layer 1
  62
0
  100
AcDb2dVertex
  10
11.61744
  20
23.94718
  30
0.00000
  42
0.0527
  70
32
  0
VERTEX
  5
41B
  100
AcDbEntity
  8
Layer 1
  62
0
  100
AcDb2dVertex
  10
12.30756
  20
23.98575
  30
0.00000
  42
-0.0140
  70
32
  0
VERTEX
  5
41C
  100
AcDbEntity
  8
Layer 1
  62
0
  100
AcDb2dVertex
  10
13.36176
  20
23.99799
  30
0.00000
  42
0.0601
  70
32
  0
VERTEX
  5
41D
  100
AcDbEntity
  8
Layer 1
  62
0
  100
AcDb2dVertex
  10
14.03969
  20
23.94718
  30
0.00000
  42
-0.0334
  70
32
  0
VERTEX
  5
41E
  100
AcDbEntity
  8
Layer 1
  62
0
  100
AcDb2dVertex
  10
14.24320
  20
23.90773
  30
0.00000
  42
-0.0667
  70
32
  0
VERTEX
  5
41F
  100
AcDbEntity
  8
Layer 1
  62
0
  100
AcDb2dVertex
  10
14.99046
  20
23.82907
  30
0.00000
  42
-0.0886
  70
32
  0
VERTEX
  5
420
  100
AcDbEntity
  8
Layer 1
  62
0
  100
AcDb2dVertex
  10
19.84880
  20
22.12876
  30
0.00000
  42
-0.0401
  70
32
  0
VERTEX
  5
421
  100
AcDbEntity
  8
Layer 1
  62
0
  100
AcDb2dVertex
  10
22.77836
  20
20.15143
  30
0.00000
  42
-0.0104
  70
32
  0
VERTEX
  5
422
  100
AcDbEntity
  8
Layer 1
  62
0
  100
AcDb2dVertex
  10
23.92200
  20
19.21257
  30
0.00000
  42
-0.1053
  70
32
  0
VERTEX
  5
423
  100
AcDbEntity
  8
Layer 1
  62
0
  100
AcDb2dVertex
  10
23.95946
  20
19.17953
  30
0.00000
  70
32
  0
VERTEX
  5
424
  100
AcDbEntity
  8
Layer 1
  62
0
  100
AcDb2dVertex
  10
23.96471
  20
19.16671
  30
0.00000
  42
-0.4915
  70
32
  0
VERTEX
  5
425
  100
AcDbEntity
  8
Layer 1
  62
0
  100
AcDb2dVertex
  10
23.95237
  20
19.15437
  30
0.00000
  70
32
  0
VERTEX
  5
426
  100
AcDbEntity
  8
Layer 1
  62
0
  100
AcDb2dVertex
  10
23.93872
  20
19.15879
  30
0.00000
  42
-0.0211
  70
32
  0
VERTEX
  5
427
  100
AcDbEntity
  8
Layer 1
  62
0
  100
AcDb2dVertex
  10
23.86472
  20
19.20144
  30
0.00000
  42
0.0526
  70
32
  0
VERTEX
  5
428
  100
AcDbEntity
  8
Layer 1
  62
0
  100
AcDb2dVertex
  10
19.88121
  20
22.06395
  30
0.00000
  42
0.0324
  70
32
  0
VERTEX
  5
429
  100
AcDbEntity
  8
Layer 1
  62
0
  100
AcDb2dVertex
  10
18.68281
  20
22.66318
  30
0.00000
  42
0.0679
  70
32
  0
VERTEX
  5
42A
  100
AcDbEntity
  8
Layer 1
  62
0
  100
AcDb2dVertex
  10
14.86681
  20
23.80264
  30
0.00000
  42
0.0682
  70
32
  0
VERTEX
  5
42B
  100
AcDbEntity
  8
Layer 1
  62
0
  100
AcDb2dVertex
  10
14.28950
  20
23.85686
  30
0.00000
  42
-0.0334
  70
32
  0
VERTEX
  5
42C
  100
AcDbEntity
  8
Layer 1
  62
0
  100
AcDb2dVertex
  10
14.08599
  20
23.89631
  30
0.00000
  42
-0.0584
  70
32
  0
VERTEX
  5
42D
  100
AcDbEntity
  8
Layer 1
  62
0
  100
AcDb2dVertex
  10
13.49531
  20
23.93717
  30
0.00000
  42
0.0140
  70
32
  0
VERTEX
  5
42E
  100
AcDbEntity
  8
Layer 1
  62
0
  100
AcDb2dVertex
  10
12.44111
  20
23.94941
  30
0.00000
  42
-0.0686
  70
32
  0
VERTEX
  5
42F
  100
AcDbEntity
  8
Layer 1
  62
0
  100
AcDb2dVertex
  10
11.80832
  20
23.90199
  30
0.00000
  42
0.0527
  70
32
  0
VERTEX
  5
430
  100
AcDbEntity
  8
Layer 1
  62
0
  100
AcDb2dVertex
  10
9.16142
  20
23.43963
  30
0.00000
  42
0.0929
  70
32
  0
VERTEX
  5
431
  100
AcDbEntity
  8
Layer 1
  62
0
  100
AcDb2dVertex
  10
5.49224
  20
21.52172
  30
0.00000
  42
0.0937
  70
32
  0
VERTEX
  5
432
  100
AcDbEntity
  8
Layer 1
  62
0
  100
AcDb2dVertex
  10
3.69977
  20
19.57335
  30
0.00000
  42
0.0602
  70
32
  0
VERTEX
  5
433
  100
AcDbEntity
  8
Layer 1
  62
0
  100
AcDb2dVertex
  10
3.19902
  20
18.43004
  30
0.00000
  42
0.0216
  70
32
  0
VERTEX
  5
434
  100
AcDbEntity
  8
Layer 1
  62
0
  100
AcDb2dVertex
  10
3.17842
  20
18.34774
  30
0.00000
  70
32
  0
VERTEX
  5
435
  100
AcDbEntity
  8
Layer 1
  62
0
  100
AcDb2dVertex
  10
3.17060
  20
18.33394
  30
0.00000
  42
-0.4814
  70
32
  0
VERTEX
  5
436
  100
AcDbEntity
  8
Layer 1
  62
0
  100
AcDb2dVertex
  10
3.15054
  20
18.33394
  30
0.00000
  70
32
  0
VERTEX
  5
437
  100
AcDbEntity
  8
Layer 1
  62
0
  100
AcDb2dVertex
  10
3.14296
  20
18.34774
  30
0.00000
  42
-0.1399
  70
32
  0
VERTEX
  5
438
  100
AcDbEntity
  8
Layer 1
  62
0
  100
AcDb2dVertex
  10
3.14291
  20
18.39846
  30
0.00000
  42
-0.0075
  70
32
  0
VERTEX
  5
439
  100
AcDbEntity
  8
Layer 1
  62
0
  100
AcDb2dVertex
  10
3.29493
  20
18.86073
  30
0.00000
  42
-0.1070
  70
32
  0
VERTEX
  5
43A
  100
AcDbEntity
  8
Layer 1
  62
0
  100
AcDb2dVertex
  10
4.83666
  20
21.01135
  30
0.00000
  42
-0.1573
  70
32
  0
VERTEX
  5
43B
  100
AcDbEntity
  8
Layer 1
  62
0
  100
AcDb2dVertex
  10
11.01758
  20
23.86687
  30
0.00000
  70
32
  0
SEQEND
  5
43C
  100
AcDbEntity
  8
Layer 1
  62
0
  0
POLYLINE
  5
43D
  100
AcDbEntity
  8
Layer 1
  62
0
  100
AcDb2dPolyline
 66
     1
  10
0
  20
0
  30
0
  70
1
  0
VERTEX
  5
43E
  100
AcDbEntity
  8
Layer 1
  62
0
  100
AcDb2dVertex
  10
4.42161
  20
18.00688
  30
0.00000
  42
0.0199
  70
32
  0
VERTEX
  5
43F
  100
AcDbEntity
  8
Layer 1
  62
0
  100
AcDb2dVertex
  10
4.54317
  20
17.97152
  30
0.00000
  42
-0.1502
  70
32
  0
VERTEX
  5
440
  100
AcDbEntity
  8
Layer 1
  62
0
  100
AcDb2dVertex
  10
4.57523
  20
17.95359
  30
0.00000
  42
-0.4093
  70
32
  0
VERTEX
  5
441
  100
AcDbEntity
  8
Layer 1
  62
0
  100
AcDb2dVertex
  10
4.57494
  20
17.93828
  30
0.00000
  70
32
  0
VERTEX
  5
442
  100
AcDbEntity
  8
Layer 1
  62
0
  100
AcDb2dVertex
  10
4.56051
  20
17.93095
  30
0.00000
  42
-0.1546
  70
32
  0
VERTEX
  5
443
  100
AcDbEntity
  8
Layer 1
  62
0
  100
AcDb2dVertex
  10
4.50906
  20
17.93250
  30
0.00000
  42
0.1038
  70
32
  0
VERTEX
  5
444
  100
AcDbEntity
  8
Layer 1
  62
0
  100
AcDb2dVertex
  10
4.24710
  20
17.97569
  30
0.00000
  42
-0.0873
  70
32
  0
VERTEX
  5
445
  100
AcDbEntity
  8
Layer 1
  62
0
  100
AcDb2dVertex
  10
4.14212
  20
17.98444
  30
0.00000
  42
-0.2742
  70
32
  0
VERTEX
  5
446
  100
AcDbEntity
  8
Layer 1
  62
0
  100
AcDb2dVertex
  10
4.12984
  20
17.99421
  30
0.00000
  42
-0.2739
  70
32
  0
VERTEX
  5
447
  100
AcDbEntity
  8
Layer 1
  62
0
  100
AcDb2dVertex
  10
4.13250
  20
18.00965
  30
0.00000
  70
32
  0
VERTEX
  5
448
  100
AcDbEntity
  8
Layer 1
  62
0
  100
AcDb2dVertex
  10
4.17442
  20
18.02044
  30
0.00000
  42
-0.0680
  70
32
  0
VERTEX
  5
449
  100
AcDbEntity
  8
Layer 1
  62
0
  100
AcDb2dVertex
  10
4.42161
  20
18.00688
  30
0.00000
  70
32
  0
SEQEND
  5
44A
  100
AcDbEntity
  8
Layer 1
  62
0
  0
POLYLINE
  5
44B
  100
AcDbEntity
  8
Layer 1
  62
0
  100
AcDb2dPolyline
 66
     1
  10
0
  20
0
  30
0
  70
1
  0
VERTEX
  5
44C
  100
AcDbEntity
  8
Layer 1
  62
0
  100
AcDb2dVertex
  10
12.30834
  20
18.57210
  30
0.00000
  42
0.1228
  70
32
  0
VERTEX
  5
44D
  100
AcDbEntity
  8
Layer 1
  62
0
  100
AcDb2dVertex
  10
11.92880
  20
19.16423
  30
0.00000
  42
0.1046
  70
32
  0
VERTEX
  5
44E
  100
AcDbEntity
  8
Layer 1
  62
0
  100
AcDb2dVertex
  10
11.78121
  20
19.25950
  30
0.00000
  42
0.4498
  70
32
  0
VERTEX
  5
44F
  100
AcDbEntity
  8
Layer 1
  62
0
  100
AcDb2dVertex
  10
11.29154
  20
19.03028
  30
0.00000
  42
-0.0103
  70
32
  0
VERTEX
  5
450
  100
AcDbEntity
  8
Layer 1
  62
0
  100
AcDb2dVertex
  10
11.26234
  20
18.97223
  30
0.00000
  42
0.1714
  70
32
  0
VERTEX
  5
451
  100
AcDbEntity
  8
Layer 1
  62
0
  100
AcDb2dVertex
  10
11.25768
  20
18.92933
  30
0.00000
  42
0.2480
  70
32
  0
VERTEX
  5
452
  100
AcDbEntity
  8
Layer 1
  62
0
  100
AcDb2dVertex
  10
11.28197
  20
18.90504
  30
0.00000
  42
0.0417
  70
32
  0
VERTEX
  5
453
  100
AcDbEntity
  8
Layer 1
  62
0
  100
AcDb2dVertex
  10
11.37214
  20
18.89129
  30
0.00000
  42
-0.3926
  70
32
  0
VERTEX
  5
454
  100
AcDbEntity
  8
Layer 1
  62
0
  100
AcDb2dVertex
  10
11.68157
  20
18.48504
  30
0.00000
  42
-0.4460
  70
32
  0
VERTEX
  5
455
  100
AcDbEntity
  8
Layer 1
  62
0
  100
AcDb2dVertex
  10
10.83700
  20
17.82951
  30
0.00000
  42
-0.0154
  70
32
  0
VERTEX
  5
456
  100
AcDbEntity
  8
Layer 1
  62
0
  100
AcDb2dVertex
  10
10.69669
  20
17.83495
  30
0.00000
  42
-0.3751
  70
32
  0
VERTEX
  5
457
  100
AcDbEntity
  8
Layer 1
  62
0
  100
AcDb2dVertex
  10
10.42458
  20
18.13043
  30
0.00000
  70
32
  0
VERTEX
  5
458
  100
AcDbEntity
  8
Layer 1
  62
0
  100
AcDb2dVertex
  10
10.41714
  20
18.18494
  30
0.00000
  42
0.4829
  70
32
  0
VERTEX
  5
459
  100
AcDbEntity
  8
Layer 1
  62
0
  100
AcDb2dVertex
  10
10.38498
  20
18.19898
  30
0.00000
  42
0.0295
  70
32
  0
VERTEX
  5
45A
  100
AcDbEntity
  8
Layer 1
  62
0
  100
AcDb2dVertex
  10
10.32464
  20
18.14267
  30
0.00000
  42
0.2006
  70
32
  0
VERTEX
  5
45B
  100
AcDbEntity
  8
Layer 1
  62
0
  100
AcDb2dVertex
  10
10.16782
  20
17.86643
  30
0.00000
  42
0.3985
  70
32
  0
VERTEX
  5
45C
  100
AcDbEntity
  8
Layer 1
  62
0
  100
AcDb2dVertex
  10
10.62158
  20
17.07963
  30
0.00000
  42
0.0868
  70
32
  0
VERTEX
  5
45D
  100
AcDbEntity
  8
Layer 1
  62
0
  100
AcDb2dVertex
  10
10.88534
  20
17.05189
  30
0.00000
  42
0.2138
  70
32
  0
VERTEX
  5
45E
  100
AcDbEntity
  8
Layer 1
  62
0
  100
AcDb2dVertex
  10
11.77859
  20
17.37307
  30
0.00000
  42
0.0612
  70
32
  0
VERTEX
  5
45F
  100
AcDbEntity
  8
Layer 1
  62
0
  100
AcDb2dVertex
  10
11.94863
  20
17.54311
  30
0.00000
  42
0.2086
  70
32
  0
VERTEX
  5
460
  100
AcDbEntity
  8
Layer 1
  62
0
  100
AcDb2dVertex
  10
12.30834
  20
18.57210
  30
0.00000
  70
32
  0
SEQEND
  5
461
  100
AcDbEntity
  8
Layer 1
  62
0
  0
POLYLINE
  5
462
  100
AcDbEntity
  8
Layer 1
  62
0
  100
AcDb2dPolyline
 66
     1
  10
0
  20
0
  30
0
  70
1
  0
VERTEX
  5
463
  100
AcDbEntity
  8
Layer 1
  62
0
  100
AcDb2dVertex
  10
7.80639
  20
18.82084
  30
0.00000
  42
0.1331
  70
32
  0
VERTEX
  5
464
  100
AcDbEntity
  8
Layer 1
  62
0
  100
AcDb2dVertex
  10
7.74586
  20
18.73747
  30
0.00000
  42
-0.2393
  70
32
  0
VERTEX
  5
465
  100
AcDbEntity
  8
Layer 1
  62
0
  100
AcDb2dVertex
  10
7.72958
  20
18.72611
  30
0.00000
  42
-0.1173
  70
32
  0
VERTEX
  5
466
  100
AcDbEntity
  8
Layer 1
  62
0
  100
AcDb2dVertex
  10
7.69106
  20
18.72956
  30
0.00000
  42
0.1790
  70
32
  0
VERTEX
  5
467
  100
AcDbEntity
  8
Layer 1
  62
0
  100
AcDb2dVertex
  10
7.60531
  20
18.72285
  30
0.00000
  42
0.0618
  70
32
  0
VERTEX
  5
468
  100
AcDbEntity
  8
Layer 1
  62
0
  100
AcDb2dVertex
  10
6.97455
  20
18.33939
  30
0.00000
  42
-0.0148
  70
32
  0
VERTEX
  5
469
  100
AcDbEntity
  8
Layer 1
  62
0
  100
AcDb2dVertex
  10
6.86719
  20
18.23658
  30
0.00000
  42
-0.2435
  70
32
  0
VERTEX
  5
46A
  100
AcDbEntity
  8
Layer 1
  62
0
  100
AcDb2dVertex
  10
6.84114
  20
18.23731
  30
0.00000
  42
-0.0261
  70
32
  0
VERTEX
  5
46B
  100
AcDbEntity
  8
Layer 1
  62
0
  100
AcDb2dVertex
  10
6.80529
  20
18.25330
  30
0.00000
  42
0.4569
  70
32
  0
VERTEX
  5
46C
  100
AcDbEntity
  8
Layer 1
  62
0
  100
AcDb2dVertex
  10
6.79344
  20
18.24042
  30
0.00000
  70
32
  0
VERTEX
  5
46D
  100
AcDbEntity
  8
Layer 1
  62
0
  100
AcDb2dVertex
  10
6.79902
  20
18.22502
  30
0.00000
  42
-0.0425
  70
32
  0
VERTEX
  5
46E
  100
AcDbEntity
  8
Layer 1
  62
0
  100
AcDb2dVertex
  10
6.81268
  20
18.17338
  30
0.00000
  42
-0.1131
  70
32
  0
VERTEX
  5
46F
  100
AcDbEntity
  8
Layer 1
  62
0
  100
AcDb2dVertex
  10
6.81161
  20
18.15312
  30
0.00000
  42
-0.0629
  70
32
  0
VERTEX
  5
470
  100
AcDbEntity
  8
Layer 1
  62
0
  100
AcDb2dVertex
  10
6.77760
  20
18.09618
  30
0.00000
  42
-0.0578
  70
32
  0
VERTEX
  5
471
  100
AcDbEntity
  8
Layer 1
  62
0
  100
AcDb2dVertex
  10
6.61630
  20
17.87794
  30
0.00000
  42
0.2410
  70
32
  0
VERTEX
  5
472
  100
AcDbEntity
  8
Layer 1
  62
0
  100
AcDb2dVertex
  10
6.59323
  20
17.81245
  30
0.00000
  42
0.3463
  70
32
  0
VERTEX
  5
473
  100
AcDbEntity
  8
Layer 1
  62
0
  100
AcDb2dVertex
  10
6.61096
  20
17.79467
  30
0.00000
  70
32
  0
VERTEX
  5
474
  100
AcDbEntity
  8
Layer 1
  62
0
  100
AcDb2dVertex
  10
6.62437
  20
17.79939
  30
0.00000
  42
-0.0055
  70
32
  0
VERTEX
  5
475
  100
AcDbEntity
  8
Layer 1
  62
0
  100
AcDb2dVertex
  10
6.66440
  20
17.83184
  30
0.00000
  42
-0.0156
  70
32
  0
VERTEX
  5
476
  100
AcDbEntity
  8
Layer 1
  62
0
  100
AcDb2dVertex
  10
7.29408
  20
18.21244
  30
0.00000
  70
32
  0
VERTEX
  5
477
  100
AcDbEntity
  8
Layer 1
  62
0
  100
AcDb2dVertex
  10
7.35161
  20
18.25092
  30
0.00000
  70
32
  0
VERTEX
  5
478
  100
AcDbEntity
  8
Layer 1
  62
0
  100
AcDb2dVertex
  10
7.36302
  20
18.27346
  30
0.00000
  42
-0.3919
  70
32
  0
VERTEX
  5
479
  100
AcDbEntity
  8
Layer 1
  62
0
  100
AcDb2dVertex
  10
7.41185
  20
18.29041
  30
0.00000
  42
0.2886
  70
32
  0
VERTEX
  5
47A
  100
AcDbEntity
  8
Layer 1
  62
0
  100
AcDb2dVertex
  10
7.46816
  20
18.29989
  30
0.00000
  42
-0.0464
  70
32
  0
VERTEX
  5
47B
  100
AcDbEntity
  8
Layer 1
  62
0
  100
AcDb2dVertex
  10
7.54463
  20
18.35333
  30
0.00000
  42
0.0220
  70
32
  0
VERTEX
  5
47C
  100
AcDbEntity
  8
Layer 1
  62
0
  100
AcDb2dVertex
  10
8.21872
  20
18.66926
  30
0.00000
  42
0.2793
  70
32
  0
VERTEX
  5
47D
  100
AcDbEntity
  8
Layer 1
  62
0
  100
AcDb2dVertex
  10
8.21799
  20
18.69190
  30
0.00000
  70
32
  0
VERTEX
  5
47E
  100
AcDbEntity
  8
Layer 1
  62
0
  100
AcDb2dVertex
  10
8.20837
  20
18.71620
  30
0.00000
  42
-0.2399
  70
32
  0
VERTEX
  5
47F
  100
AcDbEntity
  8
Layer 1
  62
0
  100
AcDb2dVertex
  10
8.20764
  20
18.74228
  30
0.00000
  42
-0.0185
  70
32
  0
VERTEX
  5
480
  100
AcDbEntity
  8
Layer 1
  62
0
  100
AcDb2dVertex
  10
8.26307
  20
18.80364
  30
0.00000
  42
-0.0580
  70
32
  0
VERTEX
  5
481
  100
AcDbEntity
  8
Layer 1
  62
0
  100
AcDb2dVertex
  10
8.52425
  20
19.11273
  30
0.00000
  70
32
  0
VERTEX
  5
482
  100
AcDbEntity
  8
Layer 1
  62
0
  100
AcDb2dVertex
  10
8.55875
  20
19.15077
  30
0.00000
  70
32
  0
VERTEX
  5
483
  100
AcDbEntity
  8
Layer 1
  62
0
  100
AcDb2dVertex
  10
8.56341
  20
19.16413
  30
0.00000
  42
0.3463
  70
32
  0
VERTEX
  5
484
  100
AcDbEntity
  8
Layer 1
  62
0
  100
AcDb2dVertex
  10
8.54568
  20
19.18191
  30
0.00000
  42
0.1626
  70
32
  0
VERTEX
  5
485
  100
AcDbEntity
  8
Layer 1
  62
0
  100
AcDb2dVertex
  10
8.50327
  20
19.17671
  30
0.00000
  42
0.0082
  70
32
  0
VERTEX
  5
486
  100
AcDbEntity
  8
Layer 1
  62
0
  100
AcDb2dVertex
  10
7.80639
  20
18.82084
  30
0.00000
  70
32
  0
SEQEND
  5
487
  100
AcDbEntity
  8
Layer 1
  62
0
  0
POLYLINE
  5
488
  100
AcDbEntity
  8
Layer 1
  62
0
  100
AcDb2dPolyline
 66
     1
  10
0
  20
0
  30
0
  70
1
  0
VERTEX
  5
489
  100
AcDbEntity
  8
Layer 1
  62
0
  100
AcDb2dVertex
  10
12.58574
  20
19.62679
  30
0.00000
  42
0.1989
  70
32
  0
VERTEX
  5
48A
  100
AcDbEntity
  8
Layer 1
  62
0
  100
AcDb2dVertex
  10
13.55138
  20
19.19012
  30
0.00000
  42
0.0282
  70
32
  0
VERTEX
  5
48B
  100
AcDbEntity
  8
Layer 1
  62
0
  100
AcDb2dVertex
  10
13.62343
  20
19.19168
  30
0.00000
  42
0.1589
  70
32
  0
VERTEX
  5
48C
  100
AcDbEntity
  8
Layer 1
  62
0
  100
AcDb2dVertex
  10
13.65977
  20
19.20373
  30
0.00000
  42
0.4800
  70
32
  0
VERTEX
  5
48D
  100
AcDbEntity
  8
Layer 1
  62
0
  100
AcDb2dVertex
  10
13.65982
  20
19.22379
  30
0.00000
  70
32
  0
VERTEX
  5
48E
  100
AcDbEntity
  8
Layer 1
  62
0
  100
AcDb2dVertex
  10
13.64602
  20
19.23166
  30
0.00000
  42
-0.1522
  70
32
  0
VERTEX
  5
48F
  100
AcDbEntity
  8
Layer 1
  62
0
  100
AcDb2dVertex
  10
12.73140
  20
19.77249
  30
0.00000
  42
0.0562
  70
32
  0
VERTEX
  5
490
  100
AcDbEntity
  8
Layer 1
  62
0
  100
AcDb2dVertex
  10
12.26952
  20
20.18505
  30
0.00000
  42
0.1764
  70
32
  0
VERTEX
  5
491
  100
AcDbEntity
  8
Layer 1
  62
0
  100
AcDb2dVertex
  10
11.93653
  20
20.25608
  30
0.00000
  70
32
  0
VERTEX
  5
492
  100
AcDbEntity
  8
Layer 1
  62
0
  100
AcDb2dVertex
  10
11.90019
  20
20.24403
  30
0.00000
  42
0.4800
  70
32
  0
VERTEX
  5
493
  100
AcDbEntity
  8
Layer 1
  62
0
  100
AcDb2dVertex
  10
11.90014
  20
20.22397
  30
0.00000
  70
32
  0
VERTEX
  5
494
  100
AcDbEntity
  8
Layer 1
  62
0
  100
AcDb2dVertex
  10
11.91394
  20
20.21610
  30
0.00000
  42
-0.0317
  70
32
  0
VERTEX
  5
495
  100
AcDbEntity
  8
Layer 1
  62
0
  100
AcDb2dVertex
  10
11.99376
  20
20.19467
  30
0.00000
  42
-0.1043
  70
32
  0
VERTEX
  5
496
  100
AcDbEntity
  8
Layer 1
  62
0
  100
AcDb2dVertex
  10
12.58574
  20
19.62679
  30
0.00000
  70
32
  0
SEQEND
  5
497
  100
AcDbEntity
  8
Layer 1
  62
0
  0
POLYLINE
  5
498
  100
AcDbEntity
  8
Layer 1
  62
0
  100
AcDb2dPolyline
 66
     1
  10
0
  20
0
  30
0
  70
1
  0
VERTEX
  5
499
  100
AcDbEntity
  8
Layer 1
  62
0
  100
AcDb2dVertex
  10
12.65522
  20
20.30462
  30
0.00000
  42
0.0139
  70
32
  0
VERTEX
  5
49A
  100
AcDbEntity
  8
Layer 1
  62
0
  100
AcDb2dVertex
  10
12.56456
  20
20.30403
  30
0.00000
  42
0.2814
  70
32
  0
VERTEX
  5
49B
  100
AcDbEntity
  8
Layer 1
  62
0
  100
AcDb2dVertex
  10
12.53949
  20
20.28421
  30
0.00000
  42
0.4428
  70
32
  0
VERTEX
  5
49C
  100
AcDbEntity
  8
Layer 1
  62
0
  100
AcDb2dVertex
  10
12.54989
  20
20.26420
  30
0.00000
  70
32
  0
VERTEX
  5
49D
  100
AcDbEntity
  8
Layer 1
  62
0
  100
AcDb2dVertex
  10
12.57894
  20
20.26162
  30
0.00000
  42
-0.1151
  70
32
  0
VERTEX
  5
49E
  100
AcDbEntity
  8
Layer 1
  62
0
  100
AcDb2dVertex
  10
12.70409
  20
20.23403
  30
0.00000
  70
32
  0
VERTEX
  5
49F
  100
AcDbEntity
  8
Layer 1
  62
0
  100
AcDb2dVertex
  10
12.74136
  20
20.21896
  30
0.00000
  42
0.1189
  70
32
  0
VERTEX
  5
4A0
  100
AcDbEntity
  8
Layer 1
  62
0
  100
AcDb2dVertex
  10
12.77702
  20
20.22343
  30
0.00000
  42
0.4581
  70
32
  0
VERTEX
  5
4A1
  100
AcDbEntity
  8
Layer 1
  62
0
  100
AcDb2dVertex
  10
12.78527
  20
20.24909
  30
0.00000
  42
0.2653
  70
32
  0
VERTEX
  5
4A2
  100
AcDbEntity
  8
Layer 1
  62
0
  100
AcDb2dVertex
  10
12.65522
  20
20.30462
  30
0.00000
  70
32
  0
SEQEND
  5
4A3
  100
AcDbEntity
  8
Layer 1
  62
0
  0
POLYLINE
  5
4A4
  100
AcDbEntity
  8
Layer 1
  62
0
  100
AcDb2dPolyline
 66
     1
  10
0
  20
0
  30
0
  70
1
  0
VERTEX
  5
4A5
  100
AcDbEntity
  8
Layer 1
  62
0
  100
AcDb2dVertex
  10
11.84466
  20
20.63474
  30
0.00000
  42
0.0549
  70
32
  0
VERTEX
  5
4A6
  100
AcDbEntity
  8
Layer 1
  62
0
  100
AcDb2dVertex
  10
12.63389
  20
20.35514
  30
0.00000
  42
-0.1534
  70
32
  0
VERTEX
  5
4A7
  100
AcDbEntity
  8
Layer 1
  62
0
  100
AcDb2dVertex
  10
12.81000
  20
20.28829
  30
0.00000
  70
32
  0
VERTEX
  5
4A8
  100
AcDbEntity
  8
Layer 1
  62
0
  100
AcDb2dVertex
  10
12.83901
  20
20.26871
  30
0.00000
  70
32
  0
VERTEX
  5
4A9
  100
AcDbEntity
  8
Layer 1
  62
0
  100
AcDb2dVertex
  10
12.92855
  20
20.26113
  30
0.00000
  70
32
  0
VERTEX
  5
4AA
  100
AcDbEntity
  8
Layer 1
  62
0
  100
AcDb2dVertex
  10
13.21276
  20
20.25399
  30
0.00000
  42
-0.2116
  70
32
  0
VERTEX
  5
4AB
  100
AcDbEntity
  8
Layer 1
  62
0
  100
AcDb2dVertex
  10
13.31978
  20
20.19977
  30
0.00000
  70
32
  0
VERTEX
  5
4AC
  100
AcDbEntity
  8
Layer 1
  62
0
  100
AcDb2dVertex
  10
13.32503
  20
20.18695
  30
0.00000
  42
-0.4915
  70
32
  0
VERTEX
  5
4AD
  100
AcDbEntity
  8
Layer 1
  62
0
  100
AcDb2dVertex
  10
13.31269
  20
20.17461
  30
0.00000
  42
0.0900
  70
32
  0
VERTEX
  5
4AE
  100
AcDbEntity
  8
Layer 1
  62
0
  100
AcDb2dVertex
  10
12.90819
  20
20.20750
  30
0.00000
  42
0.1590
  70
32
  0
VERTEX
  5
4AF
  100
AcDbEntity
  8
Layer 1
  62
0
  100
AcDb2dVertex
  10
12.87185
  20
20.19545
  30
0.00000
  42
0.4802
  70
32
  0
VERTEX
  5
4B0
  100
AcDbEntity
  8
Layer 1
  62
0
  100
AcDb2dVertex
  10
12.87180
  20
20.17539
  30
0.00000
  70
32
  0
VERTEX
  5
4B1
  100
AcDbEntity
  8
Layer 1
  62
0
  100
AcDb2dVertex
  10
12.88560
  20
20.16752
  30
0.00000
  42
-0.0513
  70
32
  0
VERTEX
  5
4B2
  100
AcDbEntity
  8
Layer 1
  62
0
  100
AcDb2dVertex
  10
13.32251
  20
19.97488
  30
0.00000
  42
0.1325
  70
32
  0
VERTEX
  5
4B3
  100
AcDbEntity
  8
Layer 1
  62
0
  100
AcDb2dVertex
  10
14.74084
  20
19.62450
  30
0.00000
  42
-0.1590
  70
32
  0
VERTEX
  5
4B4
  100
AcDbEntity
  8
Layer 1
  62
0
  100
AcDb2dVertex
  10
14.77718
  20
19.61245
  30
0.00000
  42
-0.4833
  70
32
  0
VERTEX
  5
4B5
  100
AcDbEntity
  8
Layer 1
  62
0
  100
AcDb2dVertex
  10
14.77718
  20
19.59239
  30
0.00000
  42
-0.1590
  70
32
  0
VERTEX
  5
4B6
  100
AcDbEntity
  8
Layer 1
  62
0
  100
AcDb2dVertex
  10
14.74084
  20
19.58034
  30
0.00000
  42
-0.1309
  70
32
  0
VERTEX
  5
4B7
  100
AcDbEntity
  8
Layer 1
  62
0
  100
AcDb2dVertex
  10
13.52160
  20
19.83394
  30
0.00000
  42
0.0806
  70
32
  0
VERTEX
  5
4B8
  100
AcDbEntity
  8
Layer 1
  62
0
  100
AcDb2dVertex
  10
12.39617
  20
20.26279
  30
0.00000
  42
0.0501
  70
32
  0
VERTEX
  5
4B9
  100
AcDbEntity
  8
Layer 1
  62
0
  100
AcDb2dVertex
  10
12.22701
  20
20.30369
  30
0.00000
  42
0.1733
  70
32
  0
VERTEX
  5
4BA
  100
AcDbEntity
  8
Layer 1
  62
0
  100
AcDb2dVertex
  10
12.19164
  20
20.29262
  30
0.00000
  42
0.4726
  70
32
  0
VERTEX
  5
4BB
  100
AcDbEntity
  8
Layer 1
  62
0
  100
AcDb2dVertex
  10
12.19154
  20
20.27241
  30
0.00000
  42
-0.1166
  70
32
  0
VERTEX
  5
4BC
  100
AcDbEntity
  8
Layer 1
  62
0
  100
AcDb2dVertex
  10
12.58565
  20
19.96682
  30
0.00000
  42
0.1777
  70
32
  0
VERTEX
  5
4BD
  100
AcDbEntity
  8
Layer 1
  62
0
  100
AcDb2dVertex
  10
13.75791
  20
19.25207
  30
0.00000
  42
0.0201
  70
32
  0
VERTEX
  5
4BE
  100
AcDbEntity
  8
Layer 1
  62
0
  100
AcDb2dVertex
  10
13.84035
  20
19.23166
  30
0.00000
  70
32
  0
VERTEX
  5
4BF
  100
AcDbEntity
  8
Layer 1
  62
0
  100
AcDb2dVertex
  10
13.85415
  20
19.22379
  30
0.00000
  42
-0.4800
  70
32
  0
VERTEX
  5
4C0
  100
AcDbEntity
  8
Layer 1
  62
0
  100
AcDb2dVertex
  10
13.85410
  20
19.20373
  30
0.00000
  42
-0.1559
  70
32
  0
VERTEX
  5
4C1
  100
AcDbEntity
  8
Layer 1
  62
0
  100
AcDb2dVertex
  10
13.81791
  20
19.19153
  30
0.00000
  42
0.0597
  70
32
  0
VERTEX
  5
4C2
  100
AcDbEntity
  8
Layer 1
  62
0
  100
AcDb2dVertex
  10
13.64097
  20
19.15432
  30
0.00000
  42
-0.0692
  70
32
  0
VERTEX
  5
4C3
  100
AcDbEntity
  8
Layer 1
  62
0
  100
AcDb2dVertex
  10
13.18205
  20
19.20290
  30
0.00000
  42
-0.1331
  70
32
  0
VERTEX
  5
4C4
  100
AcDbEntity
  8
Layer 1
  62
0
  100
AcDb2dVertex
  10
12.44534
  20
19.72935
  30
0.00000
  42
0.2561
  70
32
  0
VERTEX
  5
4C5
  100
AcDbEntity
  8
Layer 1
  62
0
  100
AcDb2dVertex
  10
11.66510
  20
20.20721
  30
0.00000
  42
0.3160
  70
32
  0
VERTEX
  5
4C6
  100
AcDbEntity
  8
Layer 1
  62
0
  100
AcDb2dVertex
  10
11.55156
  20
20.12641
  30
0.00000
  42
0.0855
  70
32
  0
VERTEX
  5
4C7
  100
AcDbEntity
  8
Layer 1
  62
0
  100
AcDb2dVertex
  10
11.49472
  20
19.73066
  30
0.00000
  42
0.1629
  70
32
  0
VERTEX
  5
4C8
  100
AcDbEntity
  8
Layer 1
  62
0
  100
AcDb2dVertex
  10
11.50696
  20
19.69427
  30
0.00000
  42
0.2933
  70
32
  0
VERTEX
  5
4C9
  100
AcDbEntity
  8
Layer 1
  62
0
  100
AcDb2dVertex
  10
11.53212
  20
19.69325
  30
0.00000
  42
-0.0402
  70
32
  0
VERTEX
  5
4CA
  100
AcDbEntity
  8
Layer 1
  62
0
  100
AcDb2dVertex
  10
11.64071
  20
19.74499
  30
0.00000
  42
-0.1413
  70
32
  0
VERTEX
  5
4CB
  100
AcDbEntity
  8
Layer 1
  62
0
  100
AcDb2dVertex
  10
11.71115
  20
19.76398
  30
0.00000
  42
-0.0980
  70
32
  0
VERTEX
  5
4CC
  100
AcDbEntity
  8
Layer 1
  62
0
  100
AcDb2dVertex
  10
12.17240
  20
19.60215
  30
0.00000
  42
-0.0942
  70
32
  0
VERTEX
  5
4CD
  100
AcDbEntity
  8
Layer 1
  62
0
  100
AcDb2dVertex
  10
12.79363
  20
18.96018
  30
0.00000
  42
-0.1501
  70
32
  0
VERTEX
  5
4CE
  100
AcDbEntity
  8
Layer 1
  62
0
  100
AcDb2dVertex
  10
12.90022
  20
18.24334
  30
0.00000
  42
-0.1532
  70
32
  0
VERTEX
  5
4CF
  100
AcDbEntity
  8
Layer 1
  62
0
  100
AcDb2dVertex
  10
12.50301
  20
17.42598
  30
0.00000
  42
-0.1059
  70
32
  0
VERTEX
  5
4D0
  100
AcDbEntity
  8
Layer 1
  62
0
  100
AcDb2dVertex
  10
11.71115
  20
16.90609
  30
0.00000
  42
-0.1284
  70
32
  0
VERTEX
  5
4D1
  100
AcDbEntity
  8
Layer 1
  62
0
  100
AcDb2dVertex
  10
10.69212
  20
16.71297
  30
0.00000
  42
-0.2019
  70
32
  0
VERTEX
  5
4D2
  100
AcDbEntity
  8
Layer 1
  62
0
  100
AcDb2dVertex
  10
9.98675
  20
17.12496
  30
0.00000
  42
-0.0765
  70
32
  0
VERTEX
  5
4D3
  100
AcDbEntity
  8
Layer 1
  62
0
  100
AcDb2dVertex
  10
9.81389
  20
17.38939
  30
0.00000
  42
0.2193
  70
32
  0
VERTEX
  5
4D4
  100
AcDbEntity
  8
Layer 1
  62
0
  100
AcDb2dVertex
  10
9.71672
  20
17.43798
  30
0.00000
  42
-0.0134
  70
32
  0
VERTEX
  5
4D5
  100
AcDbEntity
  8
Layer 1
  62
0
  100
AcDb2dVertex
  10
9.62393
  20
17.43700
  30
0.00000
  42
0.1953
  70
32
  0
VERTEX
  5
4D6
  100
AcDbEntity
  8
Layer 1
  62
0
  100
AcDb2dVertex
  10
9.16336
  20
17.17043
  30
0.00000
  70
32
  0
VERTEX
  5
4D7
  100
AcDbEntity
  8
Layer 1
  62
0
  100
AcDb2dVertex
  10
9.13878
  20
17.14648
  30
0.00000
  42
0.1408
  70
32
  0
VERTEX
  5
4D8
  100
AcDbEntity
  8
Layer 1
  62
0
  100
AcDb2dVertex
  10
9.11449
  20
17.07360
  30
0.00000
  42
-0.0177
  70
32
  0
VERTEX
  5
4D9
  100
AcDbEntity
  8
Layer 1
  62
0
  100
AcDb2dVertex
  10
9.11449
  20
16.93291
  30
0.00000
  42
0.1408
  70
32
  0
VERTEX
  5
4DA
  100
AcDbEntity
  8
Layer 1
  62
0
  100
AcDb2dVertex
  10
9.13878
  20
16.86003
  30
0.00000
  42
-0.0059
  70
32
  0
VERTEX
  5
4DB
  100
AcDbEntity
  8
Layer 1
  62
0
  100
AcDb2dVertex
  10
9.23216
  20
16.76044
  30
0.00000
  42
-0.0569
  70
32
  0
VERTEX
  5
4DC
  100
AcDbEntity
  8
Layer 1
  62
0
  100
AcDb2dVertex
  10
9.29269
  20
16.68795
  30
0.00000
  42
-0.1786
  70
32
  0
VERTEX
  5
4DD
  100
AcDbEntity
  8
Layer 1
  62
0
  100
AcDb2dVertex
  10
9.29872
  20
16.64646
  30
0.00000
  42
-0.3462
  70
32
  0
VERTEX
  5
4DE
  100
AcDbEntity
  8
Layer 1
  62
0
  100
AcDb2dVertex
  10
9.28098
  20
16.62868
  30
0.00000
  70
32
  0
VERTEX
  5
4DF
  100
AcDbEntity
  8
Layer 1
  62
0
  100
AcDb2dVertex
  10
9.26757
  20
16.63339
  30
0.00000
  42
-0.0820
  70
32
  0
VERTEX
  5
4E0
  100
AcDbEntity
  8
Layer 1
  62
0
  100
AcDb2dVertex
  10
9.08223
  20
16.85202
  30
0.00000
  42
0.1623
  70
32
  0
VERTEX
  5
4E1
  100
AcDbEntity
  8
Layer 1
  62
0
  100
AcDb2dVertex
  10
7.65438
  20
17.51328
  30
0.00000
  42
0.0334
  70
32
  0
VERTEX
  5
4E2
  100
AcDbEntity
  8
Layer 1
  62
0
  100
AcDb2dVertex
  10
6.95002
  20
17.53767
  30
0.00000
  70
32
  0
VERTEX
  5
4E3
  100
AcDbEntity
  8
Layer 1
  62
0
  100
AcDb2dVertex
  10
6.20374
  20
17.49127
  30
0.00000
  42
-0.1626
  70
32
  0
VERTEX
  5
4E4
  100
AcDbEntity
  8
Layer 1
  62
0
  100
AcDb2dVertex
  10
6.16740
  20
17.50347
  30
0.00000
  42
-0.3455
  70
32
  0
VERTEX
  5
4E5
  100
AcDbEntity
  8
Layer 1
  62
0
  100
AcDb2dVertex
  10
6.16735
  20
17.52766
  30
0.00000
  70
32
  0
VERTEX
  5
4E6
  100
AcDbEntity
  8
Layer 1
  62
0
  100
AcDb2dVertex
  10
6.20480
  20
17.56070
  30
0.00000
  42
-0.0136
  70
32
  0
VERTEX
  5
4E7
  100
AcDbEntity
  8
Layer 1
  62
0
  100
AcDb2dVertex
  10
6.45326
  20
17.69430
  30
0.00000
  42
0.1620
  70
32
  0
VERTEX
  5
4E8
  100
AcDbEntity
  8
Layer 1
  62
0
  100
AcDb2dVertex
  10
6.52696
  20
17.76640
  30
0.00000
  42
-0.0840
  70
32
  0
VERTEX
  5
4E9
  100
AcDbEntity
  8
Layer 1
  62
0
  100
AcDb2dVertex
  10
6.56704
  20
17.87202
  30
0.00000
  42
0.0205
  70
32
  0
VERTEX
  5
4EA
  100
AcDbEntity
  8
Layer 1
  62
0
  100
AcDb2dVertex
  10
6.74743
  20
18.11352
  30
0.00000
  42
0.0929
  70
32
  0
VERTEX
  5
4EB
  100
AcDbEntity
  8
Layer 1
  62
0
  100
AcDb2dVertex
  10
6.77041
  20
18.15064
  30
0.00000
  42
0.4146
  70
32
  0
VERTEX
  5
4EC
  100
AcDbEntity
  8
Layer 1
  62
0
  100
AcDb2dVertex
  10
6.74796
  20
18.20826
  30
0.00000
  42
0.2328
  70
32
  0
VERTEX
  5
4ED
  100
AcDbEntity
  8
Layer 1
  62
0
  100
AcDb2dVertex
  10
6.69472
  20
18.19932
  30
0.00000
  42
-0.0412
  70
32
  0
VERTEX
  5
4EE
  100
AcDbEntity
  8
Layer 1
  62
0
  100
AcDb2dVertex
  10
6.34725
  20
17.94611
  30
0.00000
  42
-0.0089
  70
32
  0
VERTEX
  5
4EF
  100
AcDbEntity
  8
Layer 1
  62
0
  100
AcDb2dVertex
  10
5.94513
  20
17.65271
  30
0.00000
  70
32
  0
VERTEX
  5
4F0
  100
AcDbEntity
  8
Layer 1
  62
0
  100
AcDb2dVertex
  10
5.93148
  20
17.64829
  30
0.00000
  42
-0.4915
  70
32
  0
VERTEX
  5
4F1
  100
AcDbEntity
  8
Layer 1
  62
0
  100
AcDb2dVertex
  10
5.91914
  20
17.66063
  30
0.00000
  70
32
  0
VERTEX
  5
4F2
  100
AcDbEntity
  8
Layer 1
  62
0
  100
AcDb2dVertex
  10
5.92438
  20
17.67346
  30
0.00000
  70
32
  0
VERTEX
  5
4F3
  100
AcDbEntity
  8
Layer 1
  62
0
  100
AcDb2dVertex
  10
5.96184
  20
17.70649
  30
0.00000
  42
-0.0153
  70
32
  0
VERTEX
  5
4F4
  100
AcDbEntity
  8
Layer 1
  62
0
  100
AcDb2dVertex
  10
6.71774
  20
18.25573
  30
0.00000
  42
0.1532
  70
32
  0
VERTEX
  5
4F5
  100
AcDbEntity
  8
Layer 1
  62
0
  100
AcDb2dVertex
  10
7.07721
  20
18.57254
  30
0.00000
  42
-0.3257
  70
32
  0
VERTEX
  5
4F6
  100
AcDbEntity
  8
Layer 1
  62
0
  100
AcDb2dVertex
  10
7.09446
  20
18.58104
  30
0.00000
  42
-0.2308
  70
32
  0
VERTEX
  5
4F7
  100
AcDbEntity
  8
Layer 1
  62
0
  100
AcDb2dVertex
  10
7.11544
  20
18.56588
  30
0.00000
  70
32
  0
VERTEX
  5
4F8
  100
AcDbEntity
  8
Layer 1
  62
0
  100
AcDb2dVertex
  10
7.12492
  20
18.54990
  30
0.00000
  42
0.1273
  70
32
  0
VERTEX
  5
4F9
  100
AcDbEntity
  8
Layer 1
  62
0
  100
AcDb2dVertex
  10
7.14430
  20
18.52881
  30
0.00000
  42
0.2469
  70
32
  0
VERTEX
  5
4FA
  100
AcDbEntity
  8
Layer 1
  62
0
  100
AcDb2dVertex
  10
7.15966
  20
18.52740
  30
0.00000
  42
-0.0381
  70
32
  0
VERTEX
  5
4FB
  100
AcDbEntity
  8
Layer 1
  62
0
  100
AcDb2dVertex
  10
7.67060
  20
18.80899
  30
0.00000
  42
0.0932
  70
32
  0
VERTEX
  5
4FC
  100
AcDbEntity
  8
Layer 1
  62
0
  100
AcDb2dVertex
  10
7.81878
  20
18.90368
  30
0.00000
  42
-0.0712
  70
32
  0
VERTEX
  5
4FD
  100
AcDbEntity
  8
Layer 1
  62
0
  100
AcDb2dVertex
  10
8.10153
  20
19.26790
  30
0.00000
  70
32
  0
VERTEX
  5
4FE
  100
AcDbEntity
  8
Layer 1
  62
0
  100
AcDb2dVertex
  10
8.11446
  20
19.27300
  30
0.00000
  42
-0.4971
  70
32
  0
VERTEX
  5
4FF
  100
AcDbEntity
  8
Layer 1
  62
0
  100
AcDb2dVertex
  10
8.12670
  20
19.26081
  30
0.00000
  70
32
  0
VERTEX
  5
500
  100
AcDbEntity
  8
Layer 1
  62
0
  100
AcDb2dVertex
  10
8.12155
  20
19.24784
  30
0.00000
  42
0.0561
  70
32
  0
VERTEX
  5
501
  100
AcDbEntity
  8
Layer 1
  62
0
  100
AcDb2dVertex
  10
7.94869
  20
19.02533
  30
0.00000
  42
-0.0054
  70
32
  0
VERTEX
  5
502
  100
AcDbEntity
  8
Layer 1
  62
0
  100
AcDb2dVertex
  10
7.91619
  20
18.98530
  30
0.00000
  70
32
  0
VERTEX
  5
503
  100
AcDbEntity
  8
Layer 1
  62
0
  100
AcDb2dVertex
  10
7.91153
  20
18.97189
  30
0.00000
  42
0.3462
  70
32
  0
VERTEX
  5
504
  100
AcDbEntity
  8
Layer 1
  62
0
  100
AcDb2dVertex
  10
7.92926
  20
18.95411
  30
0.00000
  42
0.1625
  70
32
  0
VERTEX
  5
505
  100
AcDbEntity
  8
Layer 1
  62
0
  100
AcDb2dVertex
  10
7.97167
  20
18.95930
  30
0.00000
  70
32
  0
VERTEX
  5
506
  100
AcDbEntity
  8
Layer 1
  62
0
  100
AcDb2dVertex
  10
8.12417
  20
19.03563
  30
0.00000
  42
0.1045
  70
32
  0
VERTEX
  5
507
  100
AcDbEntity
  8
Layer 1
  62
0
  100
AcDb2dVertex
  10
8.86900
  20
19.50392
  30
0.00000
  42
-0.0578
  70
32
  0
VERTEX
  5
508
  100
AcDbEntity
  8
Layer 1
  62
0
  100
AcDb2dVertex
  10
8.94139
  20
19.56450
  30
0.00000
  42
-0.3251
  70
32
  0
VERTEX
  5
509
  100
AcDbEntity
  8
Layer 1
  62
0
  100
AcDb2dVertex
  10
8.99600
  20
19.56373
  30
0.00000
  42
-0.4681
  70
32
  0
VERTEX
  5
50A
  100
AcDbEntity
  8
Layer 1
  62
0
  100
AcDb2dVertex
  10
8.99600
  20
19.54366
  30
0.00000
  42
0.1132
  70
32
  0
VERTEX
  5
50B
  100
AcDbEntity
  8
Layer 1
  62
0
  100
AcDb2dVertex
  10
8.83922
  20
19.42245
  30
0.00000
  42
0.2399
  70
32
  0
VERTEX
  5
50C
  100
AcDbEntity
  8
Layer 1
  62
0
  100
AcDb2dVertex
  10
8.83995
  20
19.39636
  30
0.00000
  70
32
  0
VERTEX
  5
50D
  100
AcDbEntity
  8
Layer 1
  62
0
  100
AcDb2dVertex
  10
8.84957
  20
19.37207
  30
0.00000
  42
-0.2793
  70
32
  0
VERTEX
  5
50E
  100
AcDbEntity
  8
Layer 1
  62
0
  100
AcDb2dVertex
  10
8.85029
  20
19.34943
  30
0.00000
  70
32
  0
VERTEX
  5
50F
  100
AcDbEntity
  8
Layer 1
  62
0
  100
AcDb2dVertex
  10
8.81512
  20
19.33198
  30
0.00000
  42
0.0434
  70
32
  0
VERTEX
  5
510
  100
AcDbEntity
  8
Layer 1
  62
0
  100
AcDb2dVertex
  10
8.68045
  20
19.25658
  30
0.00000
  42
0.0173
  70
32
  0
VERTEX
  5
511
  100
AcDbEntity
  8
Layer 1
  62
0
  100
AcDb2dVertex
  10
8.31166
  20
18.80364
  30
0.00000
  42
0.0186
  70
32
  0
VERTEX
  5
512
  100
AcDbEntity
  8
Layer 1
  62
0
  100
AcDb2dVertex
  10
8.25627
  20
18.74233
  30
0.00000
  42
0.3452
  70
32
  0
VERTEX
  5
513
  100
AcDbEntity
  8
Layer 1
  62
0
  100
AcDb2dVertex
  10
8.25642
  20
18.71809
  30
0.00000
  42
0.1771
  70
32
  0
VERTEX
  5
514
  100
AcDbEntity
  8
Layer 1
  62
0
  100
AcDb2dVertex
  10
8.29178
  20
18.70687
  30
0.00000
  42
0.1062
  70
32
  0
VERTEX
  5
515
  100
AcDbEntity
  8
Layer 1
  62
0
  100
AcDb2dVertex
  10
8.74497
  20
18.90062
  30
0.00000
  42
0.0139
  70
32
  0
VERTEX
  5
516
  100
AcDbEntity
  8
Layer 1
  62
0
  100
AcDb2dVertex
  10
9.33146
  20
19.62586
  30
0.00000
  42
-0.0449
  70
32
  0
VERTEX
  5
517
  100
AcDbEntity
  8
Layer 1
  62
0
  100
AcDb2dVertex
  10
9.60761
  20
19.94807
  30
0.00000
  70
32
  0
VERTEX
  5
518
  100
AcDbEntity
  8
Layer 1
  62
0
  100
AcDb2dVertex
  10
9.62053
  20
19.95317
  30
0.00000
  42
-0.4971
  70
32
  0
VERTEX
  5
519
  100
AcDbEntity
  8
Layer 1
  62
0
  100
AcDb2dVertex
  10
9.63277
  20
19.94097
  30
0.00000
  70
32
  0
VERTEX
  5
51A
  100
AcDbEntity
  8
Layer 1
  62
0
  100
AcDb2dVertex
  10
9.62762
  20
19.92800
  30
0.00000
  70
32
  0
VERTEX
  5
51B
  100
AcDbEntity
  8
Layer 1
  62
0
  100
AcDb2dVertex
  10
9.18571
  20
19.38295
  30
0.00000
  42
0.0228
  70
32
  0
VERTEX
  5
51C
  100
AcDbEntity
  8
Layer 1
  62
0
  100
AcDb2dVertex
  10
8.88702
  20
18.98612
  30
0.00000
  42
0.2939
  70
32
  0
VERTEX
  5
51D
  100
AcDbEntity
  8
Layer 1
  62
0
  100
AcDb2dVertex
  10
8.88785
  20
18.96115
  30
0.00000
  42
0.2209
  70
32
  0
VERTEX
  5
51E
  100
AcDbEntity
  8
Layer 1
  62
0
  100
AcDb2dVertex
  10
8.92016
  20
18.95299
  30
0.00000
  42
0.0552
  70
32
  0
VERTEX
  5
51F
  100
AcDbEntity
  8
Layer 1
  62
0
  100
AcDb2dVertex
  10
9.83595
  20
19.36429
  30
0.00000
  42
0.0231
  70
32
  0
VERTEX
  5
520
  100
AcDbEntity
  8
Layer 1
  62
0
  100
AcDb2dVertex
  10
10.79750
  20
20.05451
  30
0.00000
  42
-0.1255
  70
32
  0
VERTEX
  5
521
  100
AcDbEntity
  8
Layer 1
  62
0
  100
AcDb2dVertex
  10
11.13394
  20
20.25254
  30
0.00000
  70
32
  0
VERTEX
  5
522
  100
AcDbEntity
  8
Layer 1
  62
0
  100
AcDb2dVertex
  10
11.17990
  20
20.25511
  30
0.00000
  42
-0.0526
  70
32
  0
VERTEX
  5
523
  100
AcDbEntity
  8
Layer 1
  62
0
  100
AcDb2dVertex
  10
12.09408
  20
20.31258
  30
0.00000
  42
0.0533
  70
32
  0
VERTEX
  5
524
  100
AcDbEntity
  8
Layer 1
  62
0
  100
AcDb2dVertex
  10
12.20806
  20
20.34237
  30
0.00000
  42
-0.1225
  70
32
  0
VERTEX
  5
525
  100
AcDbEntity
  8
Layer 1
  62
0
  100
AcDb2dVertex
  10
12.28307
  20
20.34237
  30
0.00000
  42
0.1079
  70
32
  0
VERTEX
  5
526
  100
AcDbEntity
  8
Layer 1
  62
0
  100
AcDb2dVertex
  10
12.45758
  20
20.30923
  30
0.00000
  42
0.1613
  70
32
  0
VERTEX
  5
527
  100
AcDbEntity
  8
Layer 1
  62
0
  100
AcDb2dVertex
  10
12.49378
  20
20.32113
  30
0.00000
  42
0.4802
  70
32
  0
VERTEX
  5
528
  100
AcDbEntity
  8
Layer 1
  62
0
  100
AcDb2dVertex
  10
12.49383
  20
20.34120
  30
0.00000
  70
32
  0
VERTEX
  5
529
  100
AcDbEntity
  8
Layer 1
  62
0
  100
AcDb2dVertex
  10
12.48003
  20
20.34907
  30
0.00000
  42
-0.0416
  70
32
  0
VERTEX
  5
52A
  100
AcDbEntity
  8
Layer 1
  62
0
  100
AcDb2dVertex
  10
11.97836
  20
20.52547
  30
0.00000
  42
0.0680
  70
32
  0
VERTEX
  5
52B
  100
AcDbEntity
  8
Layer 1
  62
0
  100
AcDb2dVertex
  10
11.80254
  20
20.59262
  30
0.00000
  70
32
  0
VERTEX
  5
52C
  100
AcDbEntity
  8
Layer 1
  62
0
  100
AcDb2dVertex
  10
11.30495
  20
20.60058
  30
0.00000
  42
-0.1590
  70
32
  0
VERTEX
  5
52D
  100
AcDbEntity
  8
Layer 1
  62
0
  100
AcDb2dVertex
  10
11.26861
  20
20.61263
  30
0.00000
  42
-0.4824
  70
32
  0
VERTEX
  5
52E
  100
AcDbEntity
  8
Layer 1
  62
0
  100
AcDb2dVertex
  10
11.26861
  20
20.63270
  30
0.00000
  70
32
  0
VERTEX
  5
52F
  100
AcDbEntity
  8
Layer 1
  62
0
  100
AcDb2dVertex
  10
11.28251
  20
20.64042
  30
0.00000
  42
-0.0687
  70
32
  0
VERTEX
  5
530
  100
AcDbEntity
  8
Layer 1
  62
0
  100
AcDb2dVertex
  10
11.33614
  20
20.64645
  30
0.00000
  42
-0.0271
  70
32
  0
VERTEX
  5
531
  100
AcDbEntity
  8
Layer 1
  62
0
  100
AcDb2dVertex
  10
11.84466
  20
20.63474
  30
0.00000
  70
32
  0
SEQEND
  5
532
  100
AcDbEntity
  8
Layer 1
  62
0
  0
POLYLINE
  5
533
  100
AcDbEntity
  8
Layer 1
  62
0
  100
AcDb2dPolyline
 66
     1
  10
0
  20
0
  30
0
  70
1
  0
VERTEX
  5
534
  100
AcDbEntity
  8
Layer 1
  62
0
  100
AcDb2dVertex
  10
7.03378
  20
17.18413
  30
0.00000
  42
-0.0350
  70
32
  0
VERTEX
  5
535
  100
AcDbEntity
  8
Layer 1
  62
0
  100
AcDb2dVertex
  10
7.47146
  20
17.08745
  30
0.00000
  42
-0.0849
  70
32
  0
VERTEX
  5
536
  100
AcDbEntity
  8
Layer 1
  62
0
  100
AcDb2dVertex
  10
7.76140
  20
16.92479
  30
0.00000
  70
32
  0
VERTEX
  5
537
  100
AcDbEntity
  8
Layer 1
  62
0
  100
AcDb2dVertex
  10
7.77438
  20
16.91969
  30
0.00000
  42
0.4969
  70
32
  0
VERTEX
  5
538
  100
AcDbEntity
  8
Layer 1
  62
0
  100
AcDb2dVertex
  10
7.78662
  20
16.93189
  30
0.00000
  70
32
  0
VERTEX
  5
539
  100
AcDbEntity
  8
Layer 1
  62
0
  100
AcDb2dVertex
  10
7.78147
  20
16.94486
  30
0.00000
  42
0.1777
  70
32
  0
VERTEX
  5
53A
  100
AcDbEntity
  8
Layer 1
  62
0
  100
AcDb2dVertex
  10
6.88803
  20
17.37846
  30
0.00000
  42
0.0383
  70
32
  0
VERTEX
  5
53B
  100
AcDbEntity
  8
Layer 1
  62
0
  100
AcDb2dVertex
  10
6.51399
  20
17.39071
  30
0.00000
  42
0.0650
  70
32
  0
VERTEX
  5
53C
  100
AcDbEntity
  8
Layer 1
  62
0
  100
AcDb2dVertex
  10
6.00926
  20
17.26837
  30
0.00000
  42
0.0998
  70
32
  0
VERTEX
  5
53D
  100
AcDbEntity
  8
Layer 1
  62
0
  100
AcDb2dVertex
  10
5.97306
  20
17.23611
  30
0.00000
  42
0.3480
  70
32
  0
VERTEX
  5
53E
  100
AcDbEntity
  8
Layer 1
  62
0
  100
AcDb2dVertex
  10
5.97306
  20
17.21197
  30
0.00000
  42
0.1626
  70
32
  0
VERTEX
  5
53F
  100
AcDbEntity
  8
Layer 1
  62
0
  100
AcDb2dVertex
  10
6.00940
  20
17.19977
  30
0.00000
  42
-0.0107
  70
32
  0
VERTEX
  5
540
  100
AcDbEntity
  8
Layer 1
  62
0
  100
AcDb2dVertex
  10
7.03378
  20
17.18413
  30
0.00000
  70
32
  0
SEQEND
  5
541
  100
AcDbEntity
  8
Layer 1
  62
0
  0
POLYLINE
  5
542
  100
AcDbEntity
  8
Layer 1
  62
0
  100
AcDb2dPolyline
 66
     1
  10
0
  20
0
  30
0
  70
1
  0
VERTEX
  5
543
  100
AcDbEntity
  8
Layer 1
  62
0
  100
AcDb2dVertex
  10
7.03378
  20
17.13555
  30
0.00000
  42
0.0089
  70
32
  0
VERTEX
  5
544
  100
AcDbEntity
  8
Layer 1
  62
0
  100
AcDb2dVertex
  10
5.86366
  20
17.15119
  30
0.00000
  42
-0.1626
  70
32
  0
VERTEX
  5
545
  100
AcDbEntity
  8
Layer 1
  62
0
  100
AcDb2dVertex
  10
5.82731
  20
17.16339
  30
0.00000
  42
-0.3455
  70
32
  0
VERTEX
  5
546
  100
AcDbEntity
  8
Layer 1
  62
0
  100
AcDb2dVertex
  10
5.82727
  20
17.18758
  30
0.00000
  70
32
  0
VERTEX
  5
547
  100
AcDbEntity
  8
Layer 1
  62
0
  100
AcDb2dVertex
  10
5.86468
  20
17.22066
  30
0.00000
  42
-0.2213
  70
32
  0
VERTEX
  5
548
  100
AcDbEntity
  8
Layer 1
  62
0
  100
AcDb2dVertex
  10
7.04719
  20
17.39187
  30
0.00000
  42
-0.0549
  70
32
  0
VERTEX
  5
549
  100
AcDbEntity
  8
Layer 1
  62
0
  100
AcDb2dVertex
  10
7.27713
  20
17.33037
  30
0.00000
  42
-0.3052
  70
32
  0
VERTEX
  5
54A
  100
AcDbEntity
  8
Layer 1
  62
0
  100
AcDb2dVertex
  10
7.94364
  20
16.57262
  30
0.00000
  42
-0.1616
  70
32
  0
VERTEX
  5
54B
  100
AcDbEntity
  8
Layer 1
  62
0
  100
AcDb2dVertex
  10
7.93169
  20
16.53637
  30
0.00000
  42
-0.4803
  70
32
  0
VERTEX
  5
54C
  100
AcDbEntity
  8
Layer 1
  62
0
  100
AcDb2dVertex
  10
7.91167
  20
16.53637
  30
0.00000
  42
-0.1562
  70
32
  0
VERTEX
  5
54D
  100
AcDbEntity
  8
Layer 1
  62
0
  100
AcDb2dVertex
  10
7.89943
  20
16.57262
  30
0.00000
  42
0.3114
  70
32
  0
VERTEX
  5
54E
  100
AcDbEntity
  8
Layer 1
  62
0
  100
AcDb2dVertex
  10
7.47146
  20
17.03887
  30
0.00000
  42
0.0350
  70
32
  0
VERTEX
  5
54F
  100
AcDbEntity
  8
Layer 1
  62
0
  100
AcDb2dVertex
  10
7.03378
  20
17.13555
  30
0.00000
  70
32
  0
SEQEND
  5
550
  100
AcDbEntity
  8
Layer 1
  62
0
  0
POLYLINE
  5
551
  100
AcDbEntity
  8
Layer 1
  62
0
  100
AcDb2dPolyline
 66
     1
  10
0
  20
0
  30
0
  70
1
  0
VERTEX
  5
552
  100
AcDbEntity
  8
Layer 1
  62
0
  100
AcDb2dVertex
  10
10.03625
  20
16.78585
  30
0.00000
  42
0.2539
  70
32
  0
VERTEX
  5
553
  100
AcDbEntity
  8
Layer 1
  62
0
  100
AcDb2dVertex
  10
11.44307
  20
16.54259
  30
0.00000
  42
0.1002
  70
32
  0
VERTEX
  5
554
  100
AcDbEntity
  8
Layer 1
  62
0
  100
AcDb2dVertex
  10
12.60994
  20
17.07613
  30
0.00000
  42
0.1391
  70
32
  0
VERTEX
  5
555
  100
AcDbEntity
  8
Layer 1
  62
0
  100
AcDb2dVertex
  10
13.16330
  20
17.73735
  30
0.00000
  42
-0.0385
  70
32
  0
VERTEX
  5
556
  100
AcDbEntity
  8
Layer 1
  62
0
  100
AcDb2dVertex
  10
13.74148
  20
19.02489
  30
0.00000
  42
-0.4695
  70
32
  0
VERTEX
  5
557
  100
AcDbEntity
  8
Layer 1
  62
0
  100
AcDb2dVertex
  10
13.76150
  20
19.02489
  30
0.00000
  70
32
  0
VERTEX
  5
558
  100
AcDbEntity
  8
Layer 1
  62
0
  100
AcDb2dVertex
  10
13.76835
  20
19.01182
  30
0.00000
  42
-0.1621
  70
32
  0
VERTEX
  5
559
  100
AcDbEntity
  8
Layer 1
  62
0
  100
AcDb2dVertex
  10
13.76320
  20
18.96946
  30
0.00000
  42
0.0871
  70
32
  0
VERTEX
  5
55A
  100
AcDbEntity
  8
Layer 1
  62
0
  100
AcDb2dVertex
  10
13.48443
  20
18.04779
  30
0.00000
  42
-0.2645
  70
32
  0
VERTEX
  5
55B
  100
AcDbEntity
  8
Layer 1
  62
0
  100
AcDb2dVertex
  10
12.38315
  20
16.47700
  30
0.00000
  42
-0.0655
  70
32
  0
VERTEX
  5
55C
  100
AcDbEntity
  8
Layer 1
  62
0
  100
AcDb2dVertex
  10
11.56011
  20
16.18259
  30
0.00000
  42
-0.3462
  70
32
  0
VERTEX
  5
55D
  100
AcDbEntity
  8
Layer 1
  62
0
  100
AcDb2dVertex
  10
9.90945
  20
16.85197
  30
0.00000
  42
-0.0112
  70
32
  0
VERTEX
  5
55E
  100
AcDbEntity
  8
Layer 1
  62
0
  100
AcDb2dVertex
  10
9.85431
  20
16.92985
  30
0.00000
  42
-0.1784
  70
32
  0
VERTEX
  5
55F
  100
AcDbEntity
  8
Layer 1
  62
0
  100
AcDb2dVertex
  10
9.84829
  20
16.97139
  30
0.00000
  42
-0.3468
  70
32
  0
VERTEX
  5
560
  100
AcDbEntity
  8
Layer 1
  62
0
  100
AcDb2dVertex
  10
9.86602
  20
16.98912
  30
0.00000
  70
32
  0
VERTEX
  5
561
  100
AcDbEntity
  8
Layer 1
  62
0
  100
AcDb2dVertex
  10
9.87928
  20
16.98426
  30
0.00000
  42
-0.1075
  70
32
  0
VERTEX
  5
562
  100
AcDbEntity
  8
Layer 1
  62
0
  100
AcDb2dVertex
  10
9.91242
  20
16.94690
  30
0.00000
  42
0.0726
  70
32
  0
VERTEX
  5
563
  100
AcDbEntity
  8
Layer 1
  62
0
  100
AcDb2dVertex
  10
10.03625
  20
16.78585
  30
0.00000
  70
32
  0
SEQEND
  5
564
  100
AcDbEntity
  8
Layer 1
  62
0
  0
POLYLINE
  5
565
  100
AcDbEntity
  8
Layer 1
  62
0
  100
AcDb2dPolyline
 66
     1
  10
0
  20
0
  30
0
  70
1
  0
VERTEX
  5
566
  100
AcDbEntity
  8
Layer 1
  62
0
  100
AcDb2dVertex
  10
13.23574
  20
16.40170
  30
0.00000
  42
-0.0626
  70
32
  0
VERTEX
  5
567
  100
AcDbEntity
  8
Layer 1
  62
0
  100
AcDb2dVertex
  10
12.41648
  20
16.10360
  30
0.00000
  42
-0.0521
  70
32
  0
VERTEX
  5
568
  100
AcDbEntity
  8
Layer 1
  62
0
  100
AcDb2dVertex
  10
12.13072
  20
16.02951
  30
0.00000
  70
32
  0
VERTEX
  5
569
  100
AcDbEntity
  8
Layer 1
  62
0
  100
AcDb2dVertex
  10
12.09452
  20
16.01731
  30
0.00000
  42
0.4833
  70
32
  0
VERTEX
  5
56A
  100
AcDbEntity
  8
Layer 1
  62
0
  100
AcDb2dVertex
  10
12.09452
  20
15.99725
  30
0.00000
  42
0.1613
  70
32
  0
VERTEX
  5
56B
  100
AcDbEntity
  8
Layer 1
  62
0
  100
AcDb2dVertex
  10
12.13072
  20
15.98535
  30
0.00000
  42
0.1036
  70
32
  0
VERTEX
  5
56C
  100
AcDbEntity
  8
Layer 1
  62
0
  100
AcDb2dVertex
  10
12.30766
  20
16.01814
  30
0.00000
  42
-0.0146
  70
32
  0
VERTEX
  5
56D
  100
AcDbEntity
  8
Layer 1
  62
0
  100
AcDb2dVertex
  10
13.06895
  20
16.03412
  30
0.00000
  42
0.2194
  70
32
  0
VERTEX
  5
56E
  100
AcDbEntity
  8
Layer 1
  62
0
  100
AcDb2dVertex
  10
13.16612
  20
16.08271
  30
0.00000
  70
32
  0
VERTEX
  5
56F
  100
AcDbEntity
  8
Layer 1
  62
0
  100
AcDb2dVertex
  10
13.18191
  20
16.11545
  30
0.00000
  42
0.0084
  70
32
  0
VERTEX
  5
570
  100
AcDbEntity
  8
Layer 1
  62
0
  100
AcDb2dVertex
  10
13.43361
  20
16.44674
  30
0.00000
  42
-0.0393
  70
32
  0
VERTEX
  5
571
  100
AcDbEntity
  8
Layer 1
  62
0
  100
AcDb2dVertex
  10
14.59931
  20
17.85594
  30
0.00000
  42
-0.0549
  70
32
  0
VERTEX
  5
572
  100
AcDbEntity
  8
Layer 1
  62
0
  100
AcDb2dVertex
  10
14.81818
  20
18.11872
  30
0.00000
  42
0.0188
  70
32
  0
VERTEX
  5
573
  100
AcDbEntity
  8
Layer 1
  62
0
  100
AcDb2dVertex
  10
14.87459
  20
18.17901
  30
0.00000
  70
32
  0
VERTEX
  5
574
  100
AcDbEntity
  8
Layer 1
  62
0
  100
AcDb2dVertex
  10
14.87974
  20
18.19198
  30
0.00000
  42
0.4971
  70
32
  0
VERTEX
  5
575
  100
AcDbEntity
  8
Layer 1
  62
0
  100
AcDb2dVertex
  10
14.86749
  20
18.20418
  30
0.00000
  70
32
  0
VERTEX
  5
576
  100
AcDbEntity
  8
Layer 1
  62
0
  100
AcDb2dVertex
  10
14.85457
  20
18.19908
  30
0.00000
  42
0.0303
  70
32
  0
VERTEX
  5
577
  100
AcDbEntity
  8
Layer 1
  62
0
  100
AcDb2dVertex
  10
14.01885
  20
17.31905
  30
0.00000
  42
0.0136
  70
32
  0
VERTEX
  5
578
  100
AcDbEntity
  8
Layer 1
  62
0
  100
AcDb2dVertex
  10
13.23574
  20
16.40170
  30
0.00000
  70
32
  0
SEQEND
  5
579
  100
AcDbEntity
  8
Layer 1
  62
0
  0
POLYLINE
  5
57A
  100
AcDbEntity
  8
Layer 1
  62
0
  100
AcDb2dPolyline
 66
     1
  10
0
  20
0
  30
0
  70
1
  0
VERTEX
  5
57B
  100
AcDbEntity
  8
Layer 1
  62
0
  100
AcDb2dVertex
  10
11.62749
  20
15.87239
  30
0.00000
  42
-0.1036
  70
32
  0
VERTEX
  5
57C
  100
AcDbEntity
  8
Layer 1
  62
0
  100
AcDb2dVertex
  10
11.45055
  20
15.83960
  30
0.00000
  42
-0.1613
  70
32
  0
VERTEX
  5
57D
  100
AcDbEntity
  8
Layer 1
  62
0
  100
AcDb2dVertex
  10
11.41436
  20
15.85150
  30
0.00000
  42
-0.4802
  70
32
  0
VERTEX
  5
57E
  100
AcDbEntity
  8
Layer 1
  62
0
  100
AcDb2dVertex
  10
11.41431
  20
15.87156
  30
0.00000
  70
32
  0
VERTEX
  5
57F
  100
AcDbEntity
  8
Layer 1
  62
0
  100
AcDb2dVertex
  10
11.42811
  20
15.87943
  30
0.00000
  42
-0.0070
  70
32
  0
VERTEX
  5
580
  100
AcDbEntity
  8
Layer 1
  62
0
  100
AcDb2dVertex
  10
11.80380
  20
15.98748
  30
0.00000
  42
0.0445
  70
32
  0
VERTEX
  5
581
  100
AcDbEntity
  8
Layer 1
  62
0
  100
AcDb2dVertex
  10
13.17326
  20
16.41560
  30
0.00000
  42
0.1094
  70
32
  0
VERTEX
  5
582
  100
AcDbEntity
  8
Layer 1
  62
0
  100
AcDb2dVertex
  10
13.22801
  20
16.45801
  30
0.00000
  42
-0.0385
  70
32
  0
VERTEX
  5
583
  100
AcDbEntity
  8
Layer 1
  62
0
  100
AcDb2dVertex
  10
13.33897
  20
16.59001
  30
0.00000
  42
-0.0054
  70
32
  0
VERTEX
  5
584
  100
AcDbEntity
  8
Layer 1
  62
0
  100
AcDb2dVertex
  10
13.99455
  20
17.34334
  30
0.00000
  42
-0.0333
  70
32
  0
VERTEX
  5
585
  100
AcDbEntity
  8
Layer 1
  62
0
  100
AcDb2dVertex
  10
14.67472
  20
18.07208
  30
0.00000
  70
32
  0
VERTEX
  5
586
  100
AcDbEntity
  8
Layer 1
  62
0
  100
AcDb2dVertex
  10
15.32772
  20
18.62943
  30
0.00000
  42
-0.0176
  70
32
  0
VERTEX
  5
587
  100
AcDbEntity
  8
Layer 1
  62
0
  100
AcDb2dVertex
  10
15.38898
  20
18.68491
  30
0.00000
  70
32
  0
VERTEX
  5
588
  100
AcDbEntity
  8
Layer 1
  62
0
  100
AcDb2dVertex
  10
15.40191
  20
18.69001
  30
0.00000
  42
-0.4971
  70
32
  0
VERTEX
  5
589
  100
AcDbEntity
  8
Layer 1
  62
0
  100
AcDb2dVertex
  10
15.41415
  20
18.67781
  30
0.00000
  70
32
  0
VERTEX
  5
58A
  100
AcDbEntity
  8
Layer 1
  62
0
  100
AcDb2dVertex
  10
15.40900
  20
18.66484
  30
0.00000
  42
-0.0100
  70
32
  0
VERTEX
  5
58B
  100
AcDbEntity
  8
Layer 1
  62
0
  100
AcDb2dVertex
  10
15.18484
  20
18.43645
  30
0.00000
  42
0.0372
  70
32
  0
VERTEX
  5
58C
  100
AcDbEntity
  8
Layer 1
  62
0
  100
AcDb2dVertex
  10
13.29234
  20
16.19940
  30
0.00000
  42
-0.0689
  70
32
  0
VERTEX
  5
58D
  100
AcDbEntity
  8
Layer 1
  62
0
  100
AcDb2dVertex
  10
13.14183
  20
16.00983
  30
0.00000
  42
-0.1670
  70
32
  0
VERTEX
  5
58E
  100
AcDbEntity
  8
Layer 1
  62
0
  100
AcDb2dVertex
  10
13.06706
  20
15.98739
  30
0.00000
  42
-0.0075
  70
32
  0
VERTEX
  5
58F
  100
AcDbEntity
  8
Layer 1
  62
0
  100
AcDb2dVertex
  10
12.53716
  20
15.98292
  30
0.00000
  42
0.0153
  70
32
  0
VERTEX
  5
590
  100
AcDbEntity
  8
Layer 1
  62
0
  100
AcDb2dVertex
  10
11.62749
  20
15.87239
  30
0.00000
  70
32
  0
SEQEND
  5
591
  100
AcDbEntity
  8
Layer 1
  62
0
  0
POLYLINE
  5
592
  100
AcDbEntity
  8
Layer 1
  62
0
  100
AcDb2dPolyline
 66
     1
  10
0
  20
0
  30
0
  70
1
  0
VERTEX
  5
593
  100
AcDbEntity
  8
Layer 1
  62
0
  100
AcDb2dVertex
  10
12.57224
  20
15.51059
  30
0.00000
  42
-0.1040
  70
32
  0
VERTEX
  5
594
  100
AcDbEntity
  8
Layer 1
  62
0
  100
AcDb2dVertex
  10
12.82856
  20
15.54577
  30
0.00000
  70
32
  0
VERTEX
  5
595
  100
AcDbEntity
  8
Layer 1
  62
0
  100
AcDb2dVertex
  10
14.28829
  20
15.73786
  30
0.00000
  42
-0.0780
  70
32
  0
VERTEX
  5
596
  100
AcDbEntity
  8
Layer 1
  62
0
  100
AcDb2dVertex
  10
14.83800
  20
15.78645
  30
0.00000
  42
-0.1590
  70
32
  0
VERTEX
  5
597
  100
AcDbEntity
  8
Layer 1
  62
0
  100
AcDb2dVertex
  10
14.87434
  20
15.77440
  30
0.00000
  42
-0.4824
  70
32
  0
VERTEX
  5
598
  100
AcDbEntity
  8
Layer 1
  62
0
  100
AcDb2dVertex
  10
14.87434
  20
15.75433
  30
0.00000
  42
-0.1589
  70
32
  0
VERTEX
  5
599
  100
AcDbEntity
  8
Layer 1
  62
0
  100
AcDb2dVertex
  10
14.83800
  20
15.74228
  30
0.00000
  42
-0.0125
  70
32
  0
VERTEX
  5
59A
  100
AcDbEntity
  8
Layer 1
  62
0
  100
AcDb2dVertex
  10
14.71936
  20
15.74020
  30
0.00000
  42
0.0069
  70
32
  0
VERTEX
  5
59B
  100
AcDbEntity
  8
Layer 1
  62
0
  100
AcDb2dVertex
  10
13.94685
  20
15.64206
  30
0.00000
  42
0.0050
  70
32
  0
VERTEX
  5
59C
  100
AcDbEntity
  8
Layer 1
  62
0
  100
AcDb2dVertex
  10
13.04719
  20
15.52147
  30
0.00000
  70
32
  0
VERTEX
  5
59D
  100
AcDbEntity
  8
Layer 1
  62
0
  100
AcDb2dVertex
  10
12.60994
  20
15.47289
  30
0.00000
  42
-0.0263
  70
32
  0
VERTEX
  5
59E
  100
AcDbEntity
  8
Layer 1
  62
0
  100
AcDb2dVertex
  10
11.71115
  20
15.44860
  30
0.00000
  42
-0.2081
  70
32
  0
VERTEX
  5
59F
  100
AcDbEntity
  8
Layer 1
  62
0
  100
AcDb2dVertex
  10
9.61655
  20
16.28428
  30
0.00000
  70
32
  0
VERTEX
  5
5A0
  100
AcDbEntity
  8
Layer 1
  62
0
  100
AcDb2dVertex
  10
9.61140
  20
16.29725
  30
0.00000
  42
-0.4969
  70
32
  0
VERTEX
  5
5A1
  100
AcDbEntity
  8
Layer 1
  62
0
  100
AcDb2dVertex
  10
9.62364
  20
16.30944
  30
0.00000
  70
32
  0
VERTEX
  5
5A2
  100
AcDbEntity
  8
Layer 1
  62
0
  100
AcDb2dVertex
  10
9.63656
  20
16.30434
  30
0.00000
  42
-0.0187
  70
32
  0
VERTEX
  5
5A3
  100
AcDbEntity
  8
Layer 1
  62
0
  100
AcDb2dVertex
  10
9.69685
  20
16.24794
  30
0.00000
  42
0.0722
  70
32
  0
VERTEX
  5
5A4
  100
AcDbEntity
  8
Layer 1
  62
0
  100
AcDb2dVertex
  10
10.07910
  20
15.95420
  30
0.00000
  42
0.1127
  70
32
  0
VERTEX
  5
5A5
  100
AcDbEntity
  8
Layer 1
  62
0
  100
AcDb2dVertex
  10
11.33590
  20
15.51059
  30
0.00000
  42
0.0217
  70
32
  0
VERTEX
  5
5A6
  100
AcDbEntity
  8
Layer 1
  62
0
  100
AcDb2dVertex
  10
12.57224
  20
15.51059
  30
0.00000
  70
32
  0
SEQEND
  5
5A7
  100
AcDbEntity
  8
Layer 1
  62
0
  0
POLYLINE
  5
5A8
  100
AcDbEntity
  8
Layer 1
  62
0
  100
AcDb2dPolyline
 66
     1
  10
0
  20
0
  30
0
  70
1
  0
VERTEX
  5
5A9
  100
AcDbEntity
  8
Layer 1
  62
0
  100
AcDb2dVertex
  10
15.21034
  20
15.25548
  30
0.00000
  42
0.0575
  70
32
  0
VERTEX
  5
5AA
  100
AcDbEntity
  8
Layer 1
  62
0
  100
AcDb2dVertex
  10
14.63187
  20
15.30854
  30
0.00000
  42
0.1359
  70
32
  0
VERTEX
  5
5AB
  100
AcDbEntity
  8
Layer 1
  62
0
  100
AcDb2dVertex
  10
14.17096
  20
15.32734
  30
0.00000
  42
-0.0199
  70
32
  0
VERTEX
  5
5AC
  100
AcDbEntity
  8
Layer 1
  62
0
  100
AcDb2dVertex
  10
14.11854
  20
15.30926
  30
0.00000
  42
-0.2168
  70
32
  0
VERTEX
  5
5AD
  100
AcDbEntity
  8
Layer 1
  62
0
  100
AcDb2dVertex
  10
14.08623
  20
15.31728
  30
0.00000
  42
-0.4678
  70
32
  0
VERTEX
  5
5AE
  100
AcDbEntity
  8
Layer 1
  62
0
  100
AcDb2dVertex
  10
14.08623
  20
15.33730
  30
0.00000
  70
32
  0
VERTEX
  5
5AF
  100
AcDbEntity
  8
Layer 1
  62
0
  100
AcDb2dVertex
  10
14.12155
  20
15.35449
  30
0.00000
  42
-0.1701
  70
32
  0
VERTEX
  5
5B0
  100
AcDbEntity
  8
Layer 1
  62
0
  100
AcDb2dVertex
  10
14.59096
  20
15.36484
  30
0.00000
  42
0.0126
  70
32
  0
VERTEX
  5
5B1
  100
AcDbEntity
  8
Layer 1
  62
0
  100
AcDb2dVertex
  10
15.45204
  20
15.30285
  30
0.00000
  42
0.1903
  70
32
  0
VERTEX
  5
5B2
  100
AcDbEntity
  8
Layer 1
  62
0
  100
AcDb2dVertex
  10
17.36821
  20
15.86020
  30
0.00000
  42
-0.0176
  70
32
  0
VERTEX
  5
5B3
  100
AcDbEntity
  8
Layer 1
  62
0
  100
AcDb2dVertex
  10
17.42947
  20
15.91568
  30
0.00000
  70
32
  0
VERTEX
  5
5B4
  100
AcDbEntity
  8
Layer 1
  62
0
  100
AcDb2dVertex
  10
17.44239
  20
15.92078
  30
0.00000
  42
-0.4971
  70
32
  0
VERTEX
  5
5B5
  100
AcDbEntity
  8
Layer 1
  62
0
  100
AcDb2dVertex
  10
17.45463
  20
15.90858
  30
0.00000
  70
32
  0
VERTEX
  5
5B6
  100
AcDbEntity
  8
Layer 1
  62
0
  100
AcDb2dVertex
  10
17.44948
  20
15.89561
  30
0.00000
  42
-0.0364
  70
32
  0
VERTEX
  5
5B7
  100
AcDbEntity
  8
Layer 1
  62
0
  100
AcDb2dVertex
  10
17.34406
  20
15.79101
  30
0.00000
  42
-0.0744
  70
32
  0
VERTEX
  5
5B8
  100
AcDbEntity
  8
Layer 1
  62
0
  100
AcDb2dVertex
  10
16.68863
  20
15.42659
  30
0.00000
  42
-0.0576
  70
32
  0
VERTEX
  5
5B9
  100
AcDbEntity
  8
Layer 1
  62
0
  100
AcDb2dVertex
  10
16.15640
  20
15.27861
  30
0.00000
  42
-0.0276
  70
32
  0
VERTEX
  5
5BA
  100
AcDbEntity
  8
Layer 1
  62
0
  100
AcDb2dVertex
  10
15.21034
  20
15.25548
  30
0.00000
  70
32
  0
SEQEND
  5
5BB
  100
AcDbEntity
  8
Layer 1
  62
0
  0
POLYLINE
  5
5BC
  100
AcDbEntity
  8
Layer 1
  62
0
  100
AcDb2dPolyline
 66
     1
  10
0
  20
0
  30
0
  70
1
  0
VERTEX
  5
5BD
  100
AcDbEntity
  8
Layer 1
  62
0
  100
AcDb2dVertex
  10
3.46545
  20
15.94784
  30
0.00000
  42
-0.0735
  70
32
  0
VERTEX
  5
5BE
  100
AcDbEntity
  8
Layer 1
  62
0
  100
AcDb2dVertex
  10
4.70675
  20
15.68306
  30
0.00000
  70
32
  0
VERTEX
  5
5BF
  100
AcDbEntity
  8
Layer 1
  62
0
  100
AcDb2dVertex
  10
4.86902
  20
15.60241
  30
0.00000
  42
-0.1489
  70
32
  0
VERTEX
  5
5C0
  100
AcDbEntity
  8
Layer 1
  62
0
  100
AcDb2dVertex
  10
5.24636
  20
15.25961
  30
0.00000
  42
-0.1114
  70
32
  0
VERTEX
  5
5C1
  100
AcDbEntity
  8
Layer 1
  62
0
  100
AcDb2dVertex
  10
5.26735
  20
15.20807
  30
0.00000
  42
-0.2317
  70
32
  0
VERTEX
  5
5C2
  100
AcDbEntity
  8
Layer 1
  62
0
  100
AcDb2dVertex
  10
5.25705
  20
15.17362
  30
0.00000
  42
-0.1725
  70
32
  0
VERTEX
  5
5C3
  100
AcDbEntity
  8
Layer 1
  62
0
  100
AcDb2dVertex
  10
5.21867
  20
15.15939
  30
0.00000
  42
-0.2037
  70
32
  0
VERTEX
  5
5C4
  100
AcDbEntity
  8
Layer 1
  62
0
  100
AcDb2dVertex
  10
3.16283
  20
15.83537
  30
0.00000
  42
-0.0295
  70
32
  0
VERTEX
  5
5C5
  100
AcDbEntity
  8
Layer 1
  62
0
  100
AcDb2dVertex
  10
3.10647
  20
15.89571
  30
0.00000
  42
-0.3464
  70
32
  0
VERTEX
  5
5C6
  100
AcDbEntity
  8
Layer 1
  62
0
  100
AcDb2dVertex
  10
3.10652
  20
15.92015
  30
0.00000
  42
-0.2497
  70
32
  0
VERTEX
  5
5C7
  100
AcDbEntity
  8
Layer 1
  62
0
  100
AcDb2dVertex
  10
3.46545
  20
15.94784
  30
0.00000
  70
32
  0
SEQEND
  5
5C8
  100
AcDbEntity
  8
Layer 1
  62
0
  0
POLYLINE
  5
5C9
  100
AcDbEntity
  8
Layer 1
  62
0
  100
AcDb2dPolyline
 66
     1
  10
0
  20
0
  30
0
  70
1
  0
VERTEX
  5
5CA
  100
AcDbEntity
  8
Layer 1
  62
0
  100
AcDb2dVertex
  10
20.22659
  20
15.38656
  30
0.00000
  42
-0.0129
  70
32
  0
VERTEX
  5
5CB
  100
AcDbEntity
  8
Layer 1
  62
0
  100
AcDb2dVertex
  10
21.23342
  20
15.40002
  30
0.00000
  42
-0.0506
  70
32
  0
VERTEX
  5
5CC
  100
AcDbEntity
  8
Layer 1
  62
0
  100
AcDb2dVertex
  10
22.30225
  20
15.25427
  30
0.00000
  42
-0.0514
  70
32
  0
VERTEX
  5
5CD
  100
AcDbEntity
  8
Layer 1
  62
0
  100
AcDb2dVertex
  10
23.55574
  20
14.85977
  30
0.00000
  70
32
  0
VERTEX
  5
5CE
  100
AcDbEntity
  8
Layer 1
  62
0
  100
AcDb2dVertex
  10
23.57085
  20
14.85147
  30
0.00000
  42
-0.4695
  70
32
  0
VERTEX
  5
5CF
  100
AcDbEntity
  8
Layer 1
  62
0
  100
AcDb2dVertex
  10
23.57085
  20
14.83145
  30
0.00000
  42
-0.2166
  70
32
  0
VERTEX
  5
5D0
  100
AcDbEntity
  8
Layer 1
  62
0
  100
AcDb2dVertex
  10
23.53859
  20
14.82343
  30
0.00000
  70
32
  0
VERTEX
  5
5D1
  100
AcDbEntity
  8
Layer 1
  62
0
  100
AcDb2dVertex
  10
23.48660
  20
14.84194
  30
0.00000
  42
0.0321
  70
32
  0
VERTEX
  5
5D2
  100
AcDbEntity
  8
Layer 1
  62
0
  100
AcDb2dVertex
  10
22.58068
  20
15.14403
  30
0.00000
  42
0.0812
  70
32
  0
VERTEX
  5
5D3
  100
AcDbEntity
  8
Layer 1
  62
0
  100
AcDb2dVertex
  10
20.50468
  20
15.35139
  30
0.00000
  42
0.0611
  70
32
  0
VERTEX
  5
5D4
  100
AcDbEntity
  8
Layer 1
  62
0
  100
AcDb2dVertex
  10
18.56140
  20
15.01126
  30
0.00000
  42
-0.0624
  70
32
  0
VERTEX
  5
5D5
  100
AcDbEntity
  8
Layer 1
  62
0
  100
AcDb2dVertex
  10
18.20359
  20
14.91652
  30
0.00000
  42
-0.1613
  70
32
  0
VERTEX
  5
5D6
  100
AcDbEntity
  8
Layer 1
  62
0
  100
AcDb2dVertex
  10
18.16740
  20
14.92842
  30
0.00000
  42
-0.4833
  70
32
  0
VERTEX
  5
5D7
  100
AcDbEntity
  8
Layer 1
  62
0
  100
AcDb2dVertex
  10
18.16740
  20
14.94849
  30
0.00000
  70
32
  0
VERTEX
  5
5D8
  100
AcDbEntity
  8
Layer 1
  62
0
  100
AcDb2dVertex
  10
18.20359
  20
14.96068
  30
0.00000
  42
-0.0170
  70
32
  0
VERTEX
  5
5D9
  100
AcDbEntity
  8
Layer 1
  62
0
  100
AcDb2dVertex
  10
19.46048
  20
15.27822
  30
0.00000
  42
-0.0215
  70
32
  0
VERTEX
  5
5DA
  100
AcDbEntity
  8
Layer 1
  62
0
  100
AcDb2dVertex
  10
19.76252
  20
15.31626
  30
0.00000
  42
0.0114
  70
32
  0
VERTEX
  5
5DB
  100
AcDbEntity
  8
Layer 1
  62
0
  100
AcDb2dVertex
  10
20.22659
  20
15.38656
  30
0.00000
  70
32
  0
SEQEND
  5
5DC
  100
AcDbEntity
  8
Layer 1
  62
0
  0
POLYLINE
  5
5DD
  100
AcDbEntity
  8
Layer 1
  62
0
  100
AcDb2dPolyline
 66
     1
  10
0
  20
0
  30
0
  70
1
  0
VERTEX
  5
5DE
  100
AcDbEntity
  8
Layer 1
  62
0
  100
AcDb2dVertex
  10
16.52087
  20
14.52552
  30
0.00000
  42
0.1138
  70
32
  0
VERTEX
  5
5DF
  100
AcDbEntity
  8
Layer 1
  62
0
  100
AcDb2dVertex
  10
17.51089
  20
14.64630
  30
0.00000
  42
-0.0259
  70
32
  0
VERTEX
  5
5E0
  100
AcDbEntity
  8
Layer 1
  62
0
  100
AcDb2dVertex
  10
17.56288
  20
14.66481
  30
0.00000
  42
-0.2164
  70
32
  0
VERTEX
  5
5E1
  100
AcDbEntity
  8
Layer 1
  62
0
  100
AcDb2dVertex
  10
17.59514
  20
14.65684
  30
0.00000
  42
-0.4707
  70
32
  0
VERTEX
  5
5E2
  100
AcDbEntity
  8
Layer 1
  62
0
  100
AcDb2dVertex
  10
17.59514
  20
14.63678
  30
0.00000
  42
-0.0299
  70
32
  0
VERTEX
  5
5E3
  100
AcDbEntity
  8
Layer 1
  62
0
  100
AcDb2dVertex
  10
17.53829
  20
14.61011
  30
0.00000
  42
-0.0701
  70
32
  0
VERTEX
  5
5E4
  100
AcDbEntity
  8
Layer 1
  62
0
  100
AcDb2dVertex
  10
16.86085
  20
14.47699
  30
0.00000
  42
-0.0454
  70
32
  0
VERTEX
  5
5E5
  100
AcDbEntity
  8
Layer 1
  62
0
  100
AcDb2dVertex
  10
15.69496
  20
14.52552
  30
0.00000
  42
0.0635
  70
32
  0
VERTEX
  5
5E6
  100
AcDbEntity
  8
Layer 1
  62
0
  100
AcDb2dVertex
  10
15.04584
  20
14.57629
  30
0.00000
  42
-0.1589
  70
32
  0
VERTEX
  5
5E7
  100
AcDbEntity
  8
Layer 1
  62
0
  100
AcDb2dVertex
  10
15.00950
  20
14.58834
  30
0.00000
  42
-0.4833
  70
32
  0
VERTEX
  5
5E8
  100
AcDbEntity
  8
Layer 1
  62
0
  100
AcDb2dVertex
  10
15.00950
  20
14.60841
  30
0.00000
  42
-0.1590
  70
32
  0
VERTEX
  5
5E9
  100
AcDbEntity
  8
Layer 1
  62
0
  100
AcDb2dVertex
  10
15.04584
  20
14.62045
  30
0.00000
  42
-0.0760
  70
32
  0
VERTEX
  5
5EA
  100
AcDbEntity
  8
Layer 1
  62
0
  100
AcDb2dVertex
  10
15.64948
  20
14.57717
  30
0.00000
  42
0.0585
  70
32
  0
VERTEX
  5
5EB
  100
AcDbEntity
  8
Layer 1
  62
0
  100
AcDb2dVertex
  10
16.52087
  20
14.52552
  30
0.00000
  70
32
  0
SEQEND
  5
5EC
  100
AcDbEntity
  8
Layer 1
  62
0
  0
POLYLINE
  5
5ED
  100
AcDbEntity
  8
Layer 1
  62
0
  100
AcDb2dPolyline
 66
     1
  10
0
  20
0
  30
0
  70
1
  0
VERTEX
  5
5EE
  100
AcDbEntity
  8
Layer 1
  62
0
  100
AcDb2dVertex
  10
8.55195
  20
14.52431
  30
0.00000
  42
0.1215
  70
32
  0
VERTEX
  5
5EF
  100
AcDbEntity
  8
Layer 1
  62
0
  100
AcDb2dVertex
  10
7.75417
  20
14.43477
  30
0.00000
  42
-0.2164
  70
32
  0
VERTEX
  5
5F0
  100
AcDbEntity
  8
Layer 1
  62
0
  100
AcDb2dVertex
  10
7.72191
  20
14.44274
  30
0.00000
  42
-0.4707
  70
32
  0
VERTEX
  5
5F1
  100
AcDbEntity
  8
Layer 1
  62
0
  100
AcDb2dVertex
  10
7.72191
  20
14.46280
  30
0.00000
  42
-0.0472
  70
32
  0
VERTEX
  5
5F2
  100
AcDbEntity
  8
Layer 1
  62
0
  100
AcDb2dVertex
  10
7.87446
  20
14.52547
  30
0.00000
  42
-0.1070
  70
32
  0
VERTEX
  5
5F3
  100
AcDbEntity
  8
Layer 1
  62
0
  100
AcDb2dVertex
  10
8.55195
  20
14.57289
  30
0.00000
  42
-0.0248
  70
32
  0
VERTEX
  5
5F4
  100
AcDbEntity
  8
Layer 1
  62
0
  100
AcDb2dVertex
  10
8.68856
  20
14.56400
  30
0.00000
  70
32
  0
VERTEX
  5
5F5
  100
AcDbEntity
  8
Layer 1
  62
0
  100
AcDb2dVertex
  10
8.71693
  20
14.54957
  30
0.00000
  42
-0.0061
  70
32
  0
VERTEX
  5
5F6
  100
AcDbEntity
  8
Layer 1
  62
0
  100
AcDb2dVertex
  10
8.78651
  20
14.51969
  30
0.00000
  42
-0.2696
  70
32
  0
VERTEX
  5
5F7
  100
AcDbEntity
  8
Layer 1
  62
0
  100
AcDb2dVertex
  10
8.80147
  20
14.49953
  30
0.00000
  42
-0.5213
  70
32
  0
VERTEX
  5
5F8
  100
AcDbEntity
  8
Layer 1
  62
0
  100
AcDb2dVertex
  10
8.77844
  20
14.48160
  30
0.00000
  42
-0.0448
  70
32
  0
VERTEX
  5
5F9
  100
AcDbEntity
  8
Layer 1
  62
0
  100
AcDb2dVertex
  10
8.74468
  20
14.49127
  30
0.00000
  42
0.1145
  70
32
  0
VERTEX
  5
5FA
  100
AcDbEntity
  8
Layer 1
  62
0
  100
AcDb2dVertex
  10
8.55195
  20
14.52431
  30
0.00000
  70
32
  0
SEQEND
  5
5FB
  100
AcDbEntity
  8
Layer 1
  62
0
  0
POLYLINE
  5
5FC
  100
AcDbEntity
  8
Layer 1
  62
0
  100
AcDb2dPolyline
 66
     1
  10
0
  20
0
  30
0
  70
1
  0
VERTEX
  5
5FD
  100
AcDbEntity
  8
Layer 1
  62
0
  100
AcDb2dVertex
  10
4.40578
  20
14.50099
  30
0.00000
  42
-0.0139
  70
32
  0
VERTEX
  5
5FE
  100
AcDbEntity
  8
Layer 1
  62
0
  100
AcDb2dVertex
  10
4.85517
  20
14.42258
  30
0.00000
  70
32
  0
VERTEX
  5
5FF
  100
AcDbEntity
  8
Layer 1
  62
0
  100
AcDb2dVertex
  10
4.89909
  20
14.41791
  30
0.00000
  42
-0.1857
  70
32
  0
VERTEX
  5
600
  100
AcDbEntity
  8
Layer 1
  62
0
  100
AcDb2dVertex
  10
4.95370
  20
14.37535
  30
0.00000
  42
-0.1094
  70
32
  0
VERTEX
  5
601
  100
AcDbEntity
  8
Layer 1
  62
0
  100
AcDb2dVertex
  10
5.02778
  20
14.19118
  30
0.00000
  42
-0.1771
  70
32
  0
VERTEX
  5
602
  100
AcDbEntity
  8
Layer 1
  62
0
  100
AcDb2dVertex
  10
5.01656
  20
14.15581
  30
0.00000
  42
-0.2933
  70
32
  0
VERTEX
  5
603
  100
AcDbEntity
  8
Layer 1
  62
0
  100
AcDb2dVertex
  10
4.99140
  20
14.15479
  30
0.00000
  42
0.0288
  70
32
  0
VERTEX
  5
604
  100
AcDbEntity
  8
Layer 1
  62
0
  100
AcDb2dVertex
  10
4.61804
  20
14.33119
  30
0.00000
  42
-0.0502
  70
32
  0
VERTEX
  5
605
  100
AcDbEntity
  8
Layer 1
  62
0
  100
AcDb2dVertex
  10
4.35865
  20
14.45386
  30
0.00000
  42
-0.1171
  70
32
  0
VERTEX
  5
606
  100
AcDbEntity
  8
Layer 1
  62
0
  100
AcDb2dVertex
  10
4.31823
  20
14.48782
  30
0.00000
  42
-0.3745
  70
32
  0
VERTEX
  5
607
  100
AcDbEntity
  8
Layer 1
  62
0
  100
AcDb2dVertex
  10
4.32095
  20
14.50949
  30
0.00000
  42
-0.2239
  70
32
  0
VERTEX
  5
608
  100
AcDbEntity
  8
Layer 1
  62
0
  100
AcDb2dVertex
  10
4.35336
  20
14.51906
  30
0.00000
  70
32
  0
VERTEX
  5
609
  100
AcDbEntity
  8
Layer 1
  62
0
  100
AcDb2dVertex
  10
4.40578
  20
14.50099
  30
0.00000
  70
32
  0
SEQEND
  5
60A
  100
AcDbEntity
  8
Layer 1
  62
0
  0
POLYLINE
  5
60B
  100
AcDbEntity
  8
Layer 1
  62
0
  100
AcDb2dPolyline
 66
     1
  10
0
  20
0
  30
0
  70
1
  0
VERTEX
  5
60C
  100
AcDbEntity
  8
Layer 1
  62
0
  100
AcDb2dVertex
  10
23.12087
  20
13.44941
  30
0.00000
  42
0.1318
  70
32
  0
VERTEX
  5
60D
  100
AcDbEntity
  8
Layer 1
  62
0
  100
AcDb2dVertex
  10
21.36163
  20
14.13905
  30
0.00000
  42
-0.1589
  70
32
  0
VERTEX
  5
60E
  100
AcDbEntity
  8
Layer 1
  62
0
  100
AcDb2dVertex
  10
21.32529
  20
14.15109
  30
0.00000
  42
-0.4833
  70
32
  0
VERTEX
  5
60F
  100
AcDbEntity
  8
Layer 1
  62
0
  100
AcDb2dVertex
  10
21.32529
  20
14.17116
  30
0.00000
  42
-0.1590
  70
32
  0
VERTEX
  5
610
  100
AcDbEntity
  8
Layer 1
  62
0
  100
AcDb2dVertex
  10
21.36163
  20
14.18321
  30
0.00000
  42
-0.0181
  70
32
  0
VERTEX
  5
611
  100
AcDbEntity
  8
Layer 1
  62
0
  100
AcDb2dVertex
  10
21.66722
  20
14.18199
  30
0.00000
  42
-0.0334
  70
32
  0
VERTEX
  5
612
  100
AcDbEntity
  8
Layer 1
  62
0
  100
AcDb2dVertex
  10
21.87073
  20
14.14254
  30
0.00000
  42
-0.0979
  70
32
  0
VERTEX
  5
613
  100
AcDbEntity
  8
Layer 1
  62
0
  100
AcDb2dVertex
  10
22.92547
  20
13.93412
  30
0.00000
  42
-0.1138
  70
32
  0
VERTEX
  5
614
  100
AcDbEntity
  8
Layer 1
  62
0
  100
AcDb2dVertex
  10
23.23086
  20
13.73838
  30
0.00000
  70
32
  0
VERTEX
  5
615
  100
AcDbEntity
  8
Layer 1
  62
0
  100
AcDb2dVertex
  10
23.23601
  20
13.72541
  30
0.00000
  42
-0.4969
  70
32
  0
VERTEX
  5
616
  100
AcDbEntity
  8
Layer 1
  62
0
  100
AcDb2dVertex
  10
23.22377
  20
13.71322
  30
0.00000
  70
32
  0
VERTEX
  5
617
  100
AcDbEntity
  8
Layer 1
  62
0
  100
AcDb2dVertex
  10
23.21080
  20
13.71832
  30
0.00000
  42
0.1313
  70
32
  0
VERTEX
  5
618
  100
AcDbEntity
  8
Layer 1
  62
0
  100
AcDb2dVertex
  10
22.31561
  20
14.05300
  30
0.00000
  42
0.0925
  70
32
  0
VERTEX
  5
619
  100
AcDbEntity
  8
Layer 1
  62
0
  100
AcDb2dVertex
  10
22.04179
  20
14.08604
  30
0.00000
  42
0.1590
  70
32
  0
VERTEX
  5
61A
  100
AcDbEntity
  8
Layer 1
  62
0
  100
AcDb2dVertex
  10
22.00545
  20
14.07399
  30
0.00000
  42
0.4802
  70
32
  0
VERTEX
  5
61B
  100
AcDbEntity
  8
Layer 1
  62
0
  100
AcDb2dVertex
  10
22.00540
  20
14.05393
  30
0.00000
  70
32
  0
VERTEX
  5
61C
  100
AcDbEntity
  8
Layer 1
  62
0
  100
AcDb2dVertex
  10
22.01920
  20
14.04606
  30
0.00000
  42
-0.0547
  70
32
  0
VERTEX
  5
61D
  100
AcDbEntity
  8
Layer 1
  62
0
  100
AcDb2dVertex
  10
22.76349
  20
13.72361
  30
0.00000
  42
-0.0367
  70
32
  0
VERTEX
  5
61E
  100
AcDbEntity
  8
Layer 1
  62
0
  100
AcDb2dVertex
  10
23.75017
  20
13.06230
  30
0.00000
  70
32
  0
VERTEX
  5
61F
  100
AcDbEntity
  8
Layer 1
  62
0
  100
AcDb2dVertex
  10
23.76523
  20
13.05390
  30
0.00000
  42
-0.4678
  70
32
  0
VERTEX
  5
620
  100
AcDbEntity
  8
Layer 1
  62
0
  100
AcDb2dVertex
  10
23.76523
  20
13.03388
  30
0.00000
  70
32
  0
VERTEX
  5
621
  100
AcDbEntity
  8
Layer 1
  62
0
  100
AcDb2dVertex
  10
23.75216
  20
13.02698
  30
0.00000
  42
-0.2408
  70
32
  0
VERTEX
  5
622
  100
AcDbEntity
  8
Layer 1
  62
0
  100
AcDb2dVertex
  10
23.68662
  20
13.05006
  30
0.00000
  42
0.0473
  70
32
  0
VERTEX
  5
623
  100
AcDbEntity
  8
Layer 1
  62
0
  100
AcDb2dVertex
  10
23.12087
  20
13.44941
  30
0.00000
  70
32
  0
SEQEND
  5
624
  100
AcDbEntity
  8
Layer 1
  62
0
  0
POLYLINE
  5
625
  100
AcDbEntity
  8
Layer 1
  62
0
  100
AcDb2dPolyline
 66
     1
  10
0
  20
0
  30
0
  70
1
  0
VERTEX
  5
626
  100
AcDbEntity
  8
Layer 1
  62
0
  100
AcDb2dVertex
  10
19.40068
  20
12.90883
  30
0.00000
  42
-0.0098
  70
32
  0
VERTEX
  5
627
  100
AcDbEntity
  8
Layer 1
  62
0
  100
AcDb2dVertex
  10
20.52221
  20
12.92447
  30
0.00000
  42
0.1589
  70
32
  0
VERTEX
  5
628
  100
AcDbEntity
  8
Layer 1
  62
0
  100
AcDb2dVertex
  10
20.55855
  20
12.93652
  30
0.00000
  42
0.4833
  70
32
  0
VERTEX
  5
629
  100
AcDbEntity
  8
Layer 1
  62
0
  100
AcDb2dVertex
  10
20.55855
  20
12.95658
  30
0.00000
  70
32
  0
VERTEX
  5
62A
  100
AcDbEntity
  8
Layer 1
  62
0
  100
AcDb2dVertex
  10
20.52236
  20
12.96878
  30
0.00000
  42
0.0131
  70
32
  0
VERTEX
  5
62B
  100
AcDbEntity
  8
Layer 1
  62
0
  100
AcDb2dVertex
  10
19.97026
  20
13.06803
  30
0.00000
  42
0.0847
  70
32
  0
VERTEX
  5
62C
  100
AcDbEntity
  8
Layer 1
  62
0
  100
AcDb2dVertex
  10
19.12006
  20
13.09232
  30
0.00000
  42
-0.0210
  70
32
  0
VERTEX
  5
62D
  100
AcDbEntity
  8
Layer 1
  62
0
  100
AcDb2dVertex
  10
18.57476
  20
13.05458
  30
0.00000
  42
-0.1007
  70
32
  0
VERTEX
  5
62E
  100
AcDbEntity
  8
Layer 1
  62
0
  100
AcDb2dVertex
  10
18.31931
  20
13.01858
  30
0.00000
  42
-0.0408
  70
32
  0
VERTEX
  5
62F
  100
AcDbEntity
  8
Layer 1
  62
0
  100
AcDb2dVertex
  10
17.84602
  20
12.95741
  30
0.00000
  42
-0.1007
  70
32
  0
VERTEX
  5
630
  100
AcDbEntity
  8
Layer 1
  62
0
  100
AcDb2dVertex
  10
17.59057
  20
12.92141
  30
0.00000
  42
-0.0601
  70
32
  0
VERTEX
  5
631
  100
AcDbEntity
  8
Layer 1
  62
0
  100
AcDb2dVertex
  10
16.81237
  20
12.87370
  30
0.00000
  42
-0.0391
  70
32
  0
VERTEX
  5
632
  100
AcDbEntity
  8
Layer 1
  62
0
  100
AcDb2dVertex
  10
16.16048
  20
12.89814
  30
0.00000
  42
0.0241
  70
32
  0
VERTEX
  5
633
  100
AcDbEntity
  8
Layer 1
  62
0
  100
AcDb2dVertex
  10
16.04349
  20
12.92865
  30
0.00000
  42
-0.4809
  70
32
  0
VERTEX
  5
634
  100
AcDbEntity
  8
Layer 1
  62
0
  100
AcDb2dVertex
  10
16.02970
  20
12.96086
  30
0.00000
  70
32
  0
VERTEX
  5
635
  100
AcDbEntity
  8
Layer 1
  62
0
  100
AcDb2dVertex
  10
16.06715
  20
12.99390
  30
0.00000
  42
-0.0959
  70
32
  0
VERTEX
  5
636
  100
AcDbEntity
  8
Layer 1
  62
0
  100
AcDb2dVertex
  10
17.96495
  20
13.66444
  30
0.00000
  70
32
  0
VERTEX
  5
637
  100
AcDbEntity
  8
Layer 1
  62
0
  100
AcDb2dVertex
  10
18.47760
  20
13.73474
  30
0.00000
  42
-0.0112
  70
32
  0
VERTEX
  5
638
  100
AcDbEntity
  8
Layer 1
  62
0
  100
AcDb2dVertex
  10
19.96681
  20
13.74475
  30
0.00000
  42
-0.0334
  70
32
  0
VERTEX
  5
639
  100
AcDbEntity
  8
Layer 1
  62
0
  100
AcDb2dVertex
  10
20.17033
  20
13.70530
  30
0.00000
  42
-0.0620
  70
32
  0
VERTEX
  5
63A
  100
AcDbEntity
  8
Layer 1
  62
0
  100
AcDb2dVertex
  10
20.47640
  20
13.67513
  30
0.00000
  42
0.0235
  70
32
  0
VERTEX
  5
63B
  100
AcDbEntity
  8
Layer 1
  62
0
  100
AcDb2dVertex
  10
20.59339
  20
13.64462
  30
0.00000
  70
32
  0
VERTEX
  5
63C
  100
AcDbEntity
  8
Layer 1
  62
0
  100
AcDb2dVertex
  10
20.60719
  20
13.63675
  30
0.00000
  42
-0.4784
  70
32
  0
VERTEX
  5
63D
  100
AcDbEntity
  8
Layer 1
  62
0
  100
AcDb2dVertex
  10
20.60719
  20
13.61673
  30
0.00000
  70
32
  0
VERTEX
  5
63E
  100
AcDbEntity
  8
Layer 1
  62
0
  100
AcDb2dVertex
  10
20.59339
  20
13.60910
  30
0.00000
  42
-0.1398
  70
32
  0
VERTEX
  5
63F
  100
AcDbEntity
  8
Layer 1
  62
0
  100
AcDb2dVertex
  10
20.54262
  20
13.60910
  30
0.00000
  42
0.0105
  70
32
  0
VERTEX
  5
640
  100
AcDbEntity
  8
Layer 1
  62
0
  100
AcDb2dVertex
  10
20.40173
  20
13.64530
  30
0.00000
  42
-0.0722
  70
32
  0
VERTEX
  5
641
  100
AcDbEntity
  8
Layer 1
  62
0
  100
AcDb2dVertex
  10
20.05402
  20
13.68615
  30
0.00000
  42
0.0170
  70
32
  0
VERTEX
  5
642
  100
AcDbEntity
  8
Layer 1
  62
0
  100
AcDb2dVertex
  10
18.47760
  20
13.68615
  30
0.00000
  42
-0.1040
  70
32
  0
VERTEX
  5
643
  100
AcDbEntity
  8
Layer 1
  62
0
  100
AcDb2dVertex
  10
18.22127
  20
13.65103
  30
0.00000
  42
0.0954
  70
32
  0
VERTEX
  5
644
  100
AcDbEntity
  8
Layer 1
  62
0
  100
AcDb2dVertex
  10
16.22437
  20
13.03223
  30
0.00000
  70
32
  0
VERTEX
  5
645
  100
AcDbEntity
  8
Layer 1
  62
0
  100
AcDb2dVertex
  10
16.17651
  20
13.00400
  30
0.00000
  42
0.5100
  70
32
  0
VERTEX
  5
646
  100
AcDbEntity
  8
Layer 1
  62
0
  100
AcDb2dVertex
  10
16.18890
  20
12.92933
  30
0.00000
  70
32
  0
VERTEX
  5
647
  100
AcDbEntity
  8
Layer 1
  62
0
  100
AcDb2dVertex
  10
16.24297
  20
12.92277
  30
0.00000
  42
0.0133
  70
32
  0
VERTEX
  5
648
  100
AcDbEntity
  8
Layer 1
  62
0
  100
AcDb2dVertex
  10
17.38195
  20
12.93569
  30
0.00000
  42
-0.1007
  70
32
  0
VERTEX
  5
649
  100
AcDbEntity
  8
Layer 1
  62
0
  100
AcDb2dVertex
  10
17.63740
  20
12.97174
  30
0.00000
  42
-0.0408
  70
32
  0
VERTEX
  5
64A
  100
AcDbEntity
  8
Layer 1
  62
0
  100
AcDb2dVertex
  10
18.11070
  20
13.03286
  30
0.00000
  42
-0.0384
  70
32
  0
VERTEX
  5
64B
  100
AcDbEntity
  8
Layer 1
  62
0
  100
AcDb2dVertex
  10
18.94880
  20
13.11783
  30
0.00000
  42
-0.0832
  70
32
  0
VERTEX
  5
64C
  100
AcDbEntity
  8
Layer 1
  62
0
  100
AcDb2dVertex
  10
19.80022
  20
13.14091
  30
0.00000
  42
-0.0843
  70
32
  0
VERTEX
  5
64D
  100
AcDbEntity
  8
Layer 1
  62
0
  100
AcDb2dVertex
  10
20.88372
  20
12.86787
  30
0.00000
  70
32
  0
VERTEX
  5
64E
  100
AcDbEntity
  8
Layer 1
  62
0
  100
AcDb2dVertex
  10
20.89878
  20
12.85956
  30
0.00000
  42
-0.4735
  70
32
  0
VERTEX
  5
64F
  100
AcDbEntity
  8
Layer 1
  62
0
  100
AcDb2dVertex
  10
20.89863
  20
12.83935
  30
0.00000
  70
32
  0
VERTEX
  5
650
  100
AcDbEntity
  8
Layer 1
  62
0
  100
AcDb2dVertex
  10
20.88474
  20
12.83163
  30
0.00000
  42
-0.0688
  70
32
  0
VERTEX
  5
651
  100
AcDbEntity
  8
Layer 1
  62
0
  100
AcDb2dVertex
  10
20.83115
  20
12.82560
  30
0.00000
  42
0.0460
  70
32
  0
VERTEX
  5
652
  100
AcDbEntity
  8
Layer 1
  62
0
  100
AcDb2dVertex
  10
19.77593
  20
12.87370
  30
0.00000
  42
0.0525
  70
32
  0
VERTEX
  5
653
  100
AcDbEntity
  8
Layer 1
  62
0
  100
AcDb2dVertex
  10
18.70710
  20
12.72795
  30
0.00000
  42
-0.0343
  70
32
  0
VERTEX
  5
654
  100
AcDbEntity
  8
Layer 1
  62
0
  100
AcDb2dVertex
  10
17.44706
  20
12.48193
  30
0.00000
  42
0.0318
  70
32
  0
VERTEX
  5
655
  100
AcDbEntity
  8
Layer 1
  62
0
  100
AcDb2dVertex
  10
17.24388
  20
12.44214
  30
0.00000
  42
0.0660
  70
32
  0
VERTEX
  5
656
  100
AcDbEntity
  8
Layer 1
  62
0
  100
AcDb2dVertex
  10
16.79896
  20
12.40128
  30
0.00000
  42
-0.0151
  70
32
  0
VERTEX
  5
657
  100
AcDbEntity
  8
Layer 1
  62
0
  100
AcDb2dVertex
  10
15.77459
  20
12.39006
  30
0.00000
  42
-0.1590
  70
32
  0
VERTEX
  5
658
  100
AcDbEntity
  8
Layer 1
  62
0
  100
AcDb2dVertex
  10
15.73825
  20
12.40211
  30
0.00000
  42
-0.4833
  70
32
  0
VERTEX
  5
659
  100
AcDbEntity
  8
Layer 1
  62
0
  100
AcDb2dVertex
  10
15.73825
  20
12.42217
  30
0.00000
  42
-0.1590
  70
32
  0
VERTEX
  5
65A
  100
AcDbEntity
  8
Layer 1
  62
0
  100
AcDb2dVertex
  10
15.77459
  20
12.43422
  30
0.00000
  42
-0.0235
  70
32
  0
VERTEX
  5
65B
  100
AcDbEntity
  8
Layer 1
  62
0
  100
AcDb2dVertex
  10
15.84707
  20
12.43621
  30
0.00000
  42
0.0440
  70
32
  0
VERTEX
  5
65C
  100
AcDbEntity
  8
Layer 1
  62
0
  100
AcDb2dVertex
  10
17.00791
  20
12.48382
  30
0.00000
  42
0.0214
  70
32
  0
VERTEX
  5
65D
  100
AcDbEntity
  8
Layer 1
  62
0
  100
AcDb2dVertex
  10
17.91637
  20
12.59561
  30
0.00000
  42
-0.0231
  70
32
  0
VERTEX
  5
65E
  100
AcDbEntity
  8
Layer 1
  62
0
  100
AcDb2dVertex
  10
19.40068
  20
12.90883
  30
0.00000
  70
32
  0
SEQEND
  5
65F
  100
AcDbEntity
  8
Layer 1
  62
0
  0
POLYLINE
  5
660
  100
AcDbEntity
  8
Layer 1
  62
0
  100
AcDb2dPolyline
 66
     1
  10
0
  20
0
  30
0
  70
1
  0
VERTEX
  5
661
  100
AcDbEntity
  8
Layer 1
  62
0
  100
AcDb2dVertex
  10
17.19000
  20
11.74420
  30
0.00000
  42
-0.0659
  70
32
  0
VERTEX
  5
662
  100
AcDbEntity
  8
Layer 1
  62
0
  100
AcDb2dVertex
  10
17.17907
  20
11.84685
  30
0.00000
  42
-0.1614
  70
32
  0
VERTEX
  5
663
  100
AcDbEntity
  8
Layer 1
  62
0
  100
AcDb2dVertex
  10
17.19102
  20
11.88305
  30
0.00000
  42
-0.2900
  70
32
  0
VERTEX
  5
664
  100
AcDbEntity
  8
Layer 1
  62
0
  100
AcDb2dVertex
  10
17.20700
  20
11.88632
  30
0.00000
  42
-0.2903
  70
32
  0
VERTEX
  5
665
  100
AcDbEntity
  8
Layer 1
  62
0
  100
AcDb2dVertex
  10
17.21677
  20
11.87323
  30
0.00000
  42
-0.0472
  70
32
  0
VERTEX
  5
666
  100
AcDbEntity
  8
Layer 1
  62
0
  100
AcDb2dVertex
  10
17.22231
  20
11.84573
  30
0.00000
  42
0.0177
  70
32
  0
VERTEX
  5
667
  100
AcDbEntity
  8
Layer 1
  62
0
  100
AcDb2dVertex
  10
17.22678
  20
11.79166
  30
0.00000
  42
0.0470
  70
32
  0
VERTEX
  5
668
  100
AcDbEntity
  8
Layer 1
  62
0
  100
AcDb2dVertex
  10
17.23242
  20
11.73992
  30
0.00000
  70
32
  0
VERTEX
  5
669
  100
AcDbEntity
  8
Layer 1
  62
0
  100
AcDb2dVertex
  10
17.24204
  20
11.72437
  30
0.00000
  42
0.1732
  70
32
  0
VERTEX
  5
66A
  100
AcDbEntity
  8
Layer 1
  62
0
  100
AcDb2dVertex
  10
17.28056
  20
11.70999
  30
0.00000
  42
0.0198
  70
32
  0
VERTEX
  5
66B
  100
AcDbEntity
  8
Layer 1
  62
0
  100
AcDb2dVertex
  10
17.44404
  20
11.70897
  30
0.00000
  42
0.0672
  70
32
  0
VERTEX
  5
66C
  100
AcDbEntity
  8
Layer 1
  62
0
  100
AcDb2dVertex
  10
17.89956
  20
11.82849
  30
0.00000
  42
-0.0260
  70
32
  0
VERTEX
  5
66D
  100
AcDbEntity
  8
Layer 1
  62
0
  100
AcDb2dVertex
  10
17.95154
  20
11.84700
  30
0.00000
  42
-0.2164
  70
32
  0
VERTEX
  5
66E
  100
AcDbEntity
  8
Layer 1
  62
0
  100
AcDb2dVertex
  10
17.98380
  20
11.83903
  30
0.00000
  42
-0.4707
  70
32
  0
VERTEX
  5
66F
  100
AcDbEntity
  8
Layer 1
  62
0
  100
AcDb2dVertex
  10
17.98380
  20
11.81896
  30
0.00000
  42
-0.1192
  70
32
  0
VERTEX
  5
670
  100
AcDbEntity
  8
Layer 1
  62
0
  100
AcDb2dVertex
  10
17.30072
  20
11.66165
  30
0.00000
  42
-0.2909
  70
32
  0
VERTEX
  5
671
  100
AcDbEntity
  8
Layer 1
  62
0
  100
AcDb2dVertex
  10
17.19000
  20
11.74420
  30
0.00000
  70
32
  0
SEQEND
  5
672
  100
AcDbEntity
  8
Layer 1
  62
0
  0
POLYLINE
  5
673
  100
AcDbEntity
  8
Layer 1
  62
0
  100
AcDb2dPolyline
 66
     1
  10
0
  20
0
  30
0
  70
1
  0
VERTEX
  5
674
  100
AcDbEntity
  8
Layer 1
  62
0
  100
AcDb2dVertex
  10
3.44651
  20
10.77482
  30
0.00000
  42
-0.0762
  70
32
  0
VERTEX
  5
675
  100
AcDbEntity
  8
Layer 1
  62
0
  100
AcDb2dVertex
  10
6.04672
  20
12.80530
  30
0.00000
  42
-0.0180
  70
32
  0
VERTEX
  5
676
  100
AcDbEntity
  8
Layer 1
  62
0
  100
AcDb2dVertex
  10
7.88063
  20
13.59487
  30
0.00000
  42
-0.0058
  70
32
  0
VERTEX
  5
677
  100
AcDbEntity
  8
Layer 1
  62
0
  100
AcDb2dVertex
  10
9.98733
  20
14.20886
  30
0.00000
  42
-0.0102
  70
32
  0
VERTEX
  5
678
  100
AcDbEntity
  8
Layer 1
  62
0
  100
AcDb2dVertex
  10
12.05687
  20
14.61700
  30
0.00000
  42
-0.0699
  70
32
  0
VERTEX
  5
679
  100
AcDbEntity
  8
Layer 1
  62
0
  100
AcDb2dVertex
  10
12.84610
  20
14.66904
  30
0.00000
  42
-0.1626
  70
32
  0
VERTEX
  5
67A
  100
AcDbEntity
  8
Layer 1
  62
0
  100
AcDb2dVertex
  10
12.88244
  20
14.65684
  30
0.00000
  42
-0.3482
  70
32
  0
VERTEX
  5
67B
  100
AcDbEntity
  8
Layer 1
  62
0
  100
AcDb2dVertex
  10
12.88259
  20
14.63255
  30
0.00000
  42
-0.0521
  70
32
  0
VERTEX
  5
67C
  100
AcDbEntity
  8
Layer 1
  62
0
  100
AcDb2dVertex
  10
12.82414
  20
14.57547
  30
0.00000
  42
-0.1380
  70
32
  0
VERTEX
  5
67D
  100
AcDbEntity
  8
Layer 1
  62
0
  100
AcDb2dVertex
  10
12.76701
  20
14.53845
  30
0.00000
  42
-0.0369
  70
32
  0
VERTEX
  5
67E
  100
AcDbEntity
  8
Layer 1
  62
0
  100
AcDb2dVertex
  10
11.03668
  20
14.22829
  30
0.00000
  42
0.0083
  70
32
  0
VERTEX
  5
67F
  100
AcDbEntity
  8
Layer 1
  62
0
  100
AcDb2dVertex
  10
9.68369
  20
13.92951
  30
0.00000
  42
0.0463
  70
32
  0
VERTEX
  5
680
  100
AcDbEntity
  8
Layer 1
  62
0
  100
AcDb2dVertex
  10
6.90955
  20
12.96275
  30
0.00000
  42
0.0323
  70
32
  0
VERTEX
  5
681
  100
AcDbEntity
  8
Layer 1
  62
0
  100
AcDb2dVertex
  10
4.51135
  20
11.47427
  30
0.00000
  42
-0.0120
  70
32
  0
VERTEX
  5
682
  100
AcDbEntity
  8
Layer 1
  62
0
  100
AcDb2dVertex
  10
3.53128
  20
10.80557
  30
0.00000
  42
0.0168
  70
32
  0
VERTEX
  5
683
  100
AcDbEntity
  8
Layer 1
  62
0
  100
AcDb2dVertex
  10
3.46657
  20
10.75475
  30
0.00000
  70
32
  0
VERTEX
  5
684
  100
AcDbEntity
  8
Layer 1
  62
0
  100
AcDb2dVertex
  10
3.45360
  20
10.74965
  30
0.00000
  42
-0.4971
  70
32
  0
VERTEX
  5
685
  100
AcDbEntity
  8
Layer 1
  62
0
  100
AcDb2dVertex
  10
3.44136
  20
10.76185
  30
0.00000
  70
32
  0
VERTEX
  5
686
  100
AcDbEntity
  8
Layer 1
  62
0
  100
AcDb2dVertex
  10
3.44651
  20
10.77482
  30
0.00000
  70
32
  0
SEQEND
  5
687
  100
AcDbEntity
  8
Layer 1
  62
0
  0
POLYLINE
  5
688
  100
AcDbEntity
  8
Layer 1
  62
0
  100
AcDb2dPolyline
 66
     1
  10
0
  20
0
  30
0
  70
1
  0
VERTEX
  5
689
  100
AcDbEntity
  8
Layer 1
  62
0
  100
AcDb2dVertex
  10
16.12885
  20
11.41281
  30
0.00000
  42
-0.0811
  70
32
  0
VERTEX
  5
68A
  100
AcDbEntity
  8
Layer 1
  62
0
  100
AcDb2dVertex
  10
18.75428
  20
10.50586
  30
0.00000
  42
0.1626
  70
32
  0
VERTEX
  5
68B
  100
AcDbEntity
  8
Layer 1
  62
0
  100
AcDb2dVertex
  10
18.79669
  20
10.50066
  30
0.00000
  42
0.3463
  70
32
  0
VERTEX
  5
68C
  100
AcDbEntity
  8
Layer 1
  62
0
  100
AcDb2dVertex
  10
18.81442
  20
10.51845
  30
0.00000
  70
32
  0
VERTEX
  5
68D
  100
AcDbEntity
  8
Layer 1
  62
0
  100
AcDb2dVertex
  10
18.80976
  20
10.53186
  30
0.00000
  42
-0.0365
  70
32
  0
VERTEX
  5
68E
  100
AcDbEntity
  8
Layer 1
  62
0
  100
AcDb2dVertex
  10
18.70161
  20
10.68203
  30
0.00000
  42
0.0375
  70
32
  0
VERTEX
  5
68F
  100
AcDbEntity
  8
Layer 1
  62
0
  100
AcDb2dVertex
  10
17.96184
  20
11.29592
  30
0.00000
  42
-0.1077
  70
32
  0
VERTEX
  5
690
  100
AcDbEntity
  8
Layer 1
  62
0
  100
AcDb2dVertex
  10
17.92443
  20
11.32905
  30
0.00000
  42
-0.3457
  70
32
  0
VERTEX
  5
691
  100
AcDbEntity
  8
Layer 1
  62
0
  100
AcDb2dVertex
  10
17.92448
  20
11.35320
  30
0.00000
  42
-0.1626
  70
32
  0
VERTEX
  5
692
  100
AcDbEntity
  8
Layer 1
  62
0
  100
AcDb2dVertex
  10
17.96082
  20
11.36539
  30
0.00000
  42
-0.0419
  70
32
  0
VERTEX
  5
693
  100
AcDbEntity
  8
Layer 1
  62
0
  100
AcDb2dVertex
  10
18.58565
  20
11.34334
  30
0.00000
  42
-0.0427
  70
32
  0
VERTEX
  5
694
  100
AcDbEntity
  8
Layer 1
  62
0
  100
AcDb2dVertex
  10
19.87761
  20
11.12918
  30
0.00000
  42
-0.0270
  70
32
  0
VERTEX
  5
695
  100
AcDbEntity
  8
Layer 1
  62
0
  100
AcDb2dVertex
  10
21.82842
  20
10.50509
  30
0.00000
  42
-0.0100
  70
32
  0
VERTEX
  5
696
  100
AcDbEntity
  8
Layer 1
  62
0
  100
AcDb2dVertex
  10
22.96978
  20
10.04428
  30
0.00000
  42
-0.1503
  70
32
  0
VERTEX
  5
697
  100
AcDbEntity
  8
Layer 1
  62
0
  100
AcDb2dVertex
  10
23.03638
  20
9.99735
  30
0.00000
  70
32
  0
VERTEX
  5
698
  100
AcDbEntity
  8
Layer 1
  62
0
  100
AcDb2dVertex
  10
23.04163
  20
9.98452
  30
0.00000
  42
-0.4915
  70
32
  0
VERTEX
  5
699
  100
AcDbEntity
  8
Layer 1
  62
0
  100
AcDb2dVertex
  10
23.02929
  20
9.97218
  30
0.00000
  70
32
  0
VERTEX
  5
69A
  100
AcDbEntity
  8
Layer 1
  62
0
  100
AcDb2dVertex
  10
23.01549
  20
9.97645
  30
0.00000
  42
0.0178
  70
32
  0
VERTEX
  5
69B
  100
AcDbEntity
  8
Layer 1
  62
0
  100
AcDb2dVertex
  10
21.22137
  20
10.67542
  30
0.00000
  42
0.0579
  70
32
  0
VERTEX
  5
69C
  100
AcDbEntity
  8
Layer 1
  62
0
  100
AcDb2dVertex
  10
19.01201
  20
11.23529
  30
0.00000
  42
0.1007
  70
32
  0
VERTEX
  5
69D
  100
AcDbEntity
  8
Layer 1
  62
0
  100
AcDb2dVertex
  10
18.75656
  20
11.27134
  30
0.00000
  42
0.0692
  70
32
  0
VERTEX
  5
69E
  100
AcDbEntity
  8
Layer 1
  62
0
  100
AcDb2dVertex
  10
18.10657
  20
11.31681
  30
0.00000
  42
0.1626
  70
32
  0
VERTEX
  5
69F
  100
AcDbEntity
  8
Layer 1
  62
0
  100
AcDb2dVertex
  10
18.07023
  20
11.30462
  30
0.00000
  42
0.3482
  70
32
  0
VERTEX
  5
6A0
  100
AcDbEntity
  8
Layer 1
  62
0
  100
AcDb2dVertex
  10
18.07008
  20
11.28032
  30
0.00000
  42
0.0530
  70
32
  0
VERTEX
  5
6A1
  100
AcDbEntity
  8
Layer 1
  62
0
  100
AcDb2dVertex
  10
18.12887
  20
11.22246
  30
0.00000
  42
-0.0163
  70
32
  0
VERTEX
  5
6A2
  100
AcDbEntity
  8
Layer 1
  62
0
  100
AcDb2dVertex
  10
18.34273
  20
11.05184
  30
0.00000
  42
-0.1081
  70
32
  0
VERTEX
  5
6A3
  100
AcDbEntity
  8
Layer 1
  62
0
  100
AcDb2dVertex
  10
18.97159
  20
10.37756
  30
0.00000
  42
0.0055
  70
32
  0
VERTEX
  5
6A4
  100
AcDbEntity
  8
Layer 1
  62
0
  100
AcDb2dVertex
  10
19.00409
  20
10.33752
  30
0.00000
  70
32
  0
VERTEX
  5
6A5
  100
AcDbEntity
  8
Layer 1
  62
0
  100
AcDb2dVertex
  10
19.00876
  20
10.32411
  30
0.00000
  42
-0.3456
  70
32
  0
VERTEX
  5
6A6
  100
AcDbEntity
  8
Layer 1
  62
0
  100
AcDb2dVertex
  10
18.99102
  20
10.30638
  30
0.00000
  42
-0.1789
  70
32
  0
VERTEX
  5
6A7
  100
AcDbEntity
  8
Layer 1
  62
0
  100
AcDb2dVertex
  10
18.94948
  20
10.31241
  30
0.00000
  42
0.0591
  70
32
  0
VERTEX
  5
6A8
  100
AcDbEntity
  8
Layer 1
  62
0
  100
AcDb2dVertex
  10
18.44442
  20
10.61906
  30
0.00000
  42
0.0649
  70
32
  0
VERTEX
  5
6A9
  100
AcDbEntity
  8
Layer 1
  62
0
  100
AcDb2dVertex
  10
16.17506
  20
11.36190
  30
0.00000
  42
-0.0620
  70
32
  0
VERTEX
  5
6AA
  100
AcDbEntity
  8
Layer 1
  62
0
  100
AcDb2dVertex
  10
15.86898
  20
11.39207
  30
0.00000
  42
0.0241
  70
32
  0
VERTEX
  5
6AB
  100
AcDbEntity
  8
Layer 1
  62
0
  100
AcDb2dVertex
  10
15.75200
  20
11.42258
  30
0.00000
  70
32
  0
VERTEX
  5
6AC
  100
AcDbEntity
  8
Layer 1
  62
0
  100
AcDb2dVertex
  10
15.73820
  20
11.43045
  30
0.00000
  42
-0.4787
  70
32
  0
VERTEX
  5
6AD
  100
AcDbEntity
  8
Layer 1
  62
0
  100
AcDb2dVertex
  10
15.73820
  20
11.45051
  30
0.00000
  70
32
  0
VERTEX
  5
6AE
  100
AcDbEntity
  8
Layer 1
  62
0
  100
AcDb2dVertex
  10
15.75200
  20
11.45809
  30
0.00000
  42
-0.1398
  70
32
  0
VERTEX
  5
6AF
  100
AcDbEntity
  8
Layer 1
  62
0
  100
AcDb2dVertex
  10
15.80276
  20
11.45814
  30
0.00000
  42
0.1016
  70
32
  0
VERTEX
  5
6B0
  100
AcDbEntity
  8
Layer 1
  62
0
  100
AcDb2dVertex
  10
16.12885
  20
11.41281
  30
0.00000
  70
32
  0
SEQEND
  5
6B1
  100
AcDbEntity
  8
Layer 1
  62
0
  0
POLYLINE
  5
6B2
  100
AcDbEntity
  8
Layer 1
  62
0
  100
AcDb2dPolyline
 66
     1
  10
0
  20
0
  30
0
  70
1
  0
VERTEX
  5
6B3
  100
AcDbEntity
  8
Layer 1
  62
0
  100
AcDb2dVertex
  10
23.06068
  20
8.87095
  30
0.00000
  42
-0.0799
  70
32
  0
VERTEX
  5
6B4
  100
AcDbEntity
  8
Layer 1
  62
0
  100
AcDb2dVertex
  10
23.23086
  20
8.73433
  30
0.00000
  70
32
  0
VERTEX
  5
6B5
  100
AcDbEntity
  8
Layer 1
  62
0
  100
AcDb2dVertex
  10
23.23601
  20
8.72136
  30
0.00000
  42
-0.4969
  70
32
  0
VERTEX
  5
6B6
  100
AcDbEntity
  8
Layer 1
  62
0
  100
AcDb2dVertex
  10
23.22377
  20
8.70917
  30
0.00000
  70
32
  0
VERTEX
  5
6B7
  100
AcDbEntity
  8
Layer 1
  62
0
  100
AcDb2dVertex
  10
23.21080
  20
8.71427
  30
0.00000
  42
0.0515
  70
32
  0
VERTEX
  5
6B8
  100
AcDbEntity
  8
Layer 1
  62
0
  100
AcDb2dVertex
  10
21.17648
  20
9.99890
  30
0.00000
  42
0.0787
  70
32
  0
VERTEX
  5
6B9
  100
AcDbEntity
  8
Layer 1
  62
0
  100
AcDb2dVertex
  10
19.51548
  20
10.49532
  30
0.00000
  42
-0.1588
  70
32
  0
VERTEX
  5
6BA
  100
AcDbEntity
  8
Layer 1
  62
0
  100
AcDb2dVertex
  10
19.47914
  20
10.50737
  30
0.00000
  42
-0.4824
  70
32
  0
VERTEX
  5
6BB
  100
AcDbEntity
  8
Layer 1
  62
0
  100
AcDb2dVertex
  10
19.47914
  20
10.52743
  30
0.00000
  42
-0.1593
  70
32
  0
VERTEX
  5
6BC
  100
AcDbEntity
  8
Layer 1
  62
0
  100
AcDb2dVertex
  10
19.51548
  20
10.53948
  30
0.00000
  42
-0.0734
  70
32
  0
VERTEX
  5
6BD
  100
AcDbEntity
  8
Layer 1
  62
0
  100
AcDb2dVertex
  10
20.66242
  20
10.26217
  30
0.00000
  42
-0.0483
  70
32
  0
VERTEX
  5
6BE
  100
AcDbEntity
  8
Layer 1
  62
0
  100
AcDb2dVertex
  10
22.23389
  20
9.45307
  30
0.00000
  42
-0.0265
  70
32
  0
VERTEX
  5
6BF
  100
AcDbEntity
  8
Layer 1
  62
0
  100
AcDb2dVertex
  10
23.06068
  20
8.87095
  30
0.00000
  70
32
  0
SEQEND
  5
6C0
  100
AcDbEntity
  8
Layer 1
  62
0
  0
POLYLINE
  5
6C1
  100
AcDbEntity
  8
Layer 1
  62
0
  100
AcDb2dPolyline
 66
     1
  10
0
  20
0
  30
0
  70
1
  0
VERTEX
  5
6C2
  100
AcDbEntity
  8
Layer 1
  62
0
  100
AcDb2dVertex
  10
18.94968
  20
9.08423
  30
0.00000
  42
-0.0612
  70
32
  0
VERTEX
  5
6C3
  100
AcDbEntity
  8
Layer 1
  62
0
  100
AcDb2dVertex
  10
17.54918
  20
9.67529
  30
0.00000
  42
0.1110
  70
32
  0
VERTEX
  5
6C4
  100
AcDbEntity
  8
Layer 1
  62
0
  100
AcDb2dVertex
  10
16.55191
  20
9.96091
  30
0.00000
  42
-0.1590
  70
32
  0
VERTEX
  5
6C5
  100
AcDbEntity
  8
Layer 1
  62
0
  100
AcDb2dVertex
  10
16.51557
  20
9.97296
  30
0.00000
  42
-0.4824
  70
32
  0
VERTEX
  5
6C6
  100
AcDbEntity
  8
Layer 1
  62
0
  100
AcDb2dVertex
  10
16.51557
  20
9.99302
  30
0.00000
  70
32
  0
VERTEX
  5
6C7
  100
AcDbEntity
  8
Layer 1
  62
0
  100
AcDb2dVertex
  10
16.52947
  20
10.00075
  30
0.00000
  42
-0.0686
  70
32
  0
VERTEX
  5
6C8
  100
AcDbEntity
  8
Layer 1
  62
0
  100
AcDb2dVertex
  10
16.58306
  20
10.00677
  30
0.00000
  42
-0.1059
  70
32
  0
VERTEX
  5
6C9
  100
AcDbEntity
  8
Layer 1
  62
0
  100
AcDb2dVertex
  10
17.54918
  20
9.72387
  30
0.00000
  42
0.0646
  70
32
  0
VERTEX
  5
6CA
  100
AcDbEntity
  8
Layer 1
  62
0
  100
AcDb2dVertex
  10
18.94448
  20
9.13587
  30
0.00000
  42
0.1088
  70
32
  0
VERTEX
  5
6CB
  100
AcDbEntity
  8
Layer 1
  62
0
  100
AcDb2dVertex
  10
19.03907
  20
9.13986
  30
0.00000
  42
0.2494
  70
32
  0
VERTEX
  5
6CC
  100
AcDbEntity
  8
Layer 1
  62
0
  100
AcDb2dVertex
  10
19.06336
  20
9.16415
  30
0.00000
  42
0.1715
  70
32
  0
VERTEX
  5
6CD
  100
AcDbEntity
  8
Layer 1
  62
0
  100
AcDb2dVertex
  10
19.05875
  20
9.20705
  30
0.00000
  42
-0.0152
  70
32
  0
VERTEX
  5
6CE
  100
AcDbEntity
  8
Layer 1
  62
0
  100
AcDb2dVertex
  10
18.75880
  20
9.75885
  30
0.00000
  42
-0.1081
  70
32
  0
VERTEX
  5
6CF
  100
AcDbEntity
  8
Layer 1
  62
0
  100
AcDb2dVertex
  10
18.73795
  20
9.81054
  30
0.00000
  42
-0.3829
  70
32
  0
VERTEX
  5
6D0
  100
AcDbEntity
  8
Layer 1
  62
0
  100
AcDb2dVertex
  10
18.76375
  20
9.85446
  30
0.00000
  42
-0.1069
  70
32
  0
VERTEX
  5
6D1
  100
AcDbEntity
  8
Layer 1
  62
0
  100
AcDb2dVertex
  10
18.81875
  20
9.85874
  30
0.00000
  42
-0.0774
  70
32
  0
VERTEX
  5
6D2
  100
AcDbEntity
  8
Layer 1
  62
0
  100
AcDb2dVertex
  10
20.68613
  20
9.26569
  30
0.00000
  42
-0.0300
  70
32
  0
VERTEX
  5
6D3
  100
AcDbEntity
  8
Layer 1
  62
0
  100
AcDb2dVertex
  10
22.32202
  20
8.27809
  30
0.00000
  42
-0.0137
  70
32
  0
VERTEX
  5
6D4
  100
AcDbEntity
  8
Layer 1
  62
0
  100
AcDb2dVertex
  10
23.09935
  20
7.74368
  30
0.00000
  42
-0.0748
  70
32
  0
VERTEX
  5
6D5
  100
AcDbEntity
  8
Layer 1
  62
0
  100
AcDb2dVertex
  10
23.32803
  20
7.56834
  30
0.00000
  70
32
  0
VERTEX
  5
6D6
  100
AcDbEntity
  8
Layer 1
  62
0
  100
AcDb2dVertex
  10
23.33318
  20
7.55537
  30
0.00000
  42
-0.4969
  70
32
  0
VERTEX
  5
6D7
  100
AcDbEntity
  8
Layer 1
  62
0
  100
AcDb2dVertex
  10
23.32093
  20
7.54318
  30
0.00000
  70
32
  0
VERTEX
  5
6D8
  100
AcDbEntity
  8
Layer 1
  62
0
  100
AcDb2dVertex
  10
23.30796
  20
7.54828
  30
0.00000
  42
0.0121
  70
32
  0
VERTEX
  5
6D9
  100
AcDbEntity
  8
Layer 1
  62
0
  100
AcDb2dVertex
  10
22.86634
  20
7.85075
  30
0.00000
  42
0.0379
  70
32
  0
VERTEX
  5
6DA
  100
AcDbEntity
  8
Layer 1
  62
0
  100
AcDb2dVertex
  10
20.68613
  20
9.21710
  30
0.00000
  42
0.0748
  70
32
  0
VERTEX
  5
6DB
  100
AcDbEntity
  8
Layer 1
  62
0
  100
AcDb2dVertex
  10
18.92966
  20
9.78839
  30
0.00000
  42
0.0734
  70
32
  0
VERTEX
  5
6DC
  100
AcDbEntity
  8
Layer 1
  62
0
  100
AcDb2dVertex
  10
18.83429
  20
9.80972
  30
0.00000
  42
0.1771
  70
32
  0
VERTEX
  5
6DD
  100
AcDbEntity
  8
Layer 1
  62
0
  100
AcDb2dVertex
  10
18.79893
  20
9.79849
  30
0.00000
  42
0.2919
  70
32
  0
VERTEX
  5
6DE
  100
AcDbEntity
  8
Layer 1
  62
0
  100
AcDb2dVertex
  10
18.79795
  20
9.77338
  30
0.00000
  70
32
  0
VERTEX
  5
6DF
  100
AcDbEntity
  8
Layer 1
  62
0
  100
AcDb2dVertex
  10
19.14124
  20
9.13830
  30
0.00000
  42
-0.1081
  70
32
  0
VERTEX
  5
6E0
  100
AcDbEntity
  8
Layer 1
  62
0
  100
AcDb2dVertex
  10
19.16208
  20
9.08661
  30
0.00000
  42
-0.5426
  70
32
  0
VERTEX
  5
6E1
  100
AcDbEntity
  8
Layer 1
  62
0
  100
AcDb2dVertex
  10
19.11763
  20
9.04215
  30
0.00000
  70
32
  0
VERTEX
  5
6E2
  100
AcDbEntity
  8
Layer 1
  62
0
  100
AcDb2dVertex
  10
19.09290
  20
9.05003
  30
0.00000
  42
0.1093
  70
32
  0
VERTEX
  5
6E3
  100
AcDbEntity
  8
Layer 1
  62
0
  100
AcDb2dVertex
  10
18.94968
  20
9.08423
  30
0.00000
  70
32
  0
SEQEND
  5
6E4
  100
AcDbEntity
  8
Layer 1
  62
0
  0
POLYLINE
  5
6E5
  100
AcDbEntity
  8
Layer 1
  62
0
  100
AcDb2dPolyline
 66
     1
  10
0
  20
0
  30
0
  70
1
  0
VERTEX
  5
6E6
  100
AcDbEntity
  8
Layer 1
  62
0
  100
AcDb2dVertex
  10
21.75476
  20
7.75942
  30
0.00000
  42
0.1000
  70
32
  0
VERTEX
  5
6E7
  100
AcDbEntity
  8
Layer 1
  62
0
  100
AcDb2dVertex
  10
21.95415
  20
7.61872
  30
0.00000
  42
-0.0605
  70
32
  0
VERTEX
  5
6E8
  100
AcDbEntity
  8
Layer 1
  62
0
  100
AcDb2dVertex
  10
22.97284
  20
6.98943
  30
0.00000
  70
32
  0
VERTEX
  5
6E9
  100
AcDbEntity
  8
Layer 1
  62
0
  100
AcDb2dVertex
  10
22.98790
  20
6.98102
  30
0.00000
  42
-0.4678
  70
32
  0
VERTEX
  5
6EA
  100
AcDbEntity
  8
Layer 1
  62
0
  100
AcDb2dVertex
  10
22.98790
  20
6.96100
  30
0.00000
  70
32
  0
VERTEX
  5
6EB
  100
AcDbEntity
  8
Layer 1
  62
0
  100
AcDb2dVertex
  10
22.97483
  20
6.95411
  30
0.00000
  42
-0.1785
  70
32
  0
VERTEX
  5
6EC
  100
AcDbEntity
  8
Layer 1
  62
0
  100
AcDb2dVertex
  10
22.93329
  20
6.96018
  30
0.00000
  42
0.1116
  70
32
  0
VERTEX
  5
6ED
  100
AcDbEntity
  8
Layer 1
  62
0
  100
AcDb2dVertex
  10
20.98424
  20
7.90420
  30
0.00000
  42
0.0201
  70
32
  0
VERTEX
  5
6EE
  100
AcDbEntity
  8
Layer 1
  62
0
  100
AcDb2dVertex
  10
20.90179
  20
7.92460
  30
0.00000
  70
32
  0
VERTEX
  5
6EF
  100
AcDbEntity
  8
Layer 1
  62
0
  100
AcDb2dVertex
  10
20.88800
  20
7.93247
  30
0.00000
  42
-0.4787
  70
32
  0
VERTEX
  5
6F0
  100
AcDbEntity
  8
Layer 1
  62
0
  100
AcDb2dVertex
  10
20.88800
  20
7.95254
  30
0.00000
  42
-0.1733
  70
32
  0
VERTEX
  5
6F1
  100
AcDbEntity
  8
Layer 1
  62
0
  100
AcDb2dVertex
  10
20.92336
  20
7.96356
  30
0.00000
  42
-0.0432
  70
32
  0
VERTEX
  5
6F2
  100
AcDbEntity
  8
Layer 1
  62
0
  100
AcDb2dVertex
  10
21.42746
  20
7.82112
  30
0.00000
  42
0.0749
  70
32
  0
VERTEX
  5
6F3
  100
AcDbEntity
  8
Layer 1
  62
0
  100
AcDb2dVertex
  10
21.59206
  20
7.77569
  30
0.00000
  42
0.1771
  70
32
  0
VERTEX
  5
6F4
  100
AcDbEntity
  8
Layer 1
  62
0
  100
AcDb2dVertex
  10
21.62743
  20
7.78692
  30
0.00000
  42
0.3442
  70
32
  0
VERTEX
  5
6F5
  100
AcDbEntity
  8
Layer 1
  62
0
  100
AcDb2dVertex
  10
21.62743
  20
7.81106
  30
0.00000
  70
32
  0
VERTEX
  5
6F6
  100
AcDbEntity
  8
Layer 1
  62
0
  100
AcDb2dVertex
  10
21.59002
  20
7.84415
  30
0.00000
  42
0.1137
  70
32
  0
VERTEX
  5
6F7
  100
AcDbEntity
  8
Layer 1
  62
0
  100
AcDb2dVertex
  10
19.70966
  20
8.69760
  30
0.00000
  42
-0.1559
  70
32
  0
VERTEX
  5
6F8
  100
AcDbEntity
  8
Layer 1
  62
0
  100
AcDb2dVertex
  10
19.67347
  20
8.70980
  30
0.00000
  42
-0.4824
  70
32
  0
VERTEX
  5
6F9
  100
AcDbEntity
  8
Layer 1
  62
0
  100
AcDb2dVertex
  10
19.67347
  20
8.72986
  30
0.00000
  70
32
  0
VERTEX
  5
6FA
  100
AcDbEntity
  8
Layer 1
  62
0
  100
AcDb2dVertex
  10
19.68736
  20
8.73759
  30
0.00000
  42
-0.1296
  70
32
  0
VERTEX
  5
6FB
  100
AcDbEntity
  8
Layer 1
  62
0
  100
AcDb2dVertex
  10
19.84978
  20
8.71947
  30
0.00000
  42
-0.1198
  70
32
  0
VERTEX
  5
6FC
  100
AcDbEntity
  8
Layer 1
  62
0
  100
AcDb2dVertex
  10
21.75476
  20
7.75942
  30
0.00000
  70
32
  0
SEQEND
  5
6FD
  100
AcDbEntity
  8
Layer 1
  62
0
  0
POLYLINE
  5
6FE
  100
AcDbEntity
  8
Layer 1
  62
0
  100
AcDb2dPolyline
 66
     1
  10
0
  20
0
  30
0
  70
1
  0
VERTEX
  5
6FF
  100
AcDbEntity
  8
Layer 1
  62
0
  100
AcDb2dVertex
  10
23.93974
  20
5.99381
  30
0.00000
  42
-0.2115
  70
32
  0
VERTEX
  5
700
  100
AcDbEntity
  8
Layer 1
  62
0
  100
AcDb2dVertex
  10
23.88552
  20
6.10084
  30
0.00000
  42
0.1197
  70
32
  0
VERTEX
  5
701
  100
AcDbEntity
  8
Layer 1
  62
0
  100
AcDb2dVertex
  10
23.71086
  20
6.65479
  30
0.00000
  42
0.1725
  70
32
  0
VERTEX
  5
702
  100
AcDbEntity
  8
Layer 1
  62
0
  100
AcDb2dVertex
  10
21.90717
  20
8.00122
  30
0.00000
  42
0.0216
  70
32
  0
VERTEX
  5
703
  100
AcDbEntity
  8
Layer 1
  62
0
  100
AcDb2dVertex
  10
21.82487
  20
8.02177
  30
0.00000
  70
32
  0
VERTEX
  5
704
  100
AcDbEntity
  8
Layer 1
  62
0
  100
AcDb2dVertex
  10
21.81107
  20
8.02964
  30
0.00000
  42
-0.4787
  70
32
  0
VERTEX
  5
705
  100
AcDbEntity
  8
Layer 1
  62
0
  100
AcDb2dVertex
  10
21.81107
  20
8.04970
  30
0.00000
  70
32
  0
VERTEX
  5
706
  100
AcDbEntity
  8
Layer 1
  62
0
  100
AcDb2dVertex
  10
21.82487
  20
8.05728
  30
0.00000
  42
-0.1398
  70
32
  0
VERTEX
  5
707
  100
AcDbEntity
  8
Layer 1
  62
0
  100
AcDb2dVertex
  10
21.87559
  20
8.05728
  30
0.00000
  42
-0.1258
  70
32
  0
VERTEX
  5
708
  100
AcDbEntity
  8
Layer 1
  62
0
  100
AcDb2dVertex
  10
23.37107
  20
7.14091
  30
0.00000
  42
-0.1871
  70
32
  0
VERTEX
  5
709
  100
AcDbEntity
  8
Layer 1
  62
0
  100
AcDb2dVertex
  10
23.93361
  20
6.10123
  30
0.00000
  42
0.1033
  70
32
  0
VERTEX
  5
70A
  100
AcDbEntity
  8
Layer 1
  62
0
  100
AcDb2dVertex
  10
23.96063
  20
6.01471
  30
0.00000
  70
32
  0
VERTEX
  5
70B
  100
AcDbEntity
  8
Layer 1
  62
0
  100
AcDb2dVertex
  10
23.96490
  20
6.00091
  30
0.00000
  42
-0.4898
  70
32
  0
VERTEX
  5
70C
  100
AcDbEntity
  8
Layer 1
  62
0
  100
AcDb2dVertex
  10
23.95256
  20
5.98852
  30
0.00000
  70
32
  0
VERTEX
  5
70D
  100
AcDbEntity
  8
Layer 1
  62
0
  100
AcDb2dVertex
  10
23.93974
  20
5.99381
  30
0.00000
  70
32
  0
SEQEND
  5
70E
  100
AcDbEntity
  8
Layer 1
  62
0
  0
POLYLINE
  5
70F
  100
AcDbEntity
  8
Layer 1
  62
0
  100
AcDb2dPolyline
 66
     1
  10
0
  20
0
  30
0
  70
1
  0
VERTEX
  5
710
  100
AcDbEntity
  8
Layer 1
  62
0
  100
AcDb2dVertex
  10
22.74921
  20
6.17896
  30
0.00000
  42
0.1275
  70
32
  0
VERTEX
  5
711
  100
AcDbEntity
  8
Layer 1
  62
0
  100
AcDb2dVertex
  10
21.00314
  20
7.15247
  30
0.00000
  42
-0.1502
  70
32
  0
VERTEX
  5
712
  100
AcDbEntity
  8
Layer 1
  62
0
  100
AcDb2dVertex
  10
20.93653
  20
7.19940
  30
0.00000
  70
32
  0
VERTEX
  5
713
  100
AcDbEntity
  8
Layer 1
  62
0
  100
AcDb2dVertex
  10
20.93128
  20
7.21223
  30
0.00000
  42
-0.4915
  70
32
  0
VERTEX
  5
714
  100
AcDbEntity
  8
Layer 1
  62
0
  100
AcDb2dVertex
  10
20.94362
  20
7.22457
  30
0.00000
  70
32
  0
VERTEX
  5
715
  100
AcDbEntity
  8
Layer 1
  62
0
  100
AcDb2dVertex
  10
20.95742
  20
7.22034
  30
0.00000
  42
0.0696
  70
32
  0
VERTEX
  5
716
  100
AcDbEntity
  8
Layer 1
  62
0
  100
AcDb2dVertex
  10
21.04195
  20
7.18852
  30
0.00000
  42
0.0749
  70
32
  0
VERTEX
  5
717
  100
AcDbEntity
  8
Layer 1
  62
0
  100
AcDb2dVertex
  10
21.20340
  20
7.14411
  30
0.00000
  42
0.1771
  70
32
  0
VERTEX
  5
718
  100
AcDbEntity
  8
Layer 1
  62
0
  100
AcDb2dVertex
  10
21.23876
  20
7.15534
  30
0.00000
  42
0.3459
  70
32
  0
VERTEX
  5
719
  100
AcDbEntity
  8
Layer 1
  62
0
  100
AcDb2dVertex
  10
21.23886
  20
7.17963
  30
0.00000
  42
0.0565
  70
32
  0
VERTEX
  5
71A
  100
AcDbEntity
  8
Layer 1
  62
0
  100
AcDb2dVertex
  10
20.46552
  20
7.87908
  30
0.00000
  42
0.1109
  70
32
  0
VERTEX
  5
71B
  100
AcDbEntity
  8
Layer 1
  62
0
  100
AcDb2dVertex
  10
19.49789
  20
8.36792
  30
0.00000
  42
-0.1594
  70
32
  0
VERTEX
  5
71C
  100
AcDbEntity
  8
Layer 1
  62
0
  100
AcDb2dVertex
  10
19.43046
  20
8.41398
  30
0.00000
  70
32
  0
VERTEX
  5
71D
  100
AcDbEntity
  8
Layer 1
  62
0
  100
AcDb2dVertex
  10
19.42521
  20
8.42680
  30
0.00000
  42
-0.4915
  70
32
  0
VERTEX
  5
71E
  100
AcDbEntity
  8
Layer 1
  62
0
  100
AcDb2dVertex
  10
19.43755
  20
8.43914
  30
0.00000
  42
-0.0593
  70
32
  0
VERTEX
  5
71F
  100
AcDbEntity
  8
Layer 1
  62
0
  100
AcDb2dVertex
  10
19.82451
  20
8.30690
  30
0.00000
  42
-0.1099
  70
32
  0
VERTEX
  5
720
  100
AcDbEntity
  8
Layer 1
  62
0
  100
AcDb2dVertex
  10
21.31980
  20
7.13007
  30
0.00000
  42
0.1232
  70
32
  0
VERTEX
  5
721
  100
AcDbEntity
  8
Layer 1
  62
0
  100
AcDb2dVertex
  10
21.37436
  20
7.08747
  30
0.00000
  42
-0.0414
  70
32
  0
VERTEX
  5
722
  100
AcDbEntity
  8
Layer 1
  62
0
  100
AcDb2dVertex
  10
22.08814
  20
6.73242
  30
0.00000
  42
-0.0331
  70
32
  0
VERTEX
  5
723
  100
AcDbEntity
  8
Layer 1
  62
0
  100
AcDb2dVertex
  10
22.45771
  20
6.47041
  30
0.00000
  42
-0.0347
  70
32
  0
VERTEX
  5
724
  100
AcDbEntity
  8
Layer 1
  62
0
  100
AcDb2dVertex
  10
23.03653
  20
5.96510
  30
0.00000
  70
32
  0
VERTEX
  5
725
  100
AcDbEntity
  8
Layer 1
  62
0
  100
AcDb2dVertex
  10
23.04168
  20
5.95213
  30
0.00000
  42
-0.4969
  70
32
  0
VERTEX
  5
726
  100
AcDbEntity
  8
Layer 1
  62
0
  100
AcDb2dVertex
  10
23.02944
  20
5.93994
  30
0.00000
  70
32
  0
VERTEX
  5
727
  100
AcDbEntity
  8
Layer 1
  62
0
  100
AcDb2dVertex
  10
23.01651
  20
5.94509
  30
0.00000
  42
-0.0188
  70
32
  0
VERTEX
  5
728
  100
AcDbEntity
  8
Layer 1
  62
0
  100
AcDb2dVertex
  10
22.95622
  20
6.00144
  30
0.00000
  42
0.0438
  70
32
  0
VERTEX
  5
729
  100
AcDbEntity
  8
Layer 1
  62
0
  100
AcDb2dVertex
  10
22.74921
  20
6.17896
  30
0.00000
  70
32
  0
SEQEND
  5
72A
  100
AcDbEntity
  8
Layer 1
  62
0
  0
POLYLINE
  5
72B
  100
AcDbEntity
  8
Layer 1
  62
0
  100
AcDb2dPolyline
 66
     1
  10
0
  20
0
  30
0
  70
1
  0
VERTEX
  5
72C
  100
AcDbEntity
  8
Layer 1
  62
0
  100
AcDb2dVertex
  10
18.46419
  20
7.09232
  30
0.00000
  42
0.0651
  70
32
  0
VERTEX
  5
72D
  100
AcDbEntity
  8
Layer 1
  62
0
  100
AcDb2dVertex
  10
16.92489
  20
8.38619
  30
0.00000
  70
32
  0
VERTEX
  5
72E
  100
AcDbEntity
  8
Layer 1
  62
0
  100
AcDb2dVertex
  10
16.91123
  20
8.39056
  30
0.00000
  42
0.4915
  70
32
  0
VERTEX
  5
72F
  100
AcDbEntity
  8
Layer 1
  62
0
  100
AcDb2dVertex
  10
16.89889
  20
8.37822
  30
0.00000
  70
32
  0
VERTEX
  5
730
  100
AcDbEntity
  8
Layer 1
  62
0
  100
AcDb2dVertex
  10
16.90414
  20
8.36539
  30
0.00000
  42
0.1053
  70
32
  0
VERTEX
  5
731
  100
AcDbEntity
  8
Layer 1
  62
0
  100
AcDb2dVertex
  10
16.94160
  20
8.33236
  30
0.00000
  42
-0.0670
  70
32
  0
VERTEX
  5
732
  100
AcDbEntity
  8
Layer 1
  62
0
  100
AcDb2dVertex
  10
18.53706
  20
6.97087
  30
0.00000
  42
-0.0526
  70
32
  0
VERTEX
  5
733
  100
AcDbEntity
  8
Layer 1
  62
0
  100
AcDb2dVertex
  10
19.19410
  20
6.17697
  30
0.00000
  70
32
  0
VERTEX
  5
734
  100
AcDbEntity
  8
Layer 1
  62
0
  100
AcDb2dVertex
  10
19.22714
  20
6.13952
  30
0.00000
  70
32
  0
VERTEX
  5
735
  100
AcDbEntity
  8
Layer 1
  62
0
  100
AcDb2dVertex
  10
19.24001
  20
6.13427
  30
0.00000
  42
0.4884
  70
32
  0
VERTEX
  5
736
  100
AcDbEntity
  8
Layer 1
  62
0
  100
AcDb2dVertex
  10
19.25235
  20
6.14661
  30
0.00000
  70
32
  0
VERTEX
  5
737
  100
AcDbEntity
  8
Layer 1
  62
0
  100
AcDb2dVertex
  10
19.24793
  20
6.16031
  30
0.00000
  42
0.0748
  70
32
  0
VERTEX
  5
738
  100
AcDbEntity
  8
Layer 1
  62
0
  100
AcDb2dVertex
  10
18.46419
  20
7.09232
  30
0.00000
  70
32
  0
SEQEND
  5
739
  100
AcDbEntity
  8
Layer 1
  62
0
  0
POLYLINE
  5
73A
  100
AcDbEntity
  8
Layer 1
  62
0
  100
AcDb2dPolyline
 66
     1
  10
0
  20
0
  30
0
  70
1
  0
VERTEX
  5
73B
  100
AcDbEntity
  8
Layer 1
  62
0
  100
AcDb2dVertex
  10
17.98390
  20
6.49952
  30
0.00000
  42
0.0629
  70
32
  0
VERTEX
  5
73C
  100
AcDbEntity
  8
Layer 1
  62
0
  100
AcDb2dVertex
  10
17.07506
  20
7.30643
  30
0.00000
  42
0.0973
  70
32
  0
VERTEX
  5
73D
  100
AcDbEntity
  8
Layer 1
  62
0
  100
AcDb2dVertex
  10
16.23996
  20
7.71720
  30
0.00000
  42
0.1398
  70
32
  0
VERTEX
  5
73E
  100
AcDbEntity
  8
Layer 1
  62
0
  100
AcDb2dVertex
  10
16.18924
  20
7.71720
  30
0.00000
  70
32
  0
VERTEX
  5
73F
  100
AcDbEntity
  8
Layer 1
  62
0
  100
AcDb2dVertex
  10
16.17544
  20
7.70962
  30
0.00000
  42
0.4787
  70
32
  0
VERTEX
  5
740
  100
AcDbEntity
  8
Layer 1
  62
0
  100
AcDb2dVertex
  10
16.17544
  20
7.68956
  30
0.00000
  70
32
  0
VERTEX
  5
741
  100
AcDbEntity
  8
Layer 1
  62
0
  100
AcDb2dVertex
  10
16.18924
  20
7.68169
  30
0.00000
  42
-0.0216
  70
32
  0
VERTEX
  5
742
  100
AcDbEntity
  8
Layer 1
  62
0
  100
AcDb2dVertex
  10
16.27154
  20
7.66113
  30
0.00000
  42
-0.1037
  70
32
  0
VERTEX
  5
743
  100
AcDbEntity
  8
Layer 1
  62
0
  100
AcDb2dVertex
  10
17.56536
  20
6.87360
  30
0.00000
  42
0.0051
  70
32
  0
VERTEX
  5
744
  100
AcDbEntity
  8
Layer 1
  62
0
  100
AcDb2dVertex
  10
17.96388
  20
6.47950
  30
0.00000
  70
32
  0
VERTEX
  5
745
  100
AcDbEntity
  8
Layer 1
  62
0
  100
AcDb2dVertex
  10
17.97680
  20
6.47435
  30
0.00000
  42
0.4969
  70
32
  0
VERTEX
  5
746
  100
AcDbEntity
  8
Layer 1
  62
0
  100
AcDb2dVertex
  10
17.98905
  20
6.48654
  30
0.00000
  70
32
  0
VERTEX
  5
747
  100
AcDbEntity
  8
Layer 1
  62
0
  100
AcDb2dVertex
  10
17.98390
  20
6.49952
  30
0.00000
  70
32
  0
SEQEND
  5
748
  100
AcDbEntity
  8
Layer 1
  62
0
  0
POLYLINE
  5
749
  100
AcDbEntity
  8
Layer 1
  62
0
  100
AcDb2dPolyline
 66
     1
  10
0
  20
0
  30
0
  70
1
  0
VERTEX
  5
74A
  100
AcDbEntity
  8
Layer 1
  62
0
  100
AcDb2dVertex
  10
16.57499
  20
6.64526
  30
0.00000
  42
0.0518
  70
32
  0
VERTEX
  5
74B
  100
AcDbEntity
  8
Layer 1
  62
0
  100
AcDb2dVertex
  10
15.67606
  20
7.46204
  30
0.00000
  70
32
  0
VERTEX
  5
74C
  100
AcDbEntity
  8
Layer 1
  62
0
  100
AcDb2dVertex
  10
14.64061
  20
8.23956
  30
0.00000
  70
32
  0
VERTEX
  5
74D
  100
AcDbEntity
  8
Layer 1
  62
0
  100
AcDb2dVertex
  10
14.62769
  20
8.24466
  30
0.00000
  42
0.4969
  70
32
  0
VERTEX
  5
74E
  100
AcDbEntity
  8
Layer 1
  62
0
  100
AcDb2dVertex
  10
14.61544
  20
8.23247
  30
0.00000
  70
32
  0
VERTEX
  5
74F
  100
AcDbEntity
  8
Layer 1
  62
0
  100
AcDb2dVertex
  10
14.62059
  20
8.21950
  30
0.00000
  42
0.0504
  70
32
  0
VERTEX
  5
750
  100
AcDbEntity
  8
Layer 1
  62
0
  100
AcDb2dVertex
  10
15.00537
  20
7.90876
  30
0.00000
  42
-0.0311
  70
32
  0
VERTEX
  5
751
  100
AcDbEntity
  8
Layer 1
  62
0
  100
AcDb2dVertex
  10
16.20508
  20
6.97087
  30
0.00000
  42
0.0060
  70
32
  0
VERTEX
  5
752
  100
AcDbEntity
  8
Layer 1
  62
0
  100
AcDb2dVertex
  10
16.55497
  20
6.62525
  30
0.00000
  70
32
  0
VERTEX
  5
753
  100
AcDbEntity
  8
Layer 1
  62
0
  100
AcDb2dVertex
  10
16.56790
  20
6.62010
  30
0.00000
  42
0.4969
  70
32
  0
VERTEX
  5
754
  100
AcDbEntity
  8
Layer 1
  62
0
  100
AcDb2dVertex
  10
16.58014
  20
6.63229
  30
0.00000
  70
32
  0
VERTEX
  5
755
  100
AcDbEntity
  8
Layer 1
  62
0
  100
AcDb2dVertex
  10
16.57499
  20
6.64526
  30
0.00000
  70
32
  0
SEQEND
  5
756
  100
AcDbEntity
  8
Layer 1
  62
0
  0
POLYLINE
  5
757
  100
AcDbEntity
  8
Layer 1
  62
0
  100
AcDb2dPolyline
 66
     1
  10
0
  20
0
  30
0
  70
1
  0
VERTEX
  5
758
  100
AcDbEntity
  8
Layer 1
  62
0
  100
AcDb2dVertex
  10
16.99135
  20
7.64462
  30
0.00000
  70
32
  0
VERTEX
  5
759
  100
AcDbEntity
  8
Layer 1
  62
0
  100
AcDb2dVertex
  10
17.00500
  20
7.64020
  30
0.00000
  42
0.4915
  70
32
  0
VERTEX
  5
75A
  100
AcDbEntity
  8
Layer 1
  62
0
  100
AcDb2dVertex
  10
17.01734
  20
7.65254
  30
0.00000
  70
32
  0
VERTEX
  5
75B
  100
AcDbEntity
  8
Layer 1
  62
0
  100
AcDb2dVertex
  10
17.01209
  20
7.66536
  30
0.00000
  42
0.1053
  70
32
  0
VERTEX
  5
75C
  100
AcDbEntity
  8
Layer 1
  62
0
  100
AcDb2dVertex
  10
16.97463
  20
7.69840
  30
0.00000
  42
0.0393
  70
32
  0
VERTEX
  5
75D
  100
AcDbEntity
  8
Layer 1
  62
0
  100
AcDb2dVertex
  10
15.94599
  20
8.31496
  30
0.00000
  42
0.0422
  70
32
  0
VERTEX
  5
75E
  100
AcDbEntity
  8
Layer 1
  62
0
  100
AcDb2dVertex
  10
14.87075
  20
8.73064
  30
0.00000
  42
0.4915
  70
32
  0
VERTEX
  5
75F
  100
AcDbEntity
  8
Layer 1
  62
0
  100
AcDb2dVertex
  10
14.85841
  20
8.71830
  30
0.00000
  70
32
  0
VERTEX
  5
760
  100
AcDbEntity
  8
Layer 1
  62
0
  100
AcDb2dVertex
  10
14.86366
  20
8.70547
  30
0.00000
  42
0.1502
  70
32
  0
VERTEX
  5
761
  100
AcDbEntity
  8
Layer 1
  62
0
  100
AcDb2dVertex
  10
14.93026
  20
8.65854
  30
0.00000
  42
-0.0835
  70
32
  0
VERTEX
  5
762
  100
AcDbEntity
  8
Layer 1
  62
0
  100
AcDb2dVertex
  10
16.99135
  20
7.64462
  30
0.00000
  70
32
  0
SEQEND
  5
763
  100
AcDbEntity
  8
Layer 1
  62
0
  0
POLYLINE
  5
764
  100
AcDbEntity
  8
Layer 1
  62
0
  100
AcDb2dPolyline
 66
     1
  10
0
  20
0
  30
0
  70
1
  0
VERTEX
  5
765
  100
AcDbEntity
  8
Layer 1
  62
0
  100
AcDb2dVertex
  10
13.41744
  20
9.67237
  30
0.00000
  70
32
  0
VERTEX
  5
766
  100
AcDbEntity
  8
Layer 1
  62
0
  100
AcDb2dVertex
  10
13.40325
  20
9.68058
  30
0.00000
  42
-0.4804
  70
32
  0
VERTEX
  5
767
  100
AcDbEntity
  8
Layer 1
  62
0
  100
AcDb2dVertex
  10
13.40325
  20
9.70240
  30
0.00000
  42
-0.1458
  70
32
  0
VERTEX
  5
768
  100
AcDbEntity
  8
Layer 1
  62
0
  100
AcDb2dVertex
  10
13.44260
  20
9.71357
  30
0.00000
  42
-0.0925
  70
32
  0
VERTEX
  5
769
  100
AcDbEntity
  8
Layer 1
  62
0
  100
AcDb2dVertex
  10
13.71642
  20
9.68054
  30
0.00000
  42
-0.0498
  70
32
  0
VERTEX
  5
76A
  100
AcDbEntity
  8
Layer 1
  62
0
  100
AcDb2dVertex
  10
14.55068
  20
9.39778
  30
0.00000
  42
-0.0179
  70
32
  0
VERTEX
  5
76B
  100
AcDbEntity
  8
Layer 1
  62
0
  100
AcDb2dVertex
  10
14.67331
  20
9.33987
  30
0.00000
  42
0.1623
  70
32
  0
VERTEX
  5
76C
  100
AcDbEntity
  8
Layer 1
  62
0
  100
AcDb2dVertex
  10
14.71572
  20
9.33467
  30
0.00000
  70
32
  0
VERTEX
  5
76D
  100
AcDbEntity
  8
Layer 1
  62
0
  100
AcDb2dVertex
  10
14.72879
  20
9.34157
  30
0.00000
  42
0.4678
  70
32
  0
VERTEX
  5
76E
  100
AcDbEntity
  8
Layer 1
  62
0
  100
AcDb2dVertex
  10
14.72879
  20
9.36159
  30
0.00000
  42
0.0408
  70
32
  0
VERTEX
  5
76F
  100
AcDbEntity
  8
Layer 1
  62
0
  100
AcDb2dVertex
  10
13.80022
  20
9.71576
  30
0.00000
  42
0.1090
  70
32
  0
VERTEX
  5
770
  100
AcDbEntity
  8
Layer 1
  62
0
  100
AcDb2dVertex
  10
13.42506
  20
9.75103
  30
0.00000
  42
0.0337
  70
32
  0
VERTEX
  5
771
  100
AcDbEntity
  8
Layer 1
  62
0
  100
AcDb2dVertex
  10
13.35190
  20
9.72888
  30
0.00000
  42
-0.1226
  70
32
  0
VERTEX
  5
772
  100
AcDbEntity
  8
Layer 1
  62
0
  100
AcDb2dVertex
  10
13.27689
  20
9.72888
  30
0.00000
  70
32
  0
VERTEX
  5
773
  100
AcDbEntity
  8
Layer 1
  62
0
  100
AcDb2dVertex
  10
13.24152
  20
9.74253
  30
0.00000
  42
-0.0577
  70
32
  0
VERTEX
  5
774
  100
AcDbEntity
  8
Layer 1
  62
0
  100
AcDb2dVertex
  10
12.97572
  20
9.84878
  30
0.00000
  42
0.1623
  70
32
  0
VERTEX
  5
775
  100
AcDbEntity
  8
Layer 1
  62
0
  100
AcDb2dVertex
  10
12.93331
  20
9.85398
  30
0.00000
  70
32
  0
VERTEX
  5
776
  100
AcDbEntity
  8
Layer 1
  62
0
  100
AcDb2dVertex
  10
12.92024
  20
9.84713
  30
0.00000
  42
0.4681
  70
32
  0
VERTEX
  5
777
  100
AcDbEntity
  8
Layer 1
  62
0
  100
AcDb2dVertex
  10
12.92024
  20
9.82706
  30
0.00000
  70
32
  0
VERTEX
  5
778
  100
AcDbEntity
  8
Layer 1
  62
0
  100
AcDb2dVertex
  10
12.93535
  20
9.81875
  30
0.00000
  70
32
  0
VERTEX
  5
779
  100
AcDbEntity
  8
Layer 1
  62
0
  100
AcDb2dVertex
  10
13.98620
  20
9.41590
  30
0.00000
  70
32
  0
VERTEX
  5
77A
  100
AcDbEntity
  8
Layer 1
  62
0
  100
AcDb2dVertex
  10
14.33323
  20
9.24271
  30
0.00000
  42
0.1623
  70
32
  0
VERTEX
  5
77B
  100
AcDbEntity
  8
Layer 1
  62
0
  100
AcDb2dVertex
  10
14.37564
  20
9.23751
  30
0.00000
  70
32
  0
VERTEX
  5
77C
  100
AcDbEntity
  8
Layer 1
  62
0
  100
AcDb2dVertex
  10
14.38871
  20
9.24441
  30
0.00000
  42
0.4678
  70
32
  0
VERTEX
  5
77D
  100
AcDbEntity
  8
Layer 1
  62
0
  100
AcDb2dVertex
  10
14.38871
  20
9.26442
  30
0.00000
  42
0.0582
  70
32
  0
VERTEX
  5
77E
  100
AcDbEntity
  8
Layer 1
  62
0
  100
AcDb2dVertex
  10
13.41744
  20
9.67237
  30
0.00000
  70
32
  0
SEQEND
  5
77F
  100
AcDbEntity
  8
Layer 1
  62
0
  0
POLYLINE
  5
780
  100
AcDbEntity
  8
Layer 1
  62
0
  100
AcDb2dPolyline
 66
     1
  10
0
  20
0
  30
0
  70
1
  0
VERTEX
  5
781
  100
AcDbEntity
  8
Layer 1
  62
0
  100
AcDb2dVertex
  10
13.29685
  20
10.10666
  30
0.00000
  42
-0.0622
  70
32
  0
VERTEX
  5
782
  100
AcDbEntity
  8
Layer 1
  62
0
  100
AcDb2dVertex
  10
14.74730
  20
9.69156
  30
0.00000
  70
32
  0
VERTEX
  5
783
  100
AcDbEntity
  8
Layer 1
  62
0
  100
AcDb2dVertex
  10
14.86764
  20
9.63137
  30
0.00000
  42
0.1623
  70
32
  0
VERTEX
  5
784
  100
AcDbEntity
  8
Layer 1
  62
0
  100
AcDb2dVertex
  10
14.91005
  20
9.62617
  30
0.00000
  70
32
  0
VERTEX
  5
785
  100
AcDbEntity
  8
Layer 1
  62
0
  100
AcDb2dVertex
  10
14.92307
  20
9.63307
  30
0.00000
  42
0.4695
  70
32
  0
VERTEX
  5
786
  100
AcDbEntity
  8
Layer 1
  62
0
  100
AcDb2dVertex
  10
14.92307
  20
9.65309
  30
0.00000
  42
0.0776
  70
32
  0
VERTEX
  5
787
  100
AcDbEntity
  8
Layer 1
  62
0
  100
AcDb2dVertex
  10
14.14025
  20
9.95862
  30
0.00000
  70
32
  0
VERTEX
  5
788
  100
AcDbEntity
  8
Layer 1
  62
0
  100
AcDb2dVertex
  10
13.67876
  20
10.08018
  30
0.00000
  42
0.0622
  70
32
  0
VERTEX
  5
789
  100
AcDbEntity
  8
Layer 1
  62
0
  100
AcDb2dVertex
  10
13.29685
  20
10.15082
  30
0.00000
  42
0.1593
  70
32
  0
VERTEX
  5
78A
  100
AcDbEntity
  8
Layer 1
  62
0
  100
AcDb2dVertex
  10
13.26051
  20
10.13877
  30
0.00000
  42
0.4824
  70
32
  0
VERTEX
  5
78B
  100
AcDbEntity
  8
Layer 1
  62
0
  100
AcDb2dVertex
  10
13.26051
  20
10.11871
  30
0.00000
  42
0.1588
  70
32
  0
VERTEX
  5
78C
  100
AcDbEntity
  8
Layer 1
  62
0
  100
AcDb2dVertex
  10
13.29685
  20
10.10666
  30
0.00000
  70
32
  0
SEQEND
  5
78D
  100
AcDbEntity
  8
Layer 1
  62
0
  0
POLYLINE
  5
78E
  100
AcDbEntity
  8
Layer 1
  62
0
  100
AcDb2dPolyline
 66
     1
  10
0
  20
0
  30
0
  70
1
  0
VERTEX
  5
78F
  100
AcDbEntity
  8
Layer 1
  62
0
  100
AcDb2dVertex
  10
14.72267
  20
10.20756
  30
0.00000
  42
0.0391
  70
32
  0
VERTEX
  5
790
  100
AcDbEntity
  8
Layer 1
  62
0
  100
AcDb2dVertex
  10
14.78957
  20
10.20397
  30
0.00000
  42
0.1613
  70
32
  0
VERTEX
  5
791
  100
AcDbEntity
  8
Layer 1
  62
0
  100
AcDb2dVertex
  10
14.82576
  20
10.21587
  30
0.00000
  42
0.4800
  70
32
  0
VERTEX
  5
792
  100
AcDbEntity
  8
Layer 1
  62
0
  100
AcDb2dVertex
  10
14.82581
  20
10.23594
  30
0.00000
  70
32
  0
VERTEX
  5
793
  100
AcDbEntity
  8
Layer 1
  62
0
  100
AcDb2dVertex
  10
14.81201
  20
10.24381
  30
0.00000
  42
-0.0216
  70
32
  0
VERTEX
  5
794
  100
AcDbEntity
  8
Layer 1
  62
0
  100
AcDb2dVertex
  10
14.72971
  20
10.26436
  30
0.00000
  42
0.0669
  70
32
  0
VERTEX
  5
795
  100
AcDbEntity
  8
Layer 1
  62
0
  100
AcDb2dVertex
  10
14.17135
  20
10.39373
  30
0.00000
  42
0.1593
  70
32
  0
VERTEX
  5
796
  100
AcDbEntity
  8
Layer 1
  62
0
  100
AcDb2dVertex
  10
14.13501
  20
10.38169
  30
0.00000
  42
0.2741
  70
32
  0
VERTEX
  5
797
  100
AcDbEntity
  8
Layer 1
  62
0
  100
AcDb2dVertex
  10
14.13196
  20
10.36381
  30
0.00000
  42
0.2742
  70
32
  0
VERTEX
  5
798
  100
AcDbEntity
  8
Layer 1
  62
0
  100
AcDb2dVertex
  10
14.14618
  20
10.35254
  30
0.00000
  70
32
  0
VERTEX
  5
799
  100
AcDbEntity
  8
Layer 1
  62
0
  100
AcDb2dVertex
  10
14.17242
  20
10.34860
  30
0.00000
  42
0.0183
  70
32
  0
VERTEX
  5
79A
  100
AcDbEntity
  8
Layer 1
  62
0
  100
AcDb2dVertex
  10
14.49340
  20
10.26319
  30
0.00000
  42
-0.0252
  70
32
  0
VERTEX
  5
79B
  100
AcDbEntity
  8
Layer 1
  62
0
  100
AcDb2dVertex
  10
14.72267
  20
10.20756
  30
0.00000
  70
32
  0
SEQEND
  5
79C
  100
AcDbEntity
  8
Layer 1
  62
0
  0
POLYLINE
  5
79D
  100
AcDbEntity
  8
Layer 1
  62
0
  100
AcDb2dPolyline
 66
     1
  10
0
  20
0
  30
0
  70
1
  0
VERTEX
  5
79E
  100
AcDbEntity
  8
Layer 1
  62
0
  100
AcDb2dVertex
  10
14.11285
  20
15.03880
  30
0.00000
  42
-0.0883
  70
32
  0
VERTEX
  5
79F
  100
AcDbEntity
  8
Layer 1
  62
0
  100
AcDb2dVertex
  10
14.44948
  20
15.15914
  30
0.00000
  70
32
  0
VERTEX
  5
7A0
  100
AcDbEntity
  8
Layer 1
  62
0
  100
AcDb2dVertex
  10
14.48568
  20
15.17134
  30
0.00000
  42
0.4824
  70
32
  0
VERTEX
  5
7A1
  100
AcDbEntity
  8
Layer 1
  62
0
  100
AcDb2dVertex
  10
14.48568
  20
15.19140
  30
0.00000
  42
0.1590
  70
32
  0
VERTEX
  5
7A2
  100
AcDbEntity
  8
Layer 1
  62
0
  100
AcDb2dVertex
  10
14.44934
  20
15.20345
  30
0.00000
  42
0.0568
  70
32
  0
VERTEX
  5
7A3
  100
AcDbEntity
  8
Layer 1
  62
0
  100
AcDb2dVertex
  10
13.60555
  20
15.15744
  30
0.00000
  42
0.0537
  70
32
  0
VERTEX
  5
7A4
  100
AcDbEntity
  8
Layer 1
  62
0
  100
AcDb2dVertex
  10
12.73106
  20
15.10886
  30
0.00000
  42
0.0648
  70
32
  0
VERTEX
  5
7A5
  100
AcDbEntity
  8
Layer 1
  62
0
  100
AcDb2dVertex
  10
12.05002
  20
15.06115
  30
0.00000
  70
32
  0
VERTEX
  5
7A6
  100
AcDbEntity
  8
Layer 1
  62
0
  100
AcDb2dVertex
  10
11.49928
  20
15.05770
  30
0.00000
  42
0.1590
  70
32
  0
VERTEX
  5
7A7
  100
AcDbEntity
  8
Layer 1
  62
0
  100
AcDb2dVertex
  10
11.46294
  20
15.04565
  30
0.00000
  42
0.4833
  70
32
  0
VERTEX
  5
7A8
  100
AcDbEntity
  8
Layer 1
  62
0
  100
AcDb2dVertex
  10
11.46294
  20
15.02559
  30
0.00000
  42
0.1589
  70
32
  0
VERTEX
  5
7A9
  100
AcDbEntity
  8
Layer 1
  62
0
  100
AcDb2dVertex
  10
11.49928
  20
15.01354
  30
0.00000
  42
-0.0757
  70
32
  0
VERTEX
  5
7AA
  100
AcDbEntity
  8
Layer 1
  62
0
  100
AcDb2dVertex
  10
11.77314
  20
14.97618
  30
0.00000
  42
-0.0178
  70
32
  0
VERTEX
  5
7AB
  100
AcDbEntity
  8
Layer 1
  62
0
  100
AcDb2dVertex
  10
12.41561
  20
14.93848
  30
0.00000
  42
0.0907
  70
32
  0
VERTEX
  5
7AC
  100
AcDbEntity
  8
Layer 1
  62
0
  100
AcDb2dVertex
  10
14.11285
  20
15.03880
  30
0.00000
  70
32
  0
SEQEND
  5
7AD
  100
AcDbEntity
  8
Layer 1
  62
0
  0
POLYLINE
  5
7AE
  100
AcDbEntity
  8
Layer 1
  62
0
  100
AcDb2dPolyline
 66
     1
  10
0
  20
0
  30
0
  70
1
  0
VERTEX
  5
7AF
  100
AcDbEntity
  8
Layer 1
  62
0
  100
AcDb2dVertex
  10
4.27912
  20
9.81181
  30
0.00000
  42
0.0053
  70
32
  0
VERTEX
  5
7B0
  100
AcDbEntity
  8
Layer 1
  62
0
  100
AcDb2dVertex
  10
3.16059
  20
9.13271
  30
0.00000
  42
0.0497
  70
32
  0
VERTEX
  5
7B1
  100
AcDbEntity
  8
Layer 1
  62
0
  100
AcDb2dVertex
  10
2.67569
  20
8.79176
  30
0.00000
  42
0.1062
  70
32
  0
VERTEX
  5
7B2
  100
AcDbEntity
  8
Layer 1
  62
0
  100
AcDb2dVertex
  10
2.42092
  20
8.07482
  30
0.00000
  42
0.0103
  70
32
  0
VERTEX
  5
7B3
  100
AcDbEntity
  8
Layer 1
  62
0
  100
AcDb2dVertex
  10
2.40872
  20
6.68058
  30
0.00000
  42
-0.0685
  70
32
  0
VERTEX
  5
7B4
  100
AcDbEntity
  8
Layer 1
  62
0
  100
AcDb2dVertex
  10
2.45391
  20
5.98167
  30
0.00000
  42
-0.1629
  70
32
  0
VERTEX
  5
7B5
  100
AcDbEntity
  8
Layer 1
  62
0
  100
AcDb2dVertex
  10
2.44166
  20
5.94528
  30
0.00000
  42
-0.3448
  70
32
  0
VERTEX
  5
7B6
  100
AcDbEntity
  8
Layer 1
  62
0
  100
AcDb2dVertex
  10
2.41737
  20
5.94513
  30
0.00000
  42
-0.0796
  70
32
  0
VERTEX
  5
7B7
  100
AcDbEntity
  8
Layer 1
  62
0
  100
AcDb2dVertex
  10
1.09577
  20
7.60245
  30
0.00000
  42
-0.0953
  70
32
  0
VERTEX
  5
7B8
  100
AcDbEntity
  8
Layer 1
  62
0
  100
AcDb2dVertex
  10
0.11070
  20
10.79547
  30
0.00000
  42
-0.0844
  70
32
  0
VERTEX
  5
7B9
  100
AcDbEntity
  8
Layer 1
  62
0
  100
AcDb2dVertex
  10
0.07553
  20
11.10042
  30
0.00000
  42
-0.0451
  70
32
  0
VERTEX
  5
7BA
  100
AcDbEntity
  8
Layer 1
  62
0
  100
AcDb2dVertex
  10
0.04035
  20
12.49587
  30
0.00000
  42
0.1050
  70
32
  0
VERTEX
  5
7BB
  100
AcDbEntity
  8
Layer 1
  62
0
  100
AcDb2dVertex
  10
0.07523
  20
12.75249
  30
0.00000
  42
-0.1669
  70
32
  0
VERTEX
  5
7BC
  100
AcDbEntity
  8
Layer 1
  62
0
  100
AcDb2dVertex
  10
1.58160
  20
16.15305
  30
0.00000
  42
-0.0672
  70
32
  0
VERTEX
  5
7BD
  100
AcDbEntity
  8
Layer 1
  62
0
  100
AcDb2dVertex
  10
3.15093
  20
17.49482
  30
0.00000
  42
0.3257
  70
32
  0
VERTEX
  5
7BE
  100
AcDbEntity
  8
Layer 1
  62
0
  100
AcDb2dVertex
  10
3.15943
  20
17.51207
  30
0.00000
  42
0.2305
  70
32
  0
VERTEX
  5
7BF
  100
AcDbEntity
  8
Layer 1
  62
0
  100
AcDb2dVertex
  10
3.14422
  20
17.53300
  30
0.00000
  70
32
  0
VERTEX
  5
7C0
  100
AcDbEntity
  8
Layer 1
  62
0
  100
AcDb2dVertex
  10
3.12829
  20
17.54248
  30
0.00000
  42
-0.1289
  70
32
  0
VERTEX
  5
7C1
  100
AcDbEntity
  8
Layer 1
  62
0
  100
AcDb2dVertex
  10
3.10686
  20
17.56230
  30
0.00000
  42
-0.2832
  70
32
  0
VERTEX
  5
7C2
  100
AcDbEntity
  8
Layer 1
  62
0
  100
AcDb2dVertex
  10
3.10662
  20
17.57639
  30
0.00000
  42
0.0081
  70
32
  0
VERTEX
  5
7C3
  100
AcDbEntity
  8
Layer 1
  62
0
  100
AcDb2dVertex
  10
3.23624
  20
17.75343
  30
0.00000
  42
-0.1542
  70
32
  0
VERTEX
  5
7C4
  100
AcDbEntity
  8
Layer 1
  62
0
  100
AcDb2dVertex
  10
3.31927
  20
17.81620
  30
0.00000
  42
-0.0265
  70
32
  0
VERTEX
  5
7C5
  100
AcDbEntity
  8
Layer 1
  62
0
  100
AcDb2dVertex
  10
3.63972
  20
17.88241
  30
0.00000
  42
0.1109
  70
32
  0
VERTEX
  5
7C6
  100
AcDbEntity
  8
Layer 1
  62
0
  100
AcDb2dVertex
  10
3.72819
  20
17.90860
  30
0.00000
  42
-0.1991
  70
32
  0
VERTEX
  5
7C7
  100
AcDbEntity
  8
Layer 1
  62
0
  100
AcDb2dVertex
  10
3.75510
  20
17.90705
  30
0.00000
  70
32
  0
VERTEX
  5
7C8
  100
AcDbEntity
  8
Layer 1
  62
0
  100
AcDb2dVertex
  10
3.78051
  20
17.89704
  30
0.00000
  42
0.2044
  70
32
  0
VERTEX
  5
7C9
  100
AcDbEntity
  8
Layer 1
  62
0
  100
AcDb2dVertex
  10
3.82638
  20
17.90622
  30
0.00000
  42
-0.0889
  70
32
  0
VERTEX
  5
7CA
  100
AcDbEntity
  8
Layer 1
  62
0
  100
AcDb2dVertex
  10
4.00502
  20
17.97166
  30
0.00000
  42
-0.1733
  70
32
  0
VERTEX
  5
7CB
  100
AcDbEntity
  8
Layer 1
  62
0
  100
AcDb2dVertex
  10
4.04038
  20
17.96063
  30
0.00000
  42
-0.2836
  70
32
  0
VERTEX
  5
7CC
  100
AcDbEntity
  8
Layer 1
  62
0
  100
AcDb2dVertex
  10
4.04429
  20
17.94611
  30
0.00000
  42
-0.2834
  70
32
  0
VERTEX
  5
7CD
  100
AcDbEntity
  8
Layer 1
  62
0
  100
AcDb2dVertex
  10
4.03310
  20
17.93610
  30
0.00000
  42
-0.0292
  70
32
  0
VERTEX
  5
7CE
  100
AcDbEntity
  8
Layer 1
  62
0
  100
AcDb2dVertex
  10
4.00293
  20
17.92755
  30
0.00000
  42
0.0575
  70
32
  0
VERTEX
  5
7CF
  100
AcDbEntity
  8
Layer 1
  62
0
  100
AcDb2dVertex
  10
3.91310
  20
17.89869
  30
0.00000
  42
0.0698
  70
32
  0
VERTEX
  5
7D0
  100
AcDbEntity
  8
Layer 1
  62
0
  100
AcDb2dVertex
  10
2.11601
  20
16.63888
  30
0.00000
  42
0.1769
  70
32
  0
VERTEX
  5
7D1
  100
AcDbEntity
  8
Layer 1
  62
0
  100
AcDb2dVertex
  10
0.15928
  20
13.05715
  30
0.00000
  42
0.0328
  70
32
  0
VERTEX
  5
7D2
  100
AcDbEntity
  8
Layer 1
  62
0
  100
AcDb2dVertex
  10
0.07553
  20
12.02350
  30
0.00000
  42
0.0572
  70
32
  0
VERTEX
  5
7D3
  100
AcDbEntity
  8
Layer 1
  62
0
  100
AcDb2dVertex
  10
0.11070
  20
11.32988
  30
0.00000
  42
0.0676
  70
32
  0
VERTEX
  5
7D4
  100
AcDbEntity
  8
Layer 1
  62
0
  100
AcDb2dVertex
  10
0.47624
  20
9.21773
  30
0.00000
  42
0.1333
  70
32
  0
VERTEX
  5
7D5
  100
AcDbEntity
  8
Layer 1
  62
0
  100
AcDb2dVertex
  10
2.30845
  20
6.09861
  30
0.00000
  42
0.0294
  70
32
  0
VERTEX
  5
7D6
  100
AcDbEntity
  8
Layer 1
  62
0
  100
AcDb2dVertex
  10
2.36879
  20
6.04230
  30
0.00000
  42
0.3447
  70
32
  0
VERTEX
  5
7D7
  100
AcDbEntity
  8
Layer 1
  62
0
  100
AcDb2dVertex
  10
2.39308
  20
6.04245
  30
0.00000
  42
0.1629
  70
32
  0
VERTEX
  5
7D8
  100
AcDbEntity
  8
Layer 1
  62
0
  100
AcDb2dVertex
  10
2.40532
  20
6.07883
  30
0.00000
  42
0.0121
  70
32
  0
VERTEX
  5
7D9
  100
AcDbEntity
  8
Layer 1
  62
0
  100
AcDb2dVertex
  10
2.40629
  20
6.33812
  30
0.00000
  42
-0.0537
  70
32
  0
VERTEX
  5
7DA
  100
AcDbEntity
  8
Layer 1
  62
0
  100
AcDb2dVertex
  10
2.35893
  20
7.21378
  30
0.00000
  42
-0.0722
  70
32
  0
VERTEX
  5
7DB
  100
AcDbEntity
  8
Layer 1
  62
0
  100
AcDb2dVertex
  10
2.43292
  20
8.35432
  30
0.00000
  42
-0.1862
  70
32
  0
VERTEX
  5
7DC
  100
AcDbEntity
  8
Layer 1
  62
0
  100
AcDb2dVertex
  10
2.74856
  20
8.91322
  30
0.00000
  42
-0.0119
  70
32
  0
VERTEX
  5
7DD
  100
AcDbEntity
  8
Layer 1
  62
0
  100
AcDb2dVertex
  10
6.27802
  20
11.06797
  30
0.00000
  42
-0.0279
  70
32
  0
VERTEX
  5
7DE
  100
AcDbEntity
  8
Layer 1
  62
0
  100
AcDb2dVertex
  10
8.56613
  20
12.22925
  30
0.00000
  42
-0.0624
  70
32
  0
VERTEX
  5
7DF
  100
AcDbEntity
  8
Layer 1
  62
0
  100
AcDb2dVertex
  10
11.68011
  20
13.21597
  30
0.00000
  42
0.1588
  70
32
  0
VERTEX
  5
7E0
  100
AcDbEntity
  8
Layer 1
  62
0
  100
AcDb2dVertex
  10
11.71645
  20
13.22802
  30
0.00000
  42
0.4833
  70
32
  0
VERTEX
  5
7E1
  100
AcDbEntity
  8
Layer 1
  62
0
  100
AcDb2dVertex
  10
11.71645
  20
13.24808
  30
0.00000
  42
0.1590
  70
32
  0
VERTEX
  5
7E2
  100
AcDbEntity
  8
Layer 1
  62
0
  100
AcDb2dVertex
  10
11.68011
  20
13.26013
  30
0.00000
  70
32
  0
VERTEX
  5
7E3
  100
AcDbEntity
  8
Layer 1
  62
0
  100
AcDb2dVertex
  10
11.56263
  20
13.26339
  30
0.00000
  42
0.0604
  70
32
  0
VERTEX
  5
7E4
  100
AcDbEntity
  8
Layer 1
  62
0
  100
AcDb2dVertex
  10
10.78808
  20
13.31095
  30
0.00000
  42
-0.1608
  70
32
  0
VERTEX
  5
7E5
  100
AcDbEntity
  8
Layer 1
  62
0
  100
AcDb2dVertex
  10
10.08362
  20
13.42706
  30
0.00000
  42
0.0453
  70
32
  0
VERTEX
  5
7E6
  100
AcDbEntity
  8
Layer 1
  62
0
  100
AcDb2dVertex
  10
10.03679
  20
13.44392
  30
0.00000
  42
0.1240
  70
32
  0
VERTEX
  5
7E7
  100
AcDbEntity
  8
Layer 1
  62
0
  100
AcDb2dVertex
  10
10.01833
  20
13.44407
  30
0.00000
  42
0.0420
  70
32
  0
VERTEX
  5
7E8
  100
AcDbEntity
  8
Layer 1
  62
0
  100
AcDb2dVertex
  10
9.02029
  20
12.99822
  30
0.00000
  42
-0.1060
  70
32
  0
VERTEX
  5
7E9
  100
AcDbEntity
  8
Layer 1
  62
0
  100
AcDb2dVertex
  10
8.96869
  20
12.97733
  30
0.00000
  42
-0.2170
  70
32
  0
VERTEX
  5
7EA
  100
AcDbEntity
  8
Layer 1
  62
0
  100
AcDb2dVertex
  10
8.93643
  20
12.98530
  30
0.00000
  42
-0.4678
  70
32
  0
VERTEX
  5
7EB
  100
AcDbEntity
  8
Layer 1
  62
0
  100
AcDb2dVertex
  10
8.93643
  20
13.00531
  30
0.00000
  42
-0.0388
  70
32
  0
VERTEX
  5
7EC
  100
AcDbEntity
  8
Layer 1
  62
0
  100
AcDb2dVertex
  10
10.44080
  20
13.65822
  30
0.00000
  42
0.0085
  70
32
  0
VERTEX
  5
7ED
  100
AcDbEntity
  8
Layer 1
  62
0
  100
AcDb2dVertex
  10
13.25289
  20
14.53845
  30
0.00000
  42
0.1984
  70
32
  0
VERTEX
  5
7EE
  100
AcDbEntity
  8
Layer 1
  62
0
  100
AcDb2dVertex
  10
13.66079
  20
14.82601
  30
0.00000
  42
0.2920
  70
32
  0
VERTEX
  5
7EF
  100
AcDbEntity
  8
Layer 1
  62
0
  100
AcDb2dVertex
  10
13.65982
  20
14.85113
  30
0.00000
  42
0.1630
  70
32
  0
VERTEX
  5
7F0
  100
AcDbEntity
  8
Layer 1
  62
0
  100
AcDb2dVertex
  10
13.62343
  20
14.86337
  30
0.00000
  42
0.0826
  70
32
  0
VERTEX
  5
7F1
  100
AcDbEntity
  8
Layer 1
  62
0
  100
AcDb2dVertex
  10
13.15523
  20
14.83043
  30
0.00000
  42
-0.0111
  70
32
  0
VERTEX
  5
7F2
  100
AcDbEntity
  8
Layer 1
  62
0
  100
AcDb2dVertex
  10
11.42539
  20
14.82271
  30
0.00000
  42
0.0860
  70
32
  0
VERTEX
  5
7F3
  100
AcDbEntity
  8
Layer 1
  62
0
  100
AcDb2dVertex
  10
11.03133
  20
14.86590
  30
0.00000
  42
-0.0056
  70
32
  0
VERTEX
  5
7F4
  100
AcDbEntity
  8
Layer 1
  62
0
  100
AcDb2dVertex
  10
10.34772
  20
14.95966
  30
0.00000
  42
-0.0850
  70
32
  0
VERTEX
  5
7F5
  100
AcDbEntity
  8
Layer 1
  62
0
  100
AcDb2dVertex
  10
7.97838
  20
15.74816
  30
0.00000
  42
-0.0137
  70
32
  0
VERTEX
  5
7F6
  100
AcDbEntity
  8
Layer 1
  62
0
  100
AcDb2dVertex
  10
6.53736
  20
16.44479
  30
0.00000
  42
-0.1018
  70
32
  0
VERTEX
  5
7F7
  100
AcDbEntity
  8
Layer 1
  62
0
  100
AcDb2dVertex
  10
5.06893
  20
17.59986
  30
0.00000
  42
0.1008
  70
32
  0
VERTEX
  5
7F8
  100
AcDbEntity
  8
Layer 1
  62
0
  100
AcDb2dVertex
  10
5.02526
  20
17.65339
  30
0.00000
  42
-0.0784
  70
32
  0
VERTEX
  5
7F9
  100
AcDbEntity
  8
Layer 1
  62
0
  100
AcDb2dVertex
  10
4.85541
  20
17.79035
  30
0.00000
  70
32
  0
VERTEX
  5
7FA
  100
AcDbEntity
  8
Layer 1
  62
0
  100
AcDb2dVertex
  10
4.85026
  20
17.80332
  30
0.00000
  42
-0.4969
  70
32
  0
VERTEX
  5
7FB
  100
AcDbEntity
  8
Layer 1
  62
0
  100
AcDb2dVertex
  10
4.86251
  20
17.81552
  30
0.00000
  70
32
  0
VERTEX
  5
7FC
  100
AcDbEntity
  8
Layer 1
  62
0
  100
AcDb2dVertex
  10
4.87548
  20
17.81041
  30
0.00000
  70
32
  0
VERTEX
  5
7FD
  100
AcDbEntity
  8
Layer 1
  62
0
  100
AcDb2dVertex
  10
5.05183
  20
17.67997
  30
0.00000
  42
0.0519
  70
32
  0
VERTEX
  5
7FE
  100
AcDbEntity
  8
Layer 1
  62
0
  100
AcDb2dVertex
  10
5.39536
  20
17.29475
  30
0.00000
  42
0.0780
  70
32
  0
VERTEX
  5
7FF
  100
AcDbEntity
  8
Layer 1
  62
0
  100
AcDb2dVertex
  10
6.69899
  20
16.41215
  30
0.00000
  42
0.0057
  70
32
  0
VERTEX
  5
800
  100
AcDbEntity
  8
Layer 1
  62
0
  100
AcDb2dVertex
  10
8.17271
  20
15.69958
  30
0.00000
  42
0.0888
  70
32
  0
VERTEX
  5
801
  100
AcDbEntity
  8
Layer 1
  62
0
  100
AcDb2dVertex
  10
10.43459
  20
14.99790
  30
0.00000
  42
0.0922
  70
32
  0
VERTEX
  5
802
  100
AcDbEntity
  8
Layer 1
  62
0
  100
AcDb2dVertex
  10
10.68780
  20
14.95966
  30
0.00000
  42
-0.0319
  70
32
  0
VERTEX
  5
803
  100
AcDbEntity
  8
Layer 1
  62
0
  100
AcDb2dVertex
  10
10.89097
  20
14.91987
  30
0.00000
  42
-0.0418
  70
32
  0
VERTEX
  5
804
  100
AcDbEntity
  8
Layer 1
  62
0
  100
AcDb2dVertex
  10
11.34678
  20
14.88990
  30
0.00000
  42
0.0260
  70
32
  0
VERTEX
  5
805
  100
AcDbEntity
  8
Layer 1
  62
0
  100
AcDb2dVertex
  10
12.36027
  20
14.86779
  30
0.00000
  42
0.1589
  70
32
  0
VERTEX
  5
806
  100
AcDbEntity
  8
Layer 1
  62
0
  100
AcDb2dVertex
  10
12.39661
  20
14.87984
  30
0.00000
  42
0.4833
  70
32
  0
VERTEX
  5
807
  100
AcDbEntity
  8
Layer 1
  62
0
  100
AcDb2dVertex
  10
12.39661
  20
14.89990
  30
0.00000
  42
0.1590
  70
32
  0
VERTEX
  5
808
  100
AcDbEntity
  8
Layer 1
  62
0
  100
AcDb2dVertex
  10
12.36027
  20
14.91195
  30
0.00000
  70
32
  0
VERTEX
  5
809
  100
AcDbEntity
  8
Layer 1
  62
0
  100
AcDb2dVertex
  10
11.86035
  20
14.91764
  30
0.00000
  42
-0.0334
  70
32
  0
VERTEX
  5
80A
  100
AcDbEntity
  8
Layer 1
  62
0
  100
AcDb2dVertex
  10
11.65684
  20
14.95704
  30
0.00000
  42
-0.0620
  70
32
  0
VERTEX
  5
80B
  100
AcDbEntity
  8
Layer 1
  62
0
  100
AcDb2dVertex
  10
11.35076
  20
14.98721
  30
0.00000
  42
0.0241
  70
32
  0
VERTEX
  5
80C
  100
AcDbEntity
  8
Layer 1
  62
0
  100
AcDb2dVertex
  10
11.23378
  20
15.01772
  30
0.00000
  70
32
  0
VERTEX
  5
80D
  100
AcDbEntity
  8
Layer 1
  62
0
  100
AcDb2dVertex
  10
11.21998
  20
15.02559
  30
0.00000
  42
-0.4800
  70
32
  0
VERTEX
  5
80E
  100
AcDbEntity
  8
Layer 1
  62
0
  100
AcDb2dVertex
  10
11.22003
  20
15.04565
  30
0.00000
  42
-0.1586
  70
32
  0
VERTEX
  5
80F
  100
AcDbEntity
  8
Layer 1
  62
0
  100
AcDb2dVertex
  10
11.25622
  20
15.05770
  30
0.00000
  70
32
  0
VERTEX
  5
810
  100
AcDbEntity
  8
Layer 1
  62
0
  100
AcDb2dVertex
  10
11.38876
  20
15.06212
  30
0.00000
  42
0.1586
  70
32
  0
VERTEX
  5
811
  100
AcDbEntity
  8
Layer 1
  62
0
  100
AcDb2dVertex
  10
11.42495
  20
15.07417
  30
0.00000
  42
0.4731
  70
32
  0
VERTEX
  5
812
  100
AcDbEntity
  8
Layer 1
  62
0
  100
AcDb2dVertex
  10
11.42510
  20
15.09438
  30
0.00000
  70
32
  0
VERTEX
  5
813
  100
AcDbEntity
  8
Layer 1
  62
0
  100
AcDb2dVertex
  10
11.38983
  20
15.11158
  30
0.00000
  42
0.0302
  70
32
  0
VERTEX
  5
814
  100
AcDbEntity
  8
Layer 1
  62
0
  100
AcDb2dVertex
  10
10.89054
  20
15.21098
  30
0.00000
  42
-0.1823
  70
32
  0
VERTEX
  5
815
  100
AcDbEntity
  8
Layer 1
  62
0
  100
AcDb2dVertex
  10
10.40558
  20
15.45278
  30
0.00000
  42
-0.1744
  70
32
  0
VERTEX
  5
816
  100
AcDbEntity
  8
Layer 1
  62
0
  100
AcDb2dVertex
  10
10.37833
  20
15.54003
  30
0.00000
  42
-0.1734
  70
32
  0
VERTEX
  5
817
  100
AcDbEntity
  8
Layer 1
  62
0
  100
AcDb2dVertex
  10
10.38940
  20
15.57535
  30
0.00000
  42
-0.2827
  70
32
  0
VERTEX
  5
818
  100
AcDbEntity
  8
Layer 1
  62
0
  100
AcDb2dVertex
  10
10.40370
  20
15.57939
  30
0.00000
  42
-0.2831
  70
32
  0
VERTEX
  5
819
  100
AcDbEntity
  8
Layer 1
  62
0
  100
AcDb2dVertex
  10
10.41374
  20
15.56841
  30
0.00000
  42
-0.0276
  70
32
  0
VERTEX
  5
81A
  100
AcDbEntity
  8
Layer 1
  62
0
  100
AcDb2dVertex
  10
10.42254
  20
15.53799
  30
0.00000
  42
0.2438
  70
32
  0
VERTEX
  5
81B
  100
AcDbEntity
  8
Layer 1
  62
0
  100
AcDb2dVertex
  10
10.55867
  20
15.36489
  30
0.00000
  42
0.0402
  70
32
  0
VERTEX
  5
81C
  100
AcDbEntity
  8
Layer 1
  62
0
  100
AcDb2dVertex
  10
11.42539
  20
15.16279
  30
0.00000
  42
-0.0567
  70
32
  0
VERTEX
  5
81D
  100
AcDbEntity
  8
Layer 1
  62
0
  100
AcDb2dVertex
  10
12.09758
  20
15.11318
  30
0.00000
  42
-0.0697
  70
32
  0
VERTEX
  5
81E
  100
AcDbEntity
  8
Layer 1
  62
0
  100
AcDb2dVertex
  10
12.73106
  20
15.15744
  30
0.00000
  42
-0.0537
  70
32
  0
VERTEX
  5
81F
  100
AcDbEntity
  8
Layer 1
  62
0
  100
AcDb2dVertex
  10
13.60555
  20
15.20603
  30
0.00000
  42
-0.0518
  70
32
  0
VERTEX
  5
820
  100
AcDbEntity
  8
Layer 1
  62
0
  100
AcDb2dVertex
  10
14.54655
  20
15.25198
  30
0.00000
  42
-0.5192
  70
32
  0
VERTEX
  5
821
  100
AcDbEntity
  8
Layer 1
  62
0
  100
AcDb2dVertex
  10
14.59339
  20
15.18776
  30
0.00000
  42
-0.1829
  70
32
  0
VERTEX
  5
822
  100
AcDbEntity
  8
Layer 1
  62
0
  100
AcDb2dVertex
  10
14.56161
  20
15.15987
  30
0.00000
  42
-0.0291
  70
32
  0
VERTEX
  5
823
  100
AcDbEntity
  8
Layer 1
  62
0
  100
AcDb2dVertex
  10
14.31350
  20
15.08102
  30
0.00000
  42
-0.0885
  70
32
  0
VERTEX
  5
824
  100
AcDbEntity
  8
Layer 1
  62
0
  100
AcDb2dVertex
  10
13.78244
  20
14.91190
  30
0.00000
  42
0.1957
  70
32
  0
VERTEX
  5
825
  100
AcDbEntity
  8
Layer 1
  62
0
  100
AcDb2dVertex
  10
13.74304
  20
14.89422
  30
0.00000
  70
32
  0
VERTEX
  5
826
  100
AcDbEntity
  8
Layer 1
  62
0
  100
AcDb2dVertex
  10
13.71642
  20
14.84447
  30
0.00000
  42
-0.0525
  70
32
  0
VERTEX
  5
827
  100
AcDbEntity
  8
Layer 1
  62
0
  100
AcDb2dVertex
  10
13.62663
  20
14.69906
  30
0.00000
  42
-0.0973
  70
32
  0
VERTEX
  5
828
  100
AcDbEntity
  8
Layer 1
  62
0
  100
AcDb2dVertex
  10
12.92573
  20
14.37977
  30
0.00000
  42
-0.0340
  70
32
  0
VERTEX
  5
829
  100
AcDbEntity
  8
Layer 1
  62
0
  100
AcDb2dVertex
  10
11.62662
  20
13.93092
  30
0.00000
  42
0.1526
  70
32
  0
VERTEX
  5
82A
  100
AcDbEntity
  8
Layer 1
  62
0
  100
AcDb2dVertex
  10
11.56011
  20
13.88389
  30
0.00000
  42
0.3477
  70
32
  0
VERTEX
  5
82B
  100
AcDbEntity
  8
Layer 1
  62
0
  100
AcDb2dVertex
  10
11.56011
  20
13.85974
  30
0.00000
  42
0.1626
  70
32
  0
VERTEX
  5
82C
  100
AcDbEntity
  8
Layer 1
  62
0
  100
AcDb2dVertex
  10
11.59645
  20
13.84755
  30
0.00000
  42
0.0234
  70
32
  0
VERTEX
  5
82D
  100
AcDbEntity
  8
Layer 1
  62
0
  100
AcDb2dVertex
  10
11.66893
  20
13.84556
  30
0.00000
  42
0.0395
  70
32
  0
VERTEX
  5
82E
  100
AcDbEntity
  8
Layer 1
  62
0
  100
AcDb2dVertex
  10
12.26641
  20
13.86620
  30
0.00000
  42
-0.1600
  70
32
  0
VERTEX
  5
82F
  100
AcDbEntity
  8
Layer 1
  62
0
  100
AcDb2dVertex
  10
12.37047
  20
13.86620
  30
0.00000
  42
0.0554
  70
32
  0
VERTEX
  5
830
  100
AcDbEntity
  8
Layer 1
  62
0
  100
AcDb2dVertex
  10
12.58599
  20
13.84570
  30
0.00000
  42
0.0464
  70
32
  0
VERTEX
  5
831
  100
AcDbEntity
  8
Layer 1
  62
0
  100
AcDb2dVertex
  10
13.55818
  20
13.89307
  30
0.00000
  42
0.0089
  70
32
  0
VERTEX
  5
832
  100
AcDbEntity
  8
Layer 1
  62
0
  100
AcDb2dVertex
  10
15.14714
  20
14.15027
  30
0.00000
  42
-0.0804
  70
32
  0
VERTEX
  5
833
  100
AcDbEntity
  8
Layer 1
  62
0
  100
AcDb2dVertex
  10
15.45093
  20
14.18656
  30
0.00000
  42
-0.0617
  70
32
  0
VERTEX
  5
834
  100
AcDbEntity
  8
Layer 1
  62
0
  100
AcDb2dVertex
  10
16.03159
  20
14.23747
  30
0.00000
  42
-0.0682
  70
32
  0
VERTEX
  5
835
  100
AcDbEntity
  8
Layer 1
  62
0
  100
AcDb2dVertex
  10
16.51742
  20
14.28601
  30
0.00000
  42
0.0334
  70
32
  0
VERTEX
  5
836
  100
AcDbEntity
  8
Layer 1
  62
0
  100
AcDb2dVertex
  10
16.72093
  20
14.32546
  30
0.00000
  42
0.0424
  70
32
  0
VERTEX
  5
837
  100
AcDbEntity
  8
Layer 1
  62
0
  100
AcDb2dVertex
  10
17.17276
  20
14.35529
  30
0.00000
  42
-0.0727
  70
32
  0
VERTEX
  5
838
  100
AcDbEntity
  8
Layer 1
  62
0
  100
AcDb2dVertex
  10
17.26817
  20
14.37657
  30
0.00000
  42
-0.1733
  70
32
  0
VERTEX
  5
839
  100
AcDbEntity
  8
Layer 1
  62
0
  100
AcDb2dVertex
  10
17.30354
  20
14.36549
  30
0.00000
  42
-0.4787
  70
32
  0
VERTEX
  5
83A
  100
AcDbEntity
  8
Layer 1
  62
0
  100
AcDb2dVertex
  10
17.30354
  20
14.34543
  30
0.00000
  70
32
  0
VERTEX
  5
83B
  100
AcDbEntity
  8
Layer 1
  62
0
  100
AcDb2dVertex
  10
17.28974
  20
14.33756
  30
0.00000
  42
-0.0356
  70
32
  0
VERTEX
  5
83C
  100
AcDbEntity
  8
Layer 1
  62
0
  100
AcDb2dVertex
  10
15.98024
  20
13.95652
  30
0.00000
  42
-0.0198
  70
32
  0
VERTEX
  5
83D
  100
AcDbEntity
  8
Layer 1
  62
0
  100
AcDb2dVertex
  10
15.89774
  20
13.93611
  30
0.00000
  70
32
  0
VERTEX
  5
83E
  100
AcDbEntity
  8
Layer 1
  62
0
  100
AcDb2dVertex
  10
15.88395
  20
13.92824
  30
0.00000
  42
0.4800
  70
32
  0
VERTEX
  5
83F
  100
AcDbEntity
  8
Layer 1
  62
0
  100
AcDb2dVertex
  10
15.88400
  20
13.90818
  30
0.00000
  42
0.1589
  70
32
  0
VERTEX
  5
840
  100
AcDbEntity
  8
Layer 1
  62
0
  100
AcDb2dVertex
  10
15.92034
  20
13.89613
  30
0.00000
  42
0.0142
  70
32
  0
VERTEX
  5
841
  100
AcDbEntity
  8
Layer 1
  62
0
  100
AcDb2dVertex
  10
16.46655
  20
13.89963
  30
0.00000
  42
-0.0776
  70
32
  0
VERTEX
  5
842
  100
AcDbEntity
  8
Layer 1
  62
0
  100
AcDb2dVertex
  10
16.85750
  20
13.94593
  30
0.00000
  42
0.0333
  70
32
  0
VERTEX
  5
843
  100
AcDbEntity
  8
Layer 1
  62
0
  100
AcDb2dVertex
  10
17.06102
  20
13.98538
  30
0.00000
  42
0.0660
  70
32
  0
VERTEX
  5
844
  100
AcDbEntity
  8
Layer 1
  62
0
  100
AcDb2dVertex
  10
17.50594
  20
14.02624
  30
0.00000
  70
32
  0
VERTEX
  5
845
  100
AcDbEntity
  8
Layer 1
  62
0
  100
AcDb2dVertex
  10
18.89614
  20
14.23927
  30
0.00000
  42
-0.0378
  70
32
  0
VERTEX
  5
846
  100
AcDbEntity
  8
Layer 1
  62
0
  100
AcDb2dVertex
  10
19.72161
  20
14.43399
  30
0.00000
  42
0.1014
  70
32
  0
VERTEX
  5
847
  100
AcDbEntity
  8
Layer 1
  62
0
  100
AcDb2dVertex
  10
19.79624
  20
14.45245
  30
0.00000
  42
-0.0728
  70
32
  0
VERTEX
  5
848
  100
AcDbEntity
  8
Layer 1
  62
0
  100
AcDb2dVertex
  10
19.89166
  20
14.47369
  30
0.00000
  42
-0.1771
  70
32
  0
VERTEX
  5
849
  100
AcDbEntity
  8
Layer 1
  62
0
  100
AcDb2dVertex
  10
19.92702
  20
14.46246
  30
0.00000
  42
-0.3459
  70
32
  0
VERTEX
  5
84A
  100
AcDbEntity
  8
Layer 1
  62
0
  100
AcDb2dVertex
  10
19.92697
  20
14.43837
  30
0.00000
  42
-0.1528
  70
32
  0
VERTEX
  5
84B
  100
AcDbEntity
  8
Layer 1
  62
0
  100
AcDb2dVertex
  10
19.85949
  20
14.39231
  30
0.00000
  70
32
  0
VERTEX
  5
84C
  100
AcDbEntity
  8
Layer 1
  62
0
  100
AcDb2dVertex
  10
15.26223
  20
13.40360
  30
0.00000
  42
0.0498
  70
32
  0
VERTEX
  5
84D
  100
AcDbEntity
  8
Layer 1
  62
0
  100
AcDb2dVertex
  10
14.33012
  20
13.16967
  30
0.00000
  42
0.0090
  70
32
  0
VERTEX
  5
84E
  100
AcDbEntity
  8
Layer 1
  62
0
  100
AcDb2dVertex
  10
13.16165
  20
12.69414
  30
0.00000
  42
-0.0275
  70
32
  0
VERTEX
  5
84F
  100
AcDbEntity
  8
Layer 1
  62
0
  100
AcDb2dVertex
  10
13.07993
  20
12.67296
  30
0.00000
  70
32
  0
VERTEX
  5
850
  100
AcDbEntity
  8
Layer 1
  62
0
  100
AcDb2dVertex
  10
13.06613
  20
12.66509
  30
0.00000
  42
0.4800
  70
32
  0
VERTEX
  5
851
  100
AcDbEntity
  8
Layer 1
  62
0
  100
AcDb2dVertex
  10
13.06618
  20
12.64502
  30
0.00000
  42
0.1590
  70
32
  0
VERTEX
  5
852
  100
AcDbEntity
  8
Layer 1
  62
0
  100
AcDb2dVertex
  10
13.10252
  20
12.63297
  30
0.00000
  42
-0.0496
  70
32
  0
VERTEX
  5
853
  100
AcDbEntity
  8
Layer 1
  62
0
  100
AcDb2dVertex
  10
13.58160
  20
12.60649
  30
0.00000
  42
0.0249
  70
32
  0
VERTEX
  5
854
  100
AcDbEntity
  8
Layer 1
  62
0
  100
AcDb2dVertex
  10
14.47917
  20
12.58099
  30
0.00000
  42
0.0599
  70
32
  0
VERTEX
  5
855
  100
AcDbEntity
  8
Layer 1
  62
0
  100
AcDb2dVertex
  10
15.10623
  20
12.52789
  30
0.00000
  42
0.0792
  70
32
  0
VERTEX
  5
856
  100
AcDbEntity
  8
Layer 1
  62
0
  100
AcDb2dVertex
  10
15.46958
  20
12.48280
  30
0.00000
  42
-0.1589
  70
32
  0
VERTEX
  5
857
  100
AcDbEntity
  8
Layer 1
  62
0
  100
AcDb2dVertex
  10
15.50592
  20
12.47075
  30
0.00000
  42
-0.4824
  70
32
  0
VERTEX
  5
858
  100
AcDbEntity
  8
Layer 1
  62
0
  100
AcDb2dVertex
  10
15.50592
  20
12.45069
  30
0.00000
  42
-0.1589
  70
32
  0
VERTEX
  5
859
  100
AcDbEntity
  8
Layer 1
  62
0
  100
AcDb2dVertex
  10
15.46958
  20
12.43864
  30
0.00000
  42
0.0843
  70
32
  0
VERTEX
  5
85A
  100
AcDbEntity
  8
Layer 1
  62
0
  100
AcDb2dVertex
  10
14.84587
  20
12.36241
  30
0.00000
  42
0.2464
  70
32
  0
VERTEX
  5
85B
  100
AcDbEntity
  8
Layer 1
  62
0
  100
AcDb2dVertex
  10
14.34338
  20
12.01927
  30
0.00000
  42
-0.3186
  70
32
  0
VERTEX
  5
85C
  100
AcDbEntity
  8
Layer 1
  62
0
  100
AcDb2dVertex
  10
14.28464
  20
12.01194
  30
0.00000
  42
0.1026
  70
32
  0
VERTEX
  5
85D
  100
AcDbEntity
  8
Layer 1
  62
0
  100
AcDb2dVertex
  10
13.60900
  20
12.19660
  30
0.00000
  42
0.0837
  70
32
  0
VERTEX
  5
85E
  100
AcDbEntity
  8
Layer 1
  62
0
  100
AcDb2dVertex
  10
13.12351
  20
12.23867
  30
0.00000
  42
0.0334
  70
32
  0
VERTEX
  5
85F
  100
AcDbEntity
  8
Layer 1
  62
0
  100
AcDb2dVertex
  10
12.92000
  20
12.19922
  30
0.00000
  42
0.0641
  70
32
  0
VERTEX
  5
860
  100
AcDbEntity
  8
Layer 1
  62
0
  100
AcDb2dVertex
  10
12.28793
  20
12.11037
  30
0.00000
  42
-0.0197
  70
32
  0
VERTEX
  5
861
  100
AcDbEntity
  8
Layer 1
  62
0
  100
AcDb2dVertex
  10
12.20544
  20
12.08996
  30
0.00000
  42
0.4832
  70
32
  0
VERTEX
  5
862
  100
AcDbEntity
  8
Layer 1
  62
0
  100
AcDb2dVertex
  10
12.19169
  20
12.05780
  30
0.00000
  42
0.2127
  70
32
  0
VERTEX
  5
863
  100
AcDbEntity
  8
Layer 1
  62
0
  100
AcDb2dVertex
  10
12.29862
  20
12.00353
  30
0.00000
  70
32
  0
VERTEX
  5
864
  100
AcDbEntity
  8
Layer 1
  62
0
  100
AcDb2dVertex
  10
13.21378
  20
11.99576
  30
0.00000
  42
-0.0334
  70
32
  0
VERTEX
  5
865
  100
AcDbEntity
  8
Layer 1
  62
0
  100
AcDb2dVertex
  10
13.41729
  20
11.95631
  30
0.00000
  42
-0.1124
  70
32
  0
VERTEX
  5
866
  100
AcDbEntity
  8
Layer 1
  62
0
  100
AcDb2dVertex
  10
15.16774
  20
11.52057
  30
0.00000
  42
-0.0807
  70
32
  0
VERTEX
  5
867
  100
AcDbEntity
  8
Layer 1
  62
0
  100
AcDb2dVertex
  10
15.60333
  20
11.21207
  30
0.00000
  70
32
  0
VERTEX
  5
868
  100
AcDbEntity
  8
Layer 1
  62
0
  100
AcDb2dVertex
  10
15.60848
  20
11.19909
  30
0.00000
  42
-0.4897
  70
32
  0
VERTEX
  5
869
  100
AcDbEntity
  8
Layer 1
  62
0
  100
AcDb2dVertex
  10
15.59609
  20
11.18675
  30
0.00000
  70
32
  0
VERTEX
  5
86A
  100
AcDbEntity
  8
Layer 1
  62
0
  100
AcDb2dVertex
  10
15.58229
  20
11.19103
  30
0.00000
  42
0.0619
  70
32
  0
VERTEX
  5
86B
  100
AcDbEntity
  8
Layer 1
  62
0
  100
AcDb2dVertex
  10
14.34804
  20
11.52679
  30
0.00000
  42
0.0511
  70
32
  0
VERTEX
  5
86C
  100
AcDbEntity
  8
Layer 1
  62
0
  100
AcDb2dVertex
  10
12.98004
  20
11.60481
  30
0.00000
  42
-0.0792
  70
32
  0
VERTEX
  5
86D
  100
AcDbEntity
  8
Layer 1
  62
0
  100
AcDb2dVertex
  10
12.61669
  20
11.55973
  30
0.00000
  42
0.1626
  70
32
  0
VERTEX
  5
86E
  100
AcDbEntity
  8
Layer 1
  62
0
  100
AcDb2dVertex
  10
12.58035
  20
11.54753
  30
0.00000
  42
0.3480
  70
32
  0
VERTEX
  5
86F
  100
AcDbEntity
  8
Layer 1
  62
0
  100
AcDb2dVertex
  10
12.58035
  20
11.52339
  30
0.00000
  42
0.1530
  70
32
  0
VERTEX
  5
870
  100
AcDbEntity
  8
Layer 1
  62
0
  100
AcDb2dVertex
  10
12.64783
  20
11.47738
  30
0.00000
  42
-0.0653
  70
32
  0
VERTEX
  5
871
  100
AcDbEntity
  8
Layer 1
  62
0
  100
AcDb2dVertex
  10
13.73876
  20
11.16042
  30
0.00000
  42
-0.0453
  70
32
  0
VERTEX
  5
872
  100
AcDbEntity
  8
Layer 1
  62
0
  100
AcDb2dVertex
  10
15.44247
  20
10.14732
  30
0.00000
  70
32
  0
VERTEX
  5
873
  100
AcDbEntity
  8
Layer 1
  62
0
  100
AcDb2dVertex
  10
15.45753
  20
10.13892
  30
0.00000
  42
-0.4721
  70
32
  0
VERTEX
  5
874
  100
AcDbEntity
  8
Layer 1
  62
0
  100
AcDb2dVertex
  10
15.45734
  20
10.11871
  30
0.00000
  42
-0.1613
  70
32
  0
VERTEX
  5
875
  100
AcDbEntity
  8
Layer 1
  62
0
  100
AcDb2dVertex
  10
15.42114
  20
10.10680
  30
0.00000
  42
-0.0895
  70
32
  0
VERTEX
  5
876
  100
AcDbEntity
  8
Layer 1
  62
0
  100
AcDb2dVertex
  10
15.31781
  20
10.11900
  30
0.00000
  42
0.0640
  70
32
  0
VERTEX
  5
877
  100
AcDbEntity
  8
Layer 1
  62
0
  100
AcDb2dVertex
  10
14.90009
  20
10.19940
  30
0.00000
  42
0.1593
  70
32
  0
VERTEX
  5
878
  100
AcDbEntity
  8
Layer 1
  62
0
  100
AcDb2dVertex
  10
14.86375
  20
10.18735
  30
0.00000
  42
0.4731
  70
32
  0
VERTEX
  5
879
  100
AcDbEntity
  8
Layer 1
  62
0
  100
AcDb2dVertex
  10
14.86361
  20
10.16714
  30
0.00000
  70
32
  0
VERTEX
  5
87A
  100
AcDbEntity
  8
Layer 1
  62
0
  100
AcDb2dVertex
  10
14.89883
  20
10.14994
  30
0.00000
  42
-0.0065
  70
32
  0
VERTEX
  5
87B
  100
AcDbEntity
  8
Layer 1
  62
0
  100
AcDb2dVertex
  10
15.15219
  20
10.04748
  30
0.00000
  42
-0.1854
  70
32
  0
VERTEX
  5
87C
  100
AcDbEntity
  8
Layer 1
  62
0
  100
AcDb2dVertex
  10
15.74995
  20
9.56112
  30
0.00000
  70
32
  0
VERTEX
  5
87D
  100
AcDbEntity
  8
Layer 1
  62
0
  100
AcDb2dVertex
  10
15.75438
  20
9.54742
  30
0.00000
  42
-0.4857
  70
32
  0
VERTEX
  5
87E
  100
AcDbEntity
  8
Layer 1
  62
0
  100
AcDb2dVertex
  10
15.74184
  20
9.53493
  30
0.00000
  42
0.1054
  70
32
  0
VERTEX
  5
87F
  100
AcDbEntity
  8
Layer 1
  62
0
  100
AcDb2dVertex
  10
15.45316
  20
9.56875
  30
0.00000
  42
0.0736
  70
32
  0
VERTEX
  5
880
  100
AcDbEntity
  8
Layer 1
  62
0
  100
AcDb2dVertex
  10
14.83237
  20
9.36683
  30
0.00000
  42
0.1364
  70
32
  0
VERTEX
  5
881
  100
AcDbEntity
  8
Layer 1
  62
0
  100
AcDb2dVertex
  10
14.76654
  20
9.31713
  30
0.00000
  42
0.3449
  70
32
  0
VERTEX
  5
882
  100
AcDbEntity
  8
Layer 1
  62
0
  100
AcDb2dVertex
  10
14.76644
  20
9.29279
  30
0.00000
  70
32
  0
VERTEX
  5
883
  100
AcDbEntity
  8
Layer 1
  62
0
  100
AcDb2dVertex
  10
14.80152
  20
9.27530
  30
0.00000
  42
0.0487
  70
32
  0
VERTEX
  5
884
  100
AcDbEntity
  8
Layer 1
  62
0
  100
AcDb2dVertex
  10
15.36236
  20
9.04313
  30
0.00000
  42
-0.0512
  70
32
  0
VERTEX
  5
885
  100
AcDbEntity
  8
Layer 1
  62
0
  100
AcDb2dVertex
  10
16.78273
  20
8.43161
  30
0.00000
  42
0.1112
  70
32
  0
VERTEX
  5
886
  100
AcDbEntity
  8
Layer 1
  62
0
  100
AcDb2dVertex
  10
16.83423
  20
8.41058
  30
0.00000
  42
0.2318
  70
32
  0
VERTEX
  5
887
  100
AcDbEntity
  8
Layer 1
  62
0
  100
AcDb2dVertex
  10
16.86868
  20
8.42092
  30
0.00000
  42
0.1725
  70
32
  0
VERTEX
  5
888
  100
AcDbEntity
  8
Layer 1
  62
0
  100
AcDb2dVertex
  10
16.88296
  20
8.45930
  30
0.00000
  70
32
  0
VERTEX
  5
889
  100
AcDbEntity
  8
Layer 1
  62
0
  100
AcDb2dVertex
  10
16.88548
  20
9.15074
  30
0.00000
  42
-0.0891
  70
32
  0
VERTEX
  5
88A
  100
AcDbEntity
  8
Layer 1
  62
0
  100
AcDb2dVertex
  10
16.89229
  20
9.24615
  30
0.00000
  42
-0.2493
  70
32
  0
VERTEX
  5
88B
  100
AcDbEntity
  8
Layer 1
  62
0
  100
AcDb2dVertex
  10
16.91663
  20
9.27045
  30
0.00000
  42
-0.1716
  70
32
  0
VERTEX
  5
88C
  100
AcDbEntity
  8
Layer 1
  62
0
  100
AcDb2dVertex
  10
16.95953
  20
9.26578
  30
0.00000
  42
-0.0337
  70
32
  0
VERTEX
  5
88D
  100
AcDbEntity
  8
Layer 1
  62
0
  100
AcDb2dVertex
  10
18.75569
  20
7.86960
  30
0.00000
  42
-0.0294
  70
32
  0
VERTEX
  5
88E
  100
AcDbEntity
  8
Layer 1
  62
0
  100
AcDb2dVertex
  10
19.58160
  20
7.09232
  30
0.00000
  42
-0.0440
  70
32
  0
VERTEX
  5
88F
  100
AcDbEntity
  8
Layer 1
  62
0
  100
AcDb2dVertex
  10
20.13841
  20
6.58444
  30
0.00000
  42
0.0293
  70
32
  0
VERTEX
  5
890
  100
AcDbEntity
  8
Layer 1
  62
0
  100
AcDb2dVertex
  10
20.19875
  20
6.52813
  30
0.00000
  42
0.3447
  70
32
  0
VERTEX
  5
891
  100
AcDbEntity
  8
Layer 1
  62
0
  100
AcDb2dVertex
  10
20.22304
  20
6.52828
  30
0.00000
  42
0.1651
  70
32
  0
VERTEX
  5
892
  100
AcDbEntity
  8
Layer 1
  62
0
  100
AcDb2dVertex
  10
20.23514
  20
6.56452
  30
0.00000
  42
0.1151
  70
32
  0
VERTEX
  5
893
  100
AcDbEntity
  8
Layer 1
  62
0
  100
AcDb2dVertex
  10
20.20327
  20
6.72509
  30
0.00000
  42
-0.1249
  70
32
  0
VERTEX
  5
894
  100
AcDbEntity
  8
Layer 1
  62
0
  100
AcDb2dVertex
  10
20.19646
  20
6.76891
  30
0.00000
  42
-0.3432
  70
32
  0
VERTEX
  5
895
  100
AcDbEntity
  8
Layer 1
  62
0
  100
AcDb2dVertex
  10
20.21434
  20
6.78683
  30
0.00000
  70
32
  0
VERTEX
  5
896
  100
AcDbEntity
  8
Layer 1
  62
0
  100
AcDb2dVertex
  10
20.22848
  20
6.78285
  30
0.00000
  42
-0.0632
  70
32
  0
VERTEX
  5
897
  100
AcDbEntity
  8
Layer 1
  62
0
  100
AcDb2dVertex
  10
21.64448
  20
5.85569
  30
0.00000
  42
0.0293
  70
32
  0
VERTEX
  5
898
  100
AcDbEntity
  8
Layer 1
  62
0
  100
AcDb2dVertex
  10
21.70482
  20
5.79939
  30
0.00000
  42
0.3447
  70
32
  0
VERTEX
  5
899
  100
AcDbEntity
  8
Layer 1
  62
0
  100
AcDb2dVertex
  10
21.72911
  20
5.79953
  30
0.00000
  42
0.1769
  70
32
  0
VERTEX
  5
89A
  100
AcDbEntity
  8
Layer 1
  62
0
  100
AcDb2dVertex
  10
21.74034
  20
5.83490
  30
0.00000
  42
0.0518
  70
32
  0
VERTEX
  5
89B
  100
AcDbEntity
  8
Layer 1
  62
0
  100
AcDb2dVertex
  10
21.71925
  20
5.92633
  30
0.00000
  42
-0.0791
  70
32
  0
VERTEX
  5
89C
  100
AcDbEntity
  8
Layer 1
  62
0
  100
AcDb2dVertex
  10
21.69817
  20
6.01772
  30
0.00000
  42
-0.1769
  70
32
  0
VERTEX
  5
89D
  100
AcDbEntity
  8
Layer 1
  62
0
  100
AcDb2dVertex
  10
21.70939
  20
6.05309
  30
0.00000
  42
-0.3406
  70
32
  0
VERTEX
  5
89E
  100
AcDbEntity
  8
Layer 1
  62
0
  100
AcDb2dVertex
  10
21.73368
  20
6.05323
  30
0.00000
  42
-0.1126
  70
32
  0
VERTEX
  5
89F
  100
AcDbEntity
  8
Layer 1
  62
0
  100
AcDb2dVertex
  10
22.33227
  20
5.52295
  30
0.00000
  70
32
  0
VERTEX
  5
8A0
  100
AcDbEntity
  8
Layer 1
  62
0
  100
AcDb2dVertex
  10
22.34068
  20
5.50789
  30
0.00000
  42
0.4706
  70
32
  0
VERTEX
  5
8A1
  100
AcDbEntity
  8
Layer 1
  62
0
  100
AcDb2dVertex
  10
22.36084
  20
5.50803
  30
0.00000
  42
0.1592
  70
32
  0
VERTEX
  5
8A2
  100
AcDbEntity
  8
Layer 1
  62
0
  100
AcDb2dVertex
  10
22.37293
  20
5.54442
  30
0.00000
  70
32
  0
VERTEX
  5
8A3
  100
AcDbEntity
  8
Layer 1
  62
0
  100
AcDb2dVertex
  10
22.37731
  20
5.91958
  30
0.00000
  42
-0.1627
  70
32
  0
VERTEX
  5
8A4
  100
AcDbEntity
  8
Layer 1
  62
0
  100
AcDb2dVertex
  10
22.38955
  20
5.95592
  30
0.00000
  42
-0.3448
  70
32
  0
VERTEX
  5
8A5
  100
AcDbEntity
  8
Layer 1
  62
0
  100
AcDb2dVertex
  10
22.41384
  20
5.95607
  30
0.00000
  42
-0.0062
  70
32
  0
VERTEX
  5
8A6
  100
AcDbEntity
  8
Layer 1
  62
0
  100
AcDb2dVertex
  10
22.78808
  20
5.58625
  30
0.00000
  42
-0.0914
  70
32
  0
VERTEX
  5
8A7
  100
AcDbEntity
  8
Layer 1
  62
0
  100
AcDb2dVertex
  10
23.57692
  20
4.63383
  30
0.00000
  70
32
  0
VERTEX
  5
8A8
  100
AcDbEntity
  8
Layer 1
  62
0
  100
AcDb2dVertex
  10
23.60534
  20
4.58593
  30
0.00000
  70
32
  0
VERTEX
  5
8A9
  100
AcDbEntity
  8
Layer 1
  62
0
  100
AcDb2dVertex
  10
23.62176
  20
4.57407
  30
0.00000
  42
0.1629
  70
32
  0
VERTEX
  5
8AA
  100
AcDbEntity
  8
Layer 1
  62
0
  100
AcDb2dVertex
  10
23.67306
  20
4.57281
  30
0.00000
  42
0.0420
  70
32
  0
VERTEX
  5
8AB
  100
AcDbEntity
  8
Layer 1
  62
0
  100
AcDb2dVertex
  10
23.93876
  20
4.69378
  30
0.00000
  42
-0.2934
  70
32
  0
VERTEX
  5
8AC
  100
AcDbEntity
  8
Layer 1
  62
0
  100
AcDb2dVertex
  10
23.96393
  20
4.69276
  30
0.00000
  42
-0.1627
  70
32
  0
VERTEX
  5
8AD
  100
AcDbEntity
  8
Layer 1
  62
0
  100
AcDb2dVertex
  10
23.97617
  20
4.65642
  30
0.00000
  70
32
  0
VERTEX
  5
8AE
  100
AcDbEntity
  8
Layer 1
  62
0
  100
AcDb2dVertex
  10
23.97608
  20
0.05445
  30
0.00000
  42
-0.1738
  70
32
  0
VERTEX
  5
8AF
  100
AcDbEntity
  8
Layer 1
  62
0
  100
AcDb2dVertex
  10
23.96165
  20
0.01587
  30
0.00000
  42
-0.1735
  70
32
  0
VERTEX
  5
8B0
  100
AcDbEntity
  8
Layer 1
  62
0
  100
AcDb2dVertex
  10
23.92312
  20
0.00149
  30
0.00000
  70
32
  0
VERTEX
  5
8B1
  100
AcDbEntity
  8
Layer 1
  62
0
  100
AcDb2dVertex
  10
8.79617
  20
-0.00079
  30
0.00000
  70
32
  0
VERTEX
  5
8B2
  100
AcDbEntity
  8
Layer 1
  62
0
  100
AcDb2dVertex
  10
7.02955
  20
0.00149
  30
0.00000
  42
-0.1735
  70
32
  0
VERTEX
  5
8B3
  100
AcDbEntity
  8
Layer 1
  62
0
  100
AcDb2dVertex
  10
6.99102
  20
0.01587
  30
0.00000
  42
-0.1738
  70
32
  0
VERTEX
  5
8B4
  100
AcDbEntity
  8
Layer 1
  62
0
  100
AcDb2dVertex
  10
6.97659
  20
0.05445
  30
0.00000
  42
-0.0247
  70
32
  0
VERTEX
  5
8B5
  100
AcDbEntity
  8
Layer 1
  62
0
  100
AcDb2dVertex
  10
7.03630
  20
0.78737
  30
0.00000
  42
0.0128
  70
32
  0
VERTEX
  5
8B6
  100
AcDbEntity
  8
Layer 1
  62
0
  100
AcDb2dVertex
  10
7.09577
  20
1.26237
  30
0.00000
  42
-0.0088
  70
32
  0
VERTEX
  5
8B7
  100
AcDbEntity
  8
Layer 1
  62
0
  100
AcDb2dVertex
  10
7.19293
  20
1.99111
  30
0.00000
  70
32
  0
VERTEX
  5
8B8
  100
AcDbEntity
  8
Layer 1
  62
0
  100
AcDb2dVertex
  10
7.43590
  20
3.49709
  30
0.00000
  42
-0.0206
  70
32
  0
VERTEX
  5
8B9
  100
AcDbEntity
  8
Layer 1
  62
0
  100
AcDb2dVertex
  10
7.86183
  20
5.59752
  30
0.00000
  70
32
  0
VERTEX
  5
8BA
  100
AcDbEntity
  8
Layer 1
  62
0
  100
AcDb2dVertex
  10
8.26166
  20
7.18954
  30
0.00000
  42
0.0503
  70
32
  0
VERTEX
  5
8BB
  100
AcDbEntity
  8
Layer 1
  62
0
  100
AcDb2dVertex
  10
8.26166
  20
8.16105
  30
0.00000
  42
0.2284
  70
32
  0
VERTEX
  5
8BC
  100
AcDbEntity
  8
Layer 1
  62
0
  100
AcDb2dVertex
  10
7.38722
  20
9.61854
  30
0.00000
  42
0.1085
  70
32
  0
VERTEX
  5
8BD
  100
AcDbEntity
  8
Layer 1
  62
0
  100
AcDb2dVertex
  10
6.19689
  20
10.03150
  30
0.00000
  42
0.0299
  70
32
  0
VERTEX
  5
8BE
  100
AcDbEntity
  8
Layer 1
  62
0
  100
AcDb2dVertex
  10
5.39570
  20
10.05550
  30
0.00000
  42
0.0522
  70
32
  0
VERTEX
  5
8BF
  100
AcDbEntity
  8
Layer 1
  62
0
  100
AcDb2dVertex
  10
4.27912
  20
9.81181
  30
0.00000
  70
32
  0
SEQEND
  5
8C0
  100
AcDbEntity
  8
Layer 1
  62
0
 0
ENDSEC
 0
EOF
