  0
SECTION
  2
ENTITIES
  0
LINE
  8
0
 10
1440.164697
 11
1410.401779
 20
1503.976941
 21
1496.448815
  0
LINE
  8
0
 10
1410.401779
 11
1438.281114
 20
1496.448815
 21
1491.931913
  0
LINE
  8
0
 10
1438.281114
 11
1413.415742
 20
1491.931913
 21
1482.898111
  0
LINE
  8
0
 10
1413.415742
 11
1432.253187
 20
1482.898111
 21
1482.521724
  0
LINE
  8
0
 10
1432.253187
 11
1405.880719
 20
1482.521724
 21
1470.853083
  0
LINE
  8
0
 10
1405.880719
 11
1431.499523
 20
1470.853083
 21
1470.853083
  0
LINE
  8
0
 10
1431.499523
 11
1394.578298
 20
1470.853083
 21
1455.79683
  0
LINE
  8
0
 10
1394.578298
 11
1432.253187
 20
1455.79683
 21
1458.808055
  0
LINE
  8
0
 10
1432.253187
 11
1412.285362
 20
1458.808055
 21
1449.021478
  0
LINE
  8
0
 10
1412.285362
 11
1437.150734
 20
1449.021478
 21
1450.527028
  0
LINE
  8
0
 10
1437.150734
 11
1417.183139
 20
1450.527028
 21
1430.201099
  0
LINE
  8
0
 10
1417.183139
 11
1455.988178
 20
1430.201099
 21
1439.987676
  0
LINE
  8
0
 10
1455.988178
 11
1442.048511
 20
1439.987676
 21
1424.554909
  0
LINE
  8
0
 10
1442.048511
 11
1462.393053
 20
1424.554909
 21
1429.824586
  0
LINE
  8
0
 10
1462.393053
 11
1447.699721
 20
1429.824586
 21
1407.240205
  0
LINE
  8
0
 10
1447.699721
 11
1474.448907
 20
1407.240205
 21
1416.273882
  0
LINE
  8
0
 10
1474.448907
 11
1466.160449
 20
1416.273882
 21
1402.723304
  0
LINE
  8
0
 10
1466.160449
 11
1491.402538
 20
1402.723304
 21
1408.745755
  0
LINE
  8
0
 10
1271.345624
 11
1313.021225
 20
1355.534049
 21
1345.289883
  0
LINE
  8
0
 10
1313.021225
 11
1265.061327
 20
1345.289883
 21
1333.062874
  0
LINE
  8
0
 10
1322.282598
 11
1347.750855
 20
1331.740937
 21
1334.384686
  0
LINE
  8
0
 10
1347.750855
 11
1327.244007
 20
1334.384686
 21
1321.166318
  0
LINE
  8
0
 10
1375.222349
 11
1347.149122
 20
1444.085141
 21
1454.369343
  0
LINE
  8
0
 10
1347.149122
 11
1324.69091
 20
1454.369343
 21
1462.783656
  0
LINE
  8
0
 10
1585.382498
 11
1595.181049
 20
1423.172354
 21
1433.212952
  0
LINE
  8
0
 10
1595.181049
 11
1606.738226
 20
1433.212952
 21
1422.168193
  0
LINE
  8
0
 10
1327.945566
 11
1373.101762
 20
986.676422
 21
967.680462
  0
LINE
  8
0
 10
1373.101762
 11
1399.245065
 20
967.680462
 21
1001.714854
  0
LINE
  8
0
 10
1399.245065
 11
1439.634922
 20
1001.714854
 21
1001.708391
  0
LINE
  8
0
 10
1331.510541
 11
1353.296474
 20
1012.004452
 21
1006.859653
  0
LINE
  8
0
 10
1353.296474
 11
1391.322719
 20
1006.859653
 21
1046.038844
  0
LINE
  8
0
 10
1391.322719
 11
1423.562227
 20
1046.038844
 21
1038.122994
  0
LINE
  8
0
 10
1356.889806
 11
1380.423528
 20
1053.160337
 21
1086.74944
  0
LINE
  8
0
 10
1380.423528
 11
1409.434603
 20
1086.74944
 21
1082.382605
  0
LINE
  8
0
 10
1322.149802
 11
1345.683294
 20
1077.232571
 21
1066.036204
  0
LINE
  8
0
 10
1345.683294
 11
1368.096318
 20
1066.036204
 21
1120.898417
  0
LINE
  8
0
 10
1368.096318
 11
1403.179156
 20
1120.898417
 21
1110.985134
  0
LINE
  8
0
 10
954.867469
 11
836.596895
 20
1064.010815
 21
997.222677
  0
LINE
  8
0
 10
836.596895
 11
920.586026
 20
997.222677
 21
996.366361
  0
LINE
  8
0
 10
920.586026
 11
876.020497
 20
996.366361
 21
962.972417
  0
LINE
  8
0
 10
876.020497
 11
943.725971
 20
962.972417
 21
961.259911
  0
LINE
  8
0
 10
943.725971
 11
900.874341
 20
961.259911
 21
909.028143
  0
LINE
  8
0
 10
900.874341
 11
960.009628
 20
909.028143
 21
927.865842
  0
LINE
  8
0
 10
960.009628
 11
947.154231
 20
927.865842
 21
906.45932
  0
LINE
  8
0
 10
947.154231
 11
981.557173
 20
906.45932
 21
883.201734
  0
LINE
  8
0
 10
981.557173
 11
966.589488
 20
883.201734
 21
867.624387
  0
LINE
  8
0
 10
966.589488
 11
986.098522
 20
867.624387
 21
848.86563
  0
LINE
  8
0
 10
986.098522
 11
949.00231
 20
848.86563
 21
823.918003
  0
LINE
  8
0
 10
929.192641
 11
887.938021
 20
908.174337
 21
867.621877
  0
LINE
  8
0
 10
887.938021
 11
887.938021
 20
867.621877
 21
911.498319
  0
LINE
  8
0
 10
887.938021
 11
846.683402
 20
911.498319
 21
887.565771
  0
LINE
  8
0
 10
846.683402
 11
876.626379
 20
887.565771
 21
940.084568
  0
LINE
  8
0
 10
876.626379
 11
829.386714
 20
940.084568
 21
920.377123
  0
LINE
  8
0
 10
829.386714
 11
852.01023
 20
920.377123
 21
968.907141
  0
LINE
  8
0
 10
852.01023
 11
806.097835
 20
968.907141
 21
917.718063
  0
LINE
  8
0
 10
806.097835
 11
819.405799
 20
917.718063
 21
963.588895
  0
ARC
  8
0
 10
1401.361865
 20
1588.225482
 40
12.989925
 50
354.643077
 51
59.586194
  0
ARC
  8
0
 10
1396.283996
 20
1468.213091
 40
131.731302
 50
31.406285
 51
84.924564
  0
ARC
  8
0
 10
1481.50046
 20
1554.619819
 40
32.498205
 50
326.870986
 51
10.66338
  0
ARC
  8
0
 10
1381.633873
 20
1382.021697
 40
221.978083
 50
20.285167
 51
53.57511
  0
ARC
  8
0
 10
1527.6829
 20
1511.471219
 40
81.35978
 50
277.930828
 51
319.821187
  0
ARC
  8
0
 10
1543.758158
 20
1397.286376
 40
33.951359
 50
98.211928
 51
193.205225
  0
ARC
  8
0
 10
1582.261466
 20
1405.12394
 40
73.236248
 50
192.293478
 51
264.188943
  0
ARC
  8
0
 10
1714.131693
 20
1439.418492
 40
175.734071
 50
189.342106
 51
217.571677
  0
ARC
  8
0
 10
1512.486931
 20
1330.306638
 40
85.390536
 50
17.439378
 51
70.686701
  0
ARC
  8
0
 10
1560.950755
 20
1336.145211
 40
38.461414
 50
324.168301
 51
30.902001
  0
ARC
  8
0
 10
1567.6163
 20
1364.125022
 40
56.132422
 50
295.897643
 51
354.842739
  0
ARC
  8
0
 10
1489.146931
 20
1369.407716
 40
134.770903
 50
355.604721
 51
42.223691
  0
ARC
  8
0
 10
1555.127672
 20
1470.111087
 40
42.442648
 50
247.533811
 51
315.800742
  0
ARC
  8
0
 10
1369.025476
 20
1500.516189
 40
98.728896
 50
45.862912
 51
94.55762
  0
ARC
  8
0
 10
1237.969187
 20
1512.820799
 40
127.449131
 50
32.497454
 51
62.663777
  0
ARC
  8
0
 10
1300.14791
 20
1585.482863
 40
40.718613
 50
44.437381
 51
95.146614
  0
ARC
  8
0
 10
1468.40753
 20
1793.359889
 40
227.037111
 50
232.189386
 51
252.768405
  0
ARC
  8
0
 10
1441.717677
 20
-381.226625
 40
1991.619357
 50
93.39025
 51
95.506546
  0
ARC
  8
0
 10
1257.268952
 20
1581.782368
 40
20.531774
 50
11.545197
 51
108.945514
  0
ARC
  8
0
 10
1309.362581
 20
1594.372388
 40
33.082767
 50
194.853604
 51
250.019005
  0
ARC
  8
0
 10
1270.720738
 20
1567.684429
 40
39.470516
 50
225.393785
 51
276.84765
  0
ARC
  8
0
 10
1209.200404
 20
1485.474541
 40
63.799746
 50
58.006112
 51
86.413589
  0
ARC
  8
0
 10
1445.034623
 20
701.877401
 40
878.419636
 50
102.466794
 51
105.303519
  0
ARC
  8
0
 10
1273.753509
 20
1605.85186
 40
49.771669
 50
194.626622
 51
248.369703
  0
ARC
  8
0
 10
1292.566354
 20
1677.512665
 40
107.609125
 50
231.511391
 51
267.000975
  0
ARC
  8
0
 10
1292.293352
 20
1444.823996
 40
86.135104
 50
104.504195
 51
142.425062
  0
ARC
  8
0
 10
1308.323709
 20
714.466444
 40
788.458733
 50
93.238987
 51
97.449633
  0
ARC
  8
0
 10
1248.767686
 20
1564.389971
 40
80.381415
 50
237.936426
 51
266.220237
  0
ARC
  8
0
 10
1263.489965
 20
1364.358447
 40
121.486072
 50
99.485729
 51
121.723335
  0
ARC
  8
0
 10
1235.470743
 20
1670.574707
 40
206.02546
 50
259.976163
 51
271.98295
  0
ARC
  8
0
 10
1298.432064
 20
1364.441383
 40
114.732555
 50
106.231407
 51
127.382654
  0
ARC
  8
0
 10
1129.770193
 20
1576.852771
 40
156.531461
 50
289.85621
 51
309.233646
  0
ARC
  8
0
 10
1227.40021
 20
1620.270723
 40
195.759485
 50
256.87197
 51
275.838398
  0
ARC
  8
0
 10
1297.687139
 20
1255.395943
 40
177.431618
 50
106.493393
 51
128.847098
  0
ARC
  8
0
 10
1159.493634
 20
1924.888239
 40
531.985104
 50
272.898475
 51
278.512458
  0
ARC
  8
0
 10
896.892942
 20
1802.858778
 40
528.971637
 50
301.289512
 51
310.18847
  0
ARC
  8
0
 10
1186.026819
 20
1422.01796
 40
72.636806
 50
258.560939
 51
299.527835
  0
ARC
  8
0
 10
1217.626667
 20
1392.643461
 40
111.920501
 50
285.876506
 51
327.502226
  0
ARC
  8
0
 10
1256.783071
 20
1219.244557
 40
66.29994
 50
97.399782
 51
134.71005
  0
ARC
  8
0
 10
1245.717815
 20
1261.128903
 40
35.960888
 50
107.825744
 51
171.631953
  0
ARC
  8
0
 10
1231.897162
 20
1232.192004
 40
63.233939
 50
87.451052
 51
124.518161
  0
ARC
  8
0
 10
1262.940617
 20
1247.877236
 40
76.148179
 50
110.670683
 51
151.430294
  0
ARC
  8
0
 10
1381.177321
 20
1155.570084
 40
218.651631
 50
121.764285
 51
131.58184
  0
ARC
  8
0
 10
1268.641448
 20
1085.085423
 40
256.399729
 50
90.573865
 51
107.023969
  0
ARC
  8
0
 10
1162.321194
 20
1406.792847
 40
82.677381
 50
292.211057
 51
324.528629
  0
ARC
  8
0
 10
1255.675803
 20
1359.727317
 40
101.202468
 50
262.712925
 51
292.69729
  0
ARC
  8
0
 10
1229.248483
 20
1314.039826
 40
56.360731
 50
283.953715
 51
348.596062
  0
ARC
  8
0
 10
1362.799237
 20
1220.246548
 40
83.443209
 50
112.848661
 51
187.946061
  0
ARC
  8
0
 10
1428.911211
 20
1104.449197
 40
181.654457
 50
122.225286
 51
144.973281
  0
ARC
  8
0
 10
1218.658965
 20
1250.966192
 40
113.610597
 50
327.755566
 51
3.610794
  0
ARC
  8
0
 10
1263.791902
 20
1298.099017
 40
119.189567
 50
295.310632
 51
348.094872
  0
ARC
  8
0
 10
1198.545374
 20
1249.077802
 40
183.506286
 50
337.594322
 51
7.651508
  0
ARC
  8
0
 10
1292.302989
 20
1273.822849
 40
121.352561
 50
308.712503
 51
352.236049
  0
ARC
  8
0
 10
1479.90385
 20
1261.809061
 40
67.502985
 50
183.720305
 51
230.54674
  0
ARC
  8
0
 10
1556.614553
 20
1216.387144
 40
119.792891
 50
89.543927
 51
183.206245
  0
ARC
  8
0
 10
1383.164926
 20
1234.57186
 40
56.284264
 50
96.76445
 51
155.266358
  0
ARC
  8
0
 10
1294.636989
 20
1493.889192
 40
124.985438
 50
264.011727
 51
287.555873
  0
ARC
  8
0
 10
1271.897002
 20
1408.171459
 40
39.786468
 50
284.112343
 51
330.767822
  0
ARC
  8
0
 10
1296.016674
 20
1437.033355
 40
49.441255
 50
244.309252
 51
282.379976
  0
ARC
  8
0
 10
1224.72157
 20
1591.19118
 40
204.871935
 50
284.086093
 51
300.334036
  0
ARC
  8
0
 10
1359.56889
 20
1316.505613
 40
48.99202
 50
74.630096
 51
112.880077
  0
ARC
  8
0
 10
1336.215845
 20
1386.664286
 40
25.388918
 50
279.76184
 51
356.778526
  0
ARC
  8
0
 10
1402.958347
 20
1326.114575
 40
25.661545
 50
73.065183
 51
137.590448
  0
ARC
  8
0
 10
1364.801042
 20
1372.20075
 40
34.601843
 50
303.723181
 51
350.990857
  0
ARC
  8
0
 10
1327.870102
 20
1469.053631
 40
60.848237
 50
42.28966
 51
81.062217
  0
ARC
  8
0
 10
1287.065546
 20
1475.617594
 40
47.207035
 50
38.994581
 51
84.645077
  0
ARC
  8
0
 10
1276.024183
 20
1448.418439
 40
49.85603
 50
54.409745
 51
97.54194
  0
ARC
  8
0
 10
1551.475993
 20
1465.003891
 40
31.202424
 50
152.703867
 51
270.810468
  0
ARC
  8
0
 10
1495.023912
 20
1423.51215
 40
57.382118
 50
10.329703
 51
62.30136
  0
ARC
  8
0
 10
1537.499977
 20
1456.032857
 40
6.834669
 50
95.745058
 51
275.745058
  0
ARC
  8
0
 10
1537.499977
 20
1456.032857
 40
6.834669
 50
275.745058
 51
339.132034
  0
ARC
  8
0
 10
1478.931282
 20
1406.202571
 40
52.457607
 50
23.227506
 51
59.916822
  0
ARC
  8
0
 10
1517.887796
 20
1470.99277
 40
23.165288
 50
162.11864
 51
236.866989
  0
ARC
  8
0
 10
1358.788557
 20
1220.603578
 40
310.275531
 50
60.474265
 51
83.522631
  0
ARC
  8
0
 10
1468.969321
 20
1457.557975
 40
74.509073
 50
34.386128
 51
66.592321
  0
ARC
  8
0
 10
1523.36031
 20
1686.00448
 40
168.578387
 50
230.58205
 51
266.436167
  0
ARC
  8
0
 10
1478.776615
 20
1437.81336
 40
90.062975
 50
7.359891
 51
47.1449
  0
ARC
  8
0
 10
2071.63174
 20
592.476715
 40
1188.435649
 50
114.404322
 51
122.505783
  0
ARC
  8
0
 10
1542.248872
 20
1627.972292
 40
98.779033
 50
273.150995
 51
314.405818
  0
ARC
  8
0
 10
1604.749829
 20
1564.396247
 40
9.627443
 50
313.427699
 51
76.897269
  0
ARC
  8
0
 10
1610.937014
 20
1615.624665
 40
42.042784
 50
225.455675
 51
264.534166
  0
ARC
  8
0
 10
1600.880675
 20
1677.402023
 40
93.777604
 50
258.038995
 51
303.801551
  0
ARC
  8
0
 10
1649.721163
 20
1606.813838
 40
8.05823
 50
294.406253
 51
42.546435
  0
ARC
  8
0
 10
1615.532523
 20
1519.284546
 40
101.266901
 50
66.65705
 51
90.228413
  0
ARC
  8
0
 10
1595.497529
 20
1813.939058
 40
194.382269
 50
275.796366
 51
324.752151
  0
ARC
  8
0
 10
1709.860622
 20
1783.709306
 40
93.197211
 50
253.732018
 51
298.438381
  0
ARC
  8
0
 10
1591.177353
 20
1904.284153
 40
229.53728
 50
293.785601
 51
349.051779
  0
ARC
  8
0
 10
1401.201818
 20
2187.503014
 40
528.497819
 50
296.920293
 51
321.801999
  0
ARC
  8
0
 10
1837.868486
 20
1367.870304
 40
400.434797
 50
119.533783
 51
141.888186
  0
ARC
  8
0
 10
1567.579801
 20
1510.1627
 40
22.95035
 50
292.043803
 51
85.160646
  0
ARC
  8
0
 10
1611.488452
 20
1569.630093
 40
102.302867
 50
255.045648
 51
274.381737
  0
ARC
  8
0
 10
1616.269751
 20
1489.956897
 40
22.535927
 50
277.739154
 51
19.813859
  0
ARC
  8
0
 10
1601.289876
 20
1456.399764
 40
54.829053
 50
48.707813
 51
101.317246
  0
ARC
  8
0
 10
1565.642676
 20
1681.862713
 40
173.494325
 50
278.247437
 51
308.667283
  0
ARC
  8
0
 10
1668.481436
 20
1553.212324
 40
8.792807
 50
309.222248
 51
56.129732
  0
ARC
  8
0
 10
1627.596355
 20
1659.138941
 40
108.735373
 50
258.569788
 51
317.720533
  0
ARC
  8
0
 10
1695.497195
 20
1593.396253
 40
14.5732
 50
329.443884
 51
61.566726
  0
ARC
  8
0
 10
1662.084134
 20
1685.328749
 40
88.813339
 50
262.027268
 51
320.812865
  0
ARC
  8
0
 10
1716.289913
 20
1641.12793
 40
18.87066
 50
320.840934
 51
96.95442
  0
ARC
  8
0
 10
1803.031906
 20
1695.12976
 40
19.809789
 50
282.926572
 51
50.468205
  0
ARC
  8
0
 10
1705.782257
 20
1899.403227
 40
245.616815
 50
275.467868
 51
294.455276
  0
ARC
  8
0
 10
1545.410388
 20
1797.203731
 40
232.428175
 50
322.249013
 51
352.830532
  0
ARC
  8
0
 10
1523.077945
 20
1920.343157
 40
299.460583
 50
348.509703
 51
8.658112
  0
ARC
  8
0
 10
1237.120028
 20
2096.272086
 40
596.533536
 50
329.014105
 51
347.329233
  0
ARC
  8
0
 10
1595.463416
 20
2104.580149
 40
608.43626
 50
273.959007
 51
279.375247
  0
ARC
  8
0
 10
1631.474283
 20
1430.66164
 40
96.955434
 50
49.394442
 51
82.828319
  0
ARC
  8
0
 10
1677.99947
 20
1560.995566
 40
42.312101
 50
260.117272
 51
316.390612
  0
ARC
  8
0
 10
1681.498666
 20
1535.866197
 40
27.438529
 50
351.501625
 51
35.091656
  0
ARC
  8
0
 10
1680.323523
 20
1538.220779
 40
27.171345
 50
29.596078
 51
85.335737
  0
ARC
  8
0
 10
1703.003172
 20
1677.904534
 40
107.837329
 50
263.567369
 51
302.355937
  0
ARC
  8
0
 10
1747.513214
 20
1600.622821
 40
19.10724
 50
313.704953
 51
50.486381
  0
ARC
  8
0
 10
1734.718596
 20
1585.406867
 40
38.987128
 50
50.208066
 51
103.408983
  0
ARC
  8
0
 10
1766.319041
 20
1648.272891
 40
33.574232
 50
258.57836
 51
358.21394
  0
ARC
  8
0
 10
1766.227632
 20
1609.492007
 40
50.558547
 50
48.27533
 51
99.983902
  0
ARC
  8
0
 10
1796.7452
 20
1794.442752
 40
86.132501
 50
246.866281
 51
316.71289
  0
ARC
  8
0
 10
1855.159074
 20
1747.84217
 40
13.172746
 50
288.980105
 51
90.311805
  0
ARC
  8
0
 10
1798.217813
 20
1875.78349
 40
122.262747
 50
258.643092
 51
308.154117
  0
ARC
  8
0
 10
1858.771086
 20
1792.51139
 40
19.747532
 50
319.330204
 51
124.666335
  0
ARC
  8
0
 10
1704.391594
 20
2082.991681
 40
309.350604
 50
285.536657
 51
319.583697
  0
ARC
  8
0
 10
1657.278517
 20
2763.407508
 40
925.20737
 50
279.790362
 51
287.787435
  0
ARC
  8
0
 10
1617.502902
 20
2248.374814
 40
450.283583
 50
299.420057
 51
317.93651
  0
ARC
  8
0
 10
1912.605515
 20
1833.549892
 40
119.749845
 50
70.897503
 51
102.375767
  0
ARC
  8
0
 10
1440.117184
 20
2440.465662
 40
663.099257
 50
312.36419
 51
353.588914
  0
ARC
  8
0
 10
1968.273983
 20
1833.418132
 40
78.365443
 50
109.982214
 51
151.856611
  0
ARC
  8
0
 10
1933.541638
 20
1827.544487
 40
79.918058
 50
84.289046
 51
110.297464
  0
ARC
  8
0
 10
1500.860967
 20
2166.888804
 40
436.992268
 50
316.438028
 51
357.760255
  0
ARC
  8
0
 10
816.524296
 20
2590.903235
 40
1204.654562
 50
326.618225
 51
338.521206
  0
ARC
  8
0
 10
860.323657
 20
2839.468383
 40
1325.995231
 50
323.018637
 51
339.378002
  0
ARC
  8
0
 10
1681.199328
 20
2400.36364
 40
503.403374
 50
297.366681
 51
342.829161
  0
ARC
  8
0
 10
4159.164479
 20
1754.285251
 40
2058.026864
 50
161.155727
 51
166.012023
  0
ARC
  8
0
 10
2406.361974
 20
2085.054222
 40
386.685797
 50
120.269178
 51
144.997387
  0
ARC
  8
0
 10
1996.544522
 20
2466.35419
 40
281.917279
 50
304.532715
 51
338.361575
  0
ARC
  8
0
 10
569.468005
 20
2903.197738
 40
1773.58799
 50
336.787518
 51
342.246733
  0
ARC
  8
0
 10
1452.566911
 20
2442.172203
 40
783.924422
 50
328.447434
 51
342.324449
  0
ARC
  8
0
 10
1743.004403
 20
2569.84578
 40
657.188711
 50
288.524024
 51
326.394004
  0
ARC
  8
0
 10
1801.907411
 20
2280.63444
 40
494.098564
 50
278.91984
 51
351.324532
  0
ARC
  8
0
 10
2129.78787
 20
2030.886234
 40
154.945838
 50
255.868463
 51
308.006662
  0
ARC
  8
0
 10
1854.943939
 20
2185.971545
 40
462.505955
 50
268.851802
 51
323.181243
  0
ARC
  8
0
 10
2011.829942
 20
1824.113942
 40
80.719443
 50
257.948127
 51
288.073312
  0
ARC
  8
0
 10
1847.556092
 20
2028.830643
 40
339.199804
 50
265.731649
 51
303.926197
  0
ARC
  8
0
 10
2008.986441
 20
1823.893359
 40
125.304322
 50
246.82756
 51
356.947966
  0
ARC
  8
0
 10
1860.185077
 20
1933.794011
 40
293.299079
 50
258.130714
 51
308.006059
  0
ARC
  8
0
 10
1806.276081
 20
1833.421755
 40
236.110905
 50
260.331142
 51
313.008799
  0
ARC
  8
0
 10
1721.395616
 20
1804.681102
 40
253.641561
 50
266.056001
 51
310.145673
  0
ARC
  8
0
 10
1730.692241
 20
1738.512654
 40
221.243599
 50
259.731441
 51
329.951375
  0
ARC
  8
0
 10
1714.034588
 20
1818.136559
 40
348.808277
 50
256.995211
 51
288.95161
  0
ARC
  8
0
 10
1813.938323
 20
1538.719978
 40
52.226539
 50
284.842557
 51
24.206095
  0
ARC
  8
0
 10
1792.626726
 20
1470.270777
 40
39.066068
 50
255.594692
 51
27.378673
  0
ARC
  8
0
 10
1743.771179
 20
1545.282815
 40
92.360449
 50
234.432522
 51
268.467291
  0
ARC
  8
0
 10
1739.501782
 20
1396.869929
 40
56.114327
 50
6.672531
 51
88.162834
  0
ARC
  8
0
 10
1742.740881
 20
1421.229475
 40
55.443506
 50
295.653737
 51
341.230753
  0
ARC
  8
0
 10
1520.951828
 20
629.747809
 40
781.179326
 50
71.660761
 51
82.774201
  0
ARC
  8
0
 10
1503.005289
 20
1072.567269
 40
310.826792
 50
43.850874
 51
67.186809
  0
ARC
  8
0
 10
1736.733791
 20
1334.429632
 40
47.502084
 50
258.368503
 51
50.819276
  0
ARC
  8
0
 10
1717.04571
 20
1418.01699
 40
187.827661
 50
205.932002
 51
269.247173
  0
ARC
  8
0
 10
1708.488525
 20
1261.752987
 40
32.129755
 50
280.92495
 51
54.477604
  0
ARC
  8
0
 10
1465.956121
 20
1272.256114
 40
33.870741
 50
223.391277
 51
36.233775
  0
ARC
  8
0
 10
1470.912992
 20
1356.86112
 40
89.409278
 50
288.867929
 51
338.704316
  0
ARC
  8
0
 10
1694.671716
 20
1339.420667
 40
156.240633
 50
193.305583
 51
274.209462
  0
ARC
  8
0
 10
1676.158824
 20
1213.095451
 40
42.056831
 50
315.469596
 51
24.006021
  0
ARC
  8
0
 10
1712.577517
 20
1342.670274
 40
195.447714
 50
196.837753
 51
263.183759
  0
ARC
  8
0
 10
1682.317896
 20
1173.497857
 40
25.87639
 50
285.839576
 51
22.983033
  0
ARC
  8
0
 10
1694.97564
 20
1294.671573
 40
181.698607
 50
185.100864
 51
254.547327
  0
ARC
  8
0
 10
1651.022287
 20
1159.044201
 40
39.753834
 50
263.560078
 51
344.774349
  0
ARC
  8
0
 10
1688.790251
 20
1275.615258
 40
225.922806
 50
189.485052
 51
246.392487
  0
ARC
  8
0
 10
1605.677636
 20
1109.870631
 40
41.922325
 50
259.885108
 51
13.376191
  0
ARC
  8
0
 10
1530.007203
 20
1189.692648
 40
143.344687
 50
203.284666
 51
301.863098
  0
ARC
  8
0
 10
1498.706495
 20
1061.921861
 40
81.54107
 50
218.425025
 51
339.541488
  0
ARC
  8
0
 10
621.057071
 20
1560.194647
 40
520.360323
 50
343.343662
 51
34.071034
  0
ARC
  8
0
 10
1458.749462
 20
2148.457383
 40
503.415181
 50
188.384141
 51
216.11915
  0
ARC
  8
0
 10
1339.262929
 20
2193.131254
 40
396.536282
 50
197.323688
 51
216.658069
  0
ARC
  8
0
 10
551.453231
 20
1507.817815
 40
649.486475
 50
25.197803
 51
43.681375
  0
ARC
  8
0
 10
1595.111269
 20
1936.38169
 40
480.657361
 50
198.441396
 51
224.21368
  0
ARC
  8
0
 10
672.408816
 20
1479.404582
 40
512.949905
 50
354.431198
 51
33.319941
  0
ARC
  8
0
 10
4109.905985
 20
2118.735715
 40
3149.494494
 50
176.431779
 51
180.794671
  0
ARC
  8
0
 10
1169.599541
 20
2214.179012
 40
250.975174
 50
168.009839
 51
213.664889
  0
ARC
  8
0
 10
326.113704
 20
2841.405594
 40
829.646718
 50
316.118254
 51
334.84945
  0
ARC
  8
0
 10
1062.110622
 20
2418.446426
 40
71.940785
 50
77.969756
 51
111.423092
  0
ARC
  8
0
 10
793.015266
 20
2684.765102
 40
314.166777
 50
320.614835
 51
13.965431
  0
ARC
  8
0
 10
905.488478
 20
2800.598351
 40
196.523858
 50
309.759621
 51
348.252115
  0
ARC
  8
0
 10
1336.077311
 20
2328.105298
 40
443.026912
 50
133.489097
 51
177.284893
  0
ARC
  8
0
 10
1156.568953
 20
2213.673355
 40
275.929141
 50
188.264076
 51
203.510238
  0
ARC
  8
0
 10
1105.121883
 20
2169.224228
 40
221.668573
 50
143.664204
 51
178.762262
  0
ARC
  8
0
 10
1022.439473
 20
2276.480625
 40
98.863421
 50
165.899227
 51
185.900393
  0
ARC
  8
0
 10
876.81119
 20
2706.593055
 40
164.579136
 50
339.710766
 51
30.474814
  0
ARC
  8
0
 10
839.979479
 20
2846.163289
 40
187.275427
 50
300.281033
 51
342.568141
  0
ARC
  8
0
 10
1358.832597
 20
2282.838281
 40
584.308603
 50
136.582477
 51
177.285495
  0
ARC
  8
0
 10
1396.472828
 20
2267.464744
 40
680.115022
 50
131.588206
 51
179.847895
  0
ARC
  8
0
 10
1261.188389
 20
2693.066679
 40
326.890686
 50
165.276694
 51
181.512349
  0
ARC
  8
0
 10
1340.296294
 20
2350.817706
 40
647.741412
 50
141.698306
 51
186.398467
  0
ARC
  8
0
 10
971.927602
 20
2689.185439
 40
153.520498
 50
155.7295
 51
199.067298
  0
ARC
  8
0
 10
982.291467
 20
2789.574083
 40
427.382021
 50
188.949919
 51
219.377171
  0
ARC
  8
0
 10
1551.076593
 20
2642.050444
 40
994.271427
 50
175.32508
 51
206.165065
  0
ARC
  8
0
 10
1851.891249
 20
2386.718738
 40
1207.167508
 50
162.951056
 51
188.72419
  0
ARC
  8
0
 10
5927.447679
 20
3493.258222
 40
5283.55188
 50
188.189312
 51
190.179932
  0
ARC
  8
0
 10
787.533066
 20
2160.243007
 40
195.223879
 50
202.294592
 51
251.523492
  0
ARC
  8
0
 10
2988.912033
 20
2730.192517
 40
2467.532666
 50
182.802772
 51
195.129054
  0
ARC
  8
0
 10
762.662612
 20
2681.351186
 40
248.916641
 50
196.769104
 51
216.591864
  0
ARC
  8
0
 10
739.056118
 20
2289.292789
 40
178.214086
 50
179.571028
 51
223.224299
  0
ARC
  8
0
 10
431.05781
 20
2261.200855
 40
79.517648
 50
18.801977
 51
79.034073
  0
ARC
  8
0
 10
556.115778
 20
2305.156071
 40
115.10215
 50
162.761517
 51
217.219665
  0
ARC
  8
0
 10
917.438263
 20
2385.037269
 40
477.014611
 50
198.265128
 51
227.769952
  0
ARC
  8
0
 10
1514.461014
 20
2501.060264
 40
1030.639865
 50
180.539263
 51
207.082939
  0
ARC
  8
0
 10
735.332183
 20
2550.990509
 40
258.438821
 50
193.340238
 51
223.304768
  0
ARC
  8
0
 10
432.758967
 20
2179.863894
 40
64.062027
 50
60.342918
 51
108.785997
  0
ARC
  8
0
 10
533.455288
 20
2230.027579
 40
121.77876
 50
175.060492
 51
225.332041
  0
ARC
  8
0
 10
427.024484
 20
2137.059903
 40
21.770265
 50
16.984864
 51
146.673559
  0
ARC
  8
0
 10
502.384004
 20
2130.013769
 40
95.461081
 50
168.515297
 51
237.573061
  0
ARC
  8
0
 10
434.129217
 20
2028.317561
 40
27.153354
 50
51.059354
 51
146.348446
  0
ARC
  8
0
 10
472.240317
 20
2036.862909
 40
61.061279
 50
173.887909
 51
247.458796
  0
ARC
  8
0
 10
439.763801
 20
1959.44421
 40
22.894944
 50
66.665063
 51
214.310798
  0
ARC
  8
0
 10
1048.256134
 20
2433.162443
 40
794.001017
 50
217.797705
 51
235.000307
  0
ARC
  8
0
 10
884.677678
 20
2310.403463
 40
546.643709
 50
217.125913
 51
235.475455
  0
ARC
  8
0
 10
1226.516142
 20
2714.365549
 40
1022.691734
 50
220.357744
 51
230.417042
  0
ARC
  8
0
 10
1025.235602
 20
2473.465903
 40
665.064202
 50
209.753042
 51
230.323465
  0
ARC
  8
0
 10
1523.408179
 20
2504.720584
 40
1040.280348
 50
192.035995
 51
206.469753
  0
ARC
  8
0
 10
466.77999
 20
1855.143538
 40
31.547137
 50
79.043418
 51
240.904006
  0
ARC
  8
0
 10
462.821288
 20
1781.395652
 40
47.5637
 50
103.845064
 51
233.628842
  0
ARC
  8
0
 10
449.939776
 20
1713.820867
 40
33.044996
 50
117.62895
 51
264.932146
  0
ARC
  8
0
 10
509.721936
 20
1664.864028
 40
64.720596
 50
165.649656
 51
261.597307
  0
ARC
  8
0
 10
503.156637
 20
1573.556271
 40
27.434792
 50
96.051608
 51
275.725607
  0
ARC
  8
0
 10
517.389831
 20
1522.763566
 40
26.156585
 50
116.072857
 51
279.104594
  0
ARC
  8
0
 10
553.270666
 20
1471.744478
 40
40.523903
 50
141.56262
 51
265.293038
  0
ARC
  8
0
 10
574.016915
 20
1412.682628
 40
30.466119
 50
142.195913
 51
299.906323
  0
ARC
  8
0
 10
607.41036
 20
1364.188071
 40
28.620402
 50
129.496703
 51
309.496703
  0
ARC
  8
0
 10
607.41036
 20
1364.188071
 40
28.620402
 50
309.496703
 51
319.122991
  0
ARC
  8
0
 10
642.428157
 20
1321.406596
 40
27.521209
 50
119.083111
 51
296.845809
  0
ARC
  8
0
 10
702.517595
 20
1171.56764
 40
134.043361
 50
82.323957
 51
110.828067
  0
ARC
  8
0
 10
734.905495
 20
1247.598281
 40
58.628717
 50
104.30227
 51
200.883644
  0
ARC
  8
0
 10
698.720373
 20
1219.440905
 40
19.958507
 50
158.675444
 51
292.488983
  0
ARC
  8
0
 10
728.008629
 20
1186.153113
 40
26.255125
 50
145.563525
 51
305.278541
  0
ARC
  8
0
 10
772.751083
 20
1148.13835
 40
33.909318
 50
150.72584
 51
295.989065
  0
ARC
  8
0
 10
815.665346
 20
1091.103468
 40
38.629513
 50
136.574076
 51
288.65269
  0
ARC
  8
0
 10
864.078967
 20
1040.805521
 40
38.572676
 50
159.199943
 51
244.025975
  0
ARC
  8
0
 10
946.511277
 20
985.556631
 40
137.090198
 50
74.310327
 51
149.806167
  0
ARC
  8
0
 10
1074.456073
 20
1028.746354
 40
187.697912
 50
115.92559
 51
151.807177
  0
ARC
  8
0
 10
968.830007
 20
955.562162
 40
243.137225
 50
84.438395
 51
138.188302
  0
ARC
  8
0
 10
1349.824881
 20
345.412532
 40
957.105278
 50
110.283967
 51
118.473898
  0
ARC
  8
0
 10
960.647544
 20
1062.009175
 40
190.023331
 50
72.42617
 51
97.595324
  0
ARC
  8
0
 10
6700.761982
 20
-12647.604993
 40
15046.310688
 50
112.104643
 51
112.529915
  0
ARC
  8
0
 10
943.940497
 20
1967.72441
 40
681.590156
 50
268.485044
 51
278.003868
  0
ARC
  8
0
 10
1040.73139
 20
915.812705
 40
387.938213
 50
107.214571
 51
140.087657
  0
ARC
  8
0
 10
1070.456673
 20
933.706868
 40
451.681328
 50
117.049002
 51
143.716995
  0
ARC
  8
0
 10
864.435238
 20
1224.520497
 40
164.687947
 50
110.3642
 51
150.981279
  0
ARC
  8
0
 10
286.501315
 20
1915.787057
 40
665.293573
 50
300.98974
 51
314.903883
  0
ARC
  8
0
 10
329.007285
 20
1831.838228
 40
515.976627
 50
300.283934
 51
316.437884
  0
ARC
  8
0
 10
700.181292
 20
1337.265151
 40
177.268661
 50
100.923606
 51
147.941282
  0
ARC
  8
0
 10
586.945897
 20
1642.878476
 40
159.932651
 50
245.856136
 51
274.662977
  0
ARC
  8
0
 10
617.997049
 20
2159.087211
 40
622.997902
 50
259.633627
 51
273.642065
  0
ARC
  8
0
 10
588.503671
 20
1930.125011
 40
340.904675
 50
254.998834
 51
277.013577
  0
ARC
  8
0
 10
641.15741
 20
1945.89434
 40
310.247192
 50
244.93491
 51
267.144075
  0
ARC
  8
0
 10
736.710027
 20
2286.645355
 40
621.856264
 50
240.935428
 51
257.551626
  0
ARC
  8
0
 10
736.710027
 20
2286.645355
 40
621.856264
 50
240.935428
 51
257.551626
  0
ARC
  8
0
 10
790.633762
 20
2207.724639
 40
509.474905
 50
228.25839
 51
242.774886
  0
ARC
  8
0
 10
773.717517
 20
1530.457547
 40
311.459413
 50
103.348195
 51
133.949996
  0
ARC
  8
0
 10
812.30344
 20
2319.454029
 40
50.605557
 50
337.737411
 51
81.797045
  0
ARC
  8
0
 10
930.381954
 20
2286.890916
 40
138.277604
 50
143.293413
 51
215.936795
  0
ARC
  8
0
 10
763.824129
 20
2285.403408
 40
31.922806
 50
25.460086
 51
205.460086
  0
ARC
  8
0
 10
763.824129
 20
2285.403408
 40
31.922806
 50
205.460086
 51
230.686635
  0
ARC
  8
0
 10
720.362106
 20
2234.402485
 40
35.096689
 50
48.540971
 51
178.339291
  0
ARC
  8
0
 10
754.84877
 20
2150.236868
 40
109.981326
 50
129.238457
 51
190.666203
  0
ARC
  8
0
 10
1440.970722
 20
2754.241429
 40
1010.239928
 50
218.172568
 51
224.928807
  0
ARC
  8
0
 10
1337.816579
 20
2446.294711
 40
624.713302
 50
197.052456
 51
208.584215
  0
ARC
  8
0
 10
931.384259
 20
2268.407114
 40
248.305061
 50
187.634354
 51
221.543615
  0
ARC
  8
0
 10
623.336522
 20
2011.840631
 40
33.19745
 50
77.538409
 51
216.869712
  0
ARC
  8
0
 10
838.975715
 20
2193.917484
 40
315.375282
 50
219.828491
 51
245.425255
  0
ARC
  8
0
 10
750.337671
 20
1881.481558
 40
49.646124
 50
148.922081
 51
220.729509
  0
ARC
  8
0
 10
752.696029
 20
2118.632991
 40
272.493856
 50
229.525446
 51
261.563146
  0
ARC
  8
0
 10
605.734757
 20
1931.247865
 40
35.930912
 50
46.269408
 51
213.629757
  0
ARC
  8
0
 10
607.127386
 20
1888.628915
 40
25.066078
 50
261.919806
 51
329.633797
  0
ARC
  8
0
 10
598.490388
 20
1817.620986
 40
48.549398
 50
73.323728
 51
161.104031
  0
ARC
  8
0
 10
614.581494
 20
1869.224319
 40
71.654745
 50
210.049128
 51
269.173885
  0
ARC
  8
0
 10
600.610505
 20
1749.620302
 40
43.352877
 50
173.282538
 51
298.004249
  0
ARC
  8
0
 10
795.112093
 20
1576.045228
 40
220.52751
 50
111.443486
 51
151.911569
  0
ARC
  8
0
 10
621.278252
 20
1667.431828
 40
24.170573
 50
149.00987
 51
314.240826
  0
ARC
  8
0
 10
807.10383
 20
1528.713865
 40
202.429642
 50
110.487144
 51
153.458145
  0
ARC
  8
0
 10
664.23306
 20
1617.73187
 40
38.251481
 50
177.845594
 51
312.078838
  0
ARC
  8
0
 10
912.781244
 20
1427.893203
 40
269.202302
 50
118.379587
 51
154.015109
  0
ARC
  8
0
 10
696.819371
 20
1536.242235
 40
27.739912
 50
159.75787
 51
311.413363
  0
ARC
  8
0
 10
948.682313
 20
1392.619192
 40
263.842889
 50
119.468151
 51
152.257305
  0
ARC
  8
0
 10
744.183924
 20
1503.745235
 40
31.282596
 50
158.05017
 51
294.389838
  0
ARC
  8
0
 10
1052.487844
 20
1271.601896
 40
358.785766
 50
121.170282
 51
145.415859
  0
ARC
  8
0
 10
790.564647
 20
1470.161807
 40
33.848092
 50
171.346751
 51
255.644861
  0
ARC
  8
0
 10
1027.592367
 20
1224.451889
 40
324.907973
 50
113.291095
 51
139.056093
  0
ARC
  8
0
 10
927.901175
 20
1510.510368
 40
31.32505
 50
156.736714
 51
280.773702
  0
ARC
  8
0
 10
809.430539
 20
1425.987804
 40
29.539119
 50
157.334886
 51
302.526415
  0
ARC
  8
0
 10
1202.751328
 20
992.660539
 40
556.1183
 50
119.542934
 51
132.742204
  0
ARC
  8
0
 10
950.75597
 20
1463.835058
 40
25.557967
 50
150.356881
 51
307.02075
  0
ARC
  8
0
 10
1062.028442
 20
1206.891672
 40
255.232627
 50
112.065892
 51
141.038222
  0
ARC
  8
0
 10
891.699692
 20
1362.947122
 40
28.478858
 50
171.040299
 51
313.388115
  0
ARC
  8
0
 10
1080.763555
 20
1158.823597
 40
249.752102
 50
110.10698
 51
132.740246
  0
ARC
  8
0
 10
846.913134
 20
1387.038712
 40
25.76365
 50
146.969548
 51
310.275306
  0
ARC
  8
0
 10
958.291265
 20
1358.57104
 40
49.779639
 50
199.138013
 51
256.659712
  0
ARC
  8
0
 10
980.623892
 20
1416.024095
 40
111.15877
 50
252.287804
 51
316.450091
  0
ARC
  8
0
 10
1028.353946
 20
1078.265051
 40
298.467858
 50
79.856317
 51
95.852438
  0
ARC
  8
0
 10
1053.302406
 20
1375.527294
 40
55.383374
 50
75.219144
 51
180.362149
  0
ARC
  8
0
 10
1059.485721
 20
1340.94084
 40
131.217385
 50
97.423452
 51
147.224681
  0
ARC
  8
0
 10
1014.619451
 20
1528.471808
 40
133.62904
 50
240.66775
 51
264.424365
  0
ARC
  8
0
 10
1108.458169
 20
1194.666553
 40
334.344147
 50
104.482763
 51
122.555332
  0
ARC
  8
0
 10
1121.296966
 20
1199.649835
 40
392.225231
 50
112.138712
 51
124.50271
  0
ARC
  8
0
 10
952.212355
 20
1492.303011
 40
112.178416
 50
88.356104
 51
132.824527
  0
ARC
  8
0
 10
895.685213
 20
1559.549635
 40
24.799733
 50
142.696965
 51
277.967789
  0
ARC
  8
0
 10
1020.261014
 20
1409.145427
 40
289.54062
 50
109.672052
 51
132.689483
  0
ARC
  8
0
 10
861.034403
 20
1610.437722
 40
38.840363
 50
162.729011
 51
292.596655
  0
ARC
  8
0
 10
983.143146
 20
1570.013691
 40
217.331572
 50
107.448993
 51
152.422285
  0
ARC
  8
0
 10
814.740304
 20
1651.463613
 40
30.897553
 50
141.666065
 51
287.332718
  0
ARC
  8
0
 10
792.555972
 20
1963.780638
 40
245.078633
 50
261.669578
 51
278.066261
  0
ARC
  8
0
 10
792.748827
 20
1708.486965
 40
37.925833
 50
160.273929
 51
266.606653
  0
ARC
  8
0
 10
932.905556
 20
1536.300929
 40
304.756027
 50
98.031323
 51
129.8056
  0
ARC
  8
0
 10
750.992784
 20
1747.250923
 40
26.659992
 50
119.646763
 51
283.12933
  0
ARC
  8
0
 10
864.349075
 20
1653.439148
 40
247.529988
 50
90.86943
 51
127.776651
  0
ARC
  8
0
 10
755.377679
 20
1819.359742
 40
51.998042
 50
145.129805
 51
250.248491
  0
ARC
  8
0
 10
826.03234
 20
1767.101433
 40
236.916308
 50
83.131136
 51
108.743234
  0
ARC
  8
0
 10
757.327799
 20
1937.857901
 40
54.107344
 50
97.885524
 51
193.064188
  0
ARC
  8
0
 10
795.992723
 20
2046.955341
 40
151.885796
 50
233.016682
 51
279.429417
  0
ARC
  8
0
 10
906.565612
 20
2174.373697
 40
145.271954
 50
209.068808
 51
248.982843
  0
ARC
  8
0
 10
760.697043
 20
2084.555066
 40
26.964745
 50
45.512847
 51
194.333738
  0
ARC
  8
0
 10
846.005358
 20
2102.186418
 40
114.053886
 50
192.305172
 51
241.878675
  0
ARC
  8
0
 10
753.695441
 20
2017.423469
 40
34.807477
 50
105.939383
 51
239.191914
  0
ARC
  8
0
 10
793.559575
 20
2124.172144
 40
24.706897
 50
31.745019
 51
211.745019
  0
ARC
  8
0
 10
793.559575
 20
2124.172144
 40
24.706897
 50
211.745019
 51
235.576322
  0
ARC
  8
0
 10
1216.992268
 20
2243.213503
 40
374.598548
 50
171.146061
 51
187.554082
  0
ARC
  8
0
 10
1035.631909
 20
2186.648663
 40
220.640798
 50
148.823162
 51
217.8364
  0
ARC
  8
0
 10
877.900533
 20
2078.565992
 40
31.876958
 50
141.529851
 51
238.779021
  0
ARC
  8
0
 10
1148.144106
 20
2169.004016
 40
303.527667
 50
138.520139
 51
193.451477
  0
ARC
  8
0
 10
1118.081821
 20
2216.853345
 40
249.820829
 50
142.177553
 51
178.519604
  0
ARC
  8
0
 10
1019.809974
 20
2228.906265
 40
146.943409
 50
180.419857
 51
201.936016
  0
ARC
  8
0
 10
1048.191361
 20
2165.096845
 40
186.206298
 50
160.311967
 51
199.289124
  0
ARC
  8
0
 10
873.77864
 20
1934.131991
 40
165.581011
 50
58.329421
 51
97.228882
  0
ARC
  8
0
 10
877.520777
 20
2019.447819
 40
30.080018
 50
57.603387
 51
237.603387
  0
ARC
  8
0
 10
877.520777
 20
2019.447819
 40
30.080018
 50
237.603387
 51
245.684787
  0
ARC
  8
0
 10
1010.06313
 20
2230.119977
 40
218.818274
 50
237.85472
 51
258.294476
  0
ARC
  8
0
 10
1227.280444
 20
2194.798546
 40
385.226203
 50
231.591068
 51
242.950385
  0
ARC
  8
0
 10
893.941147
 20
1781.908042
 40
145.482608
 50
49.744823
 51
97.076804
  0
ARC
  8
0
 10
907.344189
 20
1966.148739
 40
50.701835
 50
162.774319
 51
231.840226
  0
ARC
  8
0
 10
886.82714
 20
1927.928094
 40
60.108216
 50
35.745324
 51
117.667455
  0
ARC
  8
0
 10
1016.719808
 20
2060.893286
 40
127.095416
 50
230.345056
 51
263.824471
  0
ARC
  8
0
 10
929.016844
 20
1903.477144
 40
57.697345
 50
156.718077
 51
245.441627
  0
ARC
  8
0
 10
958.769412
 20
1257.106139
 40
529.004815
 50
74.694786
 51
92.394725
  0
ARC
  8
0
 10
928.675611
 20
1816.244763
 40
31.621885
 50
45.961196
 51
225.961196
  0
ARC
  8
0
 10
928.675611
 20
1816.244763
 40
31.621885
 50
225.961196
 51
284.635817
  0
ARC
  8
0
 10
2182.010756
 20
7245.364422
 40
5544.840717
 50
257.169245
 51
258.499728
  0
ARC
  8
0
 10
961.978842
 20
1748.119125
 40
45.268606
 50
123.998949
 51
244.358348
  0
ARC
  8
0
 10
990.464806
 20
2269.847519
 40
564.589439
 50
265.115272
 51
282.892284
  0
ARC
  8
0
 10
987.554204
 20
1674.723213
 40
55.692767
 50
144.190447
 51
247.520889
  0
ARC
  8
0
 10
1094.534689
 20
1462.046248
 40
206.021501
 50
79.866155
 51
128.508182
  0
ARC
  8
0
 10
995.653711
 20
1605.292814
 40
34.450946
 50
148.561121
 51
265.063612
  0
ARC
  8
0
 10
1086.132141
 20
1430.156975
 40
168.996419
 50
71.214134
 51
123.568148
  0
ARC
  8
0
 10
1028.960925
 20
1558.954362
 40
38.209997
 50
161.67214
 51
277.860528
  0
ARC
  8
0
 10
1110.997884
 20
1384.425186
 40
156.782983
 50
78.983661
 51
119.33539
  0
ARC
  8
0
 10
1801.188609
 20
1183.045524
 40
404.48019
 50
175.608279
 51
231.163888
  0
ARC
  8
0
 10
1542.449078
 20
832.730038
 40
35.614428
 50
24.963784
 51
81.779801
  0
ARC
  8
0
 10
1548.250952
 20
813.802475
 40
43.06561
 50
315.691492
 51
52.04822
  0
ARC
  8
0
 10
1547.484194
 20
792.951692
 40
32.905492
 50
343.707261
 51
84.418411
  0
ARC
  8
0
 10
1568.91503
 20
829.966269
 40
18.722622
 50
71.885474
 51
193.167857
  0
ARC
  8
0
 10
1583.74056
 20
843.454529
 40
9.98115
 50
154.440098
 51
285.318346
  0
ARC
  8
0
 10
1556.217769
 20
837.799481
 40
22.711025
 50
56.481995
 51
194.546861
  0
ARC
  8
0
 10
1494.187095
 20
823.458206
 40
40.968463
 50
279.462118
 51
12.170318
  0
ARC
  8
0
 10
1588.07028
 20
757.82057
 40
117.37714
 50
110.199487
 51
149.665134
  0
ARC
  8
0
 10
1441.999384
 20
827.514036
 40
45.958959
 50
260.203694
 51
346.906222
  0
ARC
  8
0
 10
1375.754958
 20
767.90629
 40
75.54891
 50
312.248531
 51
10.940461
  0
ARC
  8
0
 10
1682.931643
 20
1085.386226
 40
430.913329
 50
235.77543
 51
245.904058
  0
ARC
  8
0
 10
1652.935179
 20
588.067964
 40
179.170536
 50
136.36755
 51
155.10028
  0
ARC
  8
0
 10
1531.100401
 20
649.92661
 40
42.887202
 50
161.543015
 51
236.838038
  0
ARC
  8
0
 10
1521.830606
 20
622.52316
 40
16.540184
 50
53.57771
 51
210.918353
  0
ARC
  8
0
 10
1706.360632
 20
663.814255
 40
176.936212
 50
189.099323
 51
206.974027
  0
ARC
  8
0
 10
1550.260299
 20
628.5606
 40
45.030218
 50
198.832743
 51
267.979819
  0
ARC
  8
0
 10
1603.558546
 20
624.615082
 40
72.777181
 50
108.408122
 51
171.133495
  0
ARC
  8
0
 10
1566.045909
 20
784.086827
 40
103.833187
 50
265.06092
 51
305.022681
  0
ARC
  8
0
 10
1678.431372
 20
692.456128
 40
14.422824
 50
67.623472
 51
247.623472
  0
ARC
  8
0
 10
1678.431372
 20
692.456128
 40
14.422824
 50
247.623472
 51
257.505387
  0
ARC
  8
0
 10
1671.229977
 20
673.131615
 40
35.040695
 50
314.912927
 51
68.7641
  0
ARC
  8
0
 10
1677.530746
 20
657.772005
 40
20.722113
 50
332.8513
 51
96.149235
  0
ARC
  8
0
 10
1664.850769
 20
703.962736
 40
27.643352
 50
205.672936
 51
292.234637
  0
ARC
  8
0
 10
1609.324011
 20
663.589267
 40
41.755579
 50
42.850478
 51
84.06118
  0
ARC
  8
0
 10
1710.202216
 20
700.571795
 40
20.784466
 50
173.302321
 51
256.996089
  0
ARC
  8
0
 10
1683.598792
 20
716.655651
 40
14.903693
 50
293.575356
 51
104.438971
  0
ARC
  8
0
 10
1661.068014
 20
720.575785
 40
21.552422
 50
29.194674
 51
144.847842
  0
ARC
  8
0
 10
1624.658548
 20
696.796399
 40
40.774509
 50
62.563233
 51
117.436767
  0
ARC
  8
0
 10
1602.469688
 20
727.071333
 40
6.821644
 50
60.093141
 51
155.113927
  0
ARC
  8
0
 10
1559.034906
 20
746.82267
 40
40.893314
 50
335.619269
 51
44.714299
  0
ARC
  8
0
 10
1602.630631
 20
817.798775
 40
44.637783
 50
250.995497
 51
310.806769
  0
ARC
  8
0
 10
1659.224534
 20
820.658935
 40
45.852305
 50
223.316669
 51
303.736878
  0
ARC
  8
0
 10
1679.337549
 20
778.142313
 40
37.062533
 50
339.032443
 51
97.615712
  0
ARC
  8
0
 10
1676.449719
 20
750.089099
 40
40.307969
 50
21.527295
 51
92.878227
  0
ARC
  8
0
 10
1680.165945
 20
802.612072
 40
13.542575
 50
115.078844
 51
244.921141
  0
ARC
  8
0
 10
1657.382752
 20
803.523897
 40
20.478691
 50
33.671558
 51
96.897565
  0
ARC
  8
0
 10
1639.52803
 20
805.50491
 40
23.952438
 50
50.00309
 51
93.157236
  0
ARC
  8
0
 10
1621.951504
 20
809.052811
 40
26.060757
 50
51.404106
 51
104.427664
  0
ARC
  8
0
 10
1647.773873
 20
764.240493
 40
77.14576
 50
114.764541
 51
137.146853
  0
ARC
  8
0
 10
1684.884012
 20
844.060707
 40
43.291288
 50
245.294615
 51
296.82489
  0
ARC
  8
0
 10
1472.403626
 20
600.19094
 40
51.603013
 50
351.323794
 51
42.069947
  0
ARC
  8
0
 10
1402.555053
 20
936.823611
 40
87.685729
 50
249.450954
 51
276.203193
  0
ARC
  8
0
 10
1398.984867
 20
906.84324
 40
58.660828
 50
282.848912
 51
332.109258
  0
ARC
  8
0
 10
1501.177232
 20
800.845135
 40
93.305543
 50
78.311946
 51
122.654835
  0
ARC
  8
0
 10
1385.162658
 20
961.404393
 40
79.154104
 50
250.884208
 51
280.027901
  0
ARC
  8
0
 10
1275.770561
 20
1053.266014
 40
209.776861
 50
305.956554
 51
319.586431
  0
ARC
  8
0
 10
1475.360264
 20
845.446975
 40
82.144546
 50
80.836911
 51
119.035353
  0
ARC
  8
0
 10
1378.065963
 20
985.935474
 40
66.047541
 50
241.586037
 51
286.875879
  0
ARC
  8
0
 10
1015.82706
 20
1416.721606
 40
624.100142
 50
307.671967
 51
312.376435
  0
ARC
  8
0
 10
1440.606337
 20
854.840294
 40
100.923
 50
73.354235
 51
92.349104
  0
ARC
  8
0
 10
1509.746475
 20
755.280205
 40
93.788824
 50
179.907625
 51
258.107754
  0
ARC
  8
0
 10
1376.125524
 20
758.498024
 40
28.145331
 50
49.707652
 51
130.292348
  0
ARC
  8
0
 10
1402.074569
 20
801.676907
 40
49.199709
 50
206.185647
 51
313.031518
  0
ARC
  8
0
 10
1344.594181
 20
799.819355
 40
22.169431
 50
98.074734
 51
158.400374
  0
ARC
  8
0
 10
1347.470862
 20
801.870482
 40
24.270968
 50
165.419799
 51
295.511766
  0
ARC
  8
0
 10
1330.686738
 20
834.629952
 40
27.480216
 50
126.034355
 51
255.87714
  0
ARC
  8
0
 10
1332.363333
 20
881.804424
 40
55.457646
 50
158.360346
 51
238.28131
  0
ARC
  8
0
 10
1248.072618
 20
849.988806
 40
59.201148
 50
31.046937
 51
103.930852
  0
ARC
  8
0
 10
1243.252586
 20
885.820212
 40
55.792535
 50
354.550012
 51
88.319013
  0
ARC
  8
0
 10
1247.162623
 20
921.987075
 40
19.733055
 50
96.615569
 51
227.455621
  0
ARC
  8
0
 10
1214.130684
 20
913.471285
 40
20.589732
 50
208.11782
 51
342.99197
  0
ARC
  8
0
 10
1284.169903
 20
943.59788
 40
62.218969
 50
214.500158
 51
263.295287
  0
ARC
  8
0
 10
1257.746847
 20
942.264613
 40
12.875364
 50
183.009053
 51
328.187515
  0
ARC
  8
0
 10
1222.87321
 20
924.127665
 40
28.099722
 50
38.418193
 51
143.699116
  0
ARC
  8
0
 10
1110.421243
 20
996.385498
 40
105.635735
 50
287.588624
 51
328.22762
  0
ARC
  8
0
 10
1138.013364
 20
907.011687
 40
12.122791
 50
173.470612
 51
290.921708
  0
ARC
  8
0
 10
1120.804648
 20
927.114396
 40
19.423389
 50
207.710617
 51
27.710617
  0
ARC
  8
0
 10
1120.804648
 20
927.114396
 40
19.423389
 50
27.710617
 51
35.974918
  0
ARC
  8
0
 10
1121.833882
 20
936.491749
 40
35.562721
 50
333.724816
 51
86.874674
  0
ARC
  8
0
 10
1131.466746
 20
916.423585
 40
22.671837
 50
10.997853
 51
105.900422
  0
ARC
  8
0
 10
1128.941866
 20
955.309158
 40
17.47445
 50
107.20605
 51
257.821285
  0
ARC
  8
0
 10
1103.454018
 20
962.038488
 40
22.629952
 50
26.120544
 51
136.347033
  0
ARC
  8
0
 10
1204.50368
 20
907.505944
 40
136.783611
 50
149.144063
 51
194.683031
  0
ARC
  8
0
 10
1034.05672
 20
1001.030061
 40
133.74544
 50
257.370566
 51
286.564596
  0
ARC
  8
0
 10
1002.401195
 20
905.231372
 40
34.79448
 50
273.976348
 51
336.734887
  0
ARC
  8
0
 10
996.575475
 20
796.982452
 40
101.781439
 50
68.204483
 51
105.814662
  0
ARC
  8
0
 10
1127.828158
 20
966.995303
 40
11.739094
 50
179.24859
 51
359.24859
  0
ARC
  8
0
 10
1127.828158
 20
966.995303
 40
11.739094
 50
359.24859
 51
1.586011
  0
ARC
  8
0
 10
1167.261724
 20
875.038891
 40
66.864092
 50
187.875059
 51
238.529524
  0
ARC
  8
0
 10
1058.94557
 20
937.189618
 40
126.849532
 50
299.358551
 51
325.289227
  0
ARC
  8
0
 10
1405.383691
 20
811.070285
 40
215.665008
 50
157.279956
 51
171.379424
  0
ARC
  8
0
 10
1215.16414
 20
1166.130756
 40
323.553516
 50
261.858043
 51
269.67702
  0
ARC
  8
0
 10
1216.430672
 20
822.112279
 40
20.70207
 50
330.933094
 51
98.585235
  0
ARC
  8
0
 10
1306.686546
 20
806.050148
 40
72.410547
 50
175.243454
 51
196.883504
  0
ARC
  8
0
 10
1208.214934
 20
766.249847
 40
34.697612
 50
322.683112
 51
32.749652
  0
ARC
  8
0
 10
1195.967666
 20
730.721553
 40
42.396502
 50
287.506621
 51
19.990438
  0
ARC
  8
0
 10
1185.760815
 20
714.897097
 40
33.65635
 50
313.015881
 51
50.424079
  0
ARC
  8
0
 10
1222.361799
 20
737.436766
 40
15.535584
 50
30.04602
 51
167.35077
  0
ARC
  8
0
 10
1203.535989
 20
794.43277
 40
8.145931
 50
276.873903
 51
20.010298
  0
ARC
  8
0
 10
1209.352248
 20
768.476971
 40
18.512667
 50
105.1599
 51
175.178195
  0
ARC
  8
0
 10
1217.079647
 20
765.498925
 40
26.564368
 50
170.17229
 51
248.173945
  0
ARC
  8
0
 10
1169.321421
 20
774.389057
 40
21.952467
 50
351.708885
 51
82.962697
  0
ARC
  8
0
 10
1136.16632
 20
827.842067
 40
47.828519
 50
228.310986
 51
318.541917
  0
ARC
  8
0
 10
1065.663976
 20
778.923505
 40
40.882468
 50
302.123036
 51
18.839751
  0
ARC
  8
0
 10
1104.049876
 20
741.110779
 40
16.949795
 50
169.15542
 51
307.167589
  0
ARC
  8
0
 10
1088.277123
 20
746.509156
 40
32.157107
 50
189.68591
 51
323.991814
  0
ARC
  8
0
 10
1073.368253
 20
729.433031
 40
20.444782
 50
46.64944
 51
145.207938
  0
ARC
  8
0
 10
899.716605
 20
884.120219
 40
77.803518
 50
279.290889
 51
309.306133
  0
ARC
  8
0
 10
1016.543041
 20
1036.974193
 40
223.50546
 50
252.410916
 51
283.746957
  0
ARC
  8
0
 10
932.871511
 20
842.447742
 40
138.634744
 50
335.013153
 51
350.627658
  0
ARC
  8
0
 10
1099.53102
 20
742.500712
 40
58.256774
 50
134.731567
 51
177.033922
  0
ARC
  8
0
 10
1058.030827
 20
744.881516
 40
16.69057
 50
177.824179
 51
282.29892
  0
ARC
  8
0
 10
1063.376103
 20
856.55045
 40
71.334832
 50
279.037367
 51
294.621061
  0
ARC
  8
0
 10
1147.120374
 20
794.732002
 40
189.961681
 50
172.049434
 51
208.357829
  0
ARC
  8
0
 10
1013.817059
 20
908.993382
 40
207.273551
 50
243.828964
 51
260.597336
  0
ARC
  8
0
 10
1107.196987
 20
834.968071
 40
338.454034
 50
145.51493
 51
173.63122
  0
ARC
  8
0
 10
1056.036252
 20
372.573387
 40
597.781439
 50
118.032763
 51
140.2741
  0
ARC
  8
0
 10
567.329697
 20
493.323733
 40
262.899492
 50
70.218228
 51
83.678657
  0
ARC
  8
0
 10
1505.1093
 20
84.647877
 40
1074.729913
 50
128.957011
 51
147.160995
  0
ARC
  8
0
 10
678.95062
 20
568.629777
 40
125.173258
 50
100.106305
 51
127.862172
  0
ARC
  8
0
 10
707.642828
 20
665.457448
 40
57.125034
 50
152.470621
 51
213.317084
  0
ARC
  8
0
 10
746.505508
 20
589.466163
 40
97.415497
 50
112.286974
 51
152.743326
  0
ARC
  8
0
 10
225.329563
 20
1236.636059
 40
738.081648
 50
311.000658
 51
333.863108
  0
ARC
  8
0
 10
763.443187
 20
624.851303
 40
76.819101
 50
134.540669
 51
171.799789
  0
ARC
  8
0
 10
724.060184
 20
610.951568
 40
44.284588
 50
80.61896
 51
145.854716
  0
ARC
  8
0
 10
546.718383
 20
607.102945
 40
190.584882
 50
4.496256
 51
14.444831
  0
ARC
  8
0
 10
271.643367
 20
1109.03489
 40
673.389713
 50
313.681203
 51
334.853765
  0
ARC
  8
0
 10
999.137697
 20
564.301227
 40
164.077996
 50
127.136069
 51
166.229308
  0
ARC
  8
0
 10
885.146363
 20
654.080474
 40
68.053398
 50
188.533508
 51
228.187991
  0
ARC
  8
0
 10
767.751944
 20
663.511927
 40
53.766739
 50
291.246715
 51
338.701245
  0
ARC
  8
0
 10
743.974242
 20
627.778065
 40
45.58871
 50
341.615567
 51
47.567724
  0
ARC
  8
0
 10
659.653221
 20
783.246819
 40
240.692441
 50
330.166463
 51
355.832961
  0
ARC
  8
0
 10
950.975531
 20
663.152714
 40
89.375346
 50
185.603856
 51
227.593331
  0
ARC
  8
0
 10
1172.208648
 20
534.993439
 40
288.289382
 50
153.064716
 51
167.54695
  0
ARC
  8
0
 10
920.052602
 20
648.156641
 40
18.092022
 50
49.401899
 51
105.580396
  0
ARC
  8
0
 10
2792.484934
 20
1089.220989
 40
1909.099349
 50
186.442792
 51
192.934503
  0
ARC
  8
0
 10
1171.084833
 20
1352.893985
 40
61.548599
 50
155.088997
 51
214.225992
  0
ARC
  8
0
 10
1111.699126
 20
1357.312099
 40
39.950442
 50
282.278127
 51
13.813898
  0
ARC
  8
0
 10
1152.115532
 20
1311.662693
 40
24.688202
 50
156.412362
 51
327.955657
  0
ARC
  8
0
 10
1199.498277
 20
1265.088386
 40
33.556441
 50
183.719575
 51
278.043565
  0
ARC
  8
0
 10
1126.691928
 20
1300.996064
 40
48.025872
 50
212.302924
 51
286.413571
  0
ARC
  8
0
 10
1082.327735
 20
1313.011812
 40
27.035793
 50
192.266163
 51
343.854385
  0
ARC
  8
0
 10
1059.904982
 20
1283.331744
 40
31.447301
 50
210.550471
 51
337.48562
  0
ARC
  8
0
 10
1089.222615
 20
1258.528187
 40
36.196025
 50
189.525408
 51
283.353946
  0
ARC
  8
0
 10
1193.514128
 20
1236.83057
 40
49.964377
 50
207.965204
 51
273.743712
  0
ARC
  8
0
 10
1153.511013
 20
1214.698041
 40
26.94399
 50
166.236067
 51
278.836575
  0
ARC
  8
0
 10
1180.791518
 20
1184.446955
 40
23.423953
 50
171.092628
 51
292.121739
  0
ARC
  8
0
 10
1214.150169
 20
1173.582565
 40
26.823566
 50
150.145424
 51
298.831817
  0
ARC
  8
0
 10
1238.524088
 20
1217.195438
 40
18.800371
 50
180.687885
 51
0.687885
  0
ARC
  8
0
 10
1238.524088
 20
1217.195438
 40
18.800371
 50
0.687885
 51
27.888041
  0
ARC
  8
0
 10
1271.987972
 20
1200.196063
 40
28.849823
 50
182.422561
 51
310.064164
  0
ARC
  8
0
 10
1306.116509
 20
1145.247584
 40
25.113884
 50
168.243868
 51
299.110893
  0
ARC
  8
0
 10
1337.431263
 20
1150.788773
 40
28.499846
 50
210.117382
 51
329.882618
  0
ARC
  8
0
 10
1356.822229
 20
1192.268506
 40
37.816006
 50
229.421188
 51
301.652409
  0
ARC
  8
0
 10
1377.907911
 20
1153.233774
 40
13.868266
 50
171.955937
 51
329.531168
  0
ARC
  8
0
 10
1248.438423
 20
1152.080575
 40
51.774604
 50
199.230399
 51
272.001036
  0
ARC
  8
0
 10
1276.93142
 20
1128.595518
 40
40.15158
 50
186.677252
 51
300.761742
  0
ARC
  8
0
 10
1293.412737
 20
1094.926919
 40
35.870215
 50
206.66449
 51
305.28722
  0
ARC
  8
0
 10
1141.51816
 20
1188.631162
 40
45.55476
 50
175.860304
 51
285.536529
  0
ARC
  8
0
 10
1158.352483
 20
1142.236571
 40
27.045942
 50
175.796518
 51
294.788611
  0
ARC
  8
0
 10
1046.011464
 20
1206.618741
 40
35.778863
 50
182.398574
 51
286.574942
  0
ARC
  8
0
 10
1026.32561
 20
1173.091665
 40
30.197899
 50
169.993224
 51
280.058628
  0
ARC
  8
0
 10
1072.870959
 20
1166.493385
 40
27.208904
 50
170.807891
 51
294.417969
  0
ARC
  8
0
 10
1054.040852
 20
1150.137552
 40
29.236157
 50
194.332979
 51
266.760375
  0
ARC
  8
0
 10
1074.850979
 20
1115.530004
 40
23.106532
 50
166.43879
 51
283.613104
  0
ARC
  8
0
 10
1116.048134
 20
1113.619408
 40
41.241436
 50
177.344702
 51
261.330308
  0
ARC
  8
0
 10
1136.27729
 20
1057.76461
 40
30.445452
 50
150.29971
 51
234.528507
  0
ARC
  8
0
 10
1170.545953
 20
1043.41659
 40
52.976365
 50
191.373214
 51
270.743907
  0
ARC
  8
0
 10
1145.044361
 20
1104.791307
 40
39.45732
 50
188.315244
 51
261.736475
  0
ARC
  8
0
 10
1208.380115
 20
1129.116057
 40
55.401293
 50
217.230017
 51
284.562493
  0
ARC
  8
0
 10
1258.058851
 20
1087.431207
 40
37.689048
 50
198.46427
 51
287.698585
  0
ARC
  8
0
 10
1306.038453
 20
1042.50004
 40
37.947377
 50
195.754892
 51
292.552945
  0
ARC
  8
0
 10
1337.54086
 20
1039.930706
 40
36.632416
 50
198.461264
 51
295.473927
  0
ARC
  8
0
 10
1198.074372
 20
1076.503777
 40
50.683971
 50
193.502035
 51
265.021925
  0
ARC
  8
0
 10
1252.607344
 20
1083.979954
 40
74.521105
 50
196.872671
 51
275.273225
  0
ARC
  8
0
 10
1205.334156
 20
1023.910817
 40
48.275248
 50
185.776021
 51
281.031012
  0
ARC
  8
0
 10
1281.596636
 20
984.931879
 40
34.779264
 50
193.983871
 51
309.177031
  0
ARC
  8
0
 10
1061.689113
 20
1115.734263
 40
77.283978
 50
167.843397
 51
238.199057
  0
ARC
  8
0
 10
1049.177527
 20
1073.301724
 40
38.102721
 50
157.410924
 51
275.292392
  0
ARC
  8
0
 10
941.085033
 20
1034.348057
 40
26.980517
 50
164.532494
 51
344.532494
  0
ARC
  8
0
 10
941.085033
 20
1034.348057
 40
26.980517
 50
344.532494
 51
348.948127
  0
ARC
  8
0
 10
978.45698
 20
1002.171685
 40
22.494697
 50
134.222087
 51
314.222087
  0
ARC
  8
0
 10
978.45698
 20
1002.171685
 40
22.494697
 50
314.222087
 51
343.888476
  0
ARC
  8
0
 10
1042.244514
 20
1017.226522
 40
47.248486
 50
206.791865
 51
286.656382
  0
ARC
  8
0
 10
1071.986125
 20
1016.022749
 40
41.225768
 50
173.526031
 51
291.477682
  0
ARC
  8
0
 10
1032.299311
 20
1000.418164
 40
59.320523
 50
337.439879
 51
34.262915
  0
ARC
  8
0
 10
1096.497942
 20
1054.979208
 40
32.55671
 50
163.563357
 51
313.600321
  0
ARC
  8
APS_GEOMETR�
 10
978.750219
 20
984.167455
 40
28.393837
 50
186.762024
 51
303.428438
  0
ARC
  8
APS_GEOMETR�
 10
1012.433511
 20
974.846847
 40
33.477804
 50
213.506929
 51
310.817758
  0
ARC
  8
APS_GEOMETR�
 10
1051.176996
 20
940.238028
 40
23.388899
 50
167.241941
 51
319.003855
  0
ARC
  8
APS_GEOMETR�
 10
958.596264
 20
1014.699546
 40
64.977856
 50
303.428438
 51
327.513303
  0
ARC
  8
APS_GEOMETR�
 10
1011.271333
 20
976.192399
 40
35.255772
 50
310.817758
 51
350.094622
  0
ENDSEC
  0
EOF
