  0
SECTION
  2
ENTITIES
  0
LINE
  8
LAYER01
 10
-4464.600586
 11
-4399.850586
 20
-1333.149902
 21
-1284.849609
  0
LINE
  8
LAYER01
 10
-4399.850586
 11
-4352.799804
 20
-1284.849609
 21
-1226.39917
  0
LINE
  8
LAYER01
 10
-4352.799804
 11
-4324.850586
 20
-1226.39917
 21
-1157.800293
  0
LINE
  8
LAYER01
 10
-4324.850586
 11
-4313.449218
 20
-1157.800293
 21
-1080.299316
  0
LINE
  8
LAYER01
 10
-4313.449218
 11
-4272.799804
 20
-1080.299316
 21
-231.599365
  0
LINE
  8
LAYER01
 10
-4272.799804
 11
-4296.899414
 20
-231.599365
 21
-57.600342
  0
LINE
  8
LAYER01
 10
-4296.899414
 11
-4282.950195
 20
-57.600342
 21
1466.999756
  0
LINE
  8
LAYER01
 10
-4282.950195
 11
-4258.799804
 20
1466.999756
 21
1615.650879
  0
LINE
  8
LAYER01
 10
-4258.799804
 11
-4276.599609
 20
1615.650879
 21
2365.249512
  0
LINE
  8
LAYER01
 10
-4276.599609
 11
-4288.000976
 20
2365.249512
 21
2408.450195
  0
LINE
  8
LAYER01
 10
-4288.000976
 11
-4309.599609
 20
2408.450195
 21
2449.099609
  0
LINE
  8
LAYER01
 10
-4309.599609
 11
-4337.549804
 20
2449.099609
 21
2482.150391
  0
LINE
  8
LAYER01
 10
-4337.549804
 11
-4368.049804
 20
2482.150391
 21
2503.700195
  0
LINE
  8
LAYER01
 10
-4368.049804
 11
-4533.249023
 20
2503.700195
 21
2562.150635
  0
LINE
  8
LAYER01
 10
-4533.249023
 11
-4717.450195
 20
2562.150635
 21
2604.100098
  0
LINE
  8
LAYER01
 10
-4717.450195
 11
-4915.649414
 20
2604.100098
 21
2629.499756
  0
LINE
  8
LAYER01
 10
-4915.649414
 11
-5118.950195
 20
2629.499756
 21
2638.400391
  0
LINE
  8
LAYER01
 10
-5118.950195
 11
-5323.500976
 20
2638.400391
 21
2629.499756
  0
LINE
  8
LAYER01
 10
-5323.500976
 11
-5521.700195
 20
2629.499756
 21
2605.349609
  0
LINE
  8
LAYER01
 10
-5521.700195
 11
-5705.90039
 20
2605.349609
 21
2562.148926
  0
LINE
  8
LAYER01
 10
-5705.90039
 11
-5871.049804
 20
2562.148926
 21
2503.700195
  0
LINE
  8
LAYER01
 10
-5871.049804
 11
-5900.299804
 20
2503.700195
 21
2482.150391
  0
LINE
  8
LAYER01
 10
-5900.299804
 11
-5929.5
 20
2482.150391
 21
2449.099609
  0
LINE
  8
LAYER01
 10
-5929.5
 11
-5951.100586
 20
2449.099609
 21
2408.450195
  0
LINE
  8
LAYER01
 10
-5951.100586
 11
-5962.549804
 20
2408.450195
 21
2365.249512
  0
LINE
  8
LAYER01
 10
-5962.549804
 11
-5980.350586
 20
2365.249512
 21
1615.649414
  0
LINE
  8
LAYER01
 10
-5980.350586
 11
-5956.200195
 20
1615.649414
 21
1466.999756
  0
LINE
  8
LAYER01
 10
-5956.200195
 11
-5949.850586
 20
1466.999756
 21
-57.600342
  0
LINE
  8
LAYER01
 10
-5949.850586
 11
-5975.250976
 20
-57.600342
 21
-231.601074
  0
LINE
  8
LAYER01
 10
-5975.250976
 11
-5925.700195
 20
-231.601074
 21
-1080.300781
  0
LINE
  8
LAYER01
 10
-5925.700195
 11
-5914.250976
 20
-1080.300781
 21
-1156.550537
  0
LINE
  8
LAYER01
 10
-5914.250976
 11
-5886.299804
 20
-1156.550537
 21
-1225.151123
  0
LINE
  8
LAYER01
 10
-5886.299804
 11
-5839.299804
 20
-1225.151123
 21
-1284.851074
  0
LINE
  8
LAYER01
 10
-5839.299804
 11
-5774.5
 20
-1284.851074
 21
-1333.149902
  0
LINE
  8
LAYER01
 10
-5774.5
 11
-5714.799804
 20
-1333.149902
 21
-1359.800781
  0
LINE
  8
LAYER01
 10
-5714.799804
 11
-5646.200195
 20
-1359.800781
 21
-1383.950684
  0
LINE
  8
LAYER01
 10
-5646.200195
 11
-5488.651367
 20
-1383.950684
 21
-1420.800781
  0
LINE
  8
LAYER01
 10
-5488.651367
 11
-5308.249023
 20
-1420.800781
 21
-1442.401367
  0
LINE
  8
LAYER01
 10
-5308.249023
 11
-5118.950195
 20
-1442.401367
 21
-1450.0
  0
LINE
  8
LAYER01
 10
-5118.950195
 11
-4929.598633
 20
-1450.0
 21
-1442.399414
  0
LINE
  8
LAYER01
 10
-4929.598633
 11
-4750.500976
 20
-1442.399414
 21
-1420.799316
  0
LINE
  8
LAYER01
 10
-4750.500976
 11
-4591.651367
 20
-1420.799316
 21
-1383.949219
  0
LINE
  8
LAYER01
 10
-4591.651367
 11
-4524.350586
 20
-1383.949219
 21
-1359.799316
  0
LINE
  8
LAYER01
 10
-4524.350586
 11
-4464.600586
 20
-1359.799316
 21
-1333.149902
  0
LINE
  8
LAYER01
 10
-5925.700195
 11
-5914.250976
 20
-1034.550537
 21
-1108.250488
  0
LINE
  8
LAYER01
 10
-5914.250976
 11
-5886.299804
 20
-1108.250488
 21
-1174.30127
  0
LINE
  8
LAYER01
 10
-5886.299804
 11
-5839.299804
 20
-1174.30127
 21
-1231.500244
  0
LINE
  8
LAYER01
 10
-5839.299804
 11
-5774.5
 20
-1231.500244
 21
-1277.250732
  0
LINE
  8
LAYER01
 10
-5774.5
 11
-5714.799804
 20
-1277.250732
 21
-1303.900391
  0
LINE
  8
LAYER01
 10
-5714.799804
 11
-5646.200195
 20
-1303.900391
 21
-1326.800781
  0
LINE
  8
LAYER01
 10
-5646.200195
 11
-5487.350586
 20
-1326.800781
 21
-1362.350586
  0
LINE
  8
LAYER01
 10
-5487.350586
 11
-5308.249023
 20
-1362.350586
 21
-1382.701172
  0
LINE
  8
LAYER01
 10
-5308.249023
 11
-5118.950195
 20
-1382.701172
 21
-1390.299805
  0
LINE
  8
LAYER01
 10
-5118.950195
 11
-4929.598633
 20
-1390.299805
 21
-1382.699707
  0
LINE
  8
LAYER01
 10
-4929.598633
 11
-4750.500976
 20
-1382.699707
 21
-1362.350586
  0
LINE
  8
LAYER01
 10
-4750.500976
 11
-4591.651367
 20
-1362.350586
 21
-1326.798828
  0
LINE
  8
LAYER01
 10
-4591.651367
 11
-4524.350586
 20
-1326.798828
 21
-1303.900391
  0
LINE
  8
LAYER01
 10
-4524.350586
 11
-4464.600586
 20
-1303.900391
 21
-1277.249023
  0
LINE
  8
LAYER01
 10
-4464.600586
 11
-4399.850586
 20
-1277.249023
 21
-1231.500244
  0
LINE
  8
LAYER01
 10
-4399.850586
 11
-4352.799804
 20
-1231.500244
 21
-1174.299561
  0
LINE
  8
LAYER01
 10
-4352.799804
 11
-4324.850586
 20
-1174.299561
 21
-1108.250488
  0
LINE
  8
LAYER01
 10
-4324.850586
 11
-4313.449218
 20
-1108.250488
 21
-1034.550537
  0
LINE
  8
LAYER01
 10
-5925.700195
 11
-5914.250976
 20
-1034.550537
 21
-1108.250488
  0
LINE
  8
LAYER01
 10
-5914.250976
 11
-5886.299804
 20
-1108.250488
 21
-1174.30127
  0
LINE
  8
LAYER01
 10
-5886.299804
 11
-5839.299804
 20
-1174.30127
 21
-1231.500244
  0
LINE
  8
LAYER01
 10
-5839.299804
 11
-5774.5
 20
-1231.500244
 21
-1277.250732
  0
LINE
  8
LAYER01
 10
-5774.5
 11
-5714.799804
 20
-1277.250732
 21
-1303.900391
  0
LINE
  8
LAYER01
 10
-5714.799804
 11
-5646.200195
 20
-1303.900391
 21
-1326.800781
  0
LINE
  8
LAYER01
 10
-5646.200195
 11
-5487.350586
 20
-1326.800781
 21
-1362.350586
  0
LINE
  8
LAYER01
 10
-5487.350586
 11
-5308.249023
 20
-1362.350586
 21
-1382.701172
  0
LINE
  8
LAYER01
 10
-5308.249023
 11
-5118.950195
 20
-1382.701172
 21
-1390.299805
  0
LINE
  8
LAYER01
 10
-5118.950195
 11
-4929.598633
 20
-1390.299805
 21
-1382.699707
  0
LINE
  8
LAYER01
 10
-4929.598633
 11
-4750.500976
 20
-1382.699707
 21
-1362.350586
  0
LINE
  8
LAYER01
 10
-4750.500976
 11
-4591.651367
 20
-1362.350586
 21
-1326.798828
  0
LINE
  8
LAYER01
 10
-4591.651367
 11
-4524.350586
 20
-1326.798828
 21
-1303.900391
  0
LINE
  8
LAYER01
 10
-4524.350586
 11
-4464.600586
 20
-1303.900391
 21
-1277.249023
  0
LINE
  8
LAYER01
 10
-4464.600586
 11
-4399.850586
 20
-1277.249023
 21
-1231.500244
  0
LINE
  8
LAYER01
 10
-4399.850586
 11
-4352.799804
 20
-1231.500244
 21
-1174.299561
  0
LINE
  8
LAYER01
 10
-4352.799804
 11
-4324.850586
 20
-1174.299561
 21
-1108.250488
  0
LINE
  8
LAYER01
 10
-4324.850586
 11
-4313.449218
 20
-1108.250488
 21
-1034.550537
  0
LINE
  8
LAYER01
 10
-4276.599609
 11
-4288.000976
 20
2319.500732
 21
2361.450195
  0
LINE
  8
LAYER01
 10
-4288.000976
 11
-4309.599609
 20
2361.450195
 21
2400.799561
  0
LINE
  8
LAYER01
 10
-4309.599609
 11
-4337.549804
 20
2400.799561
 21
2432.600342
  0
LINE
  8
LAYER01
 10
-4337.549804
 11
-4368.049804
 20
2432.600342
 21
2452.900635
  0
LINE
  8
LAYER01
 10
-4368.049804
 11
-4533.249023
 20
2452.900635
 21
2508.799805
  0
LINE
  8
LAYER01
 10
-4533.249023
 11
-4717.450195
 20
2508.799805
 21
2549.450684
  0
LINE
  8
LAYER01
 10
-4717.450195
 11
-4915.649414
 20
2549.450684
 21
2574.850586
  0
LINE
  8
LAYER01
 10
-4915.649414
 11
-5118.950195
 20
2574.850586
 21
2582.499756
  0
LINE
  8
LAYER01
 10
-5118.950195
 11
-5323.500976
 20
2582.499756
 21
2574.848877
  0
LINE
  8
LAYER01
 10
-5323.500976
 11
-5521.700195
 20
2574.848877
 21
2550.749268
  0
LINE
  8
LAYER01
 10
-5521.700195
 11
-5705.90039
 20
2550.749268
 21
2510.099854
  0
LINE
  8
LAYER01
 10
-5705.90039
 11
-5871.049804
 20
2510.099854
 21
2452.89917
  0
LINE
  8
LAYER01
 10
-5871.049804
 11
-5900.299804
 20
2452.89917
 21
2432.598877
  0
LINE
  8
LAYER01
 10
-5900.299804
 11
-5929.5
 20
2432.598877
 21
2400.799561
  0
LINE
  8
LAYER01
 10
-5929.5
 11
-5951.100586
 20
2400.799561
 21
2361.450195
  0
LINE
  8
LAYER01
 10
-5951.100586
 11
-5962.549804
 20
2361.450195
 21
2319.499268
  0
LINE
  8
LAYER01
 10
-4276.599609
 11
-4288.000976
 20
2319.500732
 21
2361.450195
  0
LINE
  8
LAYER01
 10
-4288.000976
 11
-4309.599609
 20
2361.450195
 21
2400.799561
  0
LINE
  8
LAYER01
 10
-4309.599609
 11
-4337.549804
 20
2400.799561
 21
2432.600342
  0
LINE
  8
LAYER01
 10
-4337.549804
 11
-4368.049804
 20
2432.600342
 21
2452.900635
  0
LINE
  8
LAYER01
 10
-4368.049804
 11
-4533.249023
 20
2452.900635
 21
2508.799805
  0
LINE
  8
LAYER01
 10
-4533.249023
 11
-4717.450195
 20
2508.799805
 21
2549.450684
  0
LINE
  8
LAYER01
 10
-4717.450195
 11
-4915.649414
 20
2549.450684
 21
2574.850586
  0
LINE
  8
LAYER01
 10
-4915.649414
 11
-5118.950195
 20
2574.850586
 21
2582.499756
  0
LINE
  8
LAYER01
 10
-5118.950195
 11
-5323.500976
 20
2582.499756
 21
2574.848877
  0
LINE
  8
LAYER01
 10
-5323.500976
 11
-5521.700195
 20
2574.848877
 21
2550.749268
  0
LINE
  8
LAYER01
 10
-5521.700195
 11
-5705.90039
 20
2550.749268
 21
2510.099854
  0
LINE
  8
LAYER01
 10
-5705.90039
 11
-5871.049804
 20
2510.099854
 21
2452.89917
  0
LINE
  8
LAYER01
 10
-5871.049804
 11
-5900.299804
 20
2452.89917
 21
2432.598877
  0
LINE
  8
LAYER01
 10
-5900.299804
 11
-5929.5
 20
2432.598877
 21
2400.799561
  0
LINE
  8
LAYER01
 10
-5929.5
 11
-5951.100586
 20
2400.799561
 21
2361.450195
  0
LINE
  8
LAYER01
 10
-5951.100586
 11
-5962.549804
 20
2361.450195
 21
2319.499268
  0
LINE
  8
LAYER01
 10
-5103.699218
 11
-5188.799804
 20
-1298.849609
 21
-1293.75
  0
LINE
  8
LAYER01
 10
-5188.799804
 11
-5270.098633
 20
-1293.75
 21
-1281.050049
  0
LINE
  8
LAYER01
 10
-5270.098633
 11
-5346.350586
 20
-1281.050049
 21
-1262.000977
  0
LINE
  8
LAYER01
 10
-5346.350586
 11
-5417.499023
 20
-1262.000977
 21
-1234.050049
  0
LINE
  8
LAYER01
 10
-5417.499023
 11
-5482.299804
 20
-1234.050049
 21
-1198.449707
  0
LINE
  8
LAYER01
 10
-5482.299804
 11
-5538.199218
 20
-1198.449707
 21
-1156.550537
  0
LINE
  8
LAYER01
 10
-5538.199218
 11
-5585.199218
 20
-1156.550537
 21
-1105.700684
  0
LINE
  8
LAYER01
 10
-5585.199218
 11
-5620.799804
 20
-1105.700684
 21
-1047.250488
  0
LINE
  8
LAYER01
 10
-5620.799804
 11
-5656.349609
 20
-1047.250488
 21
-967.25
  0
LINE
  8
LAYER01
 10
-5656.349609
 11
-5685.549804
 20
-967.25
 21
-884.651123
  0
LINE
  8
LAYER01
 10
-5685.549804
 11
-5730.049804
 20
-884.651123
 21
-710.600342
  0
LINE
  8
LAYER01
 10
-5730.049804
 11
-5751.649414
 20
-710.600342
 21
-537.800537
  0
LINE
  8
LAYER01
 10
-5751.649414
 11
-5749.100586
 20
-537.800537
 21
-377.700684
  0
LINE
  8
LAYER01
 10
-5749.100586
 11
-5839.299804
 20
-377.700684
 21
-462.851074
  0
LINE
  8
LAYER01
 10
-5954.899414
 11
-5948.549804
 20
1453.0
 21
1400.949219
  0
LINE
  8
LAYER01
 10
-5948.549804
 11
-5940.950195
 20
1400.949219
 21
1381.849609
  0
LINE
  8
LAYER01
 10
-5940.950195
 11
-5919.350586
 20
1381.849609
 21
1364.099121
  0
LINE
  8
LAYER01
 10
-5919.350586
 11
-5914.250976
 20
1364.099121
 21
-46.150146
  0
LINE
  8
LAYER01
 10
-5914.250976
 11
-5881.25
 20
-46.150146
 21
-171.900879
  0
LINE
  8
LAYER01
 10
-5881.25
 11
-5859.649414
 20
-171.900879
 21
-315.451172
  0
LINE
  8
LAYER01
 10
-5859.649414
 11
-5822.799804
 20
-315.451172
 21
-620.400879
  0
LINE
  8
LAYER01
 10
-5822.799804
 11
-5794.850586
 20
-620.400879
 21
-766.500977
  0
LINE
  8
LAYER01
 10
-5794.850586
 11
-5775.799804
 20
-766.500977
 21
-833.850098
  0
LINE
  8
LAYER01
 10
-5775.799804
 11
-5751.649414
 20
-833.850098
 21
-897.351074
  0
LINE
  8
LAYER01
 10
-5751.649414
 11
-5722.40039
 20
-897.351074
 21
-954.550293
  0
LINE
  8
LAYER01
 10
-5722.40039
 11
-5686.850586
 20
-954.550293
 21
-1006.601074
  0
LINE
  8
LAYER01
 10
-5686.850586
 11
-5644.90039
 20
-1006.601074
 21
-1049.800049
  0
LINE
  8
LAYER01
 10
-5644.90039
 11
-5594.099609
 20
-1049.800049
 21
-1085.400391
  0
LINE
  8
LAYER01
 10
-5632.199218
 11
-5601.700195
 20
215.550293
 21
516.648926
  0
LINE
  8
LAYER01
 10
-5601.700195
 11
-5586.450195
 20
516.648926
 21
811.399902
  0
LINE
  8
LAYER01
 10
-5586.450195
 11
-5590.299804
 20
811.399902
 21
1125.250244
  0
LINE
  8
LAYER01
 10
-5590.299804
 11
-5615.700195
 20
1125.250244
 21
1479.699707
  0
LINE
  8
LAYER01
 10
-5873.599609
 11
-5887.599609
 20
970.25
 21
942.298828
  0
LINE
  8
LAYER01
 10
-5887.599609
 11
-5893.950195
 20
942.298828
 21
897.799805
  0
LINE
  8
LAYER01
 10
-5893.950195
 11
-5887.599609
 20
897.799805
 21
852.049316
  0
LINE
  8
LAYER01
 10
-5887.599609
 11
-5872.349609
 20
852.049316
 21
826.649414
  0
LINE
  8
LAYER01
 10
-5872.349609
 11
-5887.599609
 20
826.649414
 21
852.049316
  0
LINE
  8
LAYER01
 10
-5887.599609
 11
-5893.950195
 20
852.049316
 21
897.799805
  0
LINE
  8
LAYER01
 10
-5893.950195
 11
-5887.599609
 20
897.799805
 21
942.298828
  0
LINE
  8
LAYER01
 10
-5887.599609
 11
-5873.599609
 20
942.298828
 21
970.25
  0
LINE
  8
LAYER01
 10
-4370.599609
 11
-4355.350586
 20
970.25
 21
942.300293
  0
LINE
  8
LAYER01
 10
-4355.350586
 11
-4348.999023
 20
942.300293
 21
897.799805
  0
LINE
  8
LAYER01
 10
-4348.999023
 11
-4355.350586
 20
897.799805
 21
852.050781
  0
LINE
  8
LAYER01
 10
-4355.350586
 11
-4370.599609
 20
852.050781
 21
826.649414
  0
LINE
  8
LAYER01
 10
-4370.599609
 11
-4355.350586
 20
826.649414
 21
852.050781
  0
LINE
  8
LAYER01
 10
-4355.350586
 11
-4348.999023
 20
852.050781
 21
897.799805
  0
LINE
  8
LAYER01
 10
-4348.999023
 11
-4355.350586
 20
897.799805
 21
942.300293
  0
LINE
  8
LAYER01
 10
-4355.350586
 11
-4370.599609
 20
942.300293
 21
970.25
  0
LINE
  8
LAYER01
 10
-5855.799804
 11
-5843.100586
 20
826.649414
 21
844.44873
  0
LINE
  8
LAYER01
 10
-5843.100586
 11
-5834.200195
 20
844.44873
 21
895.25
  0
LINE
  8
LAYER01
 10
-5834.200195
 11
-5840.550781
 20
895.25
 21
939.749023
  0
LINE
  8
LAYER01
 10
-5840.550781
 11
-5854.550781
 20
939.749023
 21
968.949951
  0
LINE
  8
LAYER01
 10
-5854.550781
 11
-5855.799804
 20
968.949951
 21
968.949951
  0
LINE
  8
LAYER01
 10
-5855.799804
 11
-5854.550781
 20
968.949951
 21
968.949951
  0
LINE
  8
LAYER01
 10
-5854.550781
 11
-5840.550781
 20
968.949951
 21
939.749023
  0
LINE
  8
LAYER01
 10
-5840.550781
 11
-5834.200195
 20
939.749023
 21
895.25
  0
LINE
  8
LAYER01
 10
-5834.200195
 11
-5843.100586
 20
895.25
 21
844.44873
  0
LINE
  8
LAYER01
 10
-5843.100586
 11
-5855.799804
 20
844.44873
 21
826.649414
  0
LINE
  8
LAYER01
 10
-4387.100586
 11
-4399.850586
 20
826.649414
 21
844.450439
  0
LINE
  8
LAYER01
 10
-4399.850586
 11
-4408.700195
 20
844.450439
 21
895.25
  0
LINE
  8
LAYER01
 10
-4408.700195
 11
-4403.65039
 20
895.25
 21
939.750732
  0
LINE
  8
LAYER01
 10
-4403.65039
 11
-4388.40039
 20
939.750732
 21
968.949951
  0
LINE
  8
LAYER01
 10
-4388.40039
 11
-4387.100586
 20
968.949951
 21
968.949951
  0
LINE
  8
LAYER01
 10
-4387.100586
 11
-4388.40039
 20
968.949951
 21
968.949951
  0
LINE
  8
LAYER01
 10
-4388.40039
 11
-4403.65039
 20
968.949951
 21
939.750732
  0
LINE
  8
LAYER01
 10
-4403.65039
 11
-4408.700195
 20
939.750732
 21
895.25
  0
LINE
  8
LAYER01
 10
-4408.700195
 11
-4399.850586
 20
895.25
 21
844.450439
  0
LINE
  8
LAYER01
 10
-4399.850586
 11
-4387.100586
 20
844.450439
 21
826.649414
  0
LINE
  8
LAYER01
 10
-5871.049804
 11
-5873.599609
 20
1009.599365
 21
994.349609
  0
LINE
  8
LAYER01
 10
-5873.599609
 11
-5873.599609
 20
994.349609
 21
833.000244
  0
LINE
  8
LAYER01
 10
-5873.599609
 11
-5871.049804
 20
833.000244
 21
817.749023
  0
LINE
  8
LAYER01
 10
-5871.049804
 11
-5864.700195
 20
817.749023
 21
811.399902
  0
LINE
  8
LAYER01
 10
-5864.700195
 11
-5863.450195
 20
811.399902
 21
811.399902
  0
LINE
  8
LAYER01
 10
-5863.450195
 11
-5858.349609
 20
811.399902
 21
817.749023
  0
LINE
  8
LAYER01
 10
-5858.349609
 11
-5855.799804
 20
817.749023
 21
833.000244
  0
LINE
  8
LAYER01
 10
-5855.799804
 11
-5855.799804
 20
833.000244
 21
914.349365
  0
LINE
  8
LAYER01
 10
-5855.799804
 11
-5855.799804
 20
914.349365
 21
994.349609
  0
LINE
  8
LAYER01
 10
-5855.799804
 11
-5858.349609
 20
994.349609
 21
1009.599365
  0
LINE
  8
LAYER01
 10
-5858.349609
 11
-5871.049804
 20
1009.599365
 21
1009.599365
  0
LINE
  8
LAYER01
 10
-4373.151367
 11
-4370.599609
 20
1009.60083
 21
994.349609
  0
LINE
  8
LAYER01
 10
-4370.599609
 11
-4370.599609
 20
994.349609
 21
833.000244
  0
LINE
  8
LAYER01
 10
-4370.599609
 11
-4373.151367
 20
833.000244
 21
817.750488
  0
LINE
  8
LAYER01
 10
-4373.151367
 11
-4379.5
 20
817.750488
 21
811.399902
  0
LINE
  8
LAYER01
 10
-4379.5
 11
-4385.848633
 20
811.399902
 21
817.750488
  0
LINE
  8
LAYER01
 10
-4385.848633
 11
-4387.100586
 20
817.750488
 21
833.000244
  0
LINE
  8
LAYER01
 10
-4387.100586
 11
-4387.100586
 20
833.000244
 21
914.35083
  0
LINE
  8
LAYER01
 10
-4387.100586
 11
-4387.100586
 20
914.35083
 21
994.349609
  0
LINE
  8
LAYER01
 10
-4387.100586
 11
-4385.848633
 20
994.349609
 21
1009.60083
  0
LINE
  8
LAYER01
 10
-4385.848633
 11
-4373.151367
 20
1009.60083
 21
1009.60083
  0
LINE
  8
LAYER01
 10
-5858.349609
 11
-5863.450195
 20
991.850342
 21
1007.049561
  0
LINE
  8
LAYER01
 10
-5863.450195
 11
-5869.799804
 20
1007.049561
 21
991.850342
  0
LINE
  8
LAYER01
 10
-5869.799804
 11
-5863.450195
 20
991.850342
 21
976.599121
  0
LINE
  8
LAYER01
 10
-5863.450195
 11
-5858.349609
 20
976.599121
 21
991.850342
  0
LINE
  8
LAYER01
 10
-4384.599609
 11
-4379.5
 20
991.850342
 21
1007.049561
  0
LINE
  8
LAYER01
 10
-4379.5
 11
-4373.151367
 20
1007.049561
 21
991.850342
  0
LINE
  8
LAYER01
 10
-4373.151367
 11
-4379.5
 20
991.850342
 21
976.600586
  0
LINE
  8
LAYER01
 10
-4379.5
 11
-4384.599609
 20
976.600586
 21
991.850342
  0
LINE
  8
LAYER01
 10
-5818.950195
 11
-5820.25
 20
-259.550537
 21
240.949951
  0
LINE
  8
LAYER01
 10
-5820.25
 11
-5812.599609
 20
240.949951
 21
741.549805
  0
LINE
  8
LAYER01
 10
-5812.599609
 11
-5792.299804
 20
741.549805
 21
1243.398926
  0
LINE
  8
LAYER01
 10
-5792.299804
 11
-5764.349609
 20
1243.398926
 21
1745.25
  0
LINE
  8
LAYER01
 10
-5764.349609
 11
-5758.000976
 20
1745.25
 21
1769.349609
  0
LINE
  8
LAYER01
 10
-5758.000976
 11
-5752.899414
 20
1769.349609
 21
1770.649658
  0
LINE
  8
LAYER01
 10
-5752.899414
 11
-5749.100586
 20
1770.649658
 21
1762.999023
  0
LINE
  8
LAYER01
 10
-5749.100586
 11
-5713.5
 20
1762.999023
 21
1623.249756
  0
LINE
  8
LAYER01
 10
-5713.5
 11
-5683.049804
 20
1623.249756
 21
1466.999756
  0
LINE
  8
LAYER01
 10
-5683.049804
 11
-5657.599609
 20
1466.999756
 21
1291.650391
  0
LINE
  8
LAYER01
 10
-5657.599609
 11
-5641.099609
 20
1291.650391
 21
1099.800049
  0
LINE
  8
LAYER01
 10
-5641.099609
 11
-5634.750976
 20
1099.800049
 21
894.000244
  0
LINE
  8
LAYER01
 10
-5634.750976
 11
-5637.299804
 20
894.000244
 21
686.898926
  0
LINE
  8
LAYER01
 10
-5637.299804
 11
-5650.0
 20
686.898926
 21
479.798828
  0
LINE
  8
LAYER01
 10
-5650.0
 11
-5672.850586
 20
479.798828
 21
273.999023
  0
LINE
  8
LAYER01
 10
-5672.850586
 11
-5697.000976
 20
273.999023
 21
124.099609
  0
LINE
  8
LAYER01
 10
-5697.000976
 11
-5728.75
 20
124.099609
 21
-16.950928
  0
LINE
  8
LAYER01
 10
-5728.75
 11
-5799.899414
 20
-16.950928
 21
-277.349854
  0
LINE
  8
LAYER01
 10
-5799.899414
 11
-5806.25
 20
-277.349854
 21
-296.400391
  0
LINE
  8
LAYER01
 10
-5806.25
 11
-5812.599609
 20
-296.400391
 21
-295.150879
  0
LINE
  8
LAYER01
 10
-5812.599609
 11
-5818.950195
 20
-295.150879
 21
-259.550537
  0
LINE
  8
LAYER01
 10
-5647.450195
 11
-5721.15039
 20
1097.299316
 21
1098.550293
  0
LINE
  8
LAYER01
 10
-5721.15039
 11
-5793.549804
 20
1098.550293
 21
1099.800049
  0
LINE
  8
LAYER01
 10
-5793.549804
 11
-5777.049804
 20
1099.800049
 21
1421.249512
  0
LINE
  8
LAYER01
 10
-5777.049804
 11
-5756.700195
 20
1421.249512
 21
1743.949951
  0
LINE
  8
LAYER01
 10
-5756.700195
 11
-5756.700195
 20
1743.949951
 21
1749.049316
  0
LINE
  8
LAYER01
 10
-5756.700195
 11
-5756.700195
 20
1749.049316
 21
1751.599121
  0
LINE
  8
LAYER01
 10
-5756.700195
 11
-5754.199218
 20
1751.599121
 21
1747.799805
  0
LINE
  8
LAYER01
 10
-5754.199218
 11
-5719.90039
 20
1747.799805
 21
1610.549805
  0
LINE
  8
LAYER01
 10
-5719.90039
 11
-5688.100586
 20
1610.549805
 21
1456.849609
  0
LINE
  8
LAYER01
 10
-5688.100586
 11
-5663.950195
 20
1456.849609
 21
1284.050049
  0
LINE
  8
LAYER01
 10
-5663.950195
 11
-5647.450195
 20
1284.050049
 21
1097.299316
  0
LINE
  8
LAYER01
 10
-5799.899414
 11
-5721.15039
 20
937.199463
 21
935.949707
  0
LINE
  8
LAYER01
 10
-5721.15039
 11
-5642.349609
 20
935.949707
 21
934.649658
  0
LINE
  8
LAYER01
 10
-5642.349609
 11
-5643.649414
 20
934.649658
 21
732.64917
  0
LINE
  8
LAYER01
 10
-5643.649414
 11
-5653.799804
 20
732.64917
 21
535.699463
  0
LINE
  8
LAYER01
 10
-5653.799804
 11
-5674.15039
 20
535.699463
 21
319.749512
  0
LINE
  8
LAYER01
 10
-5674.15039
 11
-5708.450195
 20
319.749512
 21
115.199219
  0
LINE
  8
LAYER01
 10
-5708.450195
 11
-5738.950195
 20
115.199219
 21
-24.549805
  0
LINE
  8
LAYER01
 10
-5738.950195
 11
-5773.25
 20
-24.549805
 21
-155.400146
  0
LINE
  8
LAYER01
 10
-5773.25
 11
-5812.599609
 20
-155.400146
 21
-154.100098
  0
LINE
  8
LAYER01
 10
-5812.599609
 11
-5812.599609
 20
-154.100098
 21
390.899658
  0
LINE
  8
LAYER01
 10
-5812.599609
 11
-5799.899414
 20
390.899658
 21
937.199463
  0
LINE
  8
LAYER01
 10
-5799.899414
 11
-5793.549804
 20
928.298828
 21
1108.698975
  0
LINE
  8
LAYER01
 10
-5642.349609
 11
-5647.450195
 20
934.649658
 21
1097.299316
  0
LINE
  8
LAYER01
 10
-5824.049804
 11
-5813.899414
 20
2150.499023
 21
2144.149902
  0
LINE
  8
LAYER01
 10
-5813.899414
 11
-5812.599609
 20
2144.149902
 21
2128.948975
  0
LINE
  8
LAYER01
 10
-5812.599609
 11
-5826.599609
 20
2128.948975
 21
2033.650146
  0
LINE
  8
LAYER01
 10
-5826.599609
 11
-5832.950195
 20
2033.650146
 21
2018.398926
  0
LINE
  8
LAYER01
 10
-5832.950195
 11
-5844.40039
 20
2018.398926
 21
2013.299561
  0
LINE
  8
LAYER01
 10
-5844.40039
 11
-5868.5
 20
2013.299561
 21
2013.299561
  0
LINE
  8
LAYER01
 10
-5868.5
 11
-5877.40039
 20
2013.299561
 21
2019.650391
  0
LINE
  8
LAYER01
 10
-5877.40039
 11
-5879.950195
 20
2019.650391
 21
2034.899902
  0
LINE
  8
LAYER01
 10
-5879.950195
 11
-5866.0
 20
2034.899902
 21
2130.200195
  0
LINE
  8
LAYER01
 10
-5866.0
 11
-5859.649414
 20
2130.200195
 21
2144.149902
  0
LINE
  8
LAYER01
 10
-5859.649414
 11
-5848.200195
 20
2144.149902
 21
2150.499023
  0
LINE
  8
LAYER01
 10
-5848.200195
 11
-5836.749023
 20
2150.499023
 21
2150.499023
  0
LINE
  8
LAYER01
 10
-5836.749023
 11
-5824.049804
 20
2150.499023
 21
2150.499023
  0
LINE
  8
LAYER01
 10
-4572.600586
 11
-4623.450195
 20
2075.550781
 21
1483.500732
  0
LINE
  8
LAYER01
 10
-4623.450195
 11
-4871.200195
 20
1483.500732
 21
1501.300049
  0
LINE
  8
LAYER01
 10
-4871.200195
 11
-5121.450195
 20
1501.300049
 21
1507.64917
  0
LINE
  8
LAYER01
 10
-5121.450195
 11
-5370.500976
 20
1507.64917
 21
1501.300049
  0
LINE
  8
LAYER01
 10
-5370.500976
 11
-5616.950195
 20
1501.300049
 21
1483.499023
  0
LINE
  8
LAYER01
 10
-5616.950195
 11
-5669.049804
 20
1483.499023
 21
2075.549316
  0
LINE
  8
LAYER01
 10
-5669.049804
 11
-5539.450195
 20
2075.549316
 21
2123.849609
  0
LINE
  8
LAYER01
 10
-5539.450195
 11
-5407.350586
 20
2123.849609
 21
2155.600098
  0
LINE
  8
LAYER01
 10
-5407.350586
 11
-5273.950195
 20
2155.600098
 21
2174.648926
  0
LINE
  8
LAYER01
 10
-5273.950195
 11
-5139.250976
 20
2174.648926
 21
2178.500488
  0
LINE
  8
LAYER01
 10
-5139.250976
 11
-5002.049804
 20
2178.500488
 21
2170.849609
  0
LINE
  8
LAYER01
 10
-5002.049804
 11
-4861.000976
 20
2170.849609
 21
2150.500488
  0
LINE
  8
LAYER01
 10
-4861.000976
 11
-4718.700195
 20
2150.500488
 21
2117.500244
  0
LINE
  8
LAYER01
 10
-4718.700195
 11
-4572.600586
 20
2117.500244
 21
2075.550781
  0
LINE
  8
LAYER01
 10
-4746.649414
 11
-4960.100586
 20
1508.900391
 21
1519.099365
  0
LINE
  8
LAYER01
 10
-4960.100586
 11
-5174.850586
 20
1519.099365
 21
1521.64917
  0
LINE
  8
LAYER01
 10
-5174.850586
 11
-5389.549804
 20
1521.64917
 21
1516.549805
  0
LINE
  8
LAYER01
 10
-5389.549804
 11
-5604.25
 20
1516.549805
 21
1500.050293
  0
LINE
  8
LAYER01
 10
-5604.25
 11
-5652.549804
 20
1500.050293
 21
2066.648926
  0
LINE
  8
LAYER01
 10
-5652.549804
 11
-5530.549804
 20
2066.648926
 21
2109.849609
  0
LINE
  8
LAYER01
 10
-5530.549804
 11
-5404.800781
 20
2109.849609
 21
2140.350342
  0
LINE
  8
LAYER01
 10
-5404.800781
 11
-5289.200195
 20
2140.350342
 21
2156.899902
  0
LINE
  8
LAYER01
 10
-5289.200195
 11
-5173.550781
 20
2156.899902
 21
2163.249268
  0
LINE
  8
LAYER01
 10
-5173.550781
 11
-5036.349609
 20
2163.249268
 21
2158.149658
  0
LINE
  8
LAYER01
 10
-5036.349609
 11
-4899.15039
 20
2158.149658
 21
2140.350342
  0
LINE
  8
LAYER01
 10
-4899.15039
 11
-4742.850586
 20
2140.350342
 21
2107.350098
  0
LINE
  8
LAYER01
 10
-4742.850586
 11
-4587.849609
 20
2107.350098
 21
2064.149414
  0
LINE
  8
LAYER01
 10
-4587.849609
 11
-4637.399414
 20
2064.149414
 21
1500.050293
  0
LINE
  8
LAYER01
 10
-4637.399414
 11
-4652.649414
 20
1500.050293
 21
1501.300049
  0
LINE
  8
LAYER01
 10
-4652.649414
 11
-4746.649414
 20
1501.300049
 21
1508.900391
  0
LINE
  8
LAYER01
 10
-5691.90039
 11
-5731.299804
 20
2322.048828
 21
2301.699707
  0
LINE
  8
LAYER01
 10
-5731.299804
 11
-5769.40039
 20
2301.699707
 21
2295.349121
  0
LINE
  8
LAYER01
 10
-5769.40039
 11
-5802.450195
 20
2295.349121
 21
2301.699707
  0
LINE
  8
LAYER01
 10
-5802.450195
 11
-5827.849609
 20
2301.699707
 21
2320.749023
  0
LINE
  8
LAYER01
 10
-5827.849609
 11
-5838.049804
 20
2320.749023
 21
2350.0
  0
LINE
  8
LAYER01
 10
-5838.049804
 11
-5832.950195
 20
2350.0
 21
2384.300293
  0
LINE
  8
LAYER01
 10
-5832.950195
 11
-5813.899414
 20
2384.300293
 21
2418.598877
  0
LINE
  8
LAYER01
 10
-5813.899414
 11
-5782.149414
 20
2418.598877
 21
2447.799805
  0
LINE
  8
LAYER01
 10
-5782.149414
 11
-5742.75
 20
2447.799805
 21
2468.150391
  0
LINE
  8
LAYER01
 10
-5742.75
 11
-5704.649414
 20
2468.150391
 21
2475.749268
  0
LINE
  8
LAYER01
 10
-5704.649414
 11
-5670.349609
 20
2475.749268
 21
2469.399902
  0
LINE
  8
LAYER01
 10
-5670.349609
 11
-5646.200195
 20
2469.399902
 21
2449.099609
  0
LINE
  8
LAYER01
 10
-5646.200195
 11
-5636.000976
 20
2449.099609
 21
2419.850098
  0
LINE
  8
LAYER01
 10
-5636.000976
 11
-5641.099609
 20
2419.850098
 21
2385.549805
  0
LINE
  8
LAYER01
 10
-5641.099609
 11
-5660.15039
 20
2385.549805
 21
2352.549805
  0
LINE
  8
LAYER01
 10
-5660.15039
 11
-5691.90039
 20
2352.549805
 21
2322.048828
  0
LINE
  8
LAYER01
 10
-5709.700195
 11
-5738.950195
 20
2328.399658
 21
2315.699707
  0
LINE
  8
LAYER01
 10
-5738.950195
 11
-5770.700195
 20
2315.699707
 21
2310.600342
  0
LINE
  8
LAYER01
 10
-5770.700195
 11
-5799.899414
 20
2310.600342
 21
2316.949463
  0
LINE
  8
LAYER01
 10
-5799.899414
 11
-5820.25
 20
2316.949463
 21
2339.849854
  0
LINE
  8
LAYER01
 10
-5820.25
 11
-5821.5
 20
2339.849854
 21
2367.799316
  0
LINE
  8
LAYER01
 10
-5821.5
 11
-5810.100586
 20
2367.799316
 21
2394.450439
  0
LINE
  8
LAYER01
 10
-5810.100586
 11
-5766.90039
 20
2394.450439
 21
2438.949707
  0
LINE
  8
LAYER01
 10
-5766.90039
 11
-5721.15039
 20
2438.949707
 21
2458.000244
  0
LINE
  8
LAYER01
 10
-5721.15039
 11
-5676.700195
 20
2458.000244
 21
2455.448975
  0
LINE
  8
LAYER01
 10
-5676.700195
 11
-5653.799804
 20
2455.448975
 21
2430.049072
  0
LINE
  8
LAYER01
 10
-5653.799804
 11
-5653.799804
 20
2430.049072
 21
2398.249756
  0
LINE
  8
LAYER01
 10
-5653.799804
 11
-5670.349609
 20
2398.249756
 21
2366.499268
  0
LINE
  8
LAYER01
 10
-5670.349609
 11
-5693.199218
 20
2366.499268
 21
2341.099609
  0
LINE
  8
LAYER01
 10
-5693.199218
 11
-5700.799804
 20
2341.099609
 21
2334.750488
  0
LINE
  8
LAYER01
 10
-5700.799804
 11
-5709.700195
 20
2334.750488
 21
2328.399658
  0
LINE
  8
LAYER01
 10
-5709.700195
 11
-5738.950195
 20
2328.399658
 21
2315.699707
  0
LINE
  8
LAYER01
 10
-5738.950195
 11
-5770.700195
 20
2315.699707
 21
2310.600342
  0
LINE
  8
LAYER01
 10
-5770.700195
 11
-5799.899414
 20
2310.600342
 21
2316.949463
  0
LINE
  8
LAYER01
 10
-5799.899414
 11
-5820.25
 20
2316.949463
 21
2339.849854
  0
LINE
  8
LAYER01
 10
-5820.25
 11
-5821.5
 20
2339.849854
 21
2367.799316
  0
LINE
  8
LAYER01
 10
-5821.5
 11
-5810.100586
 20
2367.799316
 21
2394.450439
  0
LINE
  8
LAYER01
 10
-5810.100586
 11
-5766.90039
 20
2394.450439
 21
2438.949707
  0
LINE
  8
LAYER01
 10
-5766.90039
 11
-5721.15039
 20
2438.949707
 21
2458.000244
  0
LINE
  8
LAYER01
 10
-5721.15039
 11
-5676.700195
 20
2458.000244
 21
2455.448975
  0
LINE
  8
LAYER01
 10
-5676.700195
 11
-5653.799804
 20
2455.448975
 21
2430.049072
  0
LINE
  8
LAYER01
 10
-5653.799804
 11
-5653.799804
 20
2430.049072
 21
2398.249756
  0
LINE
  8
LAYER01
 10
-5653.799804
 11
-5670.349609
 20
2398.249756
 21
2366.499268
  0
LINE
  8
LAYER01
 10
-5670.349609
 11
-5693.199218
 20
2366.499268
 21
2341.099609
  0
LINE
  8
LAYER01
 10
-5693.199218
 11
-5700.799804
 20
2341.099609
 21
2334.750488
  0
LINE
  8
LAYER01
 10
-5700.799804
 11
-5709.700195
 20
2334.750488
 21
2328.399658
  0
LINE
  8
LAYER01
 10
-4970.300781
 11
-5112.599609
 20
2188.650391
 21
2194.999756
  0
LINE
  8
LAYER01
 10
-5112.599609
 11
-5256.149414
 20
2194.999756
 21
2188.648926
  0
LINE
  8
LAYER01
 10
-5256.149414
 11
-5268.849609
 20
2188.648926
 21
2196.249512
  0
LINE
  8
LAYER01
 10
-5268.849609
 11
-5268.849609
 20
2196.249512
 21
2210.249268
  0
LINE
  8
LAYER01
 10
-5268.849609
 11
-5256.149414
 20
2210.249268
 21
2217.849609
  0
LINE
  8
LAYER01
 10
-5256.149414
 11
-5112.599609
 20
2217.849609
 21
2224.200439
  0
LINE
  8
LAYER01
 10
-5112.599609
 11
-4970.300781
 20
2224.200439
 21
2217.849609
  0
LINE
  8
LAYER01
 10
-4970.300781
 11
-4956.299804
 20
2217.849609
 21
2210.250977
  0
LINE
  8
LAYER01
 10
-4956.299804
 11
-4956.299804
 20
2210.250977
 21
2196.250977
  0
LINE
  8
LAYER01
 10
-4956.299804
 11
-4970.300781
 20
2196.250977
 21
2188.650391
  0
LINE
  8
LAYER01
 10
-5118.950195
 11
-5079.550781
 20
2357.600342
 21
2346.200684
  0
LINE
  8
LAYER01
 10
-5079.550781
 11
-5068.100586
 20
2346.200684
 21
2334.750488
  0
LINE
  8
LAYER01
 10
-5068.100586
 11
-5063.049804
 20
2334.750488
 21
2319.500732
  0
LINE
  8
LAYER01
 10
-5063.049804
 11
-5068.100586
 20
2319.500732
 21
2304.249512
  0
LINE
  8
LAYER01
 10
-5068.100586
 11
-5079.550781
 20
2304.249512
 21
2291.549805
  0
LINE
  8
LAYER01
 10
-5079.550781
 11
-5118.950195
 20
2291.549805
 21
2280.099609
  0
LINE
  8
LAYER01
 10
-5118.950195
 11
-5159.599609
 20
2280.099609
 21
2291.549805
  0
LINE
  8
LAYER01
 10
-5159.599609
 11
-5170.999023
 20
2291.549805
 21
2304.249512
  0
LINE
  8
LAYER01
 10
-5170.999023
 11
-5176.100586
 20
2304.249512
 21
2319.499268
  0
LINE
  8
LAYER01
 10
-5176.100586
 11
-5170.999023
 20
2319.499268
 21
2334.750488
  0
LINE
  8
LAYER01
 10
-5170.999023
 11
-5159.599609
 20
2334.750488
 21
2346.198975
  0
LINE
  8
LAYER01
 10
-5159.599609
 11
-5118.950195
 20
2346.198975
 21
2357.600342
  0
LINE
  8
LAYER01
 10
-5118.950195
 11
-5082.100586
 20
2355.099609
 21
2343.650879
  0
LINE
  8
LAYER01
 10
-5082.100586
 11
-5070.649414
 20
2343.650879
 21
2332.200684
  0
LINE
  8
LAYER01
 10
-5070.649414
 11
-5066.848633
 20
2332.200684
 21
2318.249512
  0
LINE
  8
LAYER01
 10
-5066.848633
 11
-5070.649414
 20
2318.249512
 21
2304.249512
  0
LINE
  8
LAYER01
 10
-5070.649414
 11
-5082.100586
 20
2304.249512
 21
2292.800781
  0
LINE
  8
LAYER01
 10
-5082.100586
 11
-5118.950195
 20
2292.800781
 21
2282.64917
  0
LINE
  8
LAYER01
 10
-5118.950195
 11
-5157.049804
 20
2282.64917
 21
2292.799316
  0
LINE
  8
LAYER01
 10
-5157.049804
 11
-5168.5
 20
2292.799316
 21
2304.249512
  0
LINE
  8
LAYER01
 10
-5168.5
 11
-5172.299804
 20
2304.249512
 21
2318.249512
  0
LINE
  8
LAYER01
 10
-5172.299804
 11
-5168.5
 20
2318.249512
 21
2332.199219
  0
LINE
  8
LAYER01
 10
-5168.5
 11
-5157.049804
 20
2332.199219
 21
2343.649414
  0
LINE
  8
LAYER01
 10
-5157.049804
 11
-5118.950195
 20
2343.649414
 21
2355.099609
  0
LINE
  8
LAYER01
 10
-5115.100586
 11
-5126.550781
 20
2318.249512
 21
2318.249512
  0
LINE
  8
LAYER01
 10
-5126.550781
 11
-5141.799804
 20
2318.249512
 21
2292.799316
  0
LINE
  8
LAYER01
 10
-5141.799804
 11
-5153.250976
 20
2292.799316
 21
2300.450195
  0
LINE
  8
LAYER01
 10
-5153.250976
 11
-5134.149414
 20
2300.450195
 21
2333.499023
  0
LINE
  8
LAYER01
 10
-5134.149414
 11
-5126.550781
 20
2333.499023
 21
2320.750488
  0
LINE
  8
LAYER01
 10
-5126.550781
 11
-5115.100586
 20
2320.750488
 21
2320.750488
  0
LINE
  8
LAYER01
 10
-5115.100586
 11
-5106.200195
 20
2320.750488
 21
2333.500732
  0
LINE
  8
LAYER01
 10
-5106.200195
 11
-5085.899414
 20
2333.500732
 21
2300.450195
  0
LINE
  8
LAYER01
 10
-5085.899414
 11
-5098.599609
 20
2300.450195
 21
2292.800781
  0
LINE
  8
LAYER01
 10
-5098.599609
 11
-5115.100586
 20
2292.800781
 21
2318.249512
  0
LINE
  8
LAYER01
 10
-5120.200195
 11
-5110.049804
 20
2310.600342
 21
2290.300049
  0
LINE
  8
LAYER01
 10
-5110.049804
 11
-5132.899414
 20
2290.300049
 21
2290.300049
  0
LINE
  8
LAYER01
 10
-5132.899414
 11
-5120.200195
 20
2290.300049
 21
2310.600342
  0
LINE
  8
LAYER01
 10
-5102.40039
 11
-5082.100586
 20
2346.200684
 21
2330.950928
  0
LINE
  8
LAYER01
 10
-5082.100586
 11
-5079.550781
 20
2330.950928
 21
2310.600342
  0
LINE
  8
LAYER01
 10
-5079.550781
 11
-5102.40039
 20
2310.600342
 21
2346.200684
  0
LINE
  8
LAYER01
 10
-5131.65039
 11
-5108.75
 20
2348.699951
 21
2347.450195
  0
LINE
  8
LAYER01
 10
-5108.75
 11
-5120.200195
 20
2347.450195
 21
2328.399658
  0
LINE
  8
LAYER01
 10
-5120.200195
 11
-5131.65039
 20
2328.399658
 21
2348.699951
  0
LINE
  8
LAYER01
 10
-5138.000976
 11
-5159.599609
 20
2346.198975
 21
2308.049072
  0
LINE
  8
LAYER01
 10
-5159.599609
 11
-5159.599609
 20
2308.049072
 21
2329.649414
  0
LINE
  8
LAYER01
 10
-5159.599609
 11
-5138.000976
 20
2329.649414
 21
2346.198975
  0
LINE
  8
LAYER01
 10
-5658.899414
 11
-5815.149414
 20
2440.199219
 21
2329.649414
  0
LINE
  8
LAYER01
 10
-5120.200195
 11
-5141.799804
 20
-1167.950439
 21
-1162.899902
  0
LINE
  8
LAYER01
 10
-5141.799804
 11
-5159.599609
 20
-1162.899902
 21
-1151.451172
  0
LINE
  8
LAYER01
 10
-5159.599609
 11
-5172.299804
 20
-1151.451172
 21
-1133.650146
  0
LINE
  8
LAYER01
 10
-5172.299804
 11
-5176.100586
 20
-1133.650146
 21
-1110.800293
  0
LINE
  8
LAYER01
 10
-5176.100586
 11
-5172.299804
 20
-1110.800293
 21
-1089.199707
  0
LINE
  8
LAYER01
 10
-5172.299804
 11
-5159.599609
 20
-1089.199707
 21
-1071.400391
  0
LINE
  8
LAYER01
 10
-5159.599609
 11
-5141.799804
 20
-1071.400391
 21
-1060.000488
  0
LINE
  8
LAYER01
 10
-5141.799804
 11
-5120.200195
 20
-1060.000488
 21
-1054.899658
  0
LINE
  8
LAYER01
 10
-5120.200195
 11
-5098.599609
 20
-1054.899658
 21
-1059.999023
  0
LINE
  8
LAYER01
 10
-5098.599609
 11
-5080.799804
 20
-1059.999023
 21
-1071.400391
  0
LINE
  8
LAYER01
 10
-5080.799804
 11
-5068.100586
 20
-1071.400391
 21
-1089.199707
  0
LINE
  8
LAYER01
 10
-5068.100586
 11
-5064.300781
 20
-1089.199707
 21
-1110.800293
  0
LINE
  8
LAYER01
 10
-5064.300781
 11
-5068.100586
 20
-1110.800293
 21
-1133.650146
  0
LINE
  8
LAYER01
 10
-5068.100586
 11
-5080.799804
 20
-1133.650146
 21
-1151.449707
  0
LINE
  8
LAYER01
 10
-5080.799804
 11
-5098.599609
 20
-1151.449707
 21
-1162.899902
  0
LINE
  8
LAYER01
 10
-5098.599609
 11
-5120.200195
 20
-1162.899902
 21
-1167.950439
  0
LINE
  8
LAYER01
 10
-5120.200195
 11
-5140.550781
 20
-1162.899902
 21
-1159.100342
  0
LINE
  8
LAYER01
 10
-5140.550781
 11
-5157.049804
 20
-1159.100342
 21
-1147.650146
  0
LINE
  8
LAYER01
 10
-5157.049804
 11
-5168.5
 20
-1147.650146
 21
-1131.150879
  0
LINE
  8
LAYER01
 10
-5168.5
 11
-5172.299804
 20
-1131.150879
 21
-1110.800293
  0
LINE
  8
LAYER01
 10
-5172.299804
 11
-5168.5
 20
-1110.800293
 21
-1090.451172
  0
LINE
  8
LAYER01
 10
-5168.5
 11
-5157.049804
 20
-1090.451172
 21
-1073.950195
  0
LINE
  8
LAYER01
 10
-5157.049804
 11
-5140.550781
 20
-1073.950195
 21
-1062.5
  0
LINE
  8
LAYER01
 10
-5140.550781
 11
-5120.200195
 20
-1062.5
 21
-1058.698975
  0
LINE
  8
LAYER01
 10
-5120.200195
 11
-5099.850586
 20
-1058.698975
 21
-1062.5
  0
LINE
  8
LAYER01
 10
-5099.850586
 11
-5083.349609
 20
-1062.5
 21
-1073.950195
  0
LINE
  8
LAYER01
 10
-5083.349609
 11
-5071.899414
 20
-1073.950195
 21
-1090.449463
  0
LINE
  8
LAYER01
 10
-5071.899414
 11
-5068.100586
 20
-1090.449463
 21
-1110.800293
  0
LINE
  8
LAYER01
 10
-5068.100586
 11
-5071.899414
 20
-1110.800293
 21
-1131.149414
  0
LINE
  8
LAYER01
 10
-5071.899414
 11
-5083.349609
 20
-1131.149414
 21
-1147.650146
  0
LINE
  8
LAYER01
 10
-5083.349609
 11
-5099.850586
 20
-1147.650146
 21
-1159.100342
  0
LINE
  8
LAYER01
 10
-5099.850586
 11
-5120.200195
 20
-1159.100342
 21
-1162.899902
  0
LINE
  8
LAYER01
 10
-5125.299804
 11
-5113.848633
 20
-1110.800293
 21
-1110.800293
  0
LINE
  8
LAYER01
 10
-5113.848633
 11
-5098.599609
 20
-1110.800293
 21
-1075.199951
  0
LINE
  8
LAYER01
 10
-5098.599609
 11
-5085.899414
 20
-1075.199951
 21
-1084.100342
  0
LINE
  8
LAYER01
 10
-5085.899414
 11
-5106.200195
 20
-1084.100342
 21
-1132.400391
  0
LINE
  8
LAYER01
 10
-5106.200195
 11
-5113.848633
 20
-1132.400391
 21
-1113.349854
  0
LINE
  8
LAYER01
 10
-5113.848633
 11
-5125.299804
 20
-1113.349854
 21
-1113.349854
  0
LINE
  8
LAYER01
 10
-5125.299804
 11
-5134.149414
 20
-1113.349854
 21
-1132.400391
  0
LINE
  8
LAYER01
 10
-5134.149414
 11
-5153.250976
 20
-1132.400391
 21
-1085.400391
  0
LINE
  8
LAYER01
 10
-5153.250976
 11
-5140.550781
 20
-1085.400391
 21
-1075.199951
  0
LINE
  8
LAYER01
 10
-5140.550781
 11
-5125.299804
 20
-1075.199951
 21
-1110.800293
  0
LINE
  8
LAYER01
 10
-5118.950195
 11
-5130.350586
 20
-1098.100342
 21
-1070.150879
  0
LINE
  8
LAYER01
 10
-5130.350586
 11
-5107.5
 20
-1070.150879
 21
-1071.400391
  0
LINE
  8
LAYER01
 10
-5107.5
 11
-5118.950195
 20
-1071.400391
 21
-1098.100342
  0
LINE
  8
LAYER01
 10
-5138.000976
 11
-5158.299804
 20
-1150.199951
 21
-1129.85083
  0
LINE
  8
LAYER01
 10
-5158.299804
 11
-5160.849609
 20
-1129.85083
 21
-1098.100342
  0
LINE
  8
LAYER01
 10
-5160.849609
 11
-5138.000976
 20
-1098.100342
 21
-1150.199951
  0
LINE
  8
LAYER01
 10
-5108.75
 11
-5131.65039
 20
-1153.999268
 21
-1152.751221
  0
LINE
  8
LAYER01
 10
-5131.65039
 11
-5118.950195
 20
-1152.751221
 21
-1126.049805
  0
LINE
  8
LAYER01
 10
-5118.950195
 11
-5108.75
 20
-1126.049805
 21
-1153.999268
  0
LINE
  8
LAYER01
 10
-5102.40039
 11
-5079.550781
 20
-1150.199951
 21
-1095.549072
  0
LINE
  8
LAYER01
 10
-5079.550781
 11
-5079.550781
 20
-1095.549072
 21
-1128.599609
  0
LINE
  8
LAYER01
 10
-5079.550781
 11
-5102.40039
 20
-1128.599609
 21
-1150.199951
  0
LINE
  8
LAYER01
 10
-4488.75
 11
-4605.649414
 20
-380.249023
 21
206.649902
  0
LINE
  8
LAYER01
 10
-4605.649414
 11
-4712.350586
 20
206.649902
 21
182.499756
  0
LINE
  8
LAYER01
 10
-4712.350586
 11
-4838.15039
 20
182.499756
 21
164.750732
  0
LINE
  8
LAYER01
 10
-4838.15039
 11
-5118.950195
 20
164.750732
 21
150.749268
  0
LINE
  8
LAYER01
 10
-5118.950195
 11
-5399.700195
 20
150.749268
 21
164.749023
  0
LINE
  8
LAYER01
 10
-5399.700195
 11
-5525.500976
 20
164.749023
 21
181.25
  0
LINE
  8
LAYER01
 10
-5525.500976
 11
-5632.199218
 20
181.25
 21
205.400146
  0
LINE
  8
LAYER01
 10
-5632.199218
 11
-5749.100586
 20
205.400146
 21
-380.250488
  0
LINE
  8
LAYER01
 10
-5749.100586
 11
-5591.549804
 20
-380.250488
 21
-453.950439
  0
LINE
  8
LAYER01
 10
-5591.549804
 11
-5435.299804
 20
-453.950439
 21
-507.299805
  0
LINE
  8
LAYER01
 10
-5435.299804
 11
-5277.75
 20
-507.299805
 21
-537.800537
  0
LINE
  8
LAYER01
 10
-5277.75
 11
-5118.950195
 20
-537.800537
 21
-549.250732
  0
LINE
  8
LAYER01
 10
-5118.950195
 11
-4961.40039
 20
-549.250732
 21
-537.799072
  0
LINE
  8
LAYER01
 10
-4961.40039
 11
-4802.549804
 20
-537.799072
 21
-506.050049
  0
LINE
  8
LAYER01
 10
-4802.549804
 11
-4645.049804
 20
-506.050049
 21
-453.948975
  0
LINE
  8
LAYER01
 10
-4645.049804
 11
-4488.75
 20
-453.948975
 21
-380.249023
  0
LINE
  8
LAYER01
 10
-4617.098633
 11
-4759.399414
 20
187.600586
 21
158.399902
  0
LINE
  8
LAYER01
 10
-4759.399414
 11
-4904.200195
 20
158.399902
 21
143.150391
  0
LINE
  8
LAYER01
 10
-4904.200195
 11
-5082.100586
 20
143.150391
 21
136.799561
  0
LINE
  8
LAYER01
 10
-5082.100586
 11
-5259.949218
 20
136.799561
 21
139.299072
  0
LINE
  8
LAYER01
 10
-5259.949218
 11
-5436.549804
 20
139.299072
 21
153.298828
  0
LINE
  8
LAYER01
 10
-5436.549804
 11
-5611.899414
 20
153.298828
 21
183.799805
  0
LINE
  8
LAYER01
 10
-5611.899414
 11
-5620.799804
 20
183.799805
 21
186.349609
  0
LINE
  8
LAYER01
 10
-5620.799804
 11
-5731.299804
 20
186.349609
 21
-372.650146
  0
LINE
  8
LAYER01
 10
-5731.299804
 11
-5624.600586
 20
-372.650146
 21
-423.449707
  0
LINE
  8
LAYER01
 10
-5624.600586
 11
-5501.348633
 20
-423.449707
 21
-469.200195
  0
LINE
  8
LAYER01
 10
-5501.348633
 11
-5376.849609
 20
-469.200195
 21
-503.500488
  0
LINE
  8
LAYER01
 10
-5376.849609
 11
-5249.799804
 20
-503.500488
 21
-525.100586
  0
LINE
  8
LAYER01
 10
-5249.799804
 11
-5118.950195
 20
-525.100586
 21
-534.001221
  0
LINE
  8
LAYER01
 10
-5118.950195
 11
-5008.40039
 20
-534.001221
 21
-527.650391
  0
LINE
  8
LAYER01
 10
-5008.40039
 11
-4901.649414
 20
-527.650391
 21
-512.399414
  0
LINE
  8
LAYER01
 10
-4901.649414
 11
-4794.950195
 20
-512.399414
 21
-488.249268
  0
LINE
  8
LAYER01
 10
-4794.950195
 11
-4689.499023
 20
-488.249268
 21
-455.200195
  0
LINE
  8
LAYER01
 10
-4689.499023
 11
-4506.549804
 20
-455.200195
 21
-371.350098
  0
LINE
  8
LAYER01
 10
-4506.549804
 11
-4617.098633
 20
-371.350098
 21
187.600586
  0
LINE
  8
LAYER01
 10
-5693.199218
 11
-5661.450195
 20
-1057.450928
 21
-1090.451172
  0
LINE
  8
LAYER01
 10
-5661.450195
 11
-5643.649414
 20
-1090.451172
 21
-1129.85083
  0
LINE
  8
LAYER01
 10
-5643.649414
 11
-5642.349609
 20
-1129.85083
 21
-1170.500244
  0
LINE
  8
LAYER01
 10
-5642.349609
 11
-5657.599609
 20
-1170.500244
 21
-1208.650146
  0
LINE
  8
LAYER01
 10
-5657.599609
 11
-5688.100586
 20
-1208.650146
 21
-1236.599609
  0
LINE
  8
LAYER01
 10
-5688.100586
 11
-5727.5
 20
-1236.599609
 21
-1248.000977
  0
LINE
  8
LAYER01
 10
-5727.5
 11
-5770.700195
 20
-1248.000977
 21
-1245.449707
  0
LINE
  8
LAYER01
 10
-5770.700195
 11
-5811.349609
 20
-1245.449707
 21
-1226.400879
  0
LINE
  8
LAYER01
 10
-5811.349609
 11
-5844.40039
 20
-1226.400879
 21
-1193.400635
  0
LINE
  8
LAYER01
 10
-5844.40039
 11
-5860.899414
 20
-1193.400635
 21
-1155.250488
  0
LINE
  8
LAYER01
 10
-5860.899414
 11
-5862.15039
 20
-1155.250488
 21
-1113.349854
  0
LINE
  8
LAYER01
 10
-5862.15039
 11
-5846.950195
 20
-1113.349854
 21
-1075.199951
  0
LINE
  8
LAYER01
 10
-5846.950195
 11
-5816.450195
 20
-1075.199951
 21
-1048.550293
  0
LINE
  8
LAYER01
 10
-5816.450195
 11
-5777.049804
 20
-1048.550293
 21
-1035.850586
  0
LINE
  8
LAYER01
 10
-5777.049804
 11
-5735.100586
 20
-1035.850586
 21
-1038.400391
  0
LINE
  8
LAYER01
 10
-5735.100586
 11
-5693.199218
 20
-1038.400391
 21
-1057.450928
  0
LINE
  8
LAYER01
 10
-5953.65039
 11
-5924.449218
 20
-84.25
 21
-198.60083
  0
LINE
  8
LAYER01
 10
-5924.449218
 11
-5905.350586
 20
-198.60083
 21
-349.749756
  0
LINE
  8
LAYER01
 10
-5905.350586
 11
-5885.049804
 20
-349.749756
 21
-734.750488
  0
LINE
  8
LAYER01
 10
-5885.049804
 11
-5882.5
 20
-734.750488
 21
-925.300537
  0
LINE
  8
LAYER01
 10
-5882.5
 11
-5891.40039
 20
-925.300537
 21
-976.150391
  0
LINE
  8
LAYER01
 10
-5891.40039
 11
-5909.200195
 20
-976.150391
 21
-1028.199707
  0
LINE
  8
LAYER01
 10
-5909.200195
 11
-5918.049804
 20
-1028.199707
 21
-1091.750977
  0
LINE
  8
LAYER01
 10
-5918.049804
 11
-5905.350586
 20
-1091.750977
 21
-1157.800293
  0
LINE
  8
LAYER01
 10
-5905.350586
 11
-5877.40039
 20
-1157.800293
 21
-1223.851074
  0
LINE
  8
LAYER01
 10
-5877.40039
 11
-5841.849609
 20
-1223.851074
 21
-1288.650391
  0
LINE
  8
LAYER01
 10
-5933.299804
 11
-5883.75
 20
-883.399902
 21
-943.100098
  0
LINE
  8
LAYER01
 10
-5883.75
 11
-5848.200195
 20
-943.100098
 21
-1076.5
  0
LINE
  8
LAYER01
 10
-5915.550781
 11
-5881.25
 20
1365.350342
 21
1413.648926
  0
LINE
  8
LAYER01
 10
-5881.25
 11
-5855.799804
 20
1413.648926
 21
1477.149902
  0
LINE
  8
LAYER01
 10
-5855.799804
 11
-5836.749023
 20
1477.149902
 21
1552.099609
  0
LINE
  8
LAYER01
 10
-5836.749023
 11
-5825.349609
 20
1552.099609
 21
1635.949707
  0
LINE
  8
LAYER01
 10
-5825.349609
 11
-5815.149414
 20
1635.949707
 21
1816.400146
  0
LINE
  8
LAYER01
 10
-5815.149414
 11
-5815.149414
 20
1816.400146
 21
1996.800293
  0
LINE
  8
LAYER01
 10
-5815.149414
 11
-5802.450195
 20
1996.800293
 21
2080.650391
  0
LINE
  8
LAYER01
 10
-5802.450195
 11
-5784.649414
 20
2080.650391
 21
2135.299805
  0
LINE
  8
LAYER01
 10
-5784.649414
 11
-5760.549804
 20
2135.299805
 21
2184.849609
  0
LINE
  8
LAYER01
 10
-5760.549804
 11
-5694.450195
 20
2184.849609
 21
2271.198975
  0
LINE
  8
LAYER01
 10
-5694.450195
 11
-5615.700195
 20
2271.198975
 21
2346.198975
  0
LINE
  8
LAYER01
 10
-5615.700195
 11
-5539.450195
 20
2346.198975
 21
2402.099609
  0
LINE
  8
LAYER01
 10
-5539.450195
 11
-5481.0
 20
2402.099609
 21
2435.099854
  0
LINE
  8
LAYER01
 10
-5481.0
 11
-5388.249023
 20
2435.099854
 21
2466.89917
  0
LINE
  8
LAYER01
 10
-5388.249023
 11
-5300.600586
 20
2466.89917
 21
2485.949707
  0
LINE
  8
LAYER01
 10
-5300.600586
 11
-5211.700195
 20
2485.949707
 21
2494.850098
  0
LINE
  8
LAYER01
 10
-5211.700195
 11
-5116.40039
 20
2494.850098
 21
2494.850098
  0
LINE
  8
LAYER01
 10
-5954.899414
 11
-5918.049804
 20
1454.299805
 21
1516.549805
  0
LINE
  8
LAYER01
 10
-5918.049804
 11
-5893.950195
 20
1516.549805
 21
1585.150146
  0
LINE
  8
LAYER01
 10
-5893.950195
 11
-5881.25
 20
1585.150146
 21
1680.448975
  0
LINE
  8
LAYER01
 10
-5881.25
 11
-5881.25
 20
1680.448975
 21
1817.649902
  0
LINE
  8
LAYER01
 10
-5881.25
 11
-5882.5
 20
1817.649902
 21
1982.800293
  0
LINE
  8
LAYER01
 10
-5882.5
 11
-5877.40039
 20
1982.800293
 21
2131.449951
  0
LINE
  8
LAYER01
 10
-5877.40039
 11
-5866.0
 20
2131.449951
 21
2263.600098
  0
LINE
  8
LAYER01
 10
-5866.0
 11
-5848.200195
 20
2263.600098
 21
2377.949463
  0
LINE
  8
LAYER01
 10
-5848.200195
 11
-5835.5
 20
2377.949463
 21
2418.598877
  0
LINE
  8
LAYER01
 10
-5835.5
 11
-5817.700195
 20
2418.598877
 21
2449.099609
  0
LINE
  8
LAYER01
 10
-5817.700195
 11
-5792.299804
 20
2449.099609
 21
2473.249756
  0
LINE
  8
LAYER01
 10
-5792.299804
 11
-5763.049804
 20
2473.249756
 21
2491.000488
  0
LINE
  8
LAYER01
 10
-5846.950195
 11
-5925.700195
 20
2390.649414
 21
2186.099121
  0
LINE
  8
LAYER01
 10
-5925.700195
 11
-5965.100586
 20
2186.099121
 21
2175.949219
  0
LINE
  8
LAYER01
 10
-5670.349609
 11
-5770.700195
 20
2071.75
 21
2151.799072
  0
LINE
  8
LAYER01
 10
-5141.799804
 11
-5056.649414
 20
-1298.851074
 21
-1293.75
  0
LINE
  8
LAYER01
 10
-5056.649414
 11
-4975.349609
 20
-1293.75
 21
-1281.050049
  0
LINE
  8
LAYER01
 10
-4975.349609
 11
-4899.15039
 20
-1281.050049
 21
-1261.999512
  0
LINE
  8
LAYER01
 10
-4899.15039
 11
-4828.0
 20
-1261.999512
 21
-1234.050049
  0
LINE
  8
LAYER01
 10
-4828.0
 11
-4763.199218
 20
-1234.050049
 21
-1198.449707
  0
LINE
  8
LAYER01
 10
-4763.199218
 11
-4707.299804
 20
-1198.449707
 21
-1156.549072
  0
LINE
  8
LAYER01
 10
-4707.299804
 11
-4660.299804
 20
-1156.549072
 21
-1105.699219
  0
LINE
  8
LAYER01
 10
-4660.299804
 11
-4624.700195
 20
-1105.699219
 21
-1047.250488
  0
LINE
  8
LAYER01
 10
-4624.700195
 11
-4589.149414
 20
-1047.250488
 21
-967.25
  0
LINE
  8
LAYER01
 10
-4589.149414
 11
-4559.90039
 20
-967.25
 21
-884.649658
  0
LINE
  8
LAYER01
 10
-4559.90039
 11
-4515.450195
 20
-884.649658
 21
-710.600342
  0
LINE
  8
LAYER01
 10
-4515.450195
 11
-4493.849609
 20
-710.600342
 21
-537.799072
  0
LINE
  8
LAYER01
 10
-4493.849609
 11
-4496.399414
 20
-537.799072
 21
-377.699219
  0
LINE
  8
LAYER01
 10
-4496.399414
 11
-4406.200195
 20
-377.699219
 21
-462.849365
  0
LINE
  8
LAYER01
 10
-4290.550781
 11
-4296.899414
 20
1453.0
 21
1400.950684
  0
LINE
  8
LAYER01
 10
-4296.899414
 11
-4304.549804
 20
1400.950684
 21
1381.849609
  0
LINE
  8
LAYER01
 10
-4304.549804
 11
-4326.151367
 20
1381.849609
 21
1364.100586
  0
LINE
  8
LAYER01
 10
-4326.151367
 11
-4331.200195
 20
1364.100586
 21
-46.150146
  0
LINE
  8
LAYER01
 10
-4331.200195
 11
-4364.250976
 20
-46.150146
 21
-171.899414
  0
LINE
  8
LAYER01
 10
-4364.250976
 11
-4385.848633
 20
-171.899414
 21
-315.449463
  0
LINE
  8
LAYER01
 10
-4385.848633
 11
-4422.699218
 20
-315.449463
 21
-620.399414
  0
LINE
  8
LAYER01
 10
-4422.699218
 11
-4450.65039
 20
-620.399414
 21
-766.499268
  0
LINE
  8
LAYER01
 10
-4450.65039
 11
-4469.699218
 20
-766.499268
 21
-833.850098
  0
LINE
  8
LAYER01
 10
-4469.699218
 11
-4493.849609
 20
-833.850098
 21
-897.349609
  0
LINE
  8
LAYER01
 10
-4493.849609
 11
-4523.049804
 20
-897.349609
 21
-954.550293
  0
LINE
  8
LAYER01
 10
-4523.049804
 11
-4558.65039
 20
-954.550293
 21
-1006.599365
  0
LINE
  8
LAYER01
 10
-4558.65039
 11
-4600.549804
 20
-1006.599365
 21
-1049.800049
  0
LINE
  8
LAYER01
 10
-4600.549804
 11
-4651.399414
 20
-1049.800049
 21
-1085.400391
  0
LINE
  8
LAYER01
 10
-4613.249023
 11
-4643.750976
 20
215.550293
 21
516.650391
  0
LINE
  8
LAYER01
 10
-4643.750976
 11
-4659.0
 20
516.650391
 21
811.399902
  0
LINE
  8
LAYER01
 10
-4659.0
 11
-4655.200195
 20
811.399902
 21
1125.250244
  0
LINE
  8
LAYER01
 10
-4655.200195
 11
-4629.800781
 20
1125.250244
 21
1479.699707
  0
LINE
  8
LAYER01
 10
-4426.5
 11
-4425.250976
 20
-259.550537
 21
240.949951
  0
LINE
  8
LAYER01
 10
-4425.250976
 11
-4432.849609
 20
240.949951
 21
741.549805
  0
LINE
  8
LAYER01
 10
-4432.849609
 11
-4453.200195
 20
741.549805
 21
1243.400635
  0
LINE
  8
LAYER01
 10
-4453.200195
 11
-4481.149414
 20
1243.400635
 21
1745.25
  0
LINE
  8
LAYER01
 10
-4481.149414
 11
-4487.500976
 20
1745.25
 21
1769.349609
  0
LINE
  8
LAYER01
 10
-4487.500976
 11
-4492.549804
 20
1769.349609
 21
1770.649658
  0
LINE
  8
LAYER01
 10
-4492.549804
 11
-4496.399414
 20
1770.649658
 21
1763.000488
  0
LINE
  8
LAYER01
 10
-4496.399414
 11
-4531.949218
 20
1763.000488
 21
1623.249756
  0
LINE
  8
LAYER01
 10
-4531.949218
 11
-4562.450195
 20
1623.249756
 21
1466.999756
  0
LINE
  8
LAYER01
 10
-4562.450195
 11
-4587.849609
 20
1466.999756
 21
1291.650391
  0
LINE
  8
LAYER01
 10
-4587.849609
 11
-4604.401367
 20
1291.650391
 21
1099.800049
  0
LINE
  8
LAYER01
 10
-4604.401367
 11
-4610.75
 20
1099.800049
 21
894.000244
  0
LINE
  8
LAYER01
 10
-4610.75
 11
-4608.200195
 20
894.000244
 21
686.900391
  0
LINE
  8
LAYER01
 10
-4608.200195
 11
-4595.500976
 20
686.900391
 21
479.800293
  0
LINE
  8
LAYER01
 10
-4595.500976
 11
-4572.600586
 20
479.800293
 21
274.000488
  0
LINE
  8
LAYER01
 10
-4572.600586
 11
-4548.450195
 20
274.000488
 21
124.099609
  0
LINE
  8
LAYER01
 10
-4548.450195
 11
-4516.700195
 20
124.099609
 21
-16.949463
  0
LINE
  8
LAYER01
 10
-4516.700195
 11
-4445.550781
 20
-16.949463
 21
-277.349854
  0
LINE
  8
LAYER01
 10
-4445.550781
 11
-4439.200195
 20
-277.349854
 21
-296.400391
  0
LINE
  8
LAYER01
 10
-4439.200195
 11
-4432.849609
 20
-296.400391
 21
-295.14917
  0
LINE
  8
LAYER01
 10
-4432.849609
 11
-4426.5
 20
-295.14917
 21
-259.550537
  0
LINE
  8
LAYER01
 10
-4598.0
 11
-4524.350586
 20
1097.300781
 21
1098.550293
  0
LINE
  8
LAYER01
 10
-4524.350586
 11
-4451.899414
 20
1098.550293
 21
1099.800049
  0
LINE
  8
LAYER01
 10
-4451.899414
 11
-4468.450195
 20
1099.800049
 21
1421.249512
  0
LINE
  8
LAYER01
 10
-4468.450195
 11
-4488.75
 20
1421.249512
 21
1743.949951
  0
LINE
  8
LAYER01
 10
-4488.75
 11
-4488.75
 20
1743.949951
 21
1749.050781
  0
LINE
  8
LAYER01
 10
-4488.75
 11
-4488.75
 20
1749.050781
 21
1751.600586
  0
LINE
  8
LAYER01
 10
-4488.75
 11
-4491.299804
 20
1751.600586
 21
1747.799805
  0
LINE
  8
LAYER01
 10
-4491.299804
 11
-4525.600586
 20
1747.799805
 21
1610.549805
  0
LINE
  8
LAYER01
 10
-4525.600586
 11
-4557.350586
 20
1610.549805
 21
1456.849609
  0
LINE
  8
LAYER01
 10
-4557.350586
 11
-4581.500976
 20
1456.849609
 21
1284.050049
  0
LINE
  8
LAYER01
 10
-4581.500976
 11
-4598.0
 20
1284.050049
 21
1097.300781
  0
LINE
  8
LAYER01
 10
-4445.550781
 11
-4524.350586
 20
937.200928
 21
935.949707
  0
LINE
  8
LAYER01
 10
-4524.350586
 11
-4603.100586
 20
935.949707
 21
934.649658
  0
LINE
  8
LAYER01
 10
-4603.100586
 11
-4601.849609
 20
934.649658
 21
732.650879
  0
LINE
  8
LAYER01
 10
-4601.849609
 11
-4591.651367
 20
732.650879
 21
535.700928
  0
LINE
  8
LAYER01
 10
-4591.651367
 11
-4571.350586
 20
535.700928
 21
319.750977
  0
LINE
  8
LAYER01
 10
-4571.350586
 11
-4537.049804
 20
319.750977
 21
115.200684
  0
LINE
  8
LAYER01
 10
-4537.049804
 11
-4506.549804
 20
115.200684
 21
-24.549805
  0
LINE
  8
LAYER01
 10
-4506.549804
 11
-4472.250976
 20
-24.549805
 21
-155.400146
  0
LINE
  8
LAYER01
 10
-4472.250976
 11
-4432.849609
 20
-155.400146
 21
-154.100098
  0
LINE
  8
LAYER01
 10
-4432.849609
 11
-4432.849609
 20
-154.100098
 21
390.899658
  0
LINE
  8
LAYER01
 10
-4432.849609
 11
-4445.550781
 20
390.899658
 21
937.200928
  0
LINE
  8
LAYER01
 10
-4445.550781
 11
-4451.899414
 20
928.300537
 21
1108.700684
  0
LINE
  8
LAYER01
 10
-4603.100586
 11
-4598.0
 20
934.649658
 21
1097.300781
  0
LINE
  8
LAYER01
 10
-4553.549804
 11
-4514.149414
 20
2322.050537
 21
2301.699707
  0
LINE
  8
LAYER01
 10
-4514.149414
 11
-4476.049804
 20
2301.699707
 21
2295.350586
  0
LINE
  8
LAYER01
 10
-4476.049804
 11
-4442.999023
 20
2295.350586
 21
2301.699707
  0
LINE
  8
LAYER01
 10
-4442.999023
 11
-4417.599609
 20
2301.699707
 21
2320.750488
  0
LINE
  8
LAYER01
 10
-4417.599609
 11
-4407.450195
 20
2320.750488
 21
2350.0
  0
LINE
  8
LAYER01
 10
-4407.450195
 11
-4412.549804
 20
2350.0
 21
2384.300293
  0
LINE
  8
LAYER01
 10
-4412.549804
 11
-4432.849609
 20
2384.300293
 21
2418.600586
  0
LINE
  8
LAYER01
 10
-4432.849609
 11
-4463.350586
 20
2418.600586
 21
2447.799805
  0
LINE
  8
LAYER01
 10
-4463.350586
 11
-4502.75
 20
2447.799805
 21
2468.150391
  0
LINE
  8
LAYER01
 10
-4502.75
 11
-4540.849609
 20
2468.150391
 21
2475.750732
  0
LINE
  8
LAYER01
 10
-4540.849609
 11
-4575.149414
 20
2475.750732
 21
2469.399902
  0
LINE
  8
LAYER01
 10
-4575.149414
 11
-4599.299804
 20
2469.399902
 21
2449.099609
  0
LINE
  8
LAYER01
 10
-4599.299804
 11
-4609.450195
 20
2449.099609
 21
2419.850098
  0
LINE
  8
LAYER01
 10
-4609.450195
 11
-4604.401367
 20
2419.850098
 21
2385.549805
  0
LINE
  8
LAYER01
 10
-4604.401367
 11
-4585.299804
 20
2385.549805
 21
2352.549805
  0
LINE
  8
LAYER01
 10
-4585.299804
 11
-4553.549804
 20
2352.549805
 21
2322.050537
  0
LINE
  8
LAYER01
 10
-4535.75
 11
-4506.549804
 20
2328.399658
 21
2315.699707
  0
LINE
  8
LAYER01
 10
-4506.549804
 11
-4474.799804
 20
2315.699707
 21
2310.600342
  0
LINE
  8
LAYER01
 10
-4474.799804
 11
-4445.550781
 20
2310.600342
 21
2316.949463
  0
LINE
  8
LAYER01
 10
-4445.550781
 11
-4425.250976
 20
2316.949463
 21
2339.849854
  0
LINE
  8
LAYER01
 10
-4425.250976
 11
-4423.950195
 20
2339.849854
 21
2367.800781
  0
LINE
  8
LAYER01
 10
-4423.950195
 11
-4435.401367
 20
2367.800781
 21
2394.450439
  0
LINE
  8
LAYER01
 10
-4435.401367
 11
-4478.599609
 20
2394.450439
 21
2438.949707
  0
LINE
  8
LAYER01
 10
-4478.599609
 11
-4524.350586
 20
2438.949707
 21
2458.000244
  0
LINE
  8
LAYER01
 10
-4524.350586
 11
-4568.799804
 20
2458.000244
 21
2455.450439
  0
LINE
  8
LAYER01
 10
-4568.799804
 11
-4591.651367
 20
2455.450439
 21
2430.050781
  0
LINE
  8
LAYER01
 10
-4591.651367
 11
-4591.651367
 20
2430.050781
 21
2398.249756
  0
LINE
  8
LAYER01
 10
-4591.651367
 11
-4576.450195
 20
2398.249756
 21
2366.500977
  0
LINE
  8
LAYER01
 10
-4576.450195
 11
-4552.299804
 20
2366.500977
 21
2341.099609
  0
LINE
  8
LAYER01
 10
-4552.299804
 11
-4544.65039
 20
2341.099609
 21
2334.750488
  0
LINE
  8
LAYER01
 10
-4544.65039
 11
-4535.75
 20
2334.750488
 21
2328.399658
  0
LINE
  8
LAYER01
 10
-4535.75
 11
-4506.549804
 20
2328.399658
 21
2315.699707
  0
LINE
  8
LAYER01
 10
-4506.549804
 11
-4474.799804
 20
2315.699707
 21
2310.600342
  0
LINE
  8
LAYER01
 10
-4474.799804
 11
-4445.550781
 20
2310.600342
 21
2316.949463
  0
LINE
  8
LAYER01
 10
-4445.550781
 11
-4425.250976
 20
2316.949463
 21
2339.849854
  0
LINE
  8
LAYER01
 10
-4425.250976
 11
-4423.950195
 20
2339.849854
 21
2367.800781
  0
LINE
  8
LAYER01
 10
-4423.950195
 11
-4435.401367
 20
2367.800781
 21
2394.450439
  0
LINE
  8
LAYER01
 10
-4435.401367
 11
-4478.599609
 20
2394.450439
 21
2438.949707
  0
LINE
  8
LAYER01
 10
-4478.599609
 11
-4524.350586
 20
2438.949707
 21
2458.000244
  0
LINE
  8
LAYER01
 10
-4524.350586
 11
-4568.799804
 20
2458.000244
 21
2455.450439
  0
LINE
  8
LAYER01
 10
-4568.799804
 11
-4591.651367
 20
2455.450439
 21
2430.050781
  0
LINE
  8
LAYER01
 10
-4591.651367
 11
-4591.651367
 20
2430.050781
 21
2398.249756
  0
LINE
  8
LAYER01
 10
-4591.651367
 11
-4576.450195
 20
2398.249756
 21
2366.500977
  0
LINE
  8
LAYER01
 10
-4576.450195
 11
-4552.299804
 20
2366.500977
 21
2341.099609
  0
LINE
  8
LAYER01
 10
-4552.299804
 11
-4544.65039
 20
2341.099609
 21
2334.750488
  0
LINE
  8
LAYER01
 10
-4544.65039
 11
-4535.75
 20
2334.750488
 21
2328.399658
  0
LINE
  8
LAYER01
 10
-4586.600586
 11
-4430.299804
 20
2440.200684
 21
2329.650879
  0
LINE
  8
LAYER01
 10
-4552.299804
 11
-4584.049804
 20
-1057.449219
 21
-1090.449463
  0
LINE
  8
LAYER01
 10
-4584.049804
 11
-4601.849609
 20
-1090.449463
 21
-1129.849121
  0
LINE
  8
LAYER01
 10
-4601.849609
 11
-4603.100586
 20
-1129.849121
 21
-1170.500244
  0
LINE
  8
LAYER01
 10
-4603.100586
 11
-4587.849609
 20
-1170.500244
 21
-1208.650146
  0
LINE
  8
LAYER01
 10
-4587.849609
 11
-4557.350586
 20
-1208.650146
 21
-1236.599609
  0
LINE
  8
LAYER01
 10
-4557.350586
 11
-4517.999023
 20
-1236.599609
 21
-1247.999512
  0
LINE
  8
LAYER01
 10
-4517.999023
 11
-4476.049804
 20
-1247.999512
 21
-1245.449707
  0
LINE
  8
LAYER01
 10
-4476.049804
 11
-4434.149414
 20
-1245.449707
 21
-1226.39917
  0
LINE
  8
LAYER01
 10
-4434.149414
 11
-4401.100586
 20
-1226.39917
 21
-1193.398926
  0
LINE
  8
LAYER01
 10
-4401.100586
 11
-4384.599609
 20
-1193.398926
 21
-1155.249023
  0
LINE
  8
LAYER01
 10
-4384.599609
 11
-4383.299804
 20
-1155.249023
 21
-1113.349854
  0
LINE
  8
LAYER01
 10
-4383.299804
 11
-4398.550781
 20
-1113.349854
 21
-1075.199951
  0
LINE
  8
LAYER01
 10
-4398.550781
 11
-4429.049804
 20
-1075.199951
 21
-1048.550293
  0
LINE
  8
LAYER01
 10
-4429.049804
 11
-4468.450195
 20
-1048.550293
 21
-1035.850586
  0
LINE
  8
LAYER01
 10
-4468.450195
 11
-4510.350586
 20
-1035.850586
 21
-1038.400391
  0
LINE
  8
LAYER01
 10
-4510.350586
 11
-4552.299804
 20
-1038.400391
 21
-1057.449219
  0
LINE
  8
LAYER01
 10
-4291.848633
 11
-4321.049804
 20
-84.25
 21
-198.599121
  0
LINE
  8
LAYER01
 10
-4321.049804
 11
-4340.100586
 20
-198.599121
 21
-349.749756
  0
LINE
  8
LAYER01
 10
-4340.100586
 11
-4360.450195
 20
-349.749756
 21
-734.750488
  0
LINE
  8
LAYER01
 10
-4360.450195
 11
-4363.000976
 20
-734.750488
 21
-925.299072
  0
LINE
  8
LAYER01
 10
-4363.000976
 11
-4354.100586
 20
-925.299072
 21
-976.150391
  0
LINE
  8
LAYER01
 10
-4354.100586
 11
-4336.299804
 20
-976.150391
 21
-1028.199707
  0
LINE
  8
LAYER01
 10
-4336.299804
 11
-4327.40039
 20
-1028.199707
 21
-1091.749512
  0
LINE
  8
LAYER01
 10
-4327.40039
 11
-4340.100586
 20
-1091.749512
 21
-1157.800293
  0
LINE
  8
LAYER01
 10
-4340.100586
 11
-4368.049804
 20
-1157.800293
 21
-1223.849609
  0
LINE
  8
LAYER01
 10
-4368.049804
 11
-4403.65039
 20
-1223.849609
 21
-1288.650391
  0
LINE
  8
LAYER01
 10
-4312.149414
 11
-4361.700195
 20
-883.399902
 21
-943.100098
  0
LINE
  8
LAYER01
 10
-4361.700195
 11
-4397.299804
 20
-943.100098
 21
-1076.5
  0
LINE
  8
LAYER01
 10
-4329.950195
 11
-4364.250976
 20
1365.350342
 21
1413.650391
  0
LINE
  8
LAYER01
 10
-4364.250976
 11
-4389.65039
 20
1413.650391
 21
1477.149902
  0
LINE
  8
LAYER01
 10
-4389.65039
 11
-4408.700195
 20
1477.149902
 21
1552.099609
  0
LINE
  8
LAYER01
 10
-4408.700195
 11
-4420.149414
 20
1552.099609
 21
1635.949707
  0
LINE
  8
LAYER01
 10
-4420.149414
 11
-4430.299804
 20
1635.949707
 21
1816.400146
  0
LINE
  8
LAYER01
 10
-4430.299804
 11
-4430.299804
 20
1816.400146
 21
1996.800293
  0
LINE
  8
LAYER01
 10
-4430.299804
 11
-4442.999023
 20
1996.800293
 21
2080.650391
  0
LINE
  8
LAYER01
 10
-4442.999023
 11
-4460.799804
 20
2080.650391
 21
2135.299805
  0
LINE
  8
LAYER01
 10
-4460.799804
 11
-4484.949218
 20
2135.299805
 21
2184.849609
  0
LINE
  8
LAYER01
 10
-4484.949218
 11
-4551.0
 20
2184.849609
 21
2271.200684
  0
LINE
  8
LAYER01
 10
-4551.0
 11
-4629.800781
 20
2271.200684
 21
2346.200684
  0
LINE
  8
LAYER01
 10
-4629.800781
 11
-4706.0
 20
2346.200684
 21
2402.099609
  0
LINE
  8
LAYER01
 10
-4706.0
 11
-4764.450195
 20
2402.099609
 21
2435.099854
  0
LINE
  8
LAYER01
 10
-4764.450195
 11
-4857.199218
 20
2435.099854
 21
2466.900635
  0
LINE
  8
LAYER01
 10
-4857.199218
 11
-4944.850586
 20
2466.900635
 21
2485.949707
  0
LINE
  8
LAYER01
 10
-4944.850586
 11
-5033.799804
 20
2485.949707
 21
2494.850098
  0
LINE
  8
LAYER01
 10
-5033.799804
 11
-5129.100586
 20
2494.850098
 21
2494.850098
  0
LINE
  8
LAYER01
 10
-4290.550781
 11
-4327.40039
 20
1454.299805
 21
1516.549805
  0
LINE
  8
LAYER01
 10
-4327.40039
 11
-4351.550781
 20
1516.549805
 21
1585.150146
  0
LINE
  8
LAYER01
 10
-4351.550781
 11
-4364.250976
 20
1585.150146
 21
1680.450439
  0
LINE
  8
LAYER01
 10
-4364.250976
 11
-4364.250976
 20
1680.450439
 21
1817.649902
  0
LINE
  8
LAYER01
 10
-4364.250976
 11
-4363.000976
 20
1817.649902
 21
1982.800293
  0
LINE
  8
LAYER01
 10
-4363.000976
 11
-4368.049804
 20
1982.800293
 21
2131.449951
  0
LINE
  8
LAYER01
 10
-4368.049804
 11
-4379.5
 20
2131.449951
 21
2263.600098
  0
LINE
  8
LAYER01
 10
-4379.5
 11
-4397.299804
 20
2263.600098
 21
2377.949463
  0
LINE
  8
LAYER01
 10
-4397.299804
 11
-4410.000976
 20
2377.949463
 21
2418.600586
  0
LINE
  8
LAYER01
 10
-4410.000976
 11
-4427.799804
 20
2418.600586
 21
2449.099609
  0
LINE
  8
LAYER01
 10
-4427.799804
 11
-4453.200195
 20
2449.099609
 21
2473.249756
  0
LINE
  8
LAYER01
 10
-4453.200195
 11
-4482.401367
 20
2473.249756
 21
2491.000488
  0
LINE
  8
LAYER01
 10
-4398.550781
 11
-4319.799804
 20
2390.650879
 21
2186.10083
  0
LINE
  8
LAYER01
 10
-4319.799804
 11
-4280.40039
 20
2186.10083
 21
2175.950684
  0
LINE
  8
LAYER01
 10
-4575.149414
 11
-4474.799804
 20
2071.75
 21
2151.800537
  0
LINE
  8
LAYER01
 10
-5915.550781
 11
-5954.899414
 20
-52.500977
 21
-81.700195
  0
LINE
  8
LAYER01
 10
-4328.699218
 11
-4293.100586
 20
-52.499512
 21
-99.499512
  0
LINE
  8
LAYER01
 10
-5638.549804
 11
-5813.899414
 20
1026.148926
 21
1026.148926
  0
LINE
  8
LAYER01
 10
-5813.899414
 11
-5956.200195
 20
1026.148926
 21
1026.148926
  0
LINE
  8
LAYER01
 10
-4605.649414
 11
-4429.049804
 20
1026.150391
 21
1026.150391
  0
LINE
  8
LAYER01
 10
-4429.049804
 11
-4286.749023
 20
1026.150391
 21
1026.150391
  0
LINE
  8
LAYER01
 10
-5079.550781
 11
-5160.849609
 20
1372.999512
 21
1374.249268
  0
LINE
  8
LAYER01
 10
-5160.849609
 11
-5159.599609
 20
1374.249268
 21
1388.200439
  0
LINE
  8
LAYER01
 10
-5159.599609
 11
-5148.151367
 20
1388.200439
 21
1394.599854
  0
LINE
  8
LAYER01
 10
-5148.151367
 11
-5121.450195
 20
1394.599854
 21
1397.099365
  0
LINE
  8
LAYER01
 10
-5121.450195
 11
-5093.5
 20
1397.099365
 21
1395.849609
  0
LINE
  8
LAYER01
 10
-5093.5
 11
-5080.799804
 20
1395.849609
 21
1386.950684
  0
LINE
  8
LAYER01
 10
-5080.799804
 11
-5079.550781
 20
1386.950684
 21
1372.999512
  0
LINE
  8
LAYER01
 10
-5126.550781
 11
-5121.450195
 20
1394.599854
 21
1394.599854
  0
LINE
  8
LAYER01
 10
-5121.450195
 11
-5106.200195
 20
1394.599854
 21
1394.599854
  0
LINE
  8
LAYER01
 10
-5106.200195
 11
-5113.848633
 20
1394.599854
 21
1812.550293
  0
LINE
  8
LAYER01
 10
-5113.848633
 11
-5126.550781
 20
1812.550293
 21
1394.599854
  0
LINE
  8
LAYER01
 10
-5801.200195
 11
-5799.899414
 20
-160.450684
 21
-199.850586
  0
LINE
  8
LAYER01
 10
-5799.899414
 11
-5815.149414
 20
-199.850586
 21
-224.000488
  0
LINE
  8
LAYER01
 10
-5815.149414
 11
-5901.549804
 20
-224.000488
 21
-183.351074
  0
LINE
  8
LAYER01
 10
-5901.549804
 11
-5933.299804
 20
-183.351074
 21
-152.850342
  0
LINE
  8
LAYER01
 10
-5933.299804
 11
-5960.0
 20
-152.850342
 21
-107.099854
  0
LINE
  8
LAYER01
 10
-5960.0
 11
-5965.100586
 20
-107.099854
 21
-93.150391
  0
LINE
  8
LAYER01
 10
-5965.100586
 11
-5960.0
 20
-93.150391
 21
-79.150391
  0
LINE
  8
LAYER01
 10
-5960.0
 11
-5948.549804
 20
-79.150391
 21
-63.900879
  0
LINE
  8
LAYER01
 10
-5948.549804
 11
-5933.299804
 20
-63.900879
 21
-55.050781
  0
LINE
  8
LAYER01
 10
-5933.299804
 11
-5914.250976
 20
-55.050781
 21
-62.651123
  0
LINE
  8
LAYER01
 10
-5914.250976
 11
-5883.75
 20
-62.651123
 21
-94.399902
  0
LINE
  8
LAYER01
 10
-5883.75
 11
-5850.749023
 20
-94.399902
 21
-131.25
  0
LINE
  8
LAYER01
 10
-5850.749023
 11
-5817.700195
 20
-131.25
 21
-155.400146
  0
LINE
  8
LAYER01
 10
-5817.700195
 11
-5801.200195
 20
-155.400146
 21
-160.450684
  0
LINE
  8
LAYER01
 10
-4435.401367
 11
-4437.950195
 20
-160.449219
 21
-199.850586
  0
LINE
  8
LAYER01
 10
-4437.950195
 11
-4421.399414
 20
-199.850586
 21
-223.999023
  0
LINE
  8
LAYER01
 10
-4421.399414
 11
-4335.049804
 20
-223.999023
 21
-183.349609
  0
LINE
  8
LAYER01
 10
-4335.049804
 11
-4303.250976
 20
-183.349609
 21
-152.850342
  0
LINE
  8
LAYER01
 10
-4303.250976
 11
-4277.850586
 20
-152.850342
 21
-107.099854
  0
LINE
  8
LAYER01
 10
-4277.850586
 11
-4272.799804
 20
-107.099854
 21
-93.150391
  0
LINE
  8
LAYER01
 10
-4272.799804
 11
-4277.850586
 20
-93.150391
 21
-79.150391
  0
LINE
  8
LAYER01
 10
-4277.850586
 11
-4288.000976
 20
-79.150391
 21
-63.89917
  0
LINE
  8
LAYER01
 10
-4288.000976
 11
-4303.250976
 20
-63.89917
 21
-55.049072
  0
LINE
  8
LAYER01
 10
-4303.250976
 11
-4323.599609
 20
-55.049072
 21
-62.649414
  0
LINE
  8
LAYER01
 10
-4323.599609
 11
-4352.799804
 20
-62.649414
 21
-94.399902
  0
LINE
  8
LAYER01
 10
-4352.799804
 11
-4387.100586
 20
-94.399902
 21
-131.25
  0
LINE
  8
LAYER01
 10
-4387.100586
 11
-4418.899414
 20
-131.25
 21
-155.400146
  0
LINE
  8
LAYER01
 10
-4418.899414
 11
-4435.401367
 20
-155.400146
 21
-160.449219
  0
LINE
  8
LAYER01
 10
3038.650146
 11
2919.250244
 20
-516.150391
 21
-480.599609
  0
LINE
  8
LAYER01
 10
2919.250244
 11
2816.350342
 20
-480.599609
 21
-459.0
  0
LINE
  8
LAYER01
 10
2816.350342
 11
2585.150146
 20
-459.0
 21
-423.400391
  0
LINE
  8
LAYER01
 10
2585.150146
 11
2372.950439
 20
-423.400391
 21
-273.5
  0
LINE
  8
LAYER01
 10
2372.950439
 11
2170.950195
 20
-273.5
 21
-143.900391
  0
LINE
  8
LAYER01
 10
2170.950195
 11
2065.500244
 20
-143.900391
 21
-89.299805
  0
LINE
  8
LAYER01
 10
2065.500244
 11
1954.950195
 20
-89.299805
 21
-43.599609
  0
LINE
  8
LAYER01
 10
1954.950195
 11
1834.250244
 20
-43.599609
 21
-5.5
  0
LINE
  8
LAYER01
 10
1834.250244
 11
1700.850098
 20
-5.5
 21
23.75
  0
LINE
  8
LAYER01
 10
1700.850098
 11
1525.550293
 20
23.75
 21
47.900391
  0
LINE
  8
LAYER01
 10
1525.550293
 11
1355.300293
 20
47.900391
 21
60.599609
  0
LINE
  8
LAYER01
 10
1355.300293
 11
1187.600342
 20
60.599609
 21
60.599609
  0
LINE
  8
LAYER01
 10
1187.600342
 11
1018.600342
 20
60.599609
 21
51.700195
  0
LINE
  8
LAYER01
 10
1018.600342
 11
859.800293
 20
51.700195
 21
31.349609
  0
LINE
  8
LAYER01
 10
859.800293
 11
689.550049
 20
31.349609
 21
-6.75
  0
LINE
  8
LAYER01
 10
689.550049
 11
504.050049
 20
-6.75
 21
-65.200195
  0
LINE
  8
LAYER01
 10
504.050049
 11
294.400146
 20
-65.200195
 21
-149.0
  0
LINE
  8
LAYER01
 10
294.400146
 11
125.450195
 20
-149.0
 21
-245.549805
  0
LINE
  8
LAYER01
 10
125.450195
 11
0.949951
 20
-245.549805
 21
-328.150391
  0
LINE
  8
LAYER01
 10
0.949951
 11
-134.999756
 20
-328.150391
 21
-428.5
  0
LINE
  8
LAYER01
 10
-134.999756
 11
-259.499756
 20
-428.5
 21
-522.5
  0
LINE
  8
LAYER01
 10
-259.499756
 11
-370.050049
 20
-522.5
 21
-625.450195
  0
LINE
  8
LAYER01
 10
-370.050049
 11
-464.049805
 20
-625.450195
 21
-732.150391
  0
LINE
  8
LAYER01
 10
-464.049805
 11
-540.299805
 20
-732.150391
 21
-840.150391
  0
LINE
  8
LAYER01
 10
-540.299805
 11
-561.899902
 20
-840.150391
 21
-855.400391
  0
LINE
  8
LAYER01
 10
-561.899902
 11
-582.249756
 20
-855.400391
 21
-879.549805
  0
LINE
  8
LAYER01
 10
-582.249756
 11
-594.949707
 20
-879.549805
 21
-907.5
  0
LINE
  8
LAYER01
 10
-594.949707
 11
-600.0
 20
-907.5
 21
-934.150391
  0
LINE
  8
LAYER01
 10
-600.0
 11
-600.0
 20
-934.150391
 21
-1024.349609
  0
LINE
  8
LAYER01
 10
-600.0
 11
-589.849609
 20
-1024.349609
 21
-1076.450195
  0
LINE
  8
LAYER01
 10
-589.849609
 11
-563.149902
 20
-1076.450195
 21
-1126.0
  0
LINE
  8
LAYER01
 10
-563.149902
 11
-530.149658
 20
-1126.0
 21
-1170.5
  0
LINE
  8
LAYER01
 10
-530.149658
 11
-499.649658
 20
-1170.5
 21
-1200.950195
  0
LINE
  8
LAYER01
 10
-499.649658
 11
-472.949951
 20
-1200.950195
 21
-1216.200195
  0
LINE
  8
LAYER01
 10
-472.949951
 11
-436.099854
 20
-1216.200195
 21
-1223.849609
  0
LINE
  8
LAYER01
 10
-436.099854
 11
-349.749756
 20
-1223.849609
 21
-1222.549805
  0
LINE
  8
LAYER01
 10
-349.749756
 11
-340.849854
 20
-1222.549805
 21
-1103.150391
  0
LINE
  8
LAYER01
 10
-340.849854
 11
-312.899658
 20
-1103.150391
 21
-1001.5
  0
LINE
  8
LAYER01
 10
-312.899658
 11
-270.949951
 20
-1001.5
 21
-917.650391
  0
LINE
  8
LAYER01
 10
-270.949951
 11
-217.599854
 20
-917.650391
 21
-850.299805
  0
LINE
  8
LAYER01
 10
-217.599854
 11
-154.049561
 20
-850.299805
 21
-799.5
  0
LINE
  8
LAYER01
 10
-154.049561
 11
-84.199951
 20
-799.5
 21
-763.900391
  0
LINE
  8
LAYER01
 10
-84.199951
 11
-10.499756
 20
-763.900391
 21
-743.599609
  0
LINE
  8
LAYER01
 10
-10.499756
 11
64.450195
 20
-743.599609
 21
-738.5
  0
LINE
  8
LAYER01
 10
64.450195
 11
163.550293
 20
-738.5
 21
-748.650391
  0
LINE
  8
LAYER01
 10
163.550293
 11
251.200195
 20
-748.650391
 21
-777.900391
  0
LINE
  8
LAYER01
 10
251.200195
 11
323.650146
 20
-777.900391
 21
-823.650391
  0
LINE
  8
LAYER01
 10
323.650146
 11
383.350342
 20
-823.650391
 21
-885.900391
  0
LINE
  8
LAYER01
 10
383.350342
 11
429.100098
 20
-885.900391
 21
-960.849609
  0
LINE
  8
LAYER01
 10
429.100098
 11
459.600342
 20
-960.849609
 21
-1051.049805
  0
LINE
  8
LAYER01
 10
459.600342
 11
477.350342
 20
-1051.049805
 21
-1152.700195
  0
LINE
  8
LAYER01
 10
477.350342
 11
479.900146
 20
-1152.700195
 21
-1264.5
  0
LINE
  8
LAYER01
 10
479.900146
 11
2233.200195
 20
-1264.5
 21
-1269.599609
  0
LINE
  8
LAYER01
 10
2233.200195
 11
2249.700439
 20
-1269.599609
 21
-1265.75
  0
LINE
  8
LAYER01
 10
2249.700439
 11
2264.950439
 20
-1265.75
 21
-1258.150391
  0
LINE
  8
LAYER01
 10
2264.950439
 11
2275.150146
 20
-1258.150391
 21
-1244.150391
  0
LINE
  8
LAYER01
 10
2275.150146
 11
2278.950195
 20
-1244.150391
 21
-1225.099609
  0
LINE
  8
LAYER01
 10
2278.950195
 11
2284.000244
 20
-1225.099609
 21
-1117.099609
  0
LINE
  8
LAYER01
 10
2284.000244
 11
2300.550049
 20
-1117.099609
 21
-1019.299805
  0
LINE
  8
LAYER01
 10
2300.550049
 11
2329.750244
 20
-1019.299805
 21
-935.450195
  0
LINE
  8
LAYER01
 10
2329.750244
 11
2372.950439
 20
-935.450195
 21
-864.299805
  0
LINE
  8
LAYER01
 10
2372.950439
 11
2428.850342
 20
-864.299805
 21
-807.099609
  0
LINE
  8
LAYER01
 10
2428.850342
 11
2500.000244
 20
-807.099609
 21
-765.200195
  0
LINE
  8
LAYER01
 10
2500.000244
 11
2585.150146
 20
-765.200195
 21
-738.5
  0
LINE
  8
LAYER01
 10
2585.150146
 11
2685.500244
 20
-738.5
 21
-729.599609
  0
LINE
  8
LAYER01
 10
2685.500244
 11
2782.050293
 20
-729.599609
 21
-737.25
  0
LINE
  8
LAYER01
 10
2782.050293
 11
2865.900146
 20
-737.25
 21
-761.400391
  0
LINE
  8
LAYER01
 10
2865.900146
 11
2938.350342
 20
-761.400391
 21
-800.75
  0
LINE
  8
LAYER01
 10
2938.350342
 11
2998.050293
 20
-800.75
 21
-855.400391
  0
LINE
  8
LAYER01
 10
2998.050293
 11
3043.750244
 20
-855.400391
 21
-924.0
  0
LINE
  8
LAYER01
 10
3043.750244
 11
3076.750244
 20
-924.0
 21
-1009.099609
  0
LINE
  8
LAYER01
 10
3076.750244
 11
3098.350342
 20
-1009.099609
 21
-1106.950195
  0
LINE
  8
LAYER01
 10
3098.350342
 11
3107.250244
 20
-1106.950195
 21
-1218.75
  0
LINE
  8
LAYER01
 10
3107.250244
 11
3118.700195
 20
-1218.75
 21
-1237.799805
  0
LINE
  8
LAYER01
 10
3118.700195
 11
3149.200195
 20
-1237.799805
 21
-1244.150391
  0
LINE
  8
LAYER01
 10
3149.200195
 11
3266.050049
 20
-1244.150391
 21
-1236.549805
  0
LINE
  8
LAYER01
 10
3266.050049
 11
3360.100342
 20
-1236.549805
 21
-1214.950195
  0
LINE
  8
LAYER01
 10
3360.100342
 11
3385.500244
 20
-1214.950195
 21
-1192.099609
  0
LINE
  8
LAYER01
 10
3385.500244
 11
3395.650146
 20
-1192.099609
 21
-1155.25
  0
LINE
  8
LAYER01
 10
3395.650146
 11
3402.000244
 20
-1155.25
 21
-1113.299805
  0
LINE
  8
LAYER01
 10
3402.000244
 11
3417.250244
 20
-1113.299805
 21
-1071.400391
  0
LINE
  8
LAYER01
 10
3417.250244
 11
3441.400146
 20
-1071.400391
 21
-1047.25
  0
LINE
  8
LAYER01
 10
3441.400146
 11
3464.250244
 20
-1047.25
 21
-1033.25
  0
LINE
  8
LAYER01
 10
3464.250244
 11
3482.050293
 20
-1033.25
 21
-1021.849609
  0
LINE
  8
LAYER01
 10
3482.050293
 11
3489.700195
 20
-1021.849609
 21
-1000.25
  0
LINE
  8
LAYER01
 10
3489.700195
 11
3489.700195
 20
-1000.25
 21
-925.25
  0
LINE
  8
LAYER01
 10
3489.700195
 11
3482.050293
 20
-925.25
 21
-906.200195
  0
LINE
  8
LAYER01
 10
3482.050293
 11
3460.450195
 20
-906.200195
 21
-898.599609
  0
LINE
  8
LAYER01
 10
3460.450195
 11
3431.250244
 20
-898.599609
 21
-884.599609
  0
LINE
  8
LAYER01
 10
3431.250244
 11
3399.450195
 20
-884.599609
 21
-850.299805
  0
LINE
  8
LAYER01
 10
3399.450195
 11
3328.300293
 20
-850.299805
 21
-732.150391
  0
LINE
  8
LAYER01
 10
3328.300293
 11
3241.950195
 20
-732.150391
 21
-636.849609
  0
LINE
  8
LAYER01
 10
3241.950195
 11
3144.100342
 20
-636.849609
 21
-564.450195
  0
LINE
  8
LAYER01
 10
3144.100342
 11
3038.650146
 20
-564.450195
 21
-516.150391
  0
LINE
  8
LAYER01
 10
2685.500244
 11
2616.900146
 20
-1450.0
 21
-1442.349609
  0
LINE
  8
LAYER01
 10
2616.900146
 11
2552.100342
 20
-1442.349609
 21
-1422.049805
  0
LINE
  8
LAYER01
 10
2552.100342
 11
2494.900146
 20
-1422.049805
 21
-1390.25
  0
LINE
  8
LAYER01
 10
2494.900146
 11
2444.100342
 20
-1390.25
 21
-1348.349609
  0
LINE
  8
LAYER01
 10
2444.100342
 11
2402.200195
 20
-1348.349609
 21
-1297.549805
  0
LINE
  8
LAYER01
 10
2402.200195
 11
2370.400146
 20
-1297.549805
 21
-1240.349609
  0
LINE
  8
LAYER01
 10
2370.400146
 11
2350.100342
 20
-1240.349609
 21
-1175.549805
  0
LINE
  8
LAYER01
 10
2350.100342
 11
2343.750244
 20
-1175.549805
 21
-1106.950195
  0
LINE
  8
LAYER01
 10
2343.750244
 11
2350.100342
 20
-1106.950195
 21
-1038.349609
  0
LINE
  8
LAYER01
 10
2350.100342
 11
2370.400146
 20
-1038.349609
 21
-974.799805
  0
LINE
  8
LAYER01
 10
2370.400146
 11
2402.200195
 20
-974.799805
 21
-916.400391
  0
LINE
  8
LAYER01
 10
2402.200195
 11
2444.100342
 20
-916.400391
 21
-865.549805
  0
LINE
  8
LAYER01
 10
2444.100342
 11
2494.900146
 20
-865.549805
 21
-823.650391
  0
LINE
  8
LAYER01
 10
2494.900146
 11
2552.100342
 20
-823.650391
 21
-791.849609
  0
LINE
  8
LAYER01
 10
2552.100342
 11
2616.900146
 20
-791.849609
 21
-771.549805
  0
LINE
  8
LAYER01
 10
2616.900146
 11
2685.500244
 20
-771.549805
 21
-765.200195
  0
LINE
  8
LAYER01
 10
2685.500244
 11
2754.100342
 20
-765.200195
 21
-771.549805
  0
LINE
  8
LAYER01
 10
2754.100342
 11
2818.900146
 20
-771.549805
 21
-791.849609
  0
LINE
  8
LAYER01
 10
2818.900146
 11
2876.050049
 20
-791.849609
 21
-823.650391
  0
LINE
  8
LAYER01
 10
2876.050049
 11
2926.900146
 20
-823.650391
 21
-865.549805
  0
LINE
  8
LAYER01
 10
2926.900146
 11
2968.800293
 20
-865.549805
 21
-916.400391
  0
LINE
  8
LAYER01
 10
2968.800293
 11
3000.600342
 20
-916.400391
 21
-974.799805
  0
LINE
  8
LAYER01
 10
3000.600342
 11
3020.900146
 20
-974.799805
 21
-1038.349609
  0
LINE
  8
LAYER01
 10
3020.900146
 11
3027.250244
 20
-1038.349609
 21
-1106.950195
  0
LINE
  8
LAYER01
 10
3027.250244
 11
3020.900146
 20
-1106.950195
 21
-1175.549805
  0
LINE
  8
LAYER01
 10
3020.900146
 11
3000.600342
 20
-1175.549805
 21
-1240.349609
  0
LINE
  8
LAYER01
 10
3000.600342
 11
2968.800293
 20
-1240.349609
 21
-1297.549805
  0
LINE
  8
LAYER01
 10
2968.800293
 11
2926.900146
 20
-1297.549805
 21
-1348.349609
  0
LINE
  8
LAYER01
 10
2926.900146
 11
2876.050049
 20
-1348.349609
 21
-1390.25
  0
LINE
  8
LAYER01
 10
2876.050049
 11
2818.900146
 20
-1390.25
 21
-1422.049805
  0
LINE
  8
LAYER01
 10
2818.900146
 11
2754.100342
 20
-1422.049805
 21
-1442.349609
  0
LINE
  8
LAYER01
 10
2754.100342
 11
2685.500244
 20
-1442.349609
 21
-1450.0
  0
LINE
  8
LAYER01
 10
64.450195
 11
-4.149658
 20
-1450.0
 21
-1442.349609
  0
LINE
  8
LAYER01
 10
-4.149658
 11
-68.949707
 20
-1442.349609
 21
-1422.049805
  0
LINE
  8
LAYER01
 10
-68.949707
 11
-126.100098
 20
-1422.049805
 21
-1390.25
  0
LINE
  8
LAYER01
 10
-126.100098
 11
-176.949951
 20
-1390.25
 21
-1348.349609
  0
LINE
  8
LAYER01
 10
-176.949951
 11
-218.849854
 20
-1348.349609
 21
-1297.549805
  0
LINE
  8
LAYER01
 10
-218.849854
 11
-250.649902
 20
-1297.549805
 21
-1240.349609
  0
LINE
  8
LAYER01
 10
-250.649902
 11
-270.949951
 20
-1240.349609
 21
-1175.549805
  0
LINE
  8
LAYER01
 10
-270.949951
 11
-278.599854
 20
-1175.549805
 21
-1106.950195
  0
LINE
  8
LAYER01
 10
-278.599854
 11
-270.949951
 20
-1106.950195
 21
-1038.349609
  0
LINE
  8
LAYER01
 10
-270.949951
 11
-250.649902
 20
-1038.349609
 21
-974.799805
  0
LINE
  8
LAYER01
 10
-250.649902
 11
-218.849854
 20
-974.799805
 21
-916.400391
  0
LINE
  8
LAYER01
 10
-218.849854
 11
-176.949951
 20
-916.400391
 21
-865.549805
  0
LINE
  8
LAYER01
 10
-176.949951
 11
-126.100098
 20
-865.549805
 21
-823.650391
  0
LINE
  8
LAYER01
 10
-126.100098
 11
-68.949707
 20
-823.650391
 21
-791.849609
  0
LINE
  8
LAYER01
 10
-68.949707
 11
-4.149658
 20
-791.849609
 21
-771.549805
  0
LINE
  8
LAYER01
 10
-4.149658
 11
64.450195
 20
-771.549805
 21
-765.200195
  0
LINE
  8
LAYER01
 10
64.450195
 11
133.050293
 20
-765.200195
 21
-771.549805
  0
LINE
  8
LAYER01
 10
133.050293
 11
196.600342
 20
-771.549805
 21
-791.849609
  0
LINE
  8
LAYER01
 10
196.600342
 11
255.050049
 20
-791.849609
 21
-823.650391
  0
LINE
  8
LAYER01
 10
255.050049
 11
305.850098
 20
-823.650391
 21
-865.549805
  0
LINE
  8
LAYER01
 10
305.850098
 11
347.800049
 20
-865.549805
 21
-916.400391
  0
LINE
  8
LAYER01
 10
347.800049
 11
379.550293
 20
-916.400391
 21
-974.799805
  0
LINE
  8
LAYER01
 10
379.550293
 11
399.850342
 20
-974.799805
 21
-1038.349609
  0
LINE
  8
LAYER01
 10
399.850342
 11
406.200195
 20
-1038.349609
 21
-1106.950195
  0
LINE
  8
LAYER01
 10
406.200195
 11
399.850342
 20
-1106.950195
 21
-1175.549805
  0
LINE
  8
LAYER01
 10
399.850342
 11
379.550293
 20
-1175.549805
 21
-1240.349609
  0
LINE
  8
LAYER01
 10
379.550293
 11
347.800049
 20
-1240.349609
 21
-1297.549805
  0
LINE
  8
LAYER01
 10
347.800049
 11
305.850098
 20
-1297.549805
 21
-1348.349609
  0
LINE
  8
LAYER01
 10
305.850098
 11
255.050049
 20
-1348.349609
 21
-1390.25
  0
LINE
  8
LAYER01
 10
255.050049
 11
196.600342
 20
-1390.25
 21
-1422.049805
  0
LINE
  8
LAYER01
 10
196.600342
 11
133.050293
 20
-1422.049805
 21
-1442.349609
  0
LINE
  8
LAYER01
 10
133.050293
 11
64.450195
 20
-1442.349609
 21
-1450.0
  0
LINE
  8
LAYER01
 10
2686.750244
 11
2736.300049
 20
-856.650391
 21
-861.75
  0
LINE
  8
LAYER01
 10
2736.300049
 11
2783.350342
 20
-861.75
 21
-877.0
  0
LINE
  8
LAYER01
 10
2783.350342
 11
2825.250244
 20
-877.0
 21
-899.849609
  0
LINE
  8
LAYER01
 10
2825.250244
 11
2862.100342
 20
-899.849609
 21
-930.349609
  0
LINE
  8
LAYER01
 10
2862.100342
 11
2892.600342
 20
-930.349609
 21
-967.200195
  0
LINE
  8
LAYER01
 10
2892.600342
 11
2916.750244
 20
-967.200195
 21
-1010.400391
  0
LINE
  8
LAYER01
 10
2916.750244
 11
2930.700195
 20
-1010.400391
 21
-1056.150391
  0
LINE
  8
LAYER01
 10
2930.700195
 11
2935.800293
 20
-1056.150391
 21
-1106.950195
  0
LINE
  8
LAYER01
 10
2935.800293
 11
2930.700195
 20
-1106.950195
 21
-1157.75
  0
LINE
  8
LAYER01
 10
2930.700195
 11
2916.750244
 20
-1157.75
 21
-1204.799805
  0
LINE
  8
LAYER01
 10
2916.750244
 11
2892.600342
 20
-1204.799805
 21
-1246.700195
  0
LINE
  8
LAYER01
 10
2892.600342
 11
2862.100342
 20
-1246.700195
 21
-1283.549805
  0
LINE
  8
LAYER01
 10
2862.100342
 11
2825.250244
 20
-1283.549805
 21
-1314.049805
  0
LINE
  8
LAYER01
 10
2825.250244
 11
2783.350342
 20
-1314.049805
 21
-1336.900391
  0
LINE
  8
LAYER01
 10
2783.350342
 11
2736.300049
 20
-1336.900391
 21
-1352.150391
  0
LINE
  8
LAYER01
 10
2736.300049
 11
2686.750244
 20
-1352.150391
 21
-1357.25
  0
LINE
  8
LAYER01
 10
2686.750244
 11
2635.950195
 20
-1357.25
 21
-1352.150391
  0
LINE
  8
LAYER01
 10
2635.950195
 11
2588.950195
 20
-1352.150391
 21
-1336.900391
  0
LINE
  8
LAYER01
 10
2588.950195
 11
2547.000244
 20
-1336.900391
 21
-1314.049805
  0
LINE
  8
LAYER01
 10
2547.000244
 11
2510.150146
 20
-1314.049805
 21
-1283.549805
  0
LINE
  8
LAYER01
 10
2510.150146
 11
2479.700195
 20
-1283.549805
 21
-1246.700195
  0
LINE
  8
LAYER01
 10
2479.700195
 11
2455.550293
 20
-1246.700195
 21
-1204.799805
  0
LINE
  8
LAYER01
 10
2455.550293
 11
2441.550049
 20
-1204.799805
 21
-1157.75
  0
LINE
  8
LAYER01
 10
2441.550049
 11
2436.500244
 20
-1157.75
 21
-1106.950195
  0
LINE
  8
LAYER01
 10
2436.500244
 11
2441.550049
 20
-1106.950195
 21
-1056.150391
  0
LINE
  8
LAYER01
 10
2441.550049
 11
2455.550293
 20
-1056.150391
 21
-1010.400391
  0
LINE
  8
LAYER01
 10
2455.550293
 11
2479.700195
 20
-1010.400391
 21
-967.200195
  0
LINE
  8
LAYER01
 10
2479.700195
 11
2510.150146
 20
-967.200195
 21
-930.349609
  0
LINE
  8
LAYER01
 10
2510.150146
 11
2547.000244
 20
-930.349609
 21
-899.849609
  0
LINE
  8
LAYER01
 10
2547.000244
 11
2588.950195
 20
-899.849609
 21
-877.0
  0
LINE
  8
LAYER01
 10
2588.950195
 11
2635.950195
 20
-877.0
 21
-861.75
  0
LINE
  8
LAYER01
 10
2635.950195
 11
2686.750244
 20
-861.75
 21
-856.650391
  0
LINE
  8
LAYER01
 10
65.750244
 11
115.300049
 20
-856.650391
 21
-861.75
  0
LINE
  8
LAYER01
 10
115.300049
 11
162.300293
 20
-861.75
 21
-877.0
  0
LINE
  8
LAYER01
 10
162.300293
 11
204.199951
 20
-877.0
 21
-899.849609
  0
LINE
  8
LAYER01
 10
204.199951
 11
241.050049
 20
-899.849609
 21
-930.349609
  0
LINE
  8
LAYER01
 10
241.050049
 11
271.550049
 20
-930.349609
 21
-967.200195
  0
LINE
  8
LAYER01
 10
271.550049
 11
294.400146
 20
-967.200195
 21
-1010.400391
  0
LINE
  8
LAYER01
 10
294.400146
 11
309.650146
 20
-1010.400391
 21
-1056.150391
  0
LINE
  8
LAYER01
 10
309.650146
 11
314.750244
 20
-1056.150391
 21
-1106.950195
  0
LINE
  8
LAYER01
 10
314.750244
 11
309.650146
 20
-1106.950195
 21
-1157.75
  0
LINE
  8
LAYER01
 10
309.650146
 11
294.400146
 20
-1157.75
 21
-1204.799805
  0
LINE
  8
LAYER01
 10
294.400146
 11
271.550049
 20
-1204.799805
 21
-1246.700195
  0
LINE
  8
LAYER01
 10
271.550049
 11
241.050049
 20
-1246.700195
 21
-1283.549805
  0
LINE
  8
LAYER01
 10
241.050049
 11
204.199951
 20
-1283.549805
 21
-1314.049805
  0
LINE
  8
LAYER01
 10
204.199951
 11
162.300293
 20
-1314.049805
 21
-1336.900391
  0
LINE
  8
LAYER01
 10
162.300293
 11
115.300049
 20
-1336.900391
 21
-1352.150391
  0
LINE
  8
LAYER01
 10
115.300049
 11
65.750244
 20
-1352.150391
 21
-1357.25
  0
LINE
  8
LAYER01
 10
65.750244
 11
14.900391
 20
-1357.25
 21
-1352.150391
  0
LINE
  8
LAYER01
 10
14.900391
 11
-32.099854
 20
-1352.150391
 21
-1336.900391
  0
LINE
  8
LAYER01
 10
-32.099854
 11
-74.050049
 20
-1336.900391
 21
-1314.049805
  0
LINE
  8
LAYER01
 10
-74.050049
 11
-112.149658
 20
-1314.049805
 21
-1283.549805
  0
LINE
  8
LAYER01
 10
-112.149658
 11
-142.649658
 20
-1283.549805
 21
-1246.700195
  0
LINE
  8
LAYER01
 10
-142.649658
 11
-165.499756
 20
-1246.700195
 21
-1204.799805
  0
LINE
  8
LAYER01
 10
-165.499756
 11
-179.499756
 20
-1204.799805
 21
-1157.75
  0
LINE
  8
LAYER01
 10
-179.499756
 11
-184.549561
 20
-1157.75
 21
-1106.950195
  0
LINE
  8
LAYER01
 10
-184.549561
 11
-179.499756
 20
-1106.950195
 21
-1056.150391
  0
LINE
  8
LAYER01
 10
-179.499756
 11
-165.499756
 20
-1056.150391
 21
-1010.400391
  0
LINE
  8
LAYER01
 10
-165.499756
 11
-142.649658
 20
-1010.400391
 21
-967.200195
  0
LINE
  8
LAYER01
 10
-142.649658
 11
-112.149658
 20
-967.200195
 21
-930.349609
  0
LINE
  8
LAYER01
 10
-112.149658
 11
-74.050049
 20
-930.349609
 21
-899.849609
  0
LINE
  8
LAYER01
 10
-74.050049
 11
-32.099854
 20
-899.849609
 21
-877.0
  0
LINE
  8
LAYER01
 10
-32.099854
 11
14.900391
 20
-877.0
 21
-861.75
  0
LINE
  8
LAYER01
 10
14.900391
 11
65.750244
 20
-861.75
 21
-856.650391
  0
LINE
  8
LAYER01
 10
2686.750244
 11
2735.050049
 20
-869.349609
 21
-874.450195
  0
LINE
  8
LAYER01
 10
2735.050049
 11
2779.500244
 20
-874.450195
 21
-888.450195
  0
LINE
  8
LAYER01
 10
2779.500244
 11
2818.900146
 20
-888.450195
 21
-910.049805
  0
LINE
  8
LAYER01
 10
2818.900146
 11
2854.500244
 20
-910.049805
 21
-939.25
  0
LINE
  8
LAYER01
 10
2854.500244
 11
2883.700195
 20
-939.25
 21
-973.549805
  0
LINE
  8
LAYER01
 10
2883.700195
 11
2905.300049
 20
-973.549805
 21
-1014.200195
  0
LINE
  8
LAYER01
 10
2905.300049
 11
2919.250244
 20
-1014.200195
 21
-1058.650391
  0
LINE
  8
LAYER01
 10
2919.250244
 11
2924.350342
 20
-1058.650391
 21
-1106.950195
  0
LINE
  8
LAYER01
 10
2924.350342
 11
2919.250244
 20
-1106.950195
 21
-1155.25
  0
LINE
  8
LAYER01
 10
2919.250244
 11
2905.300049
 20
-1155.25
 21
-1199.700195
  0
LINE
  8
LAYER01
 10
2905.300049
 11
2883.700195
 20
-1199.700195
 21
-1240.349609
  0
LINE
  8
LAYER01
 10
2883.700195
 11
2854.500244
 20
-1240.349609
 21
-1275.950195
  0
LINE
  8
LAYER01
 10
2854.500244
 11
2818.900146
 20
-1275.950195
 21
-1305.150391
  0
LINE
  8
LAYER01
 10
2818.900146
 11
2779.500244
 20
-1305.150391
 21
-1326.75
  0
LINE
  8
LAYER01
 10
2779.500244
 11
2735.050049
 20
-1326.75
 21
-1340.700195
  0
LINE
  8
LAYER01
 10
2735.050049
 11
2686.750244
 20
-1340.700195
 21
-1345.799805
  0
LINE
  8
LAYER01
 10
2686.750244
 11
2638.500244
 20
-1345.799805
 21
-1340.700195
  0
LINE
  8
LAYER01
 10
2638.500244
 11
2594.000244
 20
-1340.700195
 21
-1326.75
  0
LINE
  8
LAYER01
 10
2594.000244
 11
2553.350342
 20
-1326.75
 21
-1305.150391
  0
LINE
  8
LAYER01
 10
2553.350342
 11
2517.800293
 20
-1305.150391
 21
-1275.950195
  0
LINE
  8
LAYER01
 10
2517.800293
 11
2488.550293
 20
-1275.950195
 21
-1240.349609
  0
LINE
  8
LAYER01
 10
2488.550293
 11
2465.700195
 20
-1240.349609
 21
-1199.700195
  0
LINE
  8
LAYER01
 10
2465.700195
 11
2451.750244
 20
-1199.700195
 21
-1155.25
  0
LINE
  8
LAYER01
 10
2451.750244
 11
2447.900146
 20
-1155.25
 21
-1106.950195
  0
LINE
  8
LAYER01
 10
2447.900146
 11
2451.750244
 20
-1106.950195
 21
-1058.650391
  0
LINE
  8
LAYER01
 10
2451.750244
 11
2465.700195
 20
-1058.650391
 21
-1014.200195
  0
LINE
  8
LAYER01
 10
2465.700195
 11
2488.550293
 20
-1014.200195
 21
-973.549805
  0
LINE
  8
LAYER01
 10
2488.550293
 11
2517.800293
 20
-973.549805
 21
-939.25
  0
LINE
  8
LAYER01
 10
2517.800293
 11
2553.350342
 20
-939.25
 21
-910.049805
  0
LINE
  8
LAYER01
 10
2553.350342
 11
2594.000244
 20
-910.049805
 21
-888.450195
  0
LINE
  8
LAYER01
 10
2594.000244
 11
2638.500244
 20
-888.450195
 21
-874.450195
  0
LINE
  8
LAYER01
 10
2638.500244
 11
2686.750244
 20
-874.450195
 21
-869.349609
  0
LINE
  8
LAYER01
 10
65.750244
 11
112.750244
 20
-869.349609
 21
-874.450195
  0
LINE
  8
LAYER01
 10
112.750244
 11
157.199951
 20
-874.450195
 21
-888.450195
  0
LINE
  8
LAYER01
 10
157.199951
 11
197.850098
 20
-888.450195
 21
-910.049805
  0
LINE
  8
LAYER01
 10
197.850098
 11
233.450439
 20
-910.049805
 21
-939.25
  0
LINE
  8
LAYER01
 10
233.450439
 11
262.650391
 20
-939.25
 21
-973.549805
  0
LINE
  8
LAYER01
 10
262.650391
 11
284.25
 20
-973.549805
 21
-1014.200195
  0
LINE
  8
LAYER01
 10
284.25
 11
298.250244
 20
-1014.200195
 21
-1058.650391
  0
LINE
  8
LAYER01
 10
298.250244
 11
303.300049
 20
-1058.650391
 21
-1106.950195
  0
LINE
  8
LAYER01
 10
303.300049
 11
298.250244
 20
-1106.950195
 21
-1155.25
  0
LINE
  8
LAYER01
 10
298.250244
 11
284.25
 20
-1155.25
 21
-1199.700195
  0
LINE
  8
LAYER01
 10
284.25
 11
262.650391
 20
-1199.700195
 21
-1240.349609
  0
LINE
  8
LAYER01
 10
262.650391
 11
233.450439
 20
-1240.349609
 21
-1275.950195
  0
LINE
  8
LAYER01
 10
233.450439
 11
197.850098
 20
-1275.950195
 21
-1305.150391
  0
LINE
  8
LAYER01
 10
197.850098
 11
157.199951
 20
-1305.150391
 21
-1326.75
  0
LINE
  8
LAYER01
 10
157.199951
 11
112.750244
 20
-1326.75
 21
-1340.700195
  0
LINE
  8
LAYER01
 10
112.750244
 11
65.750244
 20
-1340.700195
 21
-1345.799805
  0
LINE
  8
LAYER01
 10
65.750244
 11
17.449951
 20
-1345.799805
 21
-1340.700195
  0
LINE
  8
LAYER01
 10
17.449951
 11
-28.299561
 20
-1340.700195
 21
-1326.75
  0
LINE
  8
LAYER01
 10
-28.299561
 11
-68.949707
 20
-1326.75
 21
-1305.150391
  0
LINE
  8
LAYER01
 10
-68.949707
 11
-104.499756
 20
-1305.150391
 21
-1275.950195
  0
LINE
  8
LAYER01
 10
-104.499756
 11
-132.449951
 20
-1275.950195
 21
-1240.349609
  0
LINE
  8
LAYER01
 10
-132.449951
 11
-155.349609
 20
-1240.349609
 21
-1199.700195
  0
LINE
  8
LAYER01
 10
-155.349609
 11
-169.300049
 20
-1199.700195
 21
-1155.25
  0
LINE
  8
LAYER01
 10
-169.300049
 11
-174.399658
 20
-1155.25
 21
-1106.950195
  0
LINE
  8
LAYER01
 10
-174.399658
 11
-169.300049
 20
-1106.950195
 21
-1058.650391
  0
LINE
  8
LAYER01
 10
-169.300049
 11
-155.349609
 20
-1058.650391
 21
-1014.200195
  0
LINE
  8
LAYER01
 10
-155.349609
 11
-132.449951
 20
-1014.200195
 21
-973.549805
  0
LINE
  8
LAYER01
 10
-132.449951
 11
-104.499756
 20
-973.549805
 21
-939.25
  0
LINE
  8
LAYER01
 10
-104.499756
 11
-68.949707
 20
-939.25
 21
-910.049805
  0
LINE
  8
LAYER01
 10
-68.949707
 11
-28.299561
 20
-910.049805
 21
-888.450195
  0
LINE
  8
LAYER01
 10
-28.299561
 11
17.449951
 20
-888.450195
 21
-874.450195
  0
LINE
  8
LAYER01
 10
17.449951
 11
65.750244
 20
-874.450195
 21
-869.349609
  0
LINE
  8
LAYER01
 10
2686.750244
 11
2727.450195
 20
-904.950195
 21
-910.049805
  0
LINE
  8
LAYER01
 10
2727.450195
 11
2764.250244
 20
-910.049805
 21
-921.450195
  0
LINE
  8
LAYER01
 10
2764.250244
 11
2798.550293
 20
-921.450195
 21
-940.5
  0
LINE
  8
LAYER01
 10
2798.550293
 11
2829.050293
 20
-940.5
 21
-964.650391
  0
LINE
  8
LAYER01
 10
2829.050293
 11
2853.200195
 20
-964.650391
 21
-993.900391
  0
LINE
  8
LAYER01
 10
2853.200195
 11
2872.250244
 20
-993.900391
 21
-1028.200195
  0
LINE
  8
LAYER01
 10
2872.250244
 11
2884.950195
 20
-1028.200195
 21
-1066.299805
  0
LINE
  8
LAYER01
 10
2884.950195
 11
2888.800049
 20
-1066.299805
 21
-1106.950195
  0
LINE
  8
LAYER01
 10
2888.800049
 11
2884.950195
 20
-1106.950195
 21
-1147.599609
  0
LINE
  8
LAYER01
 10
2884.950195
 11
2872.250244
 20
-1147.599609
 21
-1185.700195
  0
LINE
  8
LAYER01
 10
2872.250244
 11
2853.200195
 20
-1185.700195
 21
-1220.049805
  0
LINE
  8
LAYER01
 10
2853.200195
 11
2829.050293
 20
-1220.049805
 21
-1249.25
  0
LINE
  8
LAYER01
 10
2829.050293
 11
2798.550293
 20
-1249.25
 21
-1274.650391
  0
LINE
  8
LAYER01
 10
2798.550293
 11
2764.250244
 20
-1274.650391
 21
-1292.450195
  0
LINE
  8
LAYER01
 10
2764.250244
 11
2727.450195
 20
-1292.450195
 21
-1305.150391
  0
LINE
  8
LAYER01
 10
2727.450195
 11
2686.750244
 20
-1305.150391
 21
-1308.950195
  0
LINE
  8
LAYER01
 10
2686.750244
 11
2646.100342
 20
-1308.950195
 21
-1305.150391
  0
LINE
  8
LAYER01
 10
2646.100342
 11
2608.000244
 20
-1305.150391
 21
-1292.450195
  0
LINE
  8
LAYER01
 10
2608.000244
 11
2573.700195
 20
-1292.450195
 21
-1274.650391
  0
LINE
  8
LAYER01
 10
2573.700195
 11
2543.200195
 20
-1274.650391
 21
-1249.25
  0
LINE
  8
LAYER01
 10
2543.200195
 11
2519.050293
 20
-1249.25
 21
-1220.049805
  0
LINE
  8
LAYER01
 10
2519.050293
 11
2500.000244
 20
-1220.049805
 21
-1185.700195
  0
LINE
  8
LAYER01
 10
2500.000244
 11
2488.550293
 20
-1185.700195
 21
-1147.599609
  0
LINE
  8
LAYER01
 10
2488.550293
 11
2483.500244
 20
-1147.599609
 21
-1106.950195
  0
LINE
  8
LAYER01
 10
2483.500244
 11
2488.550293
 20
-1106.950195
 21
-1066.299805
  0
LINE
  8
LAYER01
 10
2488.550293
 11
2500.000244
 20
-1066.299805
 21
-1028.200195
  0
LINE
  8
LAYER01
 10
2500.000244
 11
2519.050293
 20
-1028.200195
 21
-993.900391
  0
LINE
  8
LAYER01
 10
2519.050293
 11
2543.200195
 20
-993.900391
 21
-964.650391
  0
LINE
  8
LAYER01
 10
2543.200195
 11
2573.700195
 20
-964.650391
 21
-940.5
  0
LINE
  8
LAYER01
 10
2573.700195
 11
2608.000244
 20
-940.5
 21
-921.450195
  0
LINE
  8
LAYER01
 10
2608.000244
 11
2646.100342
 20
-921.450195
 21
-910.049805
  0
LINE
  8
LAYER01
 10
2646.100342
 11
2686.750244
 20
-910.049805
 21
-904.950195
  0
LINE
  8
LAYER01
 10
65.750244
 11
105.100342
 20
-904.950195
 21
-910.049805
  0
LINE
  8
LAYER01
 10
105.100342
 11
143.250244
 20
-910.049805
 21
-921.450195
  0
LINE
  8
LAYER01
 10
143.250244
 11
177.550293
 20
-921.450195
 21
-940.5
  0
LINE
  8
LAYER01
 10
177.550293
 11
208.000244
 20
-940.5
 21
-964.650391
  0
LINE
  8
LAYER01
 10
208.000244
 11
232.150391
 20
-964.650391
 21
-993.900391
  0
LINE
  8
LAYER01
 10
232.150391
 11
251.200195
 20
-993.900391
 21
-1028.200195
  0
LINE
  8
LAYER01
 10
251.200195
 11
262.650391
 20
-1028.200195
 21
-1066.299805
  0
LINE
  8
LAYER01
 10
262.650391
 11
267.750244
 20
-1066.299805
 21
-1106.950195
  0
LINE
  8
LAYER01
 10
267.750244
 11
262.650391
 20
-1106.950195
 21
-1147.599609
  0
LINE
  8
LAYER01
 10
262.650391
 11
251.200195
 20
-1147.599609
 21
-1185.700195
  0
LINE
  8
LAYER01
 10
251.200195
 11
232.150391
 20
-1185.700195
 21
-1220.049805
  0
LINE
  8
LAYER01
 10
232.150391
 11
208.000244
 20
-1220.049805
 21
-1249.25
  0
LINE
  8
LAYER01
 10
208.000244
 11
177.550293
 20
-1249.25
 21
-1274.650391
  0
LINE
  8
LAYER01
 10
177.550293
 11
143.250244
 20
-1274.650391
 21
-1292.450195
  0
LINE
  8
LAYER01
 10
143.250244
 11
105.100342
 20
-1292.450195
 21
-1305.150391
  0
LINE
  8
LAYER01
 10
105.100342
 11
65.750244
 20
-1305.150391
 21
-1308.950195
  0
LINE
  8
LAYER01
 10
65.750244
 11
25.050537
 20
-1308.950195
 21
-1305.150391
  0
LINE
  8
LAYER01
 10
25.050537
 11
-13.050049
 20
-1305.150391
 21
-1292.450195
  0
LINE
  8
LAYER01
 10
-13.050049
 11
-47.349854
 20
-1292.450195
 21
-1274.650391
  0
LINE
  8
LAYER01
 10
-47.349854
 11
-77.849854
 20
-1274.650391
 21
-1249.25
  0
LINE
  8
LAYER01
 10
-77.849854
 11
-101.999512
 20
-1249.25
 21
-1220.049805
  0
LINE
  8
LAYER01
 10
-101.999512
 11
-121.049805
 20
-1220.049805
 21
-1185.700195
  0
LINE
  8
LAYER01
 10
-121.049805
 11
-133.75
 20
-1185.700195
 21
-1147.599609
  0
LINE
  8
LAYER01
 10
-133.75
 11
-137.549805
 20
-1147.599609
 21
-1106.950195
  0
LINE
  8
LAYER01
 10
-137.549805
 11
-133.75
 20
-1106.950195
 21
-1066.299805
  0
LINE
  8
LAYER01
 10
-133.75
 11
-121.049805
 20
-1066.299805
 21
-1028.200195
  0
LINE
  8
LAYER01
 10
-121.049805
 11
-101.999512
 20
-1028.200195
 21
-993.900391
  0
LINE
  8
LAYER01
 10
-101.999512
 11
-77.849854
 20
-993.900391
 21
-964.650391
  0
LINE
  8
LAYER01
 10
-77.849854
 11
-47.349854
 20
-964.650391
 21
-940.5
  0
LINE
  8
LAYER01
 10
-47.349854
 11
-13.050049
 20
-940.5
 21
-921.450195
  0
LINE
  8
LAYER01
 10
-13.050049
 11
25.050537
 20
-921.450195
 21
-910.049805
  0
LINE
  8
LAYER01
 10
25.050537
 11
65.750244
 20
-910.049805
 21
-904.950195
  0
LINE
  8
LAYER01
 10
2524.150146
 11
2552.100342
 20
-1005.299805
 21
-972.299805
  0
LINE
  8
LAYER01
 10
2552.100342
 11
2582.600342
 20
-972.299805
 21
-1010.400391
  0
LINE
  8
LAYER01
 10
2582.600342
 11
2594.000244
 20
-1010.400391
 21
-1032.0
  0
LINE
  8
LAYER01
 10
2594.000244
 11
2599.100342
 20
-1032.0
 21
-1054.849609
  0
LINE
  8
LAYER01
 10
2599.100342
 11
2592.750244
 20
-1054.849609
 21
-1085.349609
  0
LINE
  8
LAYER01
 10
2592.750244
 11
2580.050293
 20
-1085.349609
 21
-1104.400391
  0
LINE
  8
LAYER01
 10
2580.050293
 11
2559.700195
 20
-1104.400391
 21
-1117.099609
  0
LINE
  8
LAYER01
 10
2559.700195
 11
2531.750244
 20
-1117.099609
 21
-1127.299805
  0
LINE
  8
LAYER01
 10
2531.750244
 11
2498.750244
 20
-1127.299805
 21
-1137.450195
  0
LINE
  8
LAYER01
 10
2498.750244
 11
2500.000244
 20
-1137.450195
 21
-1070.099609
  0
LINE
  8
LAYER01
 10
2500.000244
 11
2524.150146
 20
-1070.099609
 21
-1005.299805
  0
LINE
  8
LAYER01
 10
-96.899658
 11
-70.199951
 20
-1005.299805
 21
-972.299805
  0
LINE
  8
LAYER01
 10
-70.199951
 11
-39.699951
 20
-972.299805
 21
-1010.400391
  0
LINE
  8
LAYER01
 10
-39.699951
 11
-26.999512
 20
-1010.400391
 21
-1032.0
  0
LINE
  8
LAYER01
 10
-26.999512
 11
-21.949707
 20
-1032.0
 21
-1054.849609
  0
LINE
  8
LAYER01
 10
-21.949707
 11
-29.550049
 20
-1054.849609
 21
-1085.349609
  0
LINE
  8
LAYER01
 10
-29.550049
 11
-42.25
 20
-1085.349609
 21
-1104.400391
  0
LINE
  8
LAYER01
 10
-42.25
 11
-61.299805
 20
-1104.400391
 21
-1117.099609
  0
LINE
  8
LAYER01
 10
-61.299805
 11
-89.249756
 20
-1117.099609
 21
-1127.299805
  0
LINE
  8
LAYER01
 10
-89.249756
 11
-122.299805
 20
-1127.299805
 21
-1137.450195
  0
LINE
  8
LAYER01
 10
-122.299805
 11
-122.299805
 20
-1137.450195
 21
-1070.099609
  0
LINE
  8
LAYER01
 10
-122.299805
 11
-96.899658
 20
-1070.099609
 21
-1005.299805
  0
LINE
  8
LAYER01
 10
2594.000244
 11
2628.350342
 20
-1169.200195
 21
-1184.450195
  0
LINE
  8
LAYER01
 10
2628.350342
 11
2653.750244
 20
-1184.450195
 21
-1213.650391
  0
LINE
  8
LAYER01
 10
2653.750244
 11
2657.550293
 20
-1213.650391
 21
-1295.0
  0
LINE
  8
LAYER01
 10
2657.550293
 11
2614.350342
 20
-1295.0
 21
-1282.299805
  0
LINE
  8
LAYER01
 10
2614.350342
 11
2573.700195
 20
-1282.299805
 21
-1260.700195
  0
LINE
  8
LAYER01
 10
2573.700195
 11
2540.650146
 20
-1260.700195
 21
-1230.200195
  0
LINE
  8
LAYER01
 10
2540.650146
 11
2515.250244
 20
-1230.200195
 21
-1193.349609
  0
LINE
  8
LAYER01
 10
2515.250244
 11
2553.350342
 20
-1193.349609
 21
-1179.349609
  0
LINE
  8
LAYER01
 10
2553.350342
 11
2594.000244
 20
-1179.349609
 21
-1169.200195
  0
LINE
  8
LAYER01
 10
-26.999512
 11
7.300293
 20
-1169.200195
 21
-1184.450195
  0
LINE
  8
LAYER01
 10
7.300293
 11
32.700439
 20
-1184.450195
 21
-1213.650391
  0
LINE
  8
LAYER01
 10
32.700439
 11
36.500244
 20
-1213.650391
 21
-1295.0
  0
LINE
  8
LAYER01
 10
36.500244
 11
-7.949707
 20
-1295.0
 21
-1282.299805
  0
LINE
  8
LAYER01
 10
-7.949707
 11
-47.349854
 20
-1282.299805
 21
-1260.700195
  0
LINE
  8
LAYER01
 10
-47.349854
 11
-80.399902
 20
-1260.700195
 21
-1230.200195
  0
LINE
  8
LAYER01
 10
-80.399902
 11
-105.799805
 20
-1230.200195
 21
-1193.349609
  0
LINE
  8
LAYER01
 10
-105.799805
 11
-67.649658
 20
-1193.349609
 21
-1179.349609
  0
LINE
  8
LAYER01
 10
-67.649658
 11
-26.999512
 20
-1179.349609
 21
-1169.200195
  0
LINE
  8
LAYER01
 10
2717.250244
 11
2742.650146
 20
-1213.650391
 21
-1184.450195
  0
LINE
  8
LAYER01
 10
2742.650146
 11
2778.250244
 20
-1184.450195
 21
-1169.200195
  0
LINE
  8
LAYER01
 10
2778.250244
 11
2817.650146
 20
-1169.200195
 21
-1179.349609
  0
LINE
  8
LAYER01
 10
2817.650146
 11
2855.750244
 20
-1179.349609
 21
-1192.099609
  0
LINE
  8
LAYER01
 10
2855.750244
 11
2830.350342
 20
-1192.099609
 21
-1230.200195
  0
LINE
  8
LAYER01
 10
2830.350342
 11
2797.300049
 20
-1230.200195
 21
-1260.700195
  0
LINE
  8
LAYER01
 10
2797.300049
 11
2757.900146
 20
-1260.700195
 21
-1282.299805
  0
LINE
  8
LAYER01
 10
2757.900146
 11
2714.700195
 20
-1282.299805
 21
-1295.0
  0
LINE
  8
LAYER01
 10
2714.700195
 11
2713.450195
 20
-1295.0
 21
-1254.349609
  0
LINE
  8
LAYER01
 10
2713.450195
 11
2717.250244
 20
-1254.349609
 21
-1213.650391
  0
LINE
  8
LAYER01
 10
96.200439
 11
121.650146
 20
-1213.650391
 21
-1184.450195
  0
LINE
  8
LAYER01
 10
121.650146
 11
157.199951
 20
-1184.450195
 21
-1169.200195
  0
LINE
  8
LAYER01
 10
157.199951
 11
196.600342
 20
-1169.200195
 21
-1179.349609
  0
LINE
  8
LAYER01
 10
196.600342
 11
234.700195
 20
-1179.349609
 21
-1192.099609
  0
LINE
  8
LAYER01
 10
234.700195
 11
209.300293
 20
-1192.099609
 21
-1230.200195
  0
LINE
  8
LAYER01
 10
209.300293
 11
176.250244
 20
-1230.200195
 21
-1260.700195
  0
LINE
  8
LAYER01
 10
176.250244
 11
136.900391
 20
-1260.700195
 21
-1282.299805
  0
LINE
  8
LAYER01
 10
136.900391
 11
92.400635
 20
-1282.299805
 21
-1295.0
  0
LINE
  8
LAYER01
 10
92.400635
 11
92.400635
 20
-1295.0
 21
-1254.349609
  0
LINE
  8
LAYER01
 10
92.400635
 11
96.200439
 20
-1254.349609
 21
-1213.650391
  0
LINE
  8
LAYER01
 10
2780.800049
 11
2775.700195
 20
-1086.599609
 21
-1040.900391
  0
LINE
  8
LAYER01
 10
2775.700195
 11
2798.550293
 20
-1040.900391
 21
-1000.25
  0
LINE
  8
LAYER01
 10
2798.550293
 11
2821.450439
 20
-1000.25
 21
-972.299805
  0
LINE
  8
LAYER01
 10
2821.450439
 11
2845.600342
 20
-972.299805
 21
-1004.049805
  0
LINE
  8
LAYER01
 10
2845.600342
 11
2862.100342
 20
-1004.049805
 21
-1038.349609
  0
LINE
  8
LAYER01
 10
2862.100342
 11
2876.050049
 20
-1038.349609
 21
-1114.599609
  0
LINE
  8
LAYER01
 10
2876.050049
 11
2873.550293
 20
-1114.599609
 21
-1137.450195
  0
LINE
  8
LAYER01
 10
2873.550293
 11
2824.000244
 20
-1137.450195
 21
-1123.450195
  0
LINE
  8
LAYER01
 10
2824.000244
 11
2801.100342
 20
-1123.450195
 21
-1112.049805
  0
LINE
  8
LAYER01
 10
2801.100342
 11
2783.350342
 20
-1112.049805
 21
-1093.0
  0
LINE
  8
LAYER01
 10
2783.350342
 11
2780.800049
 20
-1093.0
 21
-1086.599609
  0
LINE
  8
LAYER01
 10
158.450439
 11
154.650146
 20
-1086.599609
 21
-1040.900391
  0
LINE
  8
LAYER01
 10
154.650146
 11
177.550293
 20
-1040.900391
 21
-1000.25
  0
LINE
  8
LAYER01
 10
177.550293
 11
199.150146
 20
-1000.25
 21
-972.299805
  0
LINE
  8
LAYER01
 10
199.150146
 11
223.250244
 20
-972.299805
 21
-1004.049805
  0
LINE
  8
LAYER01
 10
223.250244
 11
241.050049
 20
-1004.049805
 21
-1038.349609
  0
LINE
  8
LAYER01
 10
241.050049
 11
255.050049
 20
-1038.349609
 21
-1114.599609
  0
LINE
  8
LAYER01
 10
255.050049
 11
252.500244
 20
-1114.599609
 21
-1137.450195
  0
LINE
  8
LAYER01
 10
252.500244
 11
202.950439
 20
-1137.450195
 21
-1123.450195
  0
LINE
  8
LAYER01
 10
202.950439
 11
180.050049
 20
-1123.450195
 21
-1112.049805
  0
LINE
  8
LAYER01
 10
180.050049
 11
162.300293
 20
-1112.049805
 21
-1093.0
  0
LINE
  8
LAYER01
 10
162.300293
 11
158.450439
 20
-1093.0
 21
-1086.599609
  0
LINE
  8
LAYER01
 10
2644.850342
 11
2599.100342
 20
-998.950195
 21
-938.0
  0
LINE
  8
LAYER01
 10
2599.100342
 11
2633.400146
 20
-938.0
 21
-924.0
  0
LINE
  8
LAYER01
 10
2633.400146
 11
2671.500244
 20
-924.0
 21
-917.650391
  0
LINE
  8
LAYER01
 10
2671.500244
 11
2723.600342
 20
-917.650391
 21
-921.450195
  0
LINE
  8
LAYER01
 10
2723.600342
 11
2771.900146
 20
-921.450195
 21
-938.0
  0
LINE
  8
LAYER01
 10
2771.900146
 11
2728.700195
 20
-938.0
 21
-998.950195
  0
LINE
  8
LAYER01
 10
2728.700195
 11
2709.650146
 20
-998.950195
 21
-1007.849609
  0
LINE
  8
LAYER01
 10
2709.650146
 11
2686.750244
 20
-1007.849609
 21
-1010.400391
  0
LINE
  8
LAYER01
 10
2686.750244
 11
2663.900146
 20
-1010.400391
 21
-1007.849609
  0
LINE
  8
LAYER01
 10
2663.900146
 11
2644.850342
 20
-1007.849609
 21
-998.950195
  0
LINE
  8
LAYER01
 10
23.800049
 11
-21.949707
 20
-998.950195
 21
-938.0
  0
LINE
  8
LAYER01
 10
-21.949707
 11
12.350342
 20
-938.0
 21
-924.0
  0
LINE
  8
LAYER01
 10
12.350342
 11
50.500244
 20
-924.0
 21
-917.650391
  0
LINE
  8
LAYER01
 10
50.500244
 11
102.550293
 20
-917.650391
 21
-921.450195
  0
LINE
  8
LAYER01
 10
102.550293
 11
150.850098
 20
-921.450195
 21
-938.0
  0
LINE
  8
LAYER01
 10
150.850098
 11
107.650146
 20
-938.0
 21
-998.950195
  0
LINE
  8
LAYER01
 10
107.650146
 11
88.600342
 20
-998.950195
 21
-1007.849609
  0
LINE
  8
LAYER01
 10
88.600342
 11
65.750244
 20
-1007.849609
 21
-1010.400391
  0
LINE
  8
LAYER01
 10
65.750244
 11
41.600098
 20
-1010.400391
 21
-1007.849609
  0
LINE
  8
LAYER01
 10
41.600098
 11
23.800049
 20
-1007.849609
 21
-998.950195
  0
LINE
  8
LAYER01
 10
2685.500244
 11
2653.750244
 20
-1025.650391
 21
-1032.0
  0
LINE
  8
LAYER01
 10
2653.750244
 11
2628.350342
 20
-1032.0
 21
-1049.799805
  0
LINE
  8
LAYER01
 10
2628.350342
 11
2611.800293
 20
-1049.799805
 21
-1075.200195
  0
LINE
  8
LAYER01
 10
2611.800293
 11
2605.450195
 20
-1075.200195
 21
-1106.950195
  0
LINE
  8
LAYER01
 10
2605.450195
 11
2611.800293
 20
-1106.950195
 21
-1138.700195
  0
LINE
  8
LAYER01
 10
2611.800293
 11
2628.350342
 20
-1138.700195
 21
-1164.150391
  0
LINE
  8
LAYER01
 10
2628.350342
 11
2653.750244
 20
-1164.150391
 21
-1181.900391
  0
LINE
  8
LAYER01
 10
2653.750244
 11
2685.500244
 20
-1181.900391
 21
-1188.25
  0
LINE
  8
LAYER01
 10
2685.500244
 11
2717.250244
 20
-1188.25
 21
-1181.900391
  0
LINE
  8
LAYER01
 10
2717.250244
 11
2742.650146
 20
-1181.900391
 21
-1164.150391
  0
LINE
  8
LAYER01
 10
2742.650146
 11
2760.450195
 20
-1164.150391
 21
-1138.700195
  0
LINE
  8
LAYER01
 10
2760.450195
 11
2766.800293
 20
-1138.700195
 21
-1106.950195
  0
LINE
  8
LAYER01
 10
2766.800293
 11
2760.450195
 20
-1106.950195
 21
-1075.200195
  0
LINE
  8
LAYER01
 10
2760.450195
 11
2742.650146
 20
-1075.200195
 21
-1049.799805
  0
LINE
  8
LAYER01
 10
2742.650146
 11
2717.250244
 20
-1049.799805
 21
-1032.0
  0
LINE
  8
LAYER01
 10
2717.250244
 11
2685.500244
 20
-1032.0
 21
-1025.650391
  0
LINE
  8
LAYER01
 10
64.450195
 11
32.700439
 20
-1025.650391
 21
-1032.0
  0
LINE
  8
LAYER01
 10
32.700439
 11
7.300293
 20
-1032.0
 21
-1049.799805
  0
LINE
  8
LAYER01
 10
7.300293
 11
-10.499756
 20
-1049.799805
 21
-1075.200195
  0
LINE
  8
LAYER01
 10
-10.499756
 11
-16.849854
 20
-1075.200195
 21
-1106.950195
  0
LINE
  8
LAYER01
 10
-16.849854
 11
-10.499756
 20
-1106.950195
 21
-1138.700195
  0
LINE
  8
LAYER01
 10
-10.499756
 11
7.300293
 20
-1138.700195
 21
-1164.150391
  0
LINE
  8
LAYER01
 10
7.300293
 11
32.700439
 20
-1164.150391
 21
-1181.900391
  0
LINE
  8
LAYER01
 10
32.700439
 11
64.450195
 20
-1181.900391
 21
-1188.25
  0
LINE
  8
LAYER01
 10
64.450195
 11
96.200439
 20
-1188.25
 21
-1181.900391
  0
LINE
  8
LAYER01
 10
96.200439
 11
121.650146
 20
-1181.900391
 21
-1164.150391
  0
LINE
  8
LAYER01
 10
121.650146
 11
139.400146
 20
-1164.150391
 21
-1138.700195
  0
LINE
  8
LAYER01
 10
139.400146
 11
145.750244
 20
-1138.700195
 21
-1106.950195
  0
LINE
  8
LAYER01
 10
145.750244
 11
139.400146
 20
-1106.950195
 21
-1075.200195
  0
LINE
  8
LAYER01
 10
139.400146
 11
121.650146
 20
-1075.200195
 21
-1049.799805
  0
LINE
  8
LAYER01
 10
121.650146
 11
96.200439
 20
-1049.799805
 21
-1032.0
  0
LINE
  8
LAYER01
 10
96.200439
 11
64.450195
 20
-1032.0
 21
-1025.650391
  0
LINE
  8
LAYER01
 10
2685.500244
 11
2657.550293
 20
-1034.549805
 21
-1039.599609
  0
LINE
  8
LAYER01
 10
2657.550293
 11
2633.400146
 20
-1039.599609
 21
-1054.849609
  0
LINE
  8
LAYER01
 10
2633.400146
 11
2618.150146
 20
-1054.849609
 21
-1079.0
  0
LINE
  8
LAYER01
 10
2618.150146
 11
2613.100098
 20
-1079.0
 21
-1106.950195
  0
LINE
  8
LAYER01
 10
2613.100098
 11
2618.150146
 20
-1106.950195
 21
-1136.150391
  0
LINE
  8
LAYER01
 10
2618.150146
 11
2633.400146
 20
-1136.150391
 21
-1159.049805
  0
LINE
  8
LAYER01
 10
2633.400146
 11
2657.550293
 20
-1159.049805
 21
-1174.299805
  0
LINE
  8
LAYER01
 10
2657.550293
 11
2685.500244
 20
-1174.299805
 21
-1179.349609
  0
LINE
  8
LAYER01
 10
2685.500244
 11
2714.700195
 20
-1179.349609
 21
-1174.299805
  0
LINE
  8
LAYER01
 10
2714.700195
 11
2737.600342
 20
-1174.299805
 21
-1159.049805
  0
LINE
  8
LAYER01
 10
2737.600342
 11
2752.850342
 20
-1159.049805
 21
-1136.150391
  0
LINE
  8
LAYER01
 10
2752.850342
 11
2759.200195
 20
-1136.150391
 21
-1106.950195
  0
LINE
  8
LAYER01
 10
2759.200195
 11
2752.850342
 20
-1106.950195
 21
-1079.0
  0
LINE
  8
LAYER01
 10
2752.850342
 11
2737.600342
 20
-1079.0
 21
-1054.849609
  0
LINE
  8
LAYER01
 10
2737.600342
 11
2714.700195
 20
-1054.849609
 21
-1039.599609
  0
LINE
  8
LAYER01
 10
2714.700195
 11
2685.500244
 20
-1039.599609
 21
-1034.549805
  0
LINE
  8
LAYER01
 10
64.450195
 11
35.250244
 20
-1034.549805
 21
-1039.599609
  0
LINE
  8
LAYER01
 10
35.250244
 11
12.350342
 20
-1039.599609
 21
-1054.849609
  0
LINE
  8
LAYER01
 10
12.350342
 11
-2.899658
 20
-1054.849609
 21
-1079.0
  0
LINE
  8
LAYER01
 10
-2.899658
 11
-7.949707
 20
-1079.0
 21
-1106.950195
  0
LINE
  8
LAYER01
 10
-7.949707
 11
-2.899658
 20
-1106.950195
 21
-1136.150391
  0
LINE
  8
LAYER01
 10
-2.899658
 11
12.350342
 20
-1136.150391
 21
-1159.049805
  0
LINE
  8
LAYER01
 10
12.350342
 11
35.250244
 20
-1159.049805
 21
-1174.299805
  0
LINE
  8
LAYER01
 10
35.250244
 11
64.450195
 20
-1174.299805
 21
-1179.349609
  0
LINE
  8
LAYER01
 10
64.450195
 11
93.700195
 20
-1179.349609
 21
-1174.299805
  0
LINE
  8
LAYER01
 10
93.700195
 11
116.550049
 20
-1174.299805
 21
-1159.049805
  0
LINE
  8
LAYER01
 10
116.550049
 11
131.800049
 20
-1159.049805
 21
-1136.150391
  0
LINE
  8
LAYER01
 10
131.800049
 11
138.150146
 20
-1136.150391
 21
-1106.950195
  0
LINE
  8
LAYER01
 10
138.150146
 11
131.800049
 20
-1106.950195
 21
-1079.0
  0
LINE
  8
LAYER01
 10
131.800049
 11
116.550049
 20
-1079.0
 21
-1054.849609
  0
LINE
  8
LAYER01
 10
116.550049
 11
93.700195
 20
-1054.849609
 21
-1039.599609
  0
LINE
  8
LAYER01
 10
93.700195
 11
64.450195
 20
-1039.599609
 21
-1034.549805
  0
LINE
  8
LAYER01
 10
-357.349609
 11
-349.749756
 20
-1222.549805
 21
-1222.549805
  0
LINE
  8
LAYER01
 10
-349.749756
 11
-340.849854
 20
-1222.549805
 21
-1103.150391
  0
LINE
  8
LAYER01
 10
-340.849854
 11
-312.899658
 20
-1103.150391
 21
-1001.5
  0
LINE
  8
LAYER01
 10
-312.899658
 11
-270.949951
 20
-1001.5
 21
-917.650391
  0
LINE
  8
LAYER01
 10
-270.949951
 11
-217.599854
 20
-917.650391
 21
-850.299805
  0
LINE
  8
LAYER01
 10
-217.599854
 11
-154.049561
 20
-850.299805
 21
-799.5
  0
LINE
  8
LAYER01
 10
-154.049561
 11
-84.199951
 20
-799.5
 21
-763.900391
  0
LINE
  8
LAYER01
 10
-84.199951
 11
-10.499756
 20
-763.900391
 21
-743.599609
  0
LINE
  8
LAYER01
 10
-10.499756
 11
63.200439
 20
-743.599609
 21
-737.25
  0
LINE
  8
LAYER01
 10
63.200439
 11
163.550293
 20
-737.25
 21
-748.650391
  0
LINE
  8
LAYER01
 10
163.550293
 11
249.950195
 20
-748.650391
 21
-777.900391
  0
LINE
  8
LAYER01
 10
249.950195
 11
323.650146
 20
-777.900391
 21
-823.650391
  0
LINE
  8
LAYER01
 10
323.650146
 11
383.350342
 20
-823.650391
 21
-884.599609
  0
LINE
  8
LAYER01
 10
383.350342
 11
429.100098
 20
-884.599609
 21
-960.849609
  0
LINE
  8
LAYER01
 10
429.100098
 11
459.600342
 20
-960.849609
 21
-1051.049805
  0
LINE
  8
LAYER01
 10
459.600342
 11
477.350342
 20
-1051.049805
 21
-1152.700195
  0
LINE
  8
LAYER01
 10
477.350342
 11
478.650146
 20
-1152.700195
 21
-1264.5
  0
LINE
  8
LAYER01
 10
478.650146
 11
366.850342
 20
-1264.5
 21
-1265.75
  0
LINE
  8
LAYER01
 10
366.850342
 11
396.050049
 20
-1265.75
 21
-1190.799805
  0
LINE
  8
LAYER01
 10
396.050049
 11
406.200195
 20
-1190.799805
 21
-1106.950195
  0
LINE
  8
LAYER01
 10
406.200195
 11
399.850342
 20
-1106.950195
 21
-1038.349609
  0
LINE
  8
LAYER01
 10
399.850342
 11
379.550293
 20
-1038.349609
 21
-974.799805
  0
LINE
  8
LAYER01
 10
379.550293
 11
347.800049
 20
-974.799805
 21
-916.400391
  0
LINE
  8
LAYER01
 10
347.800049
 11
305.850098
 20
-916.400391
 21
-865.549805
  0
LINE
  8
LAYER01
 10
305.850098
 11
255.050049
 20
-865.549805
 21
-823.650391
  0
LINE
  8
LAYER01
 10
255.050049
 11
196.600342
 20
-823.650391
 21
-791.849609
  0
LINE
  8
LAYER01
 10
196.600342
 11
133.050293
 20
-791.849609
 21
-771.549805
  0
LINE
  8
LAYER01
 10
133.050293
 11
64.450195
 20
-771.549805
 21
-763.900391
  0
LINE
  8
LAYER01
 10
64.450195
 11
-4.149658
 20
-763.900391
 21
-771.549805
  0
LINE
  8
LAYER01
 10
-4.149658
 11
-68.949707
 20
-771.549805
 21
-791.849609
  0
LINE
  8
LAYER01
 10
-68.949707
 11
-127.399658
 20
-791.849609
 21
-823.650391
  0
LINE
  8
LAYER01
 10
-127.399658
 11
-178.199707
 20
-823.650391
 21
-865.549805
  0
LINE
  8
LAYER01
 10
-178.199707
 11
-220.149902
 20
-865.549805
 21
-916.400391
  0
LINE
  8
LAYER01
 10
-220.149902
 11
-251.899658
 20
-916.400391
 21
-974.799805
  0
LINE
  8
LAYER01
 10
-251.899658
 11
-270.949951
 20
-974.799805
 21
-1038.349609
  0
LINE
  8
LAYER01
 10
-270.949951
 11
-278.599854
 20
-1038.349609
 21
-1106.950195
  0
LINE
  8
LAYER01
 10
-278.599854
 11
-273.5
 20
-1106.950195
 21
-1166.650391
  0
LINE
  8
LAYER01
 10
-273.5
 11
-258.249756
 20
-1166.650391
 21
-1222.549805
  0
LINE
  8
LAYER01
 10
-258.249756
 11
-357.349609
 20
-1222.549805
 21
-1222.549805
  0
LINE
  8
LAYER01
 10
2272.600342
 11
2278.950195
 20
-1246.700195
 21
-1223.849609
  0
LINE
  8
LAYER01
 10
2278.950195
 11
2282.750244
 20
-1223.849609
 21
-1115.849609
  0
LINE
  8
LAYER01
 10
2282.750244
 11
2299.250244
 20
-1115.849609
 21
-1019.299805
  0
LINE
  8
LAYER01
 10
2299.250244
 11
2329.750244
 20
-1019.299805
 21
-935.450195
  0
LINE
  8
LAYER01
 10
2329.750244
 11
2371.700195
 20
-935.450195
 21
-864.299805
  0
LINE
  8
LAYER01
 10
2371.700195
 11
2428.850342
 20
-864.299805
 21
-807.099609
  0
LINE
  8
LAYER01
 10
2428.850342
 11
2500.000244
 20
-807.099609
 21
-765.200195
  0
LINE
  8
LAYER01
 10
2500.000244
 11
2585.150146
 20
-765.200195
 21
-738.5
  0
LINE
  8
LAYER01
 10
2585.150146
 11
2685.500244
 20
-738.5
 21
-729.599609
  0
LINE
  8
LAYER01
 10
2685.500244
 11
2782.050293
 20
-729.599609
 21
-737.25
  0
LINE
  8
LAYER01
 10
2782.050293
 11
2865.900146
 20
-737.25
 21
-761.400391
  0
LINE
  8
LAYER01
 10
2865.900146
 11
2938.350342
 20
-761.400391
 21
-800.75
  0
LINE
  8
LAYER01
 10
2938.350342
 11
2996.750244
 20
-800.75
 21
-855.400391
  0
LINE
  8
LAYER01
 10
2996.750244
 11
3042.450195
 20
-855.400391
 21
-924.0
  0
LINE
  8
LAYER01
 10
3042.450195
 11
3076.750244
 20
-924.0
 21
-1009.099609
  0
LINE
  8
LAYER01
 10
3076.750244
 11
3098.350342
 20
-1009.099609
 21
-1106.950195
  0
LINE
  8
LAYER01
 10
3098.350342
 11
3107.250244
 20
-1106.950195
 21
-1218.75
  0
LINE
  8
LAYER01
 10
3107.250244
 11
3108.550293
 20
-1218.75
 21
-1227.650391
  0
LINE
  8
LAYER01
 10
3108.550293
 11
3004.400146
 20
-1227.650391
 21
-1227.650391
  0
LINE
  8
LAYER01
 10
3004.400146
 11
3020.900146
 20
-1227.650391
 21
-1169.200195
  0
LINE
  8
LAYER01
 10
3020.900146
 11
3027.250244
 20
-1169.200195
 21
-1106.950195
  0
LINE
  8
LAYER01
 10
3027.250244
 11
3020.900146
 20
-1106.950195
 21
-1038.349609
  0
LINE
  8
LAYER01
 10
3020.900146
 11
3000.600342
 20
-1038.349609
 21
-974.799805
  0
LINE
  8
LAYER01
 10
3000.600342
 11
2968.800293
 20
-974.799805
 21
-916.400391
  0
LINE
  8
LAYER01
 10
2968.800293
 11
2926.900146
 20
-916.400391
 21
-865.549805
  0
LINE
  8
LAYER01
 10
2926.900146
 11
2876.050049
 20
-865.549805
 21
-823.650391
  0
LINE
  8
LAYER01
 10
2876.050049
 11
2817.650146
 20
-823.650391
 21
-791.849609
  0
LINE
  8
LAYER01
 10
2817.650146
 11
2754.100342
 20
-791.849609
 21
-771.549805
  0
LINE
  8
LAYER01
 10
2754.100342
 11
2684.250244
 20
-771.549805
 21
-763.900391
  0
LINE
  8
LAYER01
 10
2684.250244
 11
2616.900146
 20
-763.900391
 21
-771.549805
  0
LINE
  8
LAYER01
 10
2616.900146
 11
2552.100342
 20
-771.549805
 21
-791.849609
  0
LINE
  8
LAYER01
 10
2552.100342
 11
2494.900146
 20
-791.849609
 21
-823.650391
  0
LINE
  8
LAYER01
 10
2494.900146
 11
2444.100342
 20
-823.650391
 21
-865.549805
  0
LINE
  8
LAYER01
 10
2444.100342
 11
2402.200195
 20
-865.549805
 21
-916.400391
  0
LINE
  8
LAYER01
 10
2402.200195
 11
2370.400146
 20
-916.400391
 21
-974.799805
  0
LINE
  8
LAYER01
 10
2370.400146
 11
2350.100342
 20
-974.799805
 21
-1038.349609
  0
LINE
  8
LAYER01
 10
2350.100342
 11
2343.750244
 20
-1038.349609
 21
-1106.950195
  0
LINE
  8
LAYER01
 10
2343.750244
 11
2351.350342
 20
-1106.950195
 21
-1179.349609
  0
LINE
  8
LAYER01
 10
2351.350342
 11
2374.250244
 20
-1179.349609
 21
-1246.700195
  0
LINE
  8
LAYER01
 10
2374.250244
 11
2272.600342
 20
-1246.700195
 21
-1246.700195
  0
LINE
  8
LAYER01
 10
3380.400146
 11
3257.150146
 20
-932.900391
 21
-932.900391
  0
LINE
  8
LAYER01
 10
3257.150146
 11
3247.000244
 20
-932.900391
 21
-936.700195
  0
LINE
  8
LAYER01
 10
3247.000244
 11
3243.200195
 20
-936.700195
 21
-946.849609
  0
LINE
  8
LAYER01
 10
3243.200195
 11
3243.200195
 20
-946.849609
 21
-992.599609
  0
LINE
  8
LAYER01
 10
3243.200195
 11
3247.000244
 20
-992.599609
 21
-1002.75
  0
LINE
  8
LAYER01
 10
3247.000244
 11
3257.150146
 20
-1002.75
 21
-1006.599609
  0
LINE
  8
LAYER01
 10
3257.150146
 11
3380.400146
 20
-1006.599609
 21
-1006.599609
  0
LINE
  8
LAYER01
 10
3380.400146
 11
3390.600342
 20
-1006.599609
 21
-1002.75
  0
LINE
  8
LAYER01
 10
3390.600342
 11
3394.400146
 20
-1002.75
 21
-992.599609
  0
LINE
  8
LAYER01
 10
3394.400146
 11
3394.400146
 20
-992.599609
 21
-946.849609
  0
LINE
  8
LAYER01
 10
3394.400146
 11
3390.600342
 20
-946.849609
 21
-936.700195
  0
LINE
  8
LAYER01
 10
3390.600342
 11
3380.400146
 20
-936.700195
 21
-932.900391
  0
LINE
  8
LAYER01
 10
-334.499756
 11
-420.849854
 20
-878.25
 21
-878.25
  0
LINE
  8
LAYER01
 10
-420.849854
 11
-431.049561
 20
-878.25
 21
-888.450195
  0
LINE
  8
LAYER01
 10
-431.049561
 11
-431.049561
 20
-888.450195
 21
-921.450195
  0
LINE
  8
LAYER01
 10
-431.049561
 11
-420.849854
 20
-921.450195
 21
-931.599609
  0
LINE
  8
LAYER01
 10
-420.849854
 11
-334.499756
 20
-931.599609
 21
-931.599609
  0
LINE
  8
LAYER01
 10
-334.499756
 11
-324.300049
 20
-931.599609
 21
-921.450195
  0
LINE
  8
LAYER01
 10
-324.300049
 11
-324.300049
 20
-921.450195
 21
-888.450195
  0
LINE
  8
LAYER01
 10
-324.300049
 11
-334.499756
 20
-888.450195
 21
-878.25
  0
LINE
  8
LAYER01
 10
3272.400146
 11
3277.500244
 20
-755.0
 21
-776.599609
  0
LINE
  8
LAYER01
 10
3277.500244
 11
3271.150146
 20
-776.599609
 21
-791.849609
  0
LINE
  8
LAYER01
 10
3271.150146
 11
3252.100342
 20
-791.849609
 21
-799.5
  0
LINE
  8
LAYER01
 10
3252.100342
 11
3225.400146
 20
-799.5
 21
-796.950195
  0
LINE
  8
LAYER01
 10
3225.400146
 11
3189.850342
 20
-796.950195
 21
-777.900391
  0
LINE
  8
LAYER01
 10
3189.850342
 11
3142.850342
 20
-777.900391
 21
-741.049805
  0
LINE
  8
LAYER01
 10
3142.850342
 11
3099.650146
 20
-741.049805
 21
-694.049805
  0
LINE
  8
LAYER01
 10
3099.650146
 11
3074.200195
 20
-694.049805
 21
-647.049805
  0
LINE
  8
LAYER01
 10
3074.200195
 11
3075.500244
 20
-647.049805
 21
-630.5
  0
LINE
  8
LAYER01
 10
3075.500244
 11
3088.200195
 20
-630.5
 21
-617.799805
  0
LINE
  8
LAYER01
 10
3088.200195
 11
3108.550293
 20
-617.799805
 21
-612.75
  0
LINE
  8
LAYER01
 10
3108.550293
 11
3132.650146
 20
-612.75
 21
-617.799805
  0
LINE
  8
LAYER01
 10
3132.650146
 11
3177.150146
 20
-617.799805
 21
-643.200195
  0
LINE
  8
LAYER01
 10
3177.150146
 11
3215.250244
 20
-643.200195
 21
-672.450195
  0
LINE
  8
LAYER01
 10
3215.250244
 11
3245.750244
 20
-672.450195
 21
-709.299805
  0
LINE
  8
LAYER01
 10
3245.750244
 11
3272.400146
 20
-709.299805
 21
-755.0
  0
LINE
  8
LAYER01
 10
3165.700195
 11
2948.500244
 20
-761.400391
 21
-761.400391
  0
LINE
  8
LAYER01
 10
2948.500244
 11
2925.600342
 20
-761.400391
 21
-789.349609
  0
LINE
  8
LAYER01
 10
-397.999756
 11
-160.399658
 20
-761.400391
 21
-761.400391
  0
LINE
  8
LAYER01
 10
-160.399658
 11
-137.549805
 20
-761.400391
 21
-789.349609
  0
LINE
  8
LAYER01
 10
3490.950195
 11
3211.450195
 20
-906.200195
 21
-906.200195
  0
LINE
  8
LAYER01
 10
3211.450195
 11
3172.050049
 20
-906.200195
 21
-899.849609
  0
LINE
  8
LAYER01
 10
3172.050049
 11
3133.950195
 20
-899.849609
 21
-879.549805
  0
LINE
  8
LAYER01
 10
3133.950195
 11
3103.450195
 20
-879.549805
 21
-845.25
  0
LINE
  8
LAYER01
 10
3103.450195
 11
3088.200195
 20
-845.25
 21
-791.849609
  0
LINE
  8
LAYER01
 10
3088.200195
 11
3081.850342
 20
-791.849609
 21
-765.200195
  0
LINE
  8
LAYER01
 10
3081.850342
 11
3067.850342
 20
-765.200195
 21
-737.25
  0
LINE
  8
LAYER01
 10
3067.850342
 11
3022.200195
 20
-737.25
 21
-681.349609
  0
LINE
  8
LAYER01
 10
3022.200195
 11
2951.050049
 20
-681.349609
 21
-634.349609
  0
LINE
  8
LAYER01
 10
2951.050049
 11
2909.100342
 20
-634.349609
 21
-617.799805
  0
LINE
  8
LAYER01
 10
2909.100342
 11
2863.350342
 20
-617.799805
 21
-607.650391
  0
LINE
  8
LAYER01
 10
2863.350342
 11
2776.950195
 20
-607.650391
 21
-598.75
  0
LINE
  8
LAYER01
 10
2776.950195
 11
2696.950195
 20
-598.75
 21
-600.0
  0
LINE
  8
LAYER01
 10
2696.950195
 11
2619.450195
 20
-600.0
 21
-608.900391
  0
LINE
  8
LAYER01
 10
2619.450195
 11
2547.000244
 20
-608.900391
 21
-626.700195
  0
LINE
  8
LAYER01
 10
2547.000244
 11
2479.700195
 20
-626.700195
 21
-652.099609
  0
LINE
  8
LAYER01
 10
2479.700195
 11
2416.150146
 20
-652.099609
 21
-685.150391
  0
LINE
  8
LAYER01
 10
2416.150146
 11
2359.000244
 20
-685.150391
 21
-723.25
  0
LINE
  8
LAYER01
 10
2359.000244
 11
2305.600342
 20
-723.25
 21
-769.0
  0
LINE
  8
LAYER01
 10
2305.600342
 11
2267.500244
 20
-769.0
 21
-809.650391
  0
LINE
  8
LAYER01
 10
2267.500244
 11
2235.750244
 20
-809.650391
 21
-856.650391
  0
LINE
  8
LAYER01
 10
2235.750244
 11
2209.050293
 20
-856.650391
 21
-911.299805
  0
LINE
  8
LAYER01
 10
2209.050293
 11
2188.750244
 20
-911.299805
 21
-969.75
  0
LINE
  8
LAYER01
 10
2188.750244
 11
2162.050293
 20
-969.75
 21
-1106.950195
  0
LINE
  8
LAYER01
 10
2162.050293
 11
2155.700195
 20
-1106.950195
 21
-1268.299805
  0
LINE
  8
LAYER01
 10
2300.550049
 11
293.150146
 20
-479.349609
 21
-443.75
  0
LINE
  8
LAYER01
 10
293.150146
 11
276.650391
 20
-443.75
 21
-438.650391
  0
LINE
  8
LAYER01
 10
276.650391
 11
267.750244
 20
-438.650391
 21
-428.5
  0
LINE
  8
LAYER01
 10
267.750244
 11
266.450195
 20
-428.5
 21
-415.799805
  0
LINE
  8
LAYER01
 10
266.450195
 11
275.350342
 20
-415.799805
 21
-400.549805
  0
LINE
  8
LAYER01
 10
275.350342
 11
413.850098
 20
-400.549805
 21
-274.799805
  0
LINE
  8
LAYER01
 10
413.850098
 11
490.050293
 20
-274.799805
 21
-218.849609
  0
LINE
  8
LAYER01
 10
490.050293
 11
570.100098
 20
-218.849609
 21
-168.049805
  0
LINE
  8
LAYER01
 10
570.100098
 11
655.250244
 20
-168.049805
 21
-123.599609
  0
LINE
  8
LAYER01
 10
655.250244
 11
744.150146
 20
-123.599609
 21
-85.450195
  0
LINE
  8
LAYER01
 10
744.150146
 11
838.200439
 20
-85.450195
 21
-55.049805
  0
LINE
  8
LAYER01
 10
838.200439
 11
936.000244
 20
-55.049805
 21
-29.599609
  0
LINE
  8
LAYER01
 10
936.000244
 11
1141.850342
 20
-29.599609
 21
-0.400391
  0
LINE
  8
LAYER01
 10
1141.850342
 11
1348.950439
 20
-0.400391
 21
3.400391
  0
LINE
  8
LAYER01
 10
1348.950439
 11
1556.000244
 20
3.400391
 21
-19.450195
  0
LINE
  8
LAYER01
 10
1556.000244
 11
1763.100098
 20
-19.450195
 21
-70.25
  0
LINE
  8
LAYER01
 10
1763.100098
 11
1839.350098
 20
-70.25
 21
-98.200195
  0
LINE
  8
LAYER01
 10
1839.350098
 11
1913.050293
 20
-98.200195
 21
-131.200195
  0
LINE
  8
LAYER01
 10
1913.050293
 11
2054.050049
 20
-131.200195
 21
-215.049805
  0
LINE
  8
LAYER01
 10
2054.050049
 11
2188.750244
 20
-215.049805
 21
-312.900391
  0
LINE
  8
LAYER01
 10
2188.750244
 11
2318.300049
 20
-312.900391
 21
-422.150391
  0
LINE
  8
LAYER01
 10
2318.300049
 11
2336.100342
 20
-422.150391
 21
-446.299805
  0
LINE
  8
LAYER01
 10
2336.100342
 11
2334.850342
 20
-446.299805
 21
-465.349609
  0
LINE
  8
LAYER01
 10
2334.850342
 11
2320.850342
 20
-465.349609
 21
-476.799805
  0
LINE
  8
LAYER01
 10
2320.850342
 11
2300.550049
 20
-476.799805
 21
-479.349609
  0
LINE
  8
LAYER01
 10
938.550293
 11
938.550293
 20
-49.950195
 21
-436.150391
  0
LINE
  8
LAYER01
 10
938.550293
 11
294.400146
 20
-436.150391
 21
-423.400391
  0
LINE
  8
LAYER01
 10
294.400146
 11
289.350342
 20
-423.400391
 21
-423.400391
  0
LINE
  8
LAYER01
 10
289.350342
 11
286.800537
 20
-423.400391
 21
-422.150391
  0
LINE
  8
LAYER01
 10
286.800537
 11
290.600342
 20
-422.150391
 21
-413.25
  0
LINE
  8
LAYER01
 10
290.600342
 11
426.550049
 20
-413.25
 21
-288.75
  0
LINE
  8
LAYER01
 10
426.550049
 11
501.500244
 20
-288.75
 21
-234.099609
  0
LINE
  8
LAYER01
 10
501.500244
 11
580.300293
 20
-234.099609
 21
-185.849609
  0
LINE
  8
LAYER01
 10
580.300293
 11
664.150146
 20
-185.849609
 21
-140.099609
  0
LINE
  8
LAYER01
 10
664.150146
 11
751.800293
 20
-140.099609
 21
-103.25
  0
LINE
  8
LAYER01
 10
751.800293
 11
844.550293
 20
-103.25
 21
-72.75
  0
LINE
  8
LAYER01
 10
844.550293
 11
938.550293
 20
-72.75
 21
-49.950195
  0
LINE
  8
LAYER01
 10
1101.200195
 11
1101.200195
 20
-438.650391
 21
-24.549805
  0
LINE
  8
LAYER01
 10
1101.200195
 11
1303.200195
 20
-24.549805
 21
-15.650391
  0
LINE
  8
LAYER01
 10
1303.200195
 11
1501.400146
 20
-15.650391
 21
-30.900391
  0
LINE
  8
LAYER01
 10
1501.400146
 11
1609.400391
 20
-30.900391
 21
-51.200195
  0
LINE
  8
LAYER01
 10
1609.400391
 11
1717.400146
 20
-51.200195
 21
-76.599609
  0
LINE
  8
LAYER01
 10
1717.400146
 11
1821.550049
 20
-76.599609
 21
-112.150391
  0
LINE
  8
LAYER01
 10
1821.550049
 11
1921.950195
 20
-112.150391
 21
-159.150391
  0
LINE
  8
LAYER01
 10
1921.950195
 11
2061.700439
 20
-159.150391
 21
-243.0
  0
LINE
  8
LAYER01
 10
2061.700439
 11
2193.800049
 20
-243.0
 21
-342.099609
  0
LINE
  8
LAYER01
 10
2193.800049
 11
2193.800049
 20
-342.099609
 21
-459.0
  0
LINE
  8
LAYER01
 10
2193.800049
 11
1101.200195
 20
-459.0
 21
-438.650391
  0
LINE
  8
LAYER01
 10
1885.100342
 11
1981.650146
 20
-19.450195
 21
-53.75
  0
LINE
  8
LAYER01
 10
1981.650146
 11
2071.850342
 20
-53.75
 21
-91.799805
  0
LINE
  8
LAYER01
 10
2071.850342
 11
2242.100342
 20
-91.799805
 21
-185.849609
  0
LINE
  8
LAYER01
 10
2242.100342
 11
2408.550049
 20
-185.849609
 21
-297.650391
  0
LINE
  8
LAYER01
 10
2408.550049
 11
2583.850342
 20
-297.650391
 21
-423.400391
  0
LINE
  8
LAYER01
 10
2583.850342
 11
2423.800293
 20
-423.400391
 21
-442.5
  0
LINE
  8
LAYER01
 10
2423.800293
 11
2282.750244
 20
-442.5
 21
-317.950195
  0
LINE
  8
LAYER01
 10
2282.750244
 11
2134.100342
 20
-317.950195
 21
-207.450195
  0
LINE
  8
LAYER01
 10
2134.100342
 11
1976.550293
 20
-207.450195
 21
-114.700195
  0
LINE
  8
LAYER01
 10
1976.550293
 11
1807.600098
 20
-114.700195
 21
-43.599609
  0
LINE
  8
LAYER01
 10
1807.600098
 11
1885.100342
 20
-43.599609
 21
-19.450195
  0
LINE
  8
LAYER01
 10
2559.700195
 11
2398.350342
 20
-405.650391
 21
-291.299805
  0
LINE
  8
LAYER01
 10
2398.350342
 11
2244.650146
 20
-291.299805
 21
-187.099609
  0
LINE
  8
LAYER01
 10
2244.650146
 11
2088.350342
 20
-187.099609
 21
-98.200195
  0
LINE
  8
LAYER01
 10
2088.350342
 11
2005.800293
 20
-98.200195
 21
-61.400391
  0
LINE
  8
LAYER01
 10
2005.800293
 11
1918.100098
 20
-61.400391
 21
-28.349609
  0
LINE
  8
LAYER01
 10
1918.100098
 11
1868.550293
 20
-28.349609
 21
-44.849609
  0
LINE
  8
LAYER01
 10
1868.550293
 11
2050.250244
 20
-44.849609
 21
-133.75
  0
LINE
  8
LAYER01
 10
2050.250244
 11
2137.900146
 20
-133.75
 21
-185.849609
  0
LINE
  8
LAYER01
 10
2137.900146
 11
2221.750244
 20
-185.849609
 21
-245.549805
  0
LINE
  8
LAYER01
 10
2221.750244
 11
2328.500244
 20
-245.549805
 21
-330.700195
  0
LINE
  8
LAYER01
 10
2328.500244
 11
2430.150146
 20
-330.700195
 21
-422.150391
  0
LINE
  8
LAYER01
 10
2430.150146
 11
2559.700195
 20
-422.150391
 21
-405.650391
  0
LINE
  8
LAYER01
 10
539.600342
 11
294.400146
 20
-52.5
 21
-149.0
  0
LINE
  8
LAYER01
 10
294.400146
 11
225.800537
 20
-149.0
 21
-184.549805
  0
LINE
  8
LAYER01
 10
225.800537
 11
124.150146
 20
-184.549805
 21
-245.549805
  0
LINE
  8
LAYER01
 10
124.150146
 11
-0.349854
 20
-245.549805
 21
-328.150391
  0
LINE
  8
LAYER01
 10
-0.349854
 11
-136.299805
 20
-328.150391
 21
-428.5
  0
LINE
  8
LAYER01
 10
-136.299805
 11
-33.349365
 20
-428.5
 21
-447.549805
  0
LINE
  8
LAYER01
 10
-33.349365
 11
102.550293
 20
-447.549805
 21
-342.099609
  0
LINE
  8
LAYER01
 10
102.550293
 11
246.150391
 20
-342.099609
 21
-244.299805
  0
LINE
  8
LAYER01
 10
246.150391
 11
397.350342
 20
-244.299805
 21
-152.799805
  0
LINE
  8
LAYER01
 10
397.350342
 11
557.400146
 20
-152.799805
 21
-72.75
  0
LINE
  8
LAYER01
 10
557.400146
 11
539.600342
 20
-72.75
 21
-52.5
  0
LINE
  8
LAYER01
 10
514.200195
 11
293.150146
 20
-60.099609
 21
-149.0
  0
LINE
  8
LAYER01
 10
293.150146
 11
227.100342
 20
-149.0
 21
-182.049805
  0
LINE
  8
LAYER01
 10
227.100342
 11
129.250488
 20
-182.049805
 21
-241.75
  0
LINE
  8
LAYER01
 10
129.250488
 11
9.850342
 20
-241.75
 21
-320.5
  0
LINE
  8
LAYER01
 10
9.850342
 11
-122.299805
 20
-320.5
 21
-417.049805
  0
LINE
  8
LAYER01
 10
-122.299805
 11
-37.199951
 20
-417.049805
 21
-431.049805
  0
LINE
  8
LAYER01
 10
-37.199951
 11
94.950195
 20
-431.049805
 21
-329.400391
  0
LINE
  8
LAYER01
 10
94.950195
 11
233.450439
 20
-329.400391
 21
-235.400391
  0
LINE
  8
LAYER01
 10
233.450439
 11
377.000244
 20
-235.400391
 21
-150.25
  0
LINE
  8
LAYER01
 10
377.000244
 11
525.650146
 20
-150.25
 21
-75.299805
  0
LINE
  8
LAYER01
 10
525.650146
 11
514.200195
 20
-75.299805
 21
-60.099609
  0
LINE
  8
LAYER01
 10
3128.850342
 11
3026.000244
 20
-616.549805
 21
-564.450195
  0
LINE
  8
LAYER01
 10
3026.000244
 11
2915.450195
 20
-564.450195
 21
-531.400391
  0
LINE
  8
LAYER01
 10
2915.450195
 11
2797.300049
 20
-531.400391
 21
-514.900391
  0
LINE
  8
LAYER01
 10
2797.300049
 11
2670.250244
 20
-514.900391
 21
-514.900391
  0
LINE
  8
LAYER01
 10
2670.250244
 11
2534.300049
 20
-514.900391
 21
-536.5
  0
LINE
  8
LAYER01
 10
2534.300049
 11
2469.500244
 20
-536.5
 21
-555.549805
  0
LINE
  8
LAYER01
 10
2469.500244
 11
2409.800293
 20
-555.549805
 21
-579.700195
  0
LINE
  8
LAYER01
 10
2409.800293
 11
2352.650146
 20
-579.700195
 21
-611.450195
  0
LINE
  8
LAYER01
 10
2352.650146
 11
2300.550049
 20
-611.450195
 21
-649.549805
  0
LINE
  8
LAYER01
 10
2300.550049
 11
2251.000244
 20
-649.549805
 21
-692.75
  0
LINE
  8
LAYER01
 10
2251.000244
 11
2207.800293
 20
-692.75
 21
-744.849609
  0
LINE
  8
LAYER01
 10
2207.800293
 11
2150.600342
 20
-744.849609
 21
-837.599609
  0
LINE
  8
LAYER01
 10
2150.600342
 11
2111.250244
 20
-837.599609
 21
-939.25
  0
LINE
  8
LAYER01
 10
2111.250244
 11
2088.350342
 20
-939.25
 21
-1045.950195
  0
LINE
  8
LAYER01
 10
2088.350342
 11
2080.750244
 20
-1045.950195
 21
-1155.25
  0
LINE
  8
LAYER01
 10
2080.750244
 11
2089.650146
 20
-1155.25
 21
-1183.200195
  0
LINE
  8
LAYER01
 10
2089.650146
 11
2112.500244
 20
-1183.200195
 21
-1218.75
  0
LINE
  8
LAYER01
 10
2112.500244
 11
2155.700195
 20
-1218.75
 21
-1268.299805
  0
LINE
  8
LAYER01
 10
2252.250244
 11
2258.600098
 20
-1264.5
 21
-1226.400391
  0
LINE
  8
LAYER01
 10
2258.600098
 11
2266.250244
 20
-1226.400391
 21
-1087.900391
  0
LINE
  8
LAYER01
 10
2266.250244
 11
2286.550293
 20
-1087.900391
 21
-995.150391
  0
LINE
  8
LAYER01
 10
2286.550293
 11
2320.850342
 20
-995.150391
 21
-906.200195
  0
LINE
  8
LAYER01
 10
2320.850342
 11
2361.500244
 20
-906.200195
 21
-846.5
  0
LINE
  8
LAYER01
 10
2361.500244
 11
2409.800293
 20
-846.5
 21
-796.950195
  0
LINE
  8
LAYER01
 10
2409.800293
 11
2466.950195
 20
-796.950195
 21
-758.849609
  0
LINE
  8
LAYER01
 10
2466.950195
 11
2534.300049
 20
-758.849609
 21
-730.900391
  0
LINE
  8
LAYER01
 10
2534.300049
 11
2646.100342
 20
-730.900391
 21
-710.549805
  0
LINE
  8
LAYER01
 10
2646.100342
 11
2759.200195
 20
-710.549805
 21
-714.349609
  0
LINE
  8
LAYER01
 10
2759.200195
 11
2869.700195
 20
-714.349609
 21
-742.299805
  0
LINE
  8
LAYER01
 10
2869.700195
 11
2919.250244
 20
-742.299805
 21
-766.450195
  0
LINE
  8
LAYER01
 10
2919.250244
 11
2966.300049
 20
-766.450195
 21
-796.950195
  0
LINE
  8
LAYER01
 10
2966.300049
 11
3032.300049
 20
-796.950195
 21
-870.650391
  0
LINE
  8
LAYER01
 10
3032.300049
 11
3079.300293
 20
-870.650391
 21
-957.049805
  0
LINE
  8
LAYER01
 10
3079.300293
 11
3100.900146
 20
-957.049805
 21
-1020.549805
  0
LINE
  8
LAYER01
 10
3100.900146
 11
3114.900146
 20
-1020.549805
 21
-1085.349609
  0
LINE
  8
LAYER01
 10
3114.900146
 11
3126.300049
 20
-1085.349609
 21
-1218.75
  0
LINE
  8
LAYER01
 10
3126.300049
 11
3128.850342
 20
-1218.75
 21
-1241.650391
  0
LINE
  8
LAYER01
 10
3128.850342
 11
3126.300049
 20
-1241.650391
 21
-1218.75
  0
LINE
  8
LAYER01
 10
3126.300049
 11
3114.900146
 20
-1218.75
 21
-1085.349609
  0
LINE
  8
LAYER01
 10
3114.900146
 11
3100.900146
 20
-1085.349609
 21
-1020.549805
  0
LINE
  8
LAYER01
 10
3100.900146
 11
3079.300293
 20
-1020.549805
 21
-957.049805
  0
LINE
  8
LAYER01
 10
3079.300293
 11
3032.300049
 20
-957.049805
 21
-870.650391
  0
LINE
  8
LAYER01
 10
3032.300049
 11
2966.300049
 20
-870.650391
 21
-796.950195
  0
LINE
  8
LAYER01
 10
2966.300049
 11
2919.250244
 20
-796.950195
 21
-766.450195
  0
LINE
  8
LAYER01
 10
2919.250244
 11
2869.700195
 20
-766.450195
 21
-742.299805
  0
LINE
  8
LAYER01
 10
2869.700195
 11
2759.200195
 20
-742.299805
 21
-714.349609
  0
LINE
  8
LAYER01
 10
2759.200195
 11
2646.100342
 20
-714.349609
 21
-710.549805
  0
LINE
  8
LAYER01
 10
2646.100342
 11
2534.300049
 20
-710.549805
 21
-730.900391
  0
LINE
  8
LAYER01
 10
2534.300049
 11
2466.950195
 20
-730.900391
 21
-758.849609
  0
LINE
  8
LAYER01
 10
2466.950195
 11
2409.800293
 20
-758.849609
 21
-796.950195
  0
LINE
  8
LAYER01
 10
2409.800293
 11
2361.500244
 20
-796.950195
 21
-846.5
  0
LINE
  8
LAYER01
 10
2361.500244
 11
2320.850342
 20
-846.5
 21
-906.200195
  0
LINE
  8
LAYER01
 10
2320.850342
 11
2286.550293
 20
-906.200195
 21
-995.150391
  0
LINE
  8
LAYER01
 10
2286.550293
 11
2266.250244
 20
-995.150391
 21
-1087.900391
  0
LINE
  8
LAYER01
 10
2266.250244
 11
2258.600098
 20
-1087.900391
 21
-1226.400391
  0
LINE
  8
LAYER01
 10
2258.600098
 11
2252.250244
 20
-1226.400391
 21
-1264.5
  0
LINE
  8
LAYER01
 10
2427.600342
 11
2510.150146
 20
-443.75
 21
-545.400391
  0
LINE
  8
LAYER01
 10
2205.250244
 11
2205.250244
 20
-476.799805
 21
-749.950195
  0
LINE
  8
LAYER01
 10
1110.100342
 11
929.650146
 20
-439.950195
 21
-434.849609
  0
LINE
  8
LAYER01
 10
1101.200195
 11
938.550293
 20
-24.549805
 21
-49.950195
  0
LINE
  8
LAYER01
 10
1008.450195
 11
1008.450195
 20
-15.650391
 21
-461.549805
  0
LINE
  8
LAYER01
 10
1008.450195
 11
1008.450195
 20
-461.549805
 21
-1161.599609
  0
LINE
  8
LAYER01
 10
2082.000244
 11
670.500244
 20
-1160.299805
 21
-1160.299805
  0
LINE
  8
LAYER01
 10
670.500244
 11
632.350342
 20
-1160.299805
 21
-1217.5
  0
LINE
  8
LAYER01
 10
632.350342
 11
582.800049
 20
-1217.5
 21
-1265.75
  0
LINE
  8
LAYER01
 10
1811.400391
 11
1675.450195
 20
-43.599609
 21
-8.0
  0
LINE
  8
LAYER01
 10
1675.450195
 11
1535.700195
 20
-8.0
 21
17.400391
  0
LINE
  8
LAYER01
 10
1535.700195
 11
1389.600342
 20
17.400391
 21
32.650391
  0
LINE
  8
LAYER01
 10
1389.600342
 11
1237.150391
 20
32.650391
 21
37.700195
  0
LINE
  8
LAYER01
 10
1237.150391
 11
1078.300293
 20
37.700195
 21
30.099609
  0
LINE
  8
LAYER01
 10
1078.300293
 11
911.900146
 20
30.099609
 21
9.75
  0
LINE
  8
LAYER01
 10
911.900146
 11
737.800049
 20
9.75
 21
-24.549805
  0
LINE
  8
LAYER01
 10
737.800049
 11
556.150146
 20
-24.549805
 21
-72.75
  0
LINE
  8
LAYER01
 10
-296.349609
 11
-345.899902
 20
-619.099609
 21
-641.950195
  0
LINE
  8
LAYER01
 10
-345.899902
 11
-389.099854
 20
-641.950195
 21
-671.150391
  0
LINE
  8
LAYER01
 10
-389.099854
 11
-423.399658
 20
-671.150391
 21
-705.450195
  0
LINE
  8
LAYER01
 10
-423.399658
 11
-452.649902
 20
-705.450195
 21
-747.400391
  0
LINE
  8
LAYER01
 10
-452.649902
 11
-455.199707
 20
-747.400391
 21
-771.549805
  0
LINE
  8
LAYER01
 10
-455.199707
 11
-446.299561
 20
-771.549805
 21
-776.599609
  0
LINE
  8
LAYER01
 10
-446.299561
 11
-428.499756
 20
-776.599609
 21
-774.099609
  0
LINE
  8
LAYER01
 10
-428.499756
 11
-378.949463
 20
-774.099609
 21
-751.200195
  0
LINE
  8
LAYER01
 10
-378.949463
 11
-334.499756
 20
-751.200195
 21
-724.549805
  0
LINE
  8
LAYER01
 10
-334.499756
 11
-298.899658
 20
-724.549805
 21
-688.950195
  0
LINE
  8
LAYER01
 10
-298.899658
 11
-272.249756
 20
-688.950195
 21
-645.75
  0
LINE
  8
LAYER01
 10
-272.249756
 11
-268.399658
 20
-645.75
 21
-631.799805
  0
LINE
  8
LAYER01
 10
-268.399658
 11
-273.5
 20
-631.799805
 21
-621.599609
  0
LINE
  8
LAYER01
 10
-273.5
 11
-296.349609
 20
-621.599609
 21
-619.099609
  0
LINE
  8
LAYER01
 10
-32.099854
 11
-127.399658
 20
-448.849609
 21
-532.700195
  0
LINE
  8
LAYER01
 10
-367.499756
 11
-358.599854
 20
-1223.849609
 21
-1115.849609
  0
LINE
  8
LAYER01
 10
-358.599854
 11
-340.849854
 20
-1115.849609
 21
-1019.299805
  0
LINE
  8
LAYER01
 10
-340.849854
 11
-306.549561
 20
-1019.299805
 21
-940.5
  0
LINE
  8
LAYER01
 10
-306.549561
 11
-260.799561
 20
-940.5
 21
-869.349609
  0
LINE
  8
LAYER01
 10
-260.799561
 11
-193.449707
 20
-869.349609
 21
-803.299805
  0
LINE
  8
LAYER01
 10
-193.449707
 11
-115.949951
 20
-803.299805
 21
-756.299805
  0
LINE
  8
LAYER01
 10
-115.949951
 11
-29.550049
 20
-756.299805
 21
-727.049805
  0
LINE
  8
LAYER01
 10
-29.550049
 11
64.450195
 20
-727.049805
 21
-718.200195
  0
LINE
  8
LAYER01
 10
64.450195
 11
152.100342
 20
-718.200195
 21
-727.049805
  0
LINE
  8
LAYER01
 10
152.100342
 11
237.250244
 20
-727.049805
 21
-751.200195
  0
LINE
  8
LAYER01
 10
237.250244
 11
299.500244
 20
-751.200195
 21
-783.0
  0
LINE
  8
LAYER01
 10
299.500244
 11
352.850342
 20
-783.0
 21
-823.650391
  0
LINE
  8
LAYER01
 10
352.850342
 11
397.350342
 20
-823.650391
 21
-873.200195
  0
LINE
  8
LAYER01
 10
397.350342
 11
435.450439
 20
-873.200195
 21
-931.599609
  0
LINE
  8
LAYER01
 10
435.450439
 11
468.500244
 20
-931.599609
 21
-1011.650391
  0
LINE
  8
LAYER01
 10
468.500244
 11
488.800049
 20
-1011.650391
 21
-1096.799805
  0
LINE
  8
LAYER01
 10
488.800049
 11
498.950439
 20
-1096.799805
 21
-1264.5
  0
LINE
  8
LAYER01
 10
498.950439
 11
488.800049
 20
-1264.5
 21
-1096.799805
  0
LINE
  8
LAYER01
 10
488.800049
 11
468.500244
 20
-1096.799805
 21
-1011.650391
  0
LINE
  8
LAYER01
 10
468.500244
 11
435.450439
 20
-1011.650391
 21
-931.599609
  0
LINE
  8
LAYER01
 10
435.450439
 11
397.350342
 20
-931.599609
 21
-873.200195
  0
LINE
  8
LAYER01
 10
397.350342
 11
352.850342
 20
-873.200195
 21
-823.650391
  0
LINE
  8
LAYER01
 10
352.850342
 11
299.500244
 20
-823.650391
 21
-783.0
  0
LINE
  8
LAYER01
 10
299.500244
 11
237.250244
 20
-783.0
 21
-751.200195
  0
LINE
  8
LAYER01
 10
237.250244
 11
152.100342
 20
-751.200195
 21
-727.049805
  0
LINE
  8
LAYER01
 10
152.100342
 11
64.450195
 20
-727.049805
 21
-718.200195
  0
LINE
  8
LAYER01
 10
64.450195
 11
-29.550049
 20
-718.200195
 21
-727.049805
  0
LINE
  8
LAYER01
 10
-29.550049
 11
-115.949951
 20
-727.049805
 21
-756.299805
  0
LINE
  8
LAYER01
 10
-115.949951
 11
-193.449707
 20
-756.299805
 21
-803.299805
  0
LINE
  8
LAYER01
 10
-193.449707
 11
-260.799561
 20
-803.299805
 21
-869.349609
  0
LINE
  8
LAYER01
 10
-260.799561
 11
-306.549561
 20
-869.349609
 21
-940.5
  0
LINE
  8
LAYER01
 10
-306.549561
 11
-340.849854
 20
-940.5
 21
-1019.299805
  0
LINE
  8
LAYER01
 10
-340.849854
 11
-358.599854
 20
-1019.299805
 21
-1115.849609
  0
LINE
  8
LAYER01
 10
-358.599854
 11
-367.499756
 20
-1115.849609
 21
-1223.849609
  0
LINE
  8
LAYER01
 10
604.400146
 11
601.900146
 20
-1246.700195
 21
-1152.700195
  0
LINE
  8
LAYER01
 10
601.900146
 11
591.700439
 20
-1152.700195
 21
-1062.5
  0
LINE
  8
LAYER01
 10
591.700439
 11
572.650146
 20
-1062.5
 21
-978.650391
  0
LINE
  8
LAYER01
 10
572.650146
 11
544.700195
 20
-978.650391
 21
-901.150391
  0
LINE
  8
LAYER01
 10
544.700195
 11
507.850342
 20
-901.150391
 21
-832.5
  0
LINE
  8
LAYER01
 10
507.850342
 11
462.100098
 20
-832.5
 21
-771.549805
  0
LINE
  8
LAYER01
 10
462.100098
 11
406.200195
 20
-771.549805
 21
-719.450195
  0
LINE
  8
LAYER01
 10
406.200195
 11
341.450195
 20
-719.450195
 21
-677.5
  0
LINE
  8
LAYER01
 10
341.450195
 11
253.75
 20
-677.5
 21
-638.150391
  0
LINE
  8
LAYER01
 10
253.75
 11
166.100342
 20
-638.150391
 21
-614.0
  0
LINE
  8
LAYER01
 10
166.100342
 11
78.450195
 20
-614.0
 21
-602.549805
  0
LINE
  8
LAYER01
 10
78.450195
 11
-6.699951
 20
-602.549805
 21
-602.549805
  0
LINE
  8
LAYER01
 10
-6.699951
 11
-89.249756
 20
-602.549805
 21
-612.75
  0
LINE
  8
LAYER01
 10
-89.249756
 11
-166.749756
 20
-612.75
 21
-633.049805
  0
LINE
  8
LAYER01
 10
-166.749756
 11
-237.899658
 20
-633.049805
 21
-661.0
  0
LINE
  8
LAYER01
 10
-237.899658
 11
-302.699951
 20
-661.0
 21
-696.599609
  0
LINE
  8
LAYER01
 10
671.750244
 11
662.850342
 20
-1160.299805
 21
-1053.599609
  0
LINE
  8
LAYER01
 10
662.850342
 11
627.300049
 20
-1053.599609
 21
-911.299805
  0
LINE
  8
LAYER01
 10
627.300049
 11
596.800049
 20
-911.299805
 21
-836.349609
  0
LINE
  8
LAYER01
 10
596.800049
 11
556.150146
 20
-836.349609
 21
-762.650391
  0
LINE
  8
LAYER01
 10
556.150146
 11
505.300293
 20
-762.650391
 21
-694.049805
  0
LINE
  8
LAYER01
 10
505.300293
 11
441.800293
 20
-694.049805
 21
-634.349609
  0
LINE
  8
LAYER01
 10
441.800293
 11
380.800049
 20
-634.349609
 21
-593.650391
  0
LINE
  8
LAYER01
 10
380.800049
 11
316.000244
 20
-593.650391
 21
-560.650391
  0
LINE
  8
LAYER01
 10
316.000244
 11
249.950195
 20
-560.650391
 21
-536.5
  0
LINE
  8
LAYER01
 10
249.950195
 11
181.350098
 20
-536.5
 21
-520.0
  0
LINE
  8
LAYER01
 10
181.350098
 11
110.200195
 20
-520.0
 21
-511.099609
  0
LINE
  8
LAYER01
 10
110.200195
 11
39.050537
 20
-511.099609
 21
-509.799805
  0
LINE
  8
LAYER01
 10
39.050537
 11
-109.599854
 20
-509.799805
 21
-528.900391
  0
LINE
  8
LAYER01
 10
-109.599854
 11
-201.099609
 20
-528.900391
 21
-555.549805
  0
LINE
  8
LAYER01
 10
-201.099609
 11
-281.099609
 20
-555.549805
 21
-589.849609
  0
LINE
  8
LAYER01
 10
-281.099609
 11
-413.249756
 20
-589.849609
 21
-671.150391
  0
LINE
  8
LAYER01
 10
-544.099609
 11
-507.249756
 20
-842.700195
 21
-842.700195
  0
LINE
  8
LAYER01
 10
-507.249756
 11
-481.849854
 20
-842.700195
 21
-837.599609
  0
LINE
  8
LAYER01
 10
-481.849854
 11
-455.199707
 20
-837.599609
 21
-823.650391
  0
LINE
  8
LAYER01
 10
-455.199707
 11
-425.949707
 20
-823.650391
 21
-798.200195
  0
LINE
  8
LAYER01
 10
-425.949707
 11
-397.999756
 20
-798.200195
 21
-760.099609
  0
LINE
  8
LAYER01
 10
-423.399658
 11
-456.449707
 20
-1223.849609
 21
-1165.400391
  0
LINE
  8
LAYER01
 10
-456.449707
 11
-498.349609
 20
-1165.400391
 21
-1113.299805
  0
LINE
  8
LAYER01
 10
-498.349609
 11
-546.649902
 20
-1113.299805
 21
-1066.299805
  0
LINE
  8
LAYER01
 10
-546.649902
 11
-600.0
 20
-1066.299805
 21
-1024.349609
  0
LINE
  8
LAYER01
 10
3460.450195
 11
3408.350342
 20
-1035.799805
 21
-1066.299805
  0
LINE
  8
LAYER01
 10
3408.350342
 11
3366.450195
 20
-1066.299805
 21
-1109.5
  0
LINE
  8
LAYER01
 10
3366.450195
 11
3333.400146
 20
-1109.5
 21
-1164.150391
  0
LINE
  8
LAYER01
 10
3333.400146
 11
3308.000244
 20
-1164.150391
 21
-1228.900391
  0
LINE
  8
LAYER01
 10
1065.600342
 11
1075.800293
 20
-611.450195
 21
-631.799805
  0
LINE
  8
LAYER01
 10
1075.800293
 11
1092.300049
 20
-631.799805
 21
-649.549805
  0
LINE
  8
LAYER01
 10
1092.300049
 11
1113.900391
 20
-649.549805
 21
-661.0
  0
LINE
  8
LAYER01
 10
1113.900391
 11
1136.750244
 20
-661.0
 21
-664.799805
  0
LINE
  8
LAYER01
 10
1136.750244
 11
1162.150391
 20
-664.799805
 21
-661.0
  0
LINE
  8
LAYER01
 10
1162.150391
 11
1182.500244
 20
-661.0
 21
-649.549805
  0
LINE
  8
LAYER01
 10
1182.500244
 11
1199.000244
 20
-649.549805
 21
-631.799805
  0
LINE
  8
LAYER01
 10
1199.000244
 11
1207.900146
 20
-631.799805
 21
-610.200195
  0
LINE
  8
LAYER01
 10
1207.900146
 11
1199.000244
 20
-610.200195
 21
-631.799805
  0
LINE
  8
LAYER01
 10
1199.000244
 11
1182.500244
 20
-631.799805
 21
-649.549805
  0
LINE
  8
LAYER01
 10
1182.500244
 11
1162.150391
 20
-649.549805
 21
-661.0
  0
LINE
  8
LAYER01
 10
1162.150391
 11
1136.750244
 20
-661.0
 21
-664.799805
  0
LINE
  8
LAYER01
 10
1136.750244
 11
1113.900391
 20
-664.799805
 21
-661.0
  0
LINE
  8
LAYER01
 10
1113.900391
 11
1092.300049
 20
-661.0
 21
-649.549805
  0
LINE
  8
LAYER01
 10
1092.300049
 11
1075.800293
 20
-649.549805
 21
-631.799805
  0
LINE
  8
LAYER01
 10
1075.800293
 11
1065.600342
 20
-631.799805
 21
-611.450195
  0
LINE
  8
LAYER01
 10
1209.200195
 11
1190.100342
 20
-568.25
 21
-536.5
  0
LINE
  8
LAYER01
 10
1190.100342
 11
1166.000244
 20
-536.5
 21
-520.0
  0
LINE
  8
LAYER01
 10
1166.000244
 11
1139.300293
 20
-520.0
 21
-514.900391
  0
LINE
  8
LAYER01
 10
1139.300293
 11
1116.450195
 20
-514.900391
 21
-517.450195
  0
LINE
  8
LAYER01
 10
1116.450195
 11
1094.850342
 20
-517.450195
 21
-528.900391
  0
LINE
  8
LAYER01
 10
1094.850342
 11
1077.050049
 20
-528.900391
 21
-544.099609
  0
LINE
  8
LAYER01
 10
1077.050049
 11
1065.600342
 20
-544.099609
 21
-565.700195
  0
LINE
  8
LAYER01
 10
1065.600342
 11
1065.600342
 20
-565.700195
 21
-568.25
  0
LINE
  8
LAYER01
 10
1065.600342
 11
1065.600342
 20
-568.25
 21
-565.700195
  0
LINE
  8
LAYER01
 10
1065.600342
 11
1077.050049
 20
-565.700195
 21
-544.099609
  0
LINE
  8
LAYER01
 10
1077.050049
 11
1094.850342
 20
-544.099609
 21
-528.900391
  0
LINE
  8
LAYER01
 10
1094.850342
 11
1116.450195
 20
-528.900391
 21
-517.450195
  0
LINE
  8
LAYER01
 10
1116.450195
 11
1139.300293
 20
-517.450195
 21
-514.900391
  0
LINE
  8
LAYER01
 10
1139.300293
 11
1166.000244
 20
-514.900391
 21
-520.0
  0
LINE
  8
LAYER01
 10
1166.000244
 11
1190.100342
 20
-520.0
 21
-536.5
  0
LINE
  8
LAYER01
 10
1190.100342
 11
1209.200195
 20
-536.5
 21
-568.25
  0
LINE
  8
LAYER01
 10
1024.950195
 11
1040.200195
 20
-605.099609
 21
-611.450195
  0
LINE
  8
LAYER01
 10
1040.200195
 11
1201.550293
 20
-611.450195
 21
-611.450195
  0
LINE
  8
LAYER01
 10
1201.550293
 11
1216.800293
 20
-611.450195
 21
-605.099609
  0
LINE
  8
LAYER01
 10
1216.800293
 11
1223.150146
 20
-605.099609
 21
-589.849609
  0
LINE
  8
LAYER01
 10
1223.150146
 11
1216.800293
 20
-589.849609
 21
-574.599609
  0
LINE
  8
LAYER01
 10
1216.800293
 11
1201.550293
 20
-574.599609
 21
-568.25
  0
LINE
  8
LAYER01
 10
1201.550293
 11
1121.500244
 20
-568.25
 21
-568.25
  0
LINE
  8
LAYER01
 10
1121.500244
 11
1040.200195
 20
-568.25
 21
-568.25
  0
LINE
  8
LAYER01
 10
1040.200195
 11
1024.950195
 20
-568.25
 21
-573.349609
  0
LINE
  8
LAYER01
 10
1042.750244
 11
1032.600098
 20
-574.599609
 21
-579.700195
  0
LINE
  8
LAYER01
 10
1032.600098
 11
1028.750244
 20
-579.700195
 21
-589.849609
  0
LINE
  8
LAYER01
 10
1028.750244
 11
1032.600098
 20
-589.849609
 21
-600.0
  0
LINE
  8
LAYER01
 10
1032.600098
 11
1042.750244
 20
-600.0
 21
-603.849609
  0
LINE
  8
LAYER01
 10
1042.750244
 11
1054.200439
 20
-603.849609
 21
-600.0
  0
LINE
  8
LAYER01
 10
1054.200439
 11
1058.000244
 20
-600.0
 21
-589.849609
  0
LINE
  8
LAYER01
 10
1058.000244
 11
1054.200439
 20
-589.849609
 21
-579.700195
  0
LINE
  8
LAYER01
 10
1054.200439
 11
1042.750244
 20
-579.700195
 21
-574.599609
  0
LINE
  8
LAYER01
 10
2256.050293
 11
491.350342
 20
-1249.25
 21
-1249.25
  0
LINE
  8
LAYER01
 10
2168.400146
 11
2137.900146
 20
-315.450195
 21
-302.75
  0
LINE
  8
LAYER01
 10
2137.900146
 11
2103.600342
 20
-302.75
 21
-295.099609
  0
LINE
  8
LAYER01
 10
2103.600342
 11
2085.800049
 20
-295.099609
 21
-298.900391
  0
LINE
  8
LAYER01
 10
2085.800049
 11
2076.950195
 20
-298.900391
 21
-321.799805
  0
LINE
  8
LAYER01
 10
2076.950195
 11
2073.100342
 20
-321.799805
 21
-363.700195
  0
LINE
  8
LAYER01
 10
2073.100342
 11
2076.950195
 20
-363.700195
 21
-409.450195
  0
LINE
  8
LAYER01
 10
2076.950195
 11
2087.100342
 20
-409.450195
 21
-427.25
  0
LINE
  8
LAYER01
 10
2087.100342
 11
2103.600342
 20
-427.25
 21
-434.849609
  0
LINE
  8
LAYER01
 10
2103.600342
 11
2168.400146
 20
-434.849609
 21
-431.049805
  0
LINE
  8
LAYER01
 10
2168.400146
 11
2183.650146
 20
-431.049805
 21
-422.150391
  0
LINE
  8
LAYER01
 10
2183.650146
 11
2193.800049
 20
-422.150391
 21
-405.650391
  0
LINE
  8
LAYER01
 10
2193.800049
 11
2200.150146
 20
-405.650391
 21
-372.599609
  0
LINE
  8
LAYER01
 10
2200.150146
 11
2193.800049
 20
-372.599609
 21
-342.099609
  0
LINE
  8
LAYER01
 10
2193.800049
 11
2183.650146
 20
-342.099609
 21
-325.599609
  0
LINE
  8
LAYER01
 10
2183.650146
 11
2168.400146
 20
-325.599609
 21
-315.450195
  0
LINE
  8
LAYER01
 10
2183.650146
 11
2193.800049
 20
-423.400391
 21
-404.349609
  0
LINE
  8
LAYER01
 10
2193.800049
 11
2200.150146
 20
-404.349609
 21
-372.599609
  0
LINE
  8
LAYER01
 10
2200.150146
 11
2193.800049
 20
-372.599609
 21
-342.099609
  0
LINE
  8
LAYER01
 10
2193.800049
 11
2192.550293
 20
-342.099609
 21
-339.549805
  0
LINE
  8
LAYER01
 10
2192.550293
 11
2195.100342
 20
-339.549805
 21
-339.549805
  0
LINE
  8
LAYER01
 10
2195.100342
 11
2238.300293
 20
-339.549805
 21
-352.299805
  0
LINE
  8
LAYER01
 10
2238.300293
 11
2254.800293
 20
-352.299805
 21
-370.049805
  0
LINE
  8
LAYER01
 10
2254.800293
 11
2258.600098
 20
-370.049805
 21
-390.400391
  0
LINE
  8
LAYER01
 10
2258.600098
 11
2254.800293
 20
-390.400391
 21
-410.700195
  0
LINE
  8
LAYER01
 10
2254.800293
 11
2238.300293
 20
-410.700195
 21
-428.5
  0
LINE
  8
LAYER01
 10
2238.300293
 11
2195.100342
 20
-428.5
 21
-431.049805
  0
LINE
  8
LAYER01
 10
2195.100342
 11
2183.650146
 20
-431.049805
 21
-423.400391
  0
LINE
  8
LAYER01
 10
589.150146
 11
653.950195
 20
-34.700195
 21
-15.650391
  0
LINE
  8
LAYER01
 10
653.950195
 11
656.500244
 20
-15.650391
 21
-9.299805
  0
LINE
  8
LAYER01
 10
656.500244
 11
643.800293
 20
-9.299805
 21
-1.650391
  0
LINE
  8
LAYER01
 10
643.800293
 11
615.850342
 20
-1.650391
 21
-2.950195
  0
LINE
  8
LAYER01
 10
615.850342
 11
589.150146
 20
-2.950195
 21
-11.849609
  0
LINE
  8
LAYER01
 10
589.150146
 11
580.300293
 20
-11.849609
 21
-23.25
  0
LINE
  8
LAYER01
 10
580.300293
 11
589.150146
 20
-23.25
 21
-34.700195
  0
LINE
  8
LAYER01
 10
589.150146
 11
613.300293
 20
-10.549805
 21
-2.950195
  0
LINE
  8
LAYER01
 10
613.300293
 11
222.000244
 20
-2.950195
 21
266.400391
  0
LINE
  8
LAYER01
 10
222.000244
 11
589.150146
 20
266.400391
 21
-10.549805
  0
LINE
  8
LAYER01
 10
-148.950195
 11
-29.549805
 20
1983.849609
 21
2019.400391
  0
LINE
  8
LAYER01
 10
-29.549805
 11
73.349609
 20
2019.400391
 21
2041.0
  0
LINE
  8
LAYER01
 10
73.349609
 11
304.549805
 20
2041.0
 21
2076.599609
  0
LINE
  8
LAYER01
 10
304.549805
 11
516.75
 20
2076.599609
 21
2226.5
  0
LINE
  8
LAYER01
 10
516.75
 11
718.75
 20
2226.5
 21
2356.099609
  0
LINE
  8
LAYER01
 10
718.75
 11
824.199951
 20
2356.099609
 21
2410.700195
  0
LINE
  8
LAYER01
 10
824.199951
 11
934.75
 20
2410.700195
 21
2456.400391
  0
LINE
  8
LAYER01
 10
934.75
 11
1055.449951
 20
2456.400391
 21
2494.5
  0
LINE
  8
LAYER01
 10
1055.449951
 11
1188.850098
 20
2494.5
 21
2523.75
  0
LINE
  8
LAYER01
 10
1188.850098
 11
1364.149902
 20
2523.75
 21
2547.900391
  0
LINE
  8
LAYER01
 10
1364.149902
 11
1534.399902
 20
2547.900391
 21
2560.599609
  0
LINE
  8
LAYER01
 10
1534.399902
 11
1702.099854
 20
2560.599609
 21
2560.599609
  0
LINE
  8
LAYER01
 10
1702.099854
 11
1871.099854
 20
2560.599609
 21
2551.700195
  0
LINE
  8
LAYER01
 10
1871.099854
 11
2029.899902
 20
2551.700195
 21
2531.349609
  0
LINE
  8
LAYER01
 10
2029.899902
 11
2200.150146
 20
2531.349609
 21
2493.25
  0
LINE
  8
LAYER01
 10
2200.150146
 11
2385.650146
 20
2493.25
 21
2434.799805
  0
LINE
  8
LAYER01
 10
2385.650146
 11
2595.300049
 20
2434.799805
 21
2351.0
  0
LINE
  8
LAYER01
 10
2595.300049
 11
2764.25
 20
2351.0
 21
2254.450195
  0
LINE
  8
LAYER01
 10
2764.25
 11
2888.750244
 20
2254.450195
 21
2171.849609
  0
LINE
  8
LAYER01
 10
2888.750244
 11
3024.699951
 20
2171.849609
 21
2071.5
  0
LINE
  8
LAYER01
 10
3024.699951
 11
3149.199951
 20
2071.5
 21
1977.5
  0
LINE
  8
LAYER01
 10
3149.199951
 11
3259.750244
 20
1977.5
 21
1874.549805
  0
LINE
  8
LAYER01
 10
3259.750244
 11
3353.75
 20
1874.549805
 21
1767.849609
  0
LINE
  8
LAYER01
 10
3353.75
 11
3430.0
 20
1767.849609
 21
1659.849609
  0
LINE
  8
LAYER01
 10
3430.0
 11
3451.600098
 20
1659.849609
 21
1644.599609
  0
LINE
  8
LAYER01
 10
3451.600098
 11
3471.949951
 20
1644.599609
 21
1620.450195
  0
LINE
  8
LAYER01
 10
3471.949951
 11
3484.649902
 20
1620.450195
 21
1592.5
  0
LINE
  8
LAYER01
 10
3484.649902
 11
3489.700195
 20
1592.5
 21
1565.849609
  0
LINE
  8
LAYER01
 10
3489.700195
 11
3489.700195
 20
1565.849609
 21
1475.650391
  0
LINE
  8
LAYER01
 10
3489.700195
 11
3479.549805
 20
1475.650391
 21
1423.549805
  0
LINE
  8
LAYER01
 10
3479.549805
 11
3452.850098
 20
1423.549805
 21
1374.0
  0
LINE
  8
LAYER01
 10
3452.850098
 11
3419.849854
 20
1374.0
 21
1329.5
  0
LINE
  8
LAYER01
 10
3419.849854
 11
3389.349854
 20
1329.5
 21
1299.049805
  0
LINE
  8
LAYER01
 10
3389.349854
 11
3362.650146
 20
1299.049805
 21
1283.799805
  0
LINE
  8
LAYER01
 10
3362.650146
 11
3325.800049
 20
1283.799805
 21
1276.150391
  0
LINE
  8
LAYER01
 10
3325.800049
 11
3239.449951
 20
1276.150391
 21
1277.450195
  0
LINE
  8
LAYER01
 10
3239.449951
 11
3230.550049
 20
1277.450195
 21
1396.849609
  0
LINE
  8
LAYER01
 10
3230.550049
 11
3202.599854
 20
1396.849609
 21
1498.5
  0
LINE
  8
LAYER01
 10
3202.599854
 11
3160.650146
 20
1498.5
 21
1582.349609
  0
LINE
  8
LAYER01
 10
3160.650146
 11
3107.300049
 20
1582.349609
 21
1649.700195
  0
LINE
  8
LAYER01
 10
3107.300049
 11
3043.749756
 20
1649.700195
 21
1700.5
  0
LINE
  8
LAYER01
 10
3043.749756
 11
2973.900146
 20
1700.5
 21
1736.099609
  0
LINE
  8
LAYER01
 10
2973.900146
 11
2900.199951
 20
1736.099609
 21
1756.400391
  0
LINE
  8
LAYER01
 10
2900.199951
 11
2825.25
 20
1756.400391
 21
1761.5
  0
LINE
  8
LAYER01
 10
2825.25
 11
2726.149902
 20
1761.5
 21
1751.349609
  0
LINE
  8
LAYER01
 10
2726.149902
 11
2638.5
 20
1751.349609
 21
1722.099609
  0
LINE
  8
LAYER01
 10
2638.5
 11
2566.050049
 20
1722.099609
 21
1676.349609
  0
LINE
  8
LAYER01
 10
2566.050049
 11
2506.349854
 20
1676.349609
 21
1614.099609
  0
LINE
  8
LAYER01
 10
2506.349854
 11
2460.600098
 20
1614.099609
 21
1539.150391
  0
LINE
  8
LAYER01
 10
2460.600098
 11
2430.099854
 20
1539.150391
 21
1448.950195
  0
LINE
  8
LAYER01
 10
2430.099854
 11
2412.349854
 20
1448.950195
 21
1347.299805
  0
LINE
  8
LAYER01
 10
2412.349854
 11
2409.800049
 20
1347.299805
 21
1235.5
  0
LINE
  8
LAYER01
 10
2409.800049
 11
656.5
 20
1235.5
 21
1230.400391
  0
LINE
  8
LAYER01
 10
656.5
 11
640.0
 20
1230.400391
 21
1234.25
  0
LINE
  8
LAYER01
 10
640.0
 11
624.75
 20
1234.25
 21
1241.849609
  0
LINE
  8
LAYER01
 10
624.75
 11
614.549805
 20
1241.849609
 21
1255.849609
  0
LINE
  8
LAYER01
 10
614.549805
 11
610.75
 20
1255.849609
 21
1274.900391
  0
LINE
  8
LAYER01
 10
610.75
 11
605.700195
 20
1274.900391
 21
1382.900391
  0
LINE
  8
LAYER01
 10
605.700195
 11
589.150391
 20
1382.900391
 21
1480.700195
  0
LINE
  8
LAYER01
 10
589.150391
 11
559.950195
 20
1480.700195
 21
1564.549805
  0
LINE
  8
LAYER01
 10
559.950195
 11
516.75
 20
1564.549805
 21
1635.700195
  0
LINE
  8
LAYER01
 10
516.75
 11
460.849609
 20
1635.700195
 21
1692.900391
  0
LINE
  8
LAYER01
 10
460.849609
 11
389.700195
 20
1692.900391
 21
1734.799805
  0
LINE
  8
LAYER01
 10
389.700195
 11
304.549805
 20
1734.799805
 21
1761.5
  0
LINE
  8
LAYER01
 10
304.549805
 11
204.200195
 20
1761.5
 21
1770.400391
  0
LINE
  8
LAYER01
 10
204.200195
 11
107.649902
 20
1770.400391
 21
1762.75
  0
LINE
  8
LAYER01
 10
107.649902
 11
23.799805
 20
1762.75
 21
1738.599609
  0
LINE
  8
LAYER01
 10
23.799805
 11
-48.650391
 20
1738.599609
 21
1699.25
  0
LINE
  8
LAYER01
 10
-48.650391
 11
-108.350098
 20
1699.25
 21
1644.599609
  0
LINE
  8
LAYER01
 10
-108.350098
 11
-154.049805
 20
1644.599609
 21
1576.0
  0
LINE
  8
LAYER01
 10
-154.049805
 11
-187.049805
 20
1576.0
 21
1490.900391
  0
LINE
  8
LAYER01
 10
-187.049805
 11
-208.650391
 20
1490.900391
 21
1393.049805
  0
LINE
  8
LAYER01
 10
-208.650391
 11
-217.549805
 20
1393.049805
 21
1281.25
  0
LINE
  8
LAYER01
 10
-217.549805
 11
-229.0
 20
1281.25
 21
1262.200195
  0
LINE
  8
LAYER01
 10
-229.0
 11
-259.5
 20
1262.200195
 21
1255.849609
  0
LINE
  8
LAYER01
 10
-259.5
 11
-376.349609
 20
1255.849609
 21
1263.450195
  0
LINE
  8
LAYER01
 10
-376.349609
 11
-470.400391
 20
1263.450195
 21
1285.049805
  0
LINE
  8
LAYER01
 10
-470.400391
 11
-495.799805
 20
1285.049805
 21
1307.900391
  0
LINE
  8
LAYER01
 10
-495.799805
 11
-505.950195
 20
1307.900391
 21
1344.75
  0
LINE
  8
LAYER01
 10
-505.950195
 11
-512.299805
 20
1344.75
 21
1386.700195
  0
LINE
  8
LAYER01
 10
-512.299805
 11
-527.549805
 20
1386.700195
 21
1428.599609
  0
LINE
  8
LAYER01
 10
-527.549805
 11
-551.700195
 20
1428.599609
 21
1452.75
  0
LINE
  8
LAYER01
 10
-551.700195
 11
-574.549805
 20
1452.75
 21
1466.75
  0
LINE
  8
LAYER01
 10
-574.549805
 11
-592.350098
 20
1466.75
 21
1478.150391
  0
LINE
  8
LAYER01
 10
-592.350098
 11
-600.0
 20
1478.150391
 21
1499.75
  0
LINE
  8
LAYER01
 10
-600.0
 11
-600.0
 20
1499.75
 21
1574.75
  0
LINE
  8
LAYER01
 10
-600.0
 11
-592.350098
 20
1574.75
 21
1593.799805
  0
LINE
  8
LAYER01
 10
-592.350098
 11
-570.75
 20
1593.799805
 21
1601.400391
  0
LINE
  8
LAYER01
 10
-570.75
 11
-541.549805
 20
1601.400391
 21
1615.400391
  0
LINE
  8
LAYER01
 10
-541.549805
 11
-509.75
 20
1615.400391
 21
1649.700195
  0
LINE
  8
LAYER01
 10
-509.75
 11
-438.600098
 20
1649.700195
 21
1767.849609
  0
LINE
  8
LAYER01
 10
-438.600098
 11
-352.25
 20
1767.849609
 21
1863.150391
  0
LINE
  8
LAYER01
 10
-352.25
 11
-254.400391
 20
1863.150391
 21
1935.549805
  0
LINE
  8
LAYER01
 10
-254.400391
 11
-148.950195
 20
1935.549805
 21
1983.849609
  0
LINE
  8
LAYER01
 10
204.200195
 11
272.799805
 20
1050.0
 21
1057.650391
  0
LINE
  8
LAYER01
 10
272.799805
 11
337.599609
 20
1057.650391
 21
1077.950195
  0
LINE
  8
LAYER01
 10
337.599609
 11
394.799805
 20
1077.950195
 21
1109.75
  0
LINE
  8
LAYER01
 10
394.799805
 11
445.599609
 20
1109.75
 21
1151.650391
  0
LINE
  8
LAYER01
 10
445.599609
 11
487.5
 20
1151.650391
 21
1202.450195
  0
LINE
  8
LAYER01
 10
487.5
 11
519.299805
 20
1202.450195
 21
1259.650391
  0
LINE
  8
LAYER01
 10
519.299805
 11
539.599609
 20
1259.650391
 21
1324.450195
  0
LINE
  8
LAYER01
 10
539.599609
 11
545.950195
 20
1324.450195
 21
1393.049805
  0
LINE
  8
LAYER01
 10
545.950195
 11
539.599609
 20
1393.049805
 21
1461.650391
  0
LINE
  8
LAYER01
 10
539.599609
 11
519.299805
 20
1461.650391
 21
1525.200195
  0
LINE
  8
LAYER01
 10
519.299805
 11
487.5
 20
1525.200195
 21
1583.599609
  0
LINE
  8
LAYER01
 10
487.5
 11
445.599609
 20
1583.599609
 21
1634.450195
  0
LINE
  8
LAYER01
 10
445.599609
 11
394.799805
 20
1634.450195
 21
1676.349609
  0
LINE
  8
LAYER01
 10
394.799805
 11
337.599609
 20
1676.349609
 21
1708.150391
  0
LINE
  8
LAYER01
 10
337.599609
 11
272.799805
 20
1708.150391
 21
1728.450195
  0
LINE
  8
LAYER01
 10
272.799805
 11
204.200195
 20
1728.450195
 21
1734.799805
  0
LINE
  8
LAYER01
 10
204.200195
 11
135.599609
 20
1734.799805
 21
1728.450195
  0
LINE
  8
LAYER01
 10
135.599609
 11
70.799805
 20
1728.450195
 21
1708.150391
  0
LINE
  8
LAYER01
 10
70.799805
 11
13.650391
 20
1708.150391
 21
1676.349609
  0
LINE
  8
LAYER01
 10
13.650391
 11
-37.200195
 20
1676.349609
 21
1634.450195
  0
LINE
  8
LAYER01
 10
-37.200195
 11
-79.100098
 20
1634.450195
 21
1583.599609
  0
LINE
  8
LAYER01
 10
-79.100098
 11
-110.900391
 20
1583.599609
 21
1525.200195
  0
LINE
  8
LAYER01
 10
-110.900391
 11
-131.200195
 20
1525.200195
 21
1461.650391
  0
LINE
  8
LAYER01
 10
-131.200195
 11
-137.549805
 20
1461.650391
 21
1393.049805
  0
LINE
  8
LAYER01
 10
-137.549805
 11
-131.200195
 20
1393.049805
 21
1324.450195
  0
LINE
  8
LAYER01
 10
-131.200195
 11
-110.900391
 20
1324.450195
 21
1259.650391
  0
LINE
  8
LAYER01
 10
-110.900391
 11
-79.100098
 20
1259.650391
 21
1202.450195
  0
LINE
  8
LAYER01
 10
-79.100098
 11
-37.200195
 20
1202.450195
 21
1151.650391
  0
LINE
  8
LAYER01
 10
-37.200195
 11
13.650391
 20
1151.650391
 21
1109.75
  0
LINE
  8
LAYER01
 10
13.650391
 11
70.799805
 20
1109.75
 21
1077.950195
  0
LINE
  8
LAYER01
 10
70.799805
 11
135.599609
 20
1077.950195
 21
1057.650391
  0
LINE
  8
LAYER01
 10
135.599609
 11
204.200195
 20
1057.650391
 21
1050.0
  0
LINE
  8
LAYER01
 10
2825.25
 11
2893.849854
 20
1050.0
 21
1057.650391
  0
LINE
  8
LAYER01
 10
2893.849854
 11
2958.649902
 20
1057.650391
 21
1077.950195
  0
LINE
  8
LAYER01
 10
2958.649902
 11
3015.800293
 20
1077.950195
 21
1109.75
  0
LINE
  8
LAYER01
 10
3015.800293
 11
3066.650146
 20
1109.75
 21
1151.650391
  0
LINE
  8
LAYER01
 10
3066.650146
 11
3108.550049
 20
1151.650391
 21
1202.450195
  0
LINE
  8
LAYER01
 10
3108.550049
 11
3140.350098
 20
1202.450195
 21
1259.650391
  0
LINE
  8
LAYER01
 10
3140.350098
 11
3160.650146
 20
1259.650391
 21
1324.450195
  0
LINE
  8
LAYER01
 10
3160.650146
 11
3168.300049
 20
1324.450195
 21
1393.049805
  0
LINE
  8
LAYER01
 10
3168.300049
 11
3160.650146
 20
1393.049805
 21
1461.650391
  0
LINE
  8
LAYER01
 10
3160.650146
 11
3140.350098
 20
1461.650391
 21
1525.200195
  0
LINE
  8
LAYER01
 10
3140.350098
 11
3108.550049
 20
1525.200195
 21
1583.599609
  0
LINE
  8
LAYER01
 10
3108.550049
 11
3066.650146
 20
1583.599609
 21
1634.450195
  0
LINE
  8
LAYER01
 10
3066.650146
 11
3015.800293
 20
1634.450195
 21
1676.349609
  0
LINE
  8
LAYER01
 10
3015.800293
 11
2958.649902
 20
1676.349609
 21
1708.150391
  0
LINE
  8
LAYER01
 10
2958.649902
 11
2893.849854
 20
1708.150391
 21
1728.450195
  0
LINE
  8
LAYER01
 10
2893.849854
 11
2825.25
 20
1728.450195
 21
1734.799805
  0
LINE
  8
LAYER01
 10
2825.25
 11
2756.649902
 20
1734.799805
 21
1728.450195
  0
LINE
  8
LAYER01
 10
2756.649902
 11
2693.099854
 20
1728.450195
 21
1708.150391
  0
LINE
  8
LAYER01
 10
2693.099854
 11
2634.650146
 20
1708.150391
 21
1676.349609
  0
LINE
  8
LAYER01
 10
2634.650146
 11
2583.850098
 20
1676.349609
 21
1634.450195
  0
LINE
  8
LAYER01
 10
2583.850098
 11
2541.900146
 20
1634.450195
 21
1583.599609
  0
LINE
  8
LAYER01
 10
2541.900146
 11
2510.149902
 20
1583.599609
 21
1525.200195
  0
LINE
  8
LAYER01
 10
2510.149902
 11
2489.849854
 20
1525.200195
 21
1461.650391
  0
LINE
  8
LAYER01
 10
2489.849854
 11
2483.5
 20
1461.650391
 21
1393.049805
  0
LINE
  8
LAYER01
 10
2483.5
 11
2489.849854
 20
1393.049805
 21
1324.450195
  0
LINE
  8
LAYER01
 10
2489.849854
 11
2510.149902
 20
1324.450195
 21
1259.650391
  0
LINE
  8
LAYER01
 10
2510.149902
 11
2541.900146
 20
1259.650391
 21
1202.450195
  0
LINE
  8
LAYER01
 10
2541.900146
 11
2583.850098
 20
1202.450195
 21
1151.650391
  0
LINE
  8
LAYER01
 10
2583.850098
 11
2634.650146
 20
1151.650391
 21
1109.75
  0
LINE
  8
LAYER01
 10
2634.650146
 11
2693.099854
 20
1109.75
 21
1077.950195
  0
LINE
  8
LAYER01
 10
2693.099854
 11
2756.649902
 20
1077.950195
 21
1057.650391
  0
LINE
  8
LAYER01
 10
2756.649902
 11
2825.25
 20
1057.650391
 21
1050.0
  0
LINE
  8
LAYER01
 10
202.950195
 11
153.400391
 20
1643.349609
 21
1638.25
  0
LINE
  8
LAYER01
 10
153.400391
 11
106.349609
 20
1638.25
 21
1623.0
  0
LINE
  8
LAYER01
 10
106.349609
 11
64.450195
 20
1623.0
 21
1600.150391
  0
LINE
  8
LAYER01
 10
64.450195
 11
27.599609
 20
1600.150391
 21
1569.650391
  0
LINE
  8
LAYER01
 10
27.599609
 11
-2.900391
 20
1569.650391
 21
1532.799805
  0
LINE
  8
LAYER01
 10
-2.900391
 11
-27.049805
 20
1532.799805
 21
1489.599609
  0
LINE
  8
LAYER01
 10
-27.049805
 11
-41.0
 20
1489.599609
 21
1443.849609
  0
LINE
  8
LAYER01
 10
-41.0
 11
-46.100098
 20
1443.849609
 21
1393.049805
  0
LINE
  8
LAYER01
 10
-46.100098
 11
-41.0
 20
1393.049805
 21
1342.25
  0
LINE
  8
LAYER01
 10
-41.0
 11
-27.049805
 20
1342.25
 21
1295.200195
  0
LINE
  8
LAYER01
 10
-27.049805
 11
-2.900391
 20
1295.200195
 21
1253.299805
  0
LINE
  8
LAYER01
 10
-2.900391
 11
27.599609
 20
1253.299805
 21
1216.450195
  0
LINE
  8
LAYER01
 10
27.599609
 11
64.450195
 20
1216.450195
 21
1185.950195
  0
LINE
  8
LAYER01
 10
64.450195
 11
106.349609
 20
1185.950195
 21
1163.099609
  0
LINE
  8
LAYER01
 10
106.349609
 11
153.400391
 20
1163.099609
 21
1147.849609
  0
LINE
  8
LAYER01
 10
153.400391
 11
202.950195
 20
1147.849609
 21
1142.75
  0
LINE
  8
LAYER01
 10
202.950195
 11
253.75
 20
1142.75
 21
1147.849609
  0
LINE
  8
LAYER01
 10
253.75
 11
300.75
 20
1147.849609
 21
1163.099609
  0
LINE
  8
LAYER01
 10
300.75
 11
342.700195
 20
1163.099609
 21
1185.950195
  0
LINE
  8
LAYER01
 10
342.700195
 11
379.549805
 20
1185.950195
 21
1216.450195
  0
LINE
  8
LAYER01
 10
379.549805
 11
410.0
 20
1216.450195
 21
1253.299805
  0
LINE
  8
LAYER01
 10
410.0
 11
434.149902
 20
1253.299805
 21
1295.200195
  0
LINE
  8
LAYER01
 10
434.149902
 11
448.150391
 20
1295.200195
 21
1342.25
  0
LINE
  8
LAYER01
 10
448.150391
 11
453.200195
 20
1342.25
 21
1393.049805
  0
LINE
  8
LAYER01
 10
453.200195
 11
448.150391
 20
1393.049805
 21
1443.849609
  0
LINE
  8
LAYER01
 10
448.150391
 11
434.149902
 20
1443.849609
 21
1489.599609
  0
LINE
  8
LAYER01
 10
434.149902
 11
410.0
 20
1489.599609
 21
1532.799805
  0
LINE
  8
LAYER01
 10
410.0
 11
379.549805
 20
1532.799805
 21
1569.650391
  0
LINE
  8
LAYER01
 10
379.549805
 11
342.700195
 20
1569.650391
 21
1600.150391
  0
LINE
  8
LAYER01
 10
342.700195
 11
300.75
 20
1600.150391
 21
1623.0
  0
LINE
  8
LAYER01
 10
300.75
 11
253.75
 20
1623.0
 21
1638.25
  0
LINE
  8
LAYER01
 10
253.75
 11
202.950195
 20
1638.25
 21
1643.349609
  0
LINE
  8
LAYER01
 10
2823.949951
 11
2774.400146
 20
1643.349609
 21
1638.25
  0
LINE
  8
LAYER01
 10
2774.400146
 11
2727.399902
 20
1638.25
 21
1623.0
  0
LINE
  8
LAYER01
 10
2727.399902
 11
2685.500244
 20
1623.0
 21
1600.150391
  0
LINE
  8
LAYER01
 10
2685.500244
 11
2648.650146
 20
1600.150391
 21
1569.650391
  0
LINE
  8
LAYER01
 10
2648.650146
 11
2618.150146
 20
1569.650391
 21
1532.799805
  0
LINE
  8
LAYER01
 10
2618.150146
 11
2595.300049
 20
1532.799805
 21
1489.599609
  0
LINE
  8
LAYER01
 10
2595.300049
 11
2580.050049
 20
1489.599609
 21
1443.849609
  0
LINE
  8
LAYER01
 10
2580.050049
 11
2574.949951
 20
1443.849609
 21
1393.049805
  0
LINE
  8
LAYER01
 10
2574.949951
 11
2580.050049
 20
1393.049805
 21
1342.25
  0
LINE
  8
LAYER01
 10
2580.050049
 11
2595.300049
 20
1342.25
 21
1295.200195
  0
LINE
  8
LAYER01
 10
2595.300049
 11
2618.150146
 20
1295.200195
 21
1253.299805
  0
LINE
  8
LAYER01
 10
2618.150146
 11
2648.650146
 20
1253.299805
 21
1216.450195
  0
LINE
  8
LAYER01
 10
2648.650146
 11
2685.500244
 20
1216.450195
 21
1185.950195
  0
LINE
  8
LAYER01
 10
2685.500244
 11
2727.399902
 20
1185.950195
 21
1163.099609
  0
LINE
  8
LAYER01
 10
2727.399902
 11
2774.400146
 20
1163.099609
 21
1147.849609
  0
LINE
  8
LAYER01
 10
2774.400146
 11
2823.949951
 20
1147.849609
 21
1142.75
  0
LINE
  8
LAYER01
 10
2823.949951
 11
2874.799805
 20
1142.75
 21
1147.849609
  0
LINE
  8
LAYER01
 10
2874.799805
 11
2921.800049
 20
1147.849609
 21
1163.099609
  0
LINE
  8
LAYER01
 10
2921.800049
 11
2963.750244
 20
1163.099609
 21
1185.950195
  0
LINE
  8
LAYER01
 10
2963.750244
 11
3001.849854
 20
1185.950195
 21
1216.450195
  0
LINE
  8
LAYER01
 10
3001.849854
 11
3032.349854
 20
1216.450195
 21
1253.299805
  0
LINE
  8
LAYER01
 10
3032.349854
 11
3055.199951
 20
1253.299805
 21
1295.200195
  0
LINE
  8
LAYER01
 10
3055.199951
 11
3069.199951
 20
1295.200195
 21
1342.25
  0
LINE
  8
LAYER01
 10
3069.199951
 11
3074.249756
 20
1342.25
 21
1393.049805
  0
LINE
  8
LAYER01
 10
3074.249756
 11
3069.199951
 20
1393.049805
 21
1443.849609
  0
LINE
  8
LAYER01
 10
3069.199951
 11
3055.199951
 20
1443.849609
 21
1489.599609
  0
LINE
  8
LAYER01
 10
3055.199951
 11
3032.349854
 20
1489.599609
 21
1532.799805
  0
LINE
  8
LAYER01
 10
3032.349854
 11
3001.849854
 20
1532.799805
 21
1569.650391
  0
LINE
  8
LAYER01
 10
3001.849854
 11
2963.750244
 20
1569.650391
 21
1600.150391
  0
LINE
  8
LAYER01
 10
2963.750244
 11
2921.800049
 20
1600.150391
 21
1623.0
  0
LINE
  8
LAYER01
 10
2921.800049
 11
2874.799805
 20
1623.0
 21
1638.25
  0
LINE
  8
LAYER01
 10
2874.799805
 11
2823.949951
 20
1638.25
 21
1643.349609
  0
LINE
  8
LAYER01
 10
202.950195
 11
154.650391
 20
1630.650391
 21
1625.549805
  0
LINE
  8
LAYER01
 10
154.650391
 11
110.200195
 20
1625.549805
 21
1611.549805
  0
LINE
  8
LAYER01
 10
110.200195
 11
70.799805
 20
1611.549805
 21
1589.950195
  0
LINE
  8
LAYER01
 10
70.799805
 11
35.200195
 20
1589.950195
 21
1560.75
  0
LINE
  8
LAYER01
 10
35.200195
 11
6.0
 20
1560.75
 21
1526.450195
  0
LINE
  8
LAYER01
 10
6.0
 11
-15.599609
 20
1526.450195
 21
1485.799805
  0
LINE
  8
LAYER01
 10
-15.599609
 11
-29.549805
 20
1485.799805
 21
1441.349609
  0
LINE
  8
LAYER01
 10
-29.549805
 11
-34.650391
 20
1441.349609
 21
1393.049805
  0
LINE
  8
LAYER01
 10
-34.650391
 11
-29.549805
 20
1393.049805
 21
1344.75
  0
LINE
  8
LAYER01
 10
-29.549805
 11
-15.599609
 20
1344.75
 21
1300.299805
  0
LINE
  8
LAYER01
 10
-15.599609
 11
6.0
 20
1300.299805
 21
1259.650391
  0
LINE
  8
LAYER01
 10
6.0
 11
35.200195
 20
1259.650391
 21
1224.049805
  0
LINE
  8
LAYER01
 10
35.200195
 11
70.799805
 20
1224.049805
 21
1194.849609
  0
LINE
  8
LAYER01
 10
70.799805
 11
110.200195
 20
1194.849609
 21
1173.25
  0
LINE
  8
LAYER01
 10
110.200195
 11
154.650391
 20
1173.25
 21
1159.299805
  0
LINE
  8
LAYER01
 10
154.650391
 11
202.950195
 20
1159.299805
 21
1154.200195
  0
LINE
  8
LAYER01
 10
202.950195
 11
251.200195
 20
1154.200195
 21
1159.299805
  0
LINE
  8
LAYER01
 10
251.200195
 11
295.700195
 20
1159.299805
 21
1173.25
  0
LINE
  8
LAYER01
 10
295.700195
 11
336.349609
 20
1173.25
 21
1194.849609
  0
LINE
  8
LAYER01
 10
336.349609
 11
371.899902
 20
1194.849609
 21
1224.049805
  0
LINE
  8
LAYER01
 10
371.899902
 11
401.149902
 20
1224.049805
 21
1259.650391
  0
LINE
  8
LAYER01
 10
401.149902
 11
424.0
 20
1259.650391
 21
1300.299805
  0
LINE
  8
LAYER01
 10
424.0
 11
437.950195
 20
1300.299805
 21
1344.75
  0
LINE
  8
LAYER01
 10
437.950195
 11
441.799805
 20
1344.75
 21
1393.049805
  0
LINE
  8
LAYER01
 10
441.799805
 11
437.950195
 20
1393.049805
 21
1441.349609
  0
LINE
  8
LAYER01
 10
437.950195
 11
424.0
 20
1441.349609
 21
1485.799805
  0
LINE
  8
LAYER01
 10
424.0
 11
401.149902
 20
1485.799805
 21
1526.450195
  0
LINE
  8
LAYER01
 10
401.149902
 11
371.899902
 20
1526.450195
 21
1560.75
  0
LINE
  8
LAYER01
 10
371.899902
 11
336.349609
 20
1560.75
 21
1589.950195
  0
LINE
  8
LAYER01
 10
336.349609
 11
295.700195
 20
1589.950195
 21
1611.549805
  0
LINE
  8
LAYER01
 10
295.700195
 11
251.200195
 20
1611.549805
 21
1625.549805
  0
LINE
  8
LAYER01
 10
251.200195
 11
202.950195
 20
1625.549805
 21
1630.650391
  0
LINE
  8
LAYER01
 10
2823.949951
 11
2776.949951
 20
1630.650391
 21
1625.549805
  0
LINE
  8
LAYER01
 10
2776.949951
 11
2732.500244
 20
1625.549805
 21
1611.549805
  0
LINE
  8
LAYER01
 10
2732.500244
 11
2691.850098
 20
1611.549805
 21
1589.950195
  0
LINE
  8
LAYER01
 10
2691.850098
 11
2656.249756
 20
1589.950195
 21
1560.75
  0
LINE
  8
LAYER01
 10
2656.249756
 11
2627.049805
 20
1560.75
 21
1526.450195
  0
LINE
  8
LAYER01
 10
2627.049805
 11
2605.450195
 20
1526.450195
 21
1485.799805
  0
LINE
  8
LAYER01
 10
2605.450195
 11
2591.449951
 20
1485.799805
 21
1441.349609
  0
LINE
  8
LAYER01
 10
2591.449951
 11
2586.400146
 20
1441.349609
 21
1393.049805
  0
LINE
  8
LAYER01
 10
2586.400146
 11
2591.449951
 20
1393.049805
 21
1344.75
  0
LINE
  8
LAYER01
 10
2591.449951
 11
2605.450195
 20
1344.75
 21
1300.299805
  0
LINE
  8
LAYER01
 10
2605.450195
 11
2627.049805
 20
1300.299805
 21
1259.650391
  0
LINE
  8
LAYER01
 10
2627.049805
 11
2656.249756
 20
1259.650391
 21
1224.049805
  0
LINE
  8
LAYER01
 10
2656.249756
 11
2691.850098
 20
1224.049805
 21
1194.849609
  0
LINE
  8
LAYER01
 10
2691.850098
 11
2732.500244
 20
1194.849609
 21
1173.25
  0
LINE
  8
LAYER01
 10
2732.500244
 11
2776.949951
 20
1173.25
 21
1159.299805
  0
LINE
  8
LAYER01
 10
2776.949951
 11
2823.949951
 20
1159.299805
 21
1154.200195
  0
LINE
  8
LAYER01
 10
2823.949951
 11
2872.250244
 20
1154.200195
 21
1159.299805
  0
LINE
  8
LAYER01
 10
2872.250244
 11
2917.999756
 20
1159.299805
 21
1173.25
  0
LINE
  8
LAYER01
 10
2917.999756
 11
2958.649902
 20
1173.25
 21
1194.849609
  0
LINE
  8
LAYER01
 10
2958.649902
 11
2994.199951
 20
1194.849609
 21
1224.049805
  0
LINE
  8
LAYER01
 10
2994.199951
 11
3022.150146
 20
1224.049805
 21
1259.650391
  0
LINE
  8
LAYER01
 10
3022.150146
 11
3045.049805
 20
1259.650391
 21
1300.299805
  0
LINE
  8
LAYER01
 10
3045.049805
 11
3059.000244
 20
1300.299805
 21
1344.75
  0
LINE
  8
LAYER01
 10
3059.000244
 11
3064.099854
 20
1344.75
 21
1393.049805
  0
LINE
  8
LAYER01
 10
3064.099854
 11
3059.000244
 20
1393.049805
 21
1441.349609
  0
LINE
  8
LAYER01
 10
3059.000244
 11
3045.049805
 20
1441.349609
 21
1485.799805
  0
LINE
  8
LAYER01
 10
3045.049805
 11
3022.150146
 20
1485.799805
 21
1526.450195
  0
LINE
  8
LAYER01
 10
3022.150146
 11
2994.199951
 20
1526.450195
 21
1560.75
  0
LINE
  8
LAYER01
 10
2994.199951
 11
2958.649902
 20
1560.75
 21
1589.950195
  0
LINE
  8
LAYER01
 10
2958.649902
 11
2917.999756
 20
1589.950195
 21
1611.549805
  0
LINE
  8
LAYER01
 10
2917.999756
 11
2872.250244
 20
1611.549805
 21
1625.549805
  0
LINE
  8
LAYER01
 10
2872.250244
 11
2823.949951
 20
1625.549805
 21
1630.650391
  0
LINE
  8
LAYER01
 10
202.950195
 11
162.25
 20
1595.049805
 21
1589.950195
  0
LINE
  8
LAYER01
 10
162.25
 11
125.450195
 20
1589.950195
 21
1578.549805
  0
LINE
  8
LAYER01
 10
125.450195
 11
91.149902
 20
1578.549805
 21
1559.5
  0
LINE
  8
LAYER01
 10
91.149902
 11
60.649902
 20
1559.5
 21
1535.349609
  0
LINE
  8
LAYER01
 10
60.649902
 11
36.5
 20
1535.349609
 21
1506.099609
  0
LINE
  8
LAYER01
 10
36.5
 11
17.450195
 20
1506.099609
 21
1471.799805
  0
LINE
  8
LAYER01
 10
17.450195
 11
4.75
 20
1471.799805
 21
1433.700195
  0
LINE
  8
LAYER01
 10
4.75
 11
0.900391
 20
1433.700195
 21
1393.049805
  0
LINE
  8
LAYER01
 10
0.900391
 11
4.75
 20
1393.049805
 21
1352.400391
  0
LINE
  8
LAYER01
 10
4.75
 11
17.450195
 20
1352.400391
 21
1314.299805
  0
LINE
  8
LAYER01
 10
17.450195
 11
36.5
 20
1314.299805
 21
1279.950195
  0
LINE
  8
LAYER01
 10
36.5
 11
60.649902
 20
1279.950195
 21
1250.75
  0
LINE
  8
LAYER01
 10
60.649902
 11
91.149902
 20
1250.75
 21
1225.349609
  0
LINE
  8
LAYER01
 10
91.149902
 11
125.450195
 20
1225.349609
 21
1207.549805
  0
LINE
  8
LAYER01
 10
125.450195
 11
162.25
 20
1207.549805
 21
1194.849609
  0
LINE
  8
LAYER01
 10
162.25
 11
202.950195
 20
1194.849609
 21
1191.049805
  0
LINE
  8
LAYER01
 10
202.950195
 11
243.599609
 20
1191.049805
 21
1194.849609
  0
LINE
  8
LAYER01
 10
243.599609
 11
281.700195
 20
1194.849609
 21
1207.549805
  0
LINE
  8
LAYER01
 10
281.700195
 11
316.0
 20
1207.549805
 21
1225.349609
  0
LINE
  8
LAYER01
 10
316.0
 11
346.5
 20
1225.349609
 21
1250.75
  0
LINE
  8
LAYER01
 10
346.5
 11
370.649902
 20
1250.75
 21
1279.950195
  0
LINE
  8
LAYER01
 10
370.649902
 11
389.700195
 20
1279.950195
 21
1314.299805
  0
LINE
  8
LAYER01
 10
389.700195
 11
401.149902
 20
1314.299805
 21
1352.400391
  0
LINE
  8
LAYER01
 10
401.149902
 11
406.200195
 20
1352.400391
 21
1393.049805
  0
LINE
  8
LAYER01
 10
406.200195
 11
401.149902
 20
1393.049805
 21
1433.700195
  0
LINE
  8
LAYER01
 10
401.149902
 11
389.700195
 20
1433.700195
 21
1471.799805
  0
LINE
  8
LAYER01
 10
389.700195
 11
370.649902
 20
1471.799805
 21
1506.099609
  0
LINE
  8
LAYER01
 10
370.649902
 11
346.5
 20
1506.099609
 21
1535.349609
  0
LINE
  8
LAYER01
 10
346.5
 11
316.0
 20
1535.349609
 21
1559.5
  0
LINE
  8
LAYER01
 10
316.0
 11
281.700195
 20
1559.5
 21
1578.549805
  0
LINE
  8
LAYER01
 10
281.700195
 11
243.599609
 20
1578.549805
 21
1589.950195
  0
LINE
  8
LAYER01
 10
243.599609
 11
202.950195
 20
1589.950195
 21
1595.049805
  0
LINE
  8
LAYER01
 10
2823.949951
 11
2784.599854
 20
1595.049805
 21
1589.950195
  0
LINE
  8
LAYER01
 10
2784.599854
 11
2746.449951
 20
1589.950195
 21
1578.549805
  0
LINE
  8
LAYER01
 10
2746.449951
 11
2712.149902
 20
1578.549805
 21
1559.5
  0
LINE
  8
LAYER01
 10
2712.149902
 11
2681.699951
 20
1559.5
 21
1535.349609
  0
LINE
  8
LAYER01
 10
2681.699951
 11
2657.549805
 20
1535.349609
 21
1506.099609
  0
LINE
  8
LAYER01
 10
2657.549805
 11
2638.5
 20
1506.099609
 21
1471.799805
  0
LINE
  8
LAYER01
 10
2638.5
 11
2627.049805
 20
1471.799805
 21
1433.700195
  0
LINE
  8
LAYER01
 10
2627.049805
 11
2621.949951
 20
1433.700195
 21
1393.049805
  0
LINE
  8
LAYER01
 10
2621.949951
 11
2627.049805
 20
1393.049805
 21
1352.400391
  0
LINE
  8
LAYER01
 10
2627.049805
 11
2638.5
 20
1352.400391
 21
1314.299805
  0
LINE
  8
LAYER01
 10
2638.5
 11
2657.549805
 20
1314.299805
 21
1279.950195
  0
LINE
  8
LAYER01
 10
2657.549805
 11
2681.699951
 20
1279.950195
 21
1250.75
  0
LINE
  8
LAYER01
 10
2681.699951
 11
2712.149902
 20
1250.75
 21
1225.349609
  0
LINE
  8
LAYER01
 10
2712.149902
 11
2746.449951
 20
1225.349609
 21
1207.549805
  0
LINE
  8
LAYER01
 10
2746.449951
 11
2784.599854
 20
1207.549805
 21
1194.849609
  0
LINE
  8
LAYER01
 10
2784.599854
 11
2823.949951
 20
1194.849609
 21
1191.049805
  0
LINE
  8
LAYER01
 10
2823.949951
 11
2864.649658
 20
1191.049805
 21
1194.849609
  0
LINE
  8
LAYER01
 10
2864.649658
 11
2902.750244
 20
1194.849609
 21
1207.549805
  0
LINE
  8
LAYER01
 10
2902.750244
 11
2937.050049
 20
1207.549805
 21
1225.349609
  0
LINE
  8
LAYER01
 10
2937.050049
 11
2967.550049
 20
1225.349609
 21
1250.75
  0
LINE
  8
LAYER01
 10
2967.550049
 11
2991.699707
 20
1250.75
 21
1279.950195
  0
LINE
  8
LAYER01
 10
2991.699707
 11
3010.75
 20
1279.950195
 21
1314.299805
  0
LINE
  8
LAYER01
 10
3010.75
 11
3023.450195
 20
1314.299805
 21
1352.400391
  0
LINE
  8
LAYER01
 10
3023.450195
 11
3027.25
 20
1352.400391
 21
1393.049805
  0
LINE
  8
LAYER01
 10
3027.25
 11
3023.450195
 20
1393.049805
 21
1433.700195
  0
LINE
  8
LAYER01
 10
3023.450195
 11
3010.75
 20
1433.700195
 21
1471.799805
  0
LINE
  8
LAYER01
 10
3010.75
 11
2991.699707
 20
1471.799805
 21
1506.099609
  0
LINE
  8
LAYER01
 10
2991.699707
 11
2967.550049
 20
1506.099609
 21
1535.349609
  0
LINE
  8
LAYER01
 10
2967.550049
 11
2937.050049
 20
1535.349609
 21
1559.5
  0
LINE
  8
LAYER01
 10
2937.050049
 11
2902.750244
 20
1559.5
 21
1578.549805
  0
LINE
  8
LAYER01
 10
2902.750244
 11
2864.649658
 20
1578.549805
 21
1589.950195
  0
LINE
  8
LAYER01
 10
2864.649658
 11
2823.949951
 20
1589.950195
 21
1595.049805
  0
LINE
  8
LAYER01
 10
365.549805
 11
337.599609
 20
1494.700195
 21
1527.700195
  0
LINE
  8
LAYER01
 10
337.599609
 11
307.099609
 20
1527.700195
 21
1489.599609
  0
LINE
  8
LAYER01
 10
307.099609
 11
295.700195
 20
1489.599609
 21
1468.0
  0
LINE
  8
LAYER01
 10
295.700195
 11
290.599609
 20
1468.0
 21
1445.150391
  0
LINE
  8
LAYER01
 10
290.599609
 11
296.950195
 20
1445.150391
 21
1414.650391
  0
LINE
  8
LAYER01
 10
296.950195
 11
309.649902
 20
1414.650391
 21
1395.599609
  0
LINE
  8
LAYER01
 10
309.649902
 11
330.0
 20
1395.599609
 21
1382.900391
  0
LINE
  8
LAYER01
 10
330.0
 11
357.950195
 20
1382.900391
 21
1372.700195
  0
LINE
  8
LAYER01
 10
357.950195
 11
390.950195
 20
1372.700195
 21
1362.549805
  0
LINE
  8
LAYER01
 10
390.950195
 11
389.700195
 20
1362.549805
 21
1429.900391
  0
LINE
  8
LAYER01
 10
389.700195
 11
365.549805
 20
1429.900391
 21
1494.700195
  0
LINE
  8
LAYER01
 10
2986.599854
 11
2959.900146
 20
1494.700195
 21
1527.700195
  0
LINE
  8
LAYER01
 10
2959.900146
 11
2929.400146
 20
1527.700195
 21
1489.599609
  0
LINE
  8
LAYER01
 10
2929.400146
 11
2916.699707
 20
1489.599609
 21
1468.0
  0
LINE
  8
LAYER01
 10
2916.699707
 11
2911.649902
 20
1468.0
 21
1445.150391
  0
LINE
  8
LAYER01
 10
2911.649902
 11
2919.250244
 20
1445.150391
 21
1414.650391
  0
LINE
  8
LAYER01
 10
2919.250244
 11
2931.950195
 20
1414.650391
 21
1395.599609
  0
LINE
  8
LAYER01
 10
2931.950195
 11
2951.0
 20
1395.599609
 21
1382.900391
  0
LINE
  8
LAYER01
 10
2951.0
 11
2978.949951
 20
1382.900391
 21
1372.700195
  0
LINE
  8
LAYER01
 10
2978.949951
 11
3012.0
 20
1372.700195
 21
1362.549805
  0
LINE
  8
LAYER01
 10
3012.0
 11
3012.0
 20
1362.549805
 21
1429.900391
  0
LINE
  8
LAYER01
 10
3012.0
 11
2986.599854
 20
1429.900391
 21
1494.700195
  0
LINE
  8
LAYER01
 10
295.700195
 11
261.349609
 20
1330.799805
 21
1315.549805
  0
LINE
  8
LAYER01
 10
261.349609
 11
235.950195
 20
1315.549805
 21
1286.349609
  0
LINE
  8
LAYER01
 10
235.950195
 11
232.149902
 20
1286.349609
 21
1205.0
  0
LINE
  8
LAYER01
 10
232.149902
 11
275.349609
 20
1205.0
 21
1217.700195
  0
LINE
  8
LAYER01
 10
275.349609
 11
316.0
 20
1217.700195
 21
1239.299805
  0
LINE
  8
LAYER01
 10
316.0
 11
349.049805
 20
1239.299805
 21
1269.799805
  0
LINE
  8
LAYER01
 10
349.049805
 11
374.450195
 20
1269.799805
 21
1306.650391
  0
LINE
  8
LAYER01
 10
374.450195
 11
336.349609
 20
1306.650391
 21
1320.650391
  0
LINE
  8
LAYER01
 10
336.349609
 11
295.700195
 20
1320.650391
 21
1330.799805
  0
LINE
  8
LAYER01
 10
2916.699707
 11
2882.399902
 20
1330.799805
 21
1315.549805
  0
LINE
  8
LAYER01
 10
2882.399902
 11
2856.999756
 20
1315.549805
 21
1286.349609
  0
LINE
  8
LAYER01
 10
2856.999756
 11
2853.199951
 20
1286.349609
 21
1205.0
  0
LINE
  8
LAYER01
 10
2853.199951
 11
2897.649902
 20
1205.0
 21
1217.700195
  0
LINE
  8
LAYER01
 10
2897.649902
 11
2937.050049
 20
1217.700195
 21
1239.299805
  0
LINE
  8
LAYER01
 10
2937.050049
 11
2970.100098
 20
1239.299805
 21
1269.799805
  0
LINE
  8
LAYER01
 10
2970.100098
 11
2995.5
 20
1269.799805
 21
1306.650391
  0
LINE
  8
LAYER01
 10
2995.5
 11
2957.349854
 20
1306.650391
 21
1320.650391
  0
LINE
  8
LAYER01
 10
2957.349854
 11
2916.699707
 20
1320.650391
 21
1330.799805
  0
LINE
  8
LAYER01
 10
172.450195
 11
147.049805
 20
1286.349609
 21
1315.549805
  0
LINE
  8
LAYER01
 10
147.049805
 11
111.450195
 20
1315.549805
 21
1330.799805
  0
LINE
  8
LAYER01
 10
111.450195
 11
72.049805
 20
1330.799805
 21
1320.650391
  0
LINE
  8
LAYER01
 10
72.049805
 11
33.950195
 20
1320.650391
 21
1307.900391
  0
LINE
  8
LAYER01
 10
33.950195
 11
59.349609
 20
1307.900391
 21
1269.799805
  0
LINE
  8
LAYER01
 10
59.349609
 11
92.400391
 20
1269.799805
 21
1239.299805
  0
LINE
  8
LAYER01
 10
92.400391
 11
131.799805
 20
1239.299805
 21
1217.700195
  0
LINE
  8
LAYER01
 10
131.799805
 11
175.0
 20
1217.700195
 21
1205.0
  0
LINE
  8
LAYER01
 10
175.0
 11
176.25
 20
1205.0
 21
1245.650391
  0
LINE
  8
LAYER01
 10
176.25
 11
172.450195
 20
1245.650391
 21
1286.349609
  0
LINE
  8
LAYER01
 10
2793.499756
 11
2768.050049
 20
1286.349609
 21
1315.549805
  0
LINE
  8
LAYER01
 10
2768.050049
 11
2732.500244
 20
1315.549805
 21
1330.799805
  0
LINE
  8
LAYER01
 10
2732.500244
 11
2693.099854
 20
1330.799805
 21
1320.650391
  0
LINE
  8
LAYER01
 10
2693.099854
 11
2655.0
 20
1320.650391
 21
1307.900391
  0
LINE
  8
LAYER01
 10
2655.0
 11
2680.399902
 20
1307.900391
 21
1269.799805
  0
LINE
  8
LAYER01
 10
2680.399902
 11
2713.449951
 20
1269.799805
 21
1239.299805
  0
LINE
  8
LAYER01
 10
2713.449951
 11
2752.799805
 20
1239.299805
 21
1217.700195
  0
LINE
  8
LAYER01
 10
2752.799805
 11
2797.299561
 20
1217.700195
 21
1205.0
  0
LINE
  8
LAYER01
 10
2797.299561
 11
2797.299561
 20
1205.0
 21
1245.650391
  0
LINE
  8
LAYER01
 10
2797.299561
 11
2793.499756
 20
1245.650391
 21
1286.349609
  0
LINE
  8
LAYER01
 10
108.900391
 11
114.0
 20
1413.400391
 21
1459.099609
  0
LINE
  8
LAYER01
 10
114.0
 11
91.149902
 20
1459.099609
 21
1499.75
  0
LINE
  8
LAYER01
 10
91.149902
 11
68.25
 20
1499.75
 21
1527.700195
  0
LINE
  8
LAYER01
 10
68.25
 11
44.099609
 20
1527.700195
 21
1495.950195
  0
LINE
  8
LAYER01
 10
44.099609
 11
27.599609
 20
1495.950195
 21
1461.650391
  0
LINE
  8
LAYER01
 10
27.599609
 11
13.650391
 20
1461.650391
 21
1385.400391
  0
LINE
  8
LAYER01
 10
13.650391
 11
16.149902
 20
1385.400391
 21
1362.549805
  0
LINE
  8
LAYER01
 10
16.149902
 11
65.700195
 20
1362.549805
 21
1376.549805
  0
LINE
  8
LAYER01
 10
65.700195
 11
88.599609
 20
1376.549805
 21
1387.950195
  0
LINE
  8
LAYER01
 10
88.599609
 11
106.349609
 20
1387.950195
 21
1407.0
  0
LINE
  8
LAYER01
 10
106.349609
 11
108.900391
 20
1407.0
 21
1413.400391
  0
LINE
  8
LAYER01
 10
2731.249756
 11
2735.050049
 20
1413.400391
 21
1459.099609
  0
LINE
  8
LAYER01
 10
2735.050049
 11
2712.149902
 20
1459.099609
 21
1499.75
  0
LINE
  8
LAYER01
 10
2712.149902
 11
2690.550049
 20
1499.75
 21
1527.700195
  0
LINE
  8
LAYER01
 10
2690.550049
 11
2666.449951
 20
1527.700195
 21
1495.950195
  0
LINE
  8
LAYER01
 10
2666.449951
 11
2648.650146
 20
1495.950195
 21
1461.650391
  0
LINE
  8
LAYER01
 10
2648.650146
 11
2634.650146
 20
1461.650391
 21
1385.400391
  0
LINE
  8
LAYER01
 10
2634.650146
 11
2637.199951
 20
1385.400391
 21
1362.549805
  0
LINE
  8
LAYER01
 10
2637.199951
 11
2686.749756
 20
1362.549805
 21
1376.549805
  0
LINE
  8
LAYER01
 10
2686.749756
 11
2709.650146
 20
1376.549805
 21
1387.950195
  0
LINE
  8
LAYER01
 10
2709.650146
 11
2727.399902
 20
1387.950195
 21
1407.0
  0
LINE
  8
LAYER01
 10
2727.399902
 11
2731.249756
 20
1407.0
 21
1413.400391
  0
LINE
  8
LAYER01
 10
244.849609
 11
290.599609
 20
1501.049805
 21
1562.0
  0
LINE
  8
LAYER01
 10
290.599609
 11
256.299805
 20
1562.0
 21
1576.0
  0
LINE
  8
LAYER01
 10
256.299805
 11
218.200195
 20
1576.0
 21
1582.349609
  0
LINE
  8
LAYER01
 10
218.200195
 11
166.099609
 20
1582.349609
 21
1578.549805
  0
LINE
  8
LAYER01
 10
166.099609
 11
117.799805
 20
1578.549805
 21
1562.0
  0
LINE
  8
LAYER01
 10
117.799805
 11
161.0
 20
1562.0
 21
1501.049805
  0
LINE
  8
LAYER01
 10
161.0
 11
180.049805
 20
1501.049805
 21
1492.150391
  0
LINE
  8
LAYER01
 10
180.049805
 11
202.950195
 20
1492.150391
 21
1489.599609
  0
LINE
  8
LAYER01
 10
202.950195
 11
225.799805
 20
1489.599609
 21
1492.150391
  0
LINE
  8
LAYER01
 10
225.799805
 11
244.849609
 20
1492.150391
 21
1501.049805
  0
LINE
  8
LAYER01
 10
2865.900146
 11
2911.649902
 20
1501.049805
 21
1562.0
  0
LINE
  8
LAYER01
 10
2911.649902
 11
2877.349854
 20
1562.0
 21
1576.0
  0
LINE
  8
LAYER01
 10
2877.349854
 11
2839.199951
 20
1576.0
 21
1582.349609
  0
LINE
  8
LAYER01
 10
2839.199951
 11
2787.149902
 20
1582.349609
 21
1578.549805
  0
LINE
  8
LAYER01
 10
2787.149902
 11
2738.850098
 20
1578.549805
 21
1562.0
  0
LINE
  8
LAYER01
 10
2738.850098
 11
2782.050049
 20
1562.0
 21
1501.049805
  0
LINE
  8
LAYER01
 10
2782.050049
 11
2801.099854
 20
1501.049805
 21
1492.150391
  0
LINE
  8
LAYER01
 10
2801.099854
 11
2823.949951
 20
1492.150391
 21
1489.599609
  0
LINE
  8
LAYER01
 10
2823.949951
 11
2848.100098
 20
1489.599609
 21
1492.150391
  0
LINE
  8
LAYER01
 10
2848.100098
 11
2865.900146
 20
1492.150391
 21
1501.049805
  0
LINE
  8
LAYER01
 10
204.200195
 11
235.950195
 20
1474.349609
 21
1468.0
  0
LINE
  8
LAYER01
 10
235.950195
 11
261.349609
 20
1468.0
 21
1450.200195
  0
LINE
  8
LAYER01
 10
261.349609
 11
277.899902
 20
1450.200195
 21
1424.799805
  0
LINE
  8
LAYER01
 10
277.899902
 11
284.25
 20
1424.799805
 21
1393.049805
  0
LINE
  8
LAYER01
 10
284.25
 11
277.899902
 20
1393.049805
 21
1361.299805
  0
LINE
  8
LAYER01
 10
277.899902
 11
261.349609
 20
1361.299805
 21
1335.849609
  0
LINE
  8
LAYER01
 10
261.349609
 11
235.950195
 20
1335.849609
 21
1318.099609
  0
LINE
  8
LAYER01
 10
235.950195
 11
204.200195
 20
1318.099609
 21
1311.75
  0
LINE
  8
LAYER01
 10
204.200195
 11
172.450195
 20
1311.75
 21
1318.099609
  0
LINE
  8
LAYER01
 10
172.450195
 11
147.049805
 20
1318.099609
 21
1335.849609
  0
LINE
  8
LAYER01
 10
147.049805
 11
129.25
 20
1335.849609
 21
1361.299805
  0
LINE
  8
LAYER01
 10
129.25
 11
122.899902
 20
1361.299805
 21
1393.049805
  0
LINE
  8
LAYER01
 10
122.899902
 11
129.25
 20
1393.049805
 21
1424.799805
  0
LINE
  8
LAYER01
 10
129.25
 11
147.049805
 20
1424.799805
 21
1450.200195
  0
LINE
  8
LAYER01
 10
147.049805
 11
172.450195
 20
1450.200195
 21
1468.0
  0
LINE
  8
LAYER01
 10
172.450195
 11
204.200195
 20
1468.0
 21
1474.349609
  0
LINE
  8
LAYER01
 10
2825.25
 11
2856.999756
 20
1474.349609
 21
1468.0
  0
LINE
  8
LAYER01
 10
2856.999756
 11
2882.399902
 20
1468.0
 21
1450.200195
  0
LINE
  8
LAYER01
 10
2882.399902
 11
2900.199951
 20
1450.200195
 21
1424.799805
  0
LINE
  8
LAYER01
 10
2900.199951
 11
2906.550049
 20
1424.799805
 21
1393.049805
  0
LINE
  8
LAYER01
 10
2906.550049
 11
2900.199951
 20
1393.049805
 21
1361.299805
  0
LINE
  8
LAYER01
 10
2900.199951
 11
2882.399902
 20
1361.299805
 21
1335.849609
  0
LINE
  8
LAYER01
 10
2882.399902
 11
2856.999756
 20
1335.849609
 21
1318.099609
  0
LINE
  8
LAYER01
 10
2856.999756
 11
2825.25
 20
1318.099609
 21
1311.75
  0
LINE
  8
LAYER01
 10
2825.25
 11
2793.499756
 20
1311.75
 21
1318.099609
  0
LINE
  8
LAYER01
 10
2793.499756
 11
2768.050049
 20
1318.099609
 21
1335.849609
  0
LINE
  8
LAYER01
 10
2768.050049
 11
2750.300049
 20
1335.849609
 21
1361.299805
  0
LINE
  8
LAYER01
 10
2750.300049
 11
2743.949951
 20
1361.299805
 21
1393.049805
  0
LINE
  8
LAYER01
 10
2743.949951
 11
2750.300049
 20
1393.049805
 21
1424.799805
  0
LINE
  8
LAYER01
 10
2750.300049
 11
2768.050049
 20
1424.799805
 21
1450.200195
  0
LINE
  8
LAYER01
 10
2768.050049
 11
2793.499756
 20
1450.200195
 21
1468.0
  0
LINE
  8
LAYER01
 10
2793.499756
 11
2825.25
 20
1468.0
 21
1474.349609
  0
LINE
  8
LAYER01
 10
204.200195
 11
232.149902
 20
1465.450195
 21
1460.400391
  0
LINE
  8
LAYER01
 10
232.149902
 11
256.299805
 20
1460.400391
 21
1445.150391
  0
LINE
  8
LAYER01
 10
256.299805
 11
271.549805
 20
1445.150391
 21
1421.0
  0
LINE
  8
LAYER01
 10
271.549805
 11
276.600098
 20
1421.0
 21
1393.049805
  0
LINE
  8
LAYER01
 10
276.600098
 11
271.549805
 20
1393.049805
 21
1363.849609
  0
LINE
  8
LAYER01
 10
271.549805
 11
256.299805
 20
1363.849609
 21
1340.950195
  0
LINE
  8
LAYER01
 10
256.299805
 11
232.149902
 20
1340.950195
 21
1325.700195
  0
LINE
  8
LAYER01
 10
232.149902
 11
204.200195
 20
1325.700195
 21
1320.650391
  0
LINE
  8
LAYER01
 10
204.200195
 11
175.0
 20
1320.650391
 21
1325.700195
  0
LINE
  8
LAYER01
 10
175.0
 11
152.099609
 20
1325.700195
 21
1340.950195
  0
LINE
  8
LAYER01
 10
152.099609
 11
136.849609
 20
1340.950195
 21
1363.849609
  0
LINE
  8
LAYER01
 10
136.849609
 11
130.5
 20
1363.849609
 21
1393.049805
  0
LINE
  8
LAYER01
 10
130.5
 11
136.849609
 20
1393.049805
 21
1421.0
  0
LINE
  8
LAYER01
 10
136.849609
 11
152.099609
 20
1421.0
 21
1445.150391
  0
LINE
  8
LAYER01
 10
152.099609
 11
175.0
 20
1445.150391
 21
1460.400391
  0
LINE
  8
LAYER01
 10
175.0
 11
204.200195
 20
1460.400391
 21
1465.450195
  0
LINE
  8
LAYER01
 10
2825.25
 11
2854.449951
 20
1465.450195
 21
1460.400391
  0
LINE
  8
LAYER01
 10
2854.449951
 11
2877.349854
 20
1460.400391
 21
1445.150391
  0
LINE
  8
LAYER01
 10
2877.349854
 11
2892.599854
 20
1445.150391
 21
1421.0
  0
LINE
  8
LAYER01
 10
2892.599854
 11
2897.649902
 20
1421.0
 21
1393.049805
  0
LINE
  8
LAYER01
 10
2897.649902
 11
2892.599854
 20
1393.049805
 21
1363.849609
  0
LINE
  8
LAYER01
 10
2892.599854
 11
2877.349854
 20
1363.849609
 21
1340.950195
  0
LINE
  8
LAYER01
 10
2877.349854
 11
2854.449951
 20
1340.950195
 21
1325.700195
  0
LINE
  8
LAYER01
 10
2854.449951
 11
2825.25
 20
1325.700195
 21
1320.650391
  0
LINE
  8
LAYER01
 10
2825.25
 11
2796.0
 20
1320.650391
 21
1325.700195
  0
LINE
  8
LAYER01
 10
2796.0
 11
2773.150146
 20
1325.700195
 21
1340.950195
  0
LINE
  8
LAYER01
 10
2773.150146
 11
2757.900146
 20
1340.950195
 21
1363.849609
  0
LINE
  8
LAYER01
 10
2757.900146
 11
2751.550049
 20
1363.849609
 21
1393.049805
  0
LINE
  8
LAYER01
 10
2751.550049
 11
2757.900146
 20
1393.049805
 21
1421.0
  0
LINE
  8
LAYER01
 10
2757.900146
 11
2773.150146
 20
1421.0
 21
1445.150391
  0
LINE
  8
LAYER01
 10
2773.150146
 11
2796.0
 20
1445.150391
 21
1460.400391
  0
LINE
  8
LAYER01
 10
2796.0
 11
2825.25
 20
1460.400391
 21
1465.450195
  0
LINE
  8
LAYER01
 10
3247.049805
 11
3239.449951
 20
1277.450195
 21
1277.450195
  0
LINE
  8
LAYER01
 10
3239.449951
 11
3230.550049
 20
1277.450195
 21
1396.849609
  0
LINE
  8
LAYER01
 10
3230.550049
 11
3202.599854
 20
1396.849609
 21
1498.5
  0
LINE
  8
LAYER01
 10
3202.599854
 11
3160.650146
 20
1498.5
 21
1582.349609
  0
LINE
  8
LAYER01
 10
3160.650146
 11
3107.300049
 20
1582.349609
 21
1649.700195
  0
LINE
  8
LAYER01
 10
3107.300049
 11
3043.749756
 20
1649.700195
 21
1700.5
  0
LINE
  8
LAYER01
 10
3043.749756
 11
2973.900146
 20
1700.5
 21
1736.099609
  0
LINE
  8
LAYER01
 10
2973.900146
 11
2900.199951
 20
1736.099609
 21
1756.400391
  0
LINE
  8
LAYER01
 10
2900.199951
 11
2826.499756
 20
1756.400391
 21
1762.75
  0
LINE
  8
LAYER01
 10
2826.499756
 11
2726.149902
 20
1762.75
 21
1751.349609
  0
LINE
  8
LAYER01
 10
2726.149902
 11
2639.75
 20
1751.349609
 21
1722.099609
  0
LINE
  8
LAYER01
 10
2639.75
 11
2566.050049
 20
1722.099609
 21
1676.349609
  0
LINE
  8
LAYER01
 10
2566.050049
 11
2506.349854
 20
1676.349609
 21
1615.400391
  0
LINE
  8
LAYER01
 10
2506.349854
 11
2460.600098
 20
1615.400391
 21
1539.150391
  0
LINE
  8
LAYER01
 10
2460.600098
 11
2430.099854
 20
1539.150391
 21
1448.950195
  0
LINE
  8
LAYER01
 10
2430.099854
 11
2412.349854
 20
1448.950195
 21
1347.299805
  0
LINE
  8
LAYER01
 10
2412.349854
 11
2411.050049
 20
1347.299805
 21
1235.5
  0
LINE
  8
LAYER01
 10
2411.050049
 11
2522.849854
 20
1235.5
 21
1234.25
  0
LINE
  8
LAYER01
 10
2522.849854
 11
2493.650146
 20
1234.25
 21
1309.200195
  0
LINE
  8
LAYER01
 10
2493.650146
 11
2483.5
 20
1309.200195
 21
1393.049805
  0
LINE
  8
LAYER01
 10
2483.5
 11
2489.849854
 20
1393.049805
 21
1461.650391
  0
LINE
  8
LAYER01
 10
2489.849854
 11
2510.149902
 20
1461.650391
 21
1525.200195
  0
LINE
  8
LAYER01
 10
2510.149902
 11
2541.900146
 20
1525.200195
 21
1583.599609
  0
LINE
  8
LAYER01
 10
2541.900146
 11
2583.850098
 20
1583.599609
 21
1634.450195
  0
LINE
  8
LAYER01
 10
2583.850098
 11
2634.650146
 20
1634.450195
 21
1676.349609
  0
LINE
  8
LAYER01
 10
2634.650146
 11
2693.099854
 20
1676.349609
 21
1708.150391
  0
LINE
  8
LAYER01
 10
2693.099854
 11
2756.649902
 20
1708.150391
 21
1728.450195
  0
LINE
  8
LAYER01
 10
2756.649902
 11
2825.25
 20
1728.450195
 21
1736.099609
  0
LINE
  8
LAYER01
 10
2825.25
 11
2893.849854
 20
1736.099609
 21
1728.450195
  0
LINE
  8
LAYER01
 10
2893.849854
 11
2958.649902
 20
1728.450195
 21
1708.150391
  0
LINE
  8
LAYER01
 10
2958.649902
 11
3017.099854
 20
1708.150391
 21
1676.349609
  0
LINE
  8
LAYER01
 10
3017.099854
 11
3067.899902
 20
1676.349609
 21
1634.450195
  0
LINE
  8
LAYER01
 10
3067.899902
 11
3109.850098
 20
1634.450195
 21
1583.599609
  0
LINE
  8
LAYER01
 10
3109.850098
 11
3141.599854
 20
1583.599609
 21
1525.200195
  0
LINE
  8
LAYER01
 10
3141.599854
 11
3160.650146
 20
1525.200195
 21
1461.650391
  0
LINE
  8
LAYER01
 10
3160.650146
 11
3168.300049
 20
1461.650391
 21
1393.049805
  0
LINE
  8
LAYER01
 10
3168.300049
 11
3163.200195
 20
1393.049805
 21
1333.349609
  0
LINE
  8
LAYER01
 10
3163.200195
 11
3147.949951
 20
1333.349609
 21
1277.450195
  0
LINE
  8
LAYER01
 10
3147.949951
 11
3247.049805
 20
1277.450195
 21
1277.450195
  0
LINE
  8
LAYER01
 10
617.099609
 11
610.75
 20
1253.299805
 21
1276.150391
  0
LINE
  8
LAYER01
 10
610.75
 11
606.950195
 20
1276.150391
 21
1384.150391
  0
LINE
  8
LAYER01
 10
606.950195
 11
590.450195
 20
1384.150391
 21
1480.700195
  0
LINE
  8
LAYER01
 10
590.450195
 11
559.950195
 20
1480.700195
 21
1564.549805
  0
LINE
  8
LAYER01
 10
559.950195
 11
518.0
 20
1564.549805
 21
1635.700195
  0
LINE
  8
LAYER01
 10
518.0
 11
460.849609
 20
1635.700195
 21
1692.900391
  0
LINE
  8
LAYER01
 10
460.849609
 11
389.700195
 20
1692.900391
 21
1734.799805
  0
LINE
  8
LAYER01
 10
389.700195
 11
304.549805
 20
1734.799805
 21
1761.5
  0
LINE
  8
LAYER01
 10
304.549805
 11
204.200195
 20
1761.5
 21
1770.400391
  0
LINE
  8
LAYER01
 10
204.200195
 11
107.649902
 20
1770.400391
 21
1762.75
  0
LINE
  8
LAYER01
 10
107.649902
 11
23.799805
 20
1762.75
 21
1738.599609
  0
LINE
  8
LAYER01
 10
23.799805
 11
-48.650391
 20
1738.599609
 21
1699.25
  0
LINE
  8
LAYER01
 10
-48.650391
 11
-107.049805
 20
1699.25
 21
1644.599609
  0
LINE
  8
LAYER01
 10
-107.049805
 11
-152.75
 20
1644.599609
 21
1576.0
  0
LINE
  8
LAYER01
 10
-152.75
 11
-187.049805
 20
1576.0
 21
1490.900391
  0
LINE
  8
LAYER01
 10
-187.049805
 11
-208.650391
 20
1490.900391
 21
1393.049805
  0
LINE
  8
LAYER01
 10
-208.650391
 11
-217.549805
 20
1393.049805
 21
1281.25
  0
LINE
  8
LAYER01
 10
-217.549805
 11
-218.850098
 20
1281.25
 21
1272.349609
  0
LINE
  8
LAYER01
 10
-218.850098
 11
-114.700195
 20
1272.349609
 21
1272.349609
  0
LINE
  8
LAYER01
 10
-114.700195
 11
-131.200195
 20
1272.349609
 21
1330.799805
  0
LINE
  8
LAYER01
 10
-131.200195
 11
-137.549805
 20
1330.799805
 21
1393.049805
  0
LINE
  8
LAYER01
 10
-137.549805
 11
-131.200195
 20
1393.049805
 21
1461.650391
  0
LINE
  8
LAYER01
 10
-131.200195
 11
-110.900391
 20
1461.650391
 21
1525.200195
  0
LINE
  8
LAYER01
 10
-110.900391
 11
-79.100098
 20
1525.200195
 21
1583.599609
  0
LINE
  8
LAYER01
 10
-79.100098
 11
-37.200195
 20
1583.599609
 21
1634.450195
  0
LINE
  8
LAYER01
 10
-37.200195
 11
13.650391
 20
1634.450195
 21
1676.349609
  0
LINE
  8
LAYER01
 10
13.650391
 11
72.049805
 20
1676.349609
 21
1708.150391
  0
LINE
  8
LAYER01
 10
72.049805
 11
135.599609
 20
1708.150391
 21
1728.450195
  0
LINE
  8
LAYER01
 10
135.599609
 11
205.450195
 20
1728.450195
 21
1736.099609
  0
LINE
  8
LAYER01
 10
205.450195
 11
272.799805
 20
1736.099609
 21
1728.450195
  0
LINE
  8
LAYER01
 10
272.799805
 11
337.599609
 20
1728.450195
 21
1708.150391
  0
LINE
  8
LAYER01
 10
337.599609
 11
394.799805
 20
1708.150391
 21
1676.349609
  0
LINE
  8
LAYER01
 10
394.799805
 11
445.599609
 20
1676.349609
 21
1634.450195
  0
LINE
  8
LAYER01
 10
445.599609
 11
487.5
 20
1634.450195
 21
1583.599609
  0
LINE
  8
LAYER01
 10
487.5
 11
519.299805
 20
1583.599609
 21
1525.200195
  0
LINE
  8
LAYER01
 10
519.299805
 11
539.599609
 20
1525.200195
 21
1461.650391
  0
LINE
  8
LAYER01
 10
539.599609
 11
545.950195
 20
1461.650391
 21
1393.049805
  0
LINE
  8
LAYER01
 10
545.950195
 11
538.349609
 20
1393.049805
 21
1320.650391
  0
LINE
  8
LAYER01
 10
538.349609
 11
515.450195
 20
1320.650391
 21
1253.299805
  0
LINE
  8
LAYER01
 10
515.450195
 11
617.099609
 20
1253.299805
 21
1253.299805
  0
LINE
  8
LAYER01
 10
-490.700195
 11
-367.450195
 20
1567.099609
 21
1567.099609
  0
LINE
  8
LAYER01
 10
-367.450195
 11
-357.299805
 20
1567.099609
 21
1563.299805
  0
LINE
  8
LAYER01
 10
-357.299805
 11
-353.5
 20
1563.299805
 21
1553.150391
  0
LINE
  8
LAYER01
 10
-353.5
 11
-353.5
 20
1553.150391
 21
1507.400391
  0
LINE
  8
LAYER01
 10
-353.5
 11
-357.299805
 20
1507.400391
 21
1497.25
  0
LINE
  8
LAYER01
 10
-357.299805
 11
-367.450195
 20
1497.25
 21
1493.400391
  0
LINE
  8
LAYER01
 10
-367.450195
 11
-490.700195
 20
1493.400391
 21
1493.400391
  0
LINE
  8
LAYER01
 10
-490.700195
 11
-500.900391
 20
1493.400391
 21
1497.25
  0
LINE
  8
LAYER01
 10
-500.900391
 11
-504.700195
 20
1497.25
 21
1507.400391
  0
LINE
  8
LAYER01
 10
-504.700195
 11
-504.700195
 20
1507.400391
 21
1553.150391
  0
LINE
  8
LAYER01
 10
-504.700195
 11
-500.900391
 20
1553.150391
 21
1563.299805
  0
LINE
  8
LAYER01
 10
-500.900391
 11
-490.700195
 20
1563.299805
 21
1567.099609
  0
LINE
  8
LAYER01
 10
3224.199951
 11
3310.550049
 20
1621.75
 21
1621.75
  0
LINE
  8
LAYER01
 10
3310.550049
 11
3320.749756
 20
1621.75
 21
1611.549805
  0
LINE
  8
LAYER01
 10
3320.749756
 11
3320.749756
 20
1611.549805
 21
1578.549805
  0
LINE
  8
LAYER01
 10
3320.749756
 11
3310.550049
 20
1578.549805
 21
1568.400391
  0
LINE
  8
LAYER01
 10
3310.550049
 11
3224.199951
 20
1568.400391
 21
1568.400391
  0
LINE
  8
LAYER01
 10
3224.199951
 11
3214.000244
 20
1568.400391
 21
1578.549805
  0
LINE
  8
LAYER01
 10
3214.000244
 11
3214.000244
 20
1578.549805
 21
1611.549805
  0
LINE
  8
LAYER01
 10
3214.000244
 11
3224.199951
 20
1611.549805
 21
1621.75
  0
LINE
  8
LAYER01
 10
-382.700195
 11
-387.799805
 20
1745.0
 21
1723.400391
  0
LINE
  8
LAYER01
 10
-387.799805
 11
-381.450195
 20
1723.400391
 21
1708.150391
  0
LINE
  8
LAYER01
 10
-381.450195
 11
-362.400391
 20
1708.150391
 21
1700.5
  0
LINE
  8
LAYER01
 10
-362.400391
 11
-335.700195
 20
1700.5
 21
1703.049805
  0
LINE
  8
LAYER01
 10
-335.700195
 11
-300.150391
 20
1703.049805
 21
1722.099609
  0
LINE
  8
LAYER01
 10
-300.150391
 11
-253.150391
 20
1722.099609
 21
1758.950195
  0
LINE
  8
LAYER01
 10
-253.150391
 11
-209.950195
 20
1758.950195
 21
1805.950195
  0
LINE
  8
LAYER01
 10
-209.950195
 11
-184.5
 20
1805.950195
 21
1852.950195
  0
LINE
  8
LAYER01
 10
-184.5
 11
-185.799805
 20
1852.950195
 21
1869.5
  0
LINE
  8
LAYER01
 10
-185.799805
 11
-198.5
 20
1869.5
 21
1882.200195
  0
LINE
  8
LAYER01
 10
-198.5
 11
-218.850098
 20
1882.200195
 21
1887.25
  0
LINE
  8
LAYER01
 10
-218.850098
 11
-242.950195
 20
1887.25
 21
1882.200195
  0
LINE
  8
LAYER01
 10
-242.950195
 11
-287.450195
 20
1882.200195
 21
1856.799805
  0
LINE
  8
LAYER01
 10
-287.450195
 11
-325.549805
 20
1856.799805
 21
1827.549805
  0
LINE
  8
LAYER01
 10
-325.549805
 11
-356.049805
 20
1827.549805
 21
1790.700195
  0
LINE
  8
LAYER01
 10
-356.049805
 11
-382.700195
 20
1790.700195
 21
1745.0
  0
LINE
  8
LAYER01
 10
-276.0
 11
-58.799805
 20
1738.599609
 21
1738.599609
  0
LINE
  8
LAYER01
 10
-58.799805
 11
-35.900391
 20
1738.599609
 21
1710.650391
  0
LINE
  8
LAYER01
 10
3287.699951
 11
3050.099854
 20
1738.599609
 21
1738.599609
  0
LINE
  8
LAYER01
 10
3050.099854
 11
3027.25
 20
1738.599609
 21
1710.650391
  0
LINE
  8
LAYER01
 10
-601.25
 11
-321.75
 20
1593.799805
 21
1593.799805
  0
LINE
  8
LAYER01
 10
-321.75
 11
-282.349609
 20
1593.799805
 21
1600.150391
  0
LINE
  8
LAYER01
 10
-282.349609
 11
-244.25
 20
1600.150391
 21
1620.450195
  0
LINE
  8
LAYER01
 10
-244.25
 11
-213.75
 20
1620.450195
 21
1654.75
  0
LINE
  8
LAYER01
 10
-213.75
 11
-198.5
 20
1654.75
 21
1708.150391
  0
LINE
  8
LAYER01
 10
-198.5
 11
-192.150391
 20
1708.150391
 21
1734.799805
  0
LINE
  8
LAYER01
 10
-192.150391
 11
-178.150391
 20
1734.799805
 21
1762.75
  0
LINE
  8
LAYER01
 10
-178.150391
 11
-132.5
 20
1762.75
 21
1818.650391
  0
LINE
  8
LAYER01
 10
-132.5
 11
-61.349609
 20
1818.650391
 21
1865.650391
  0
LINE
  8
LAYER01
 10
-61.349609
 11
-19.400391
 20
1865.650391
 21
1882.200195
  0
LINE
  8
LAYER01
 10
-19.400391
 11
26.349609
 20
1882.200195
 21
1892.349609
  0
LINE
  8
LAYER01
 10
26.349609
 11
112.75
 20
1892.349609
 21
1901.25
  0
LINE
  8
LAYER01
 10
112.75
 11
192.75
 20
1901.25
 21
1900.0
  0
LINE
  8
LAYER01
 10
192.75
 11
270.25
 20
1900.0
 21
1891.099609
  0
LINE
  8
LAYER01
 10
270.25
 11
342.700195
 20
1891.099609
 21
1873.299805
  0
LINE
  8
LAYER01
 10
342.700195
 11
410.0
 20
1873.299805
 21
1847.900391
  0
LINE
  8
LAYER01
 10
410.0
 11
473.549805
 20
1847.900391
 21
1814.849609
  0
LINE
  8
LAYER01
 10
473.549805
 11
530.700195
 20
1814.849609
 21
1776.75
  0
LINE
  8
LAYER01
 10
530.700195
 11
584.099609
 20
1776.75
 21
1731.0
  0
LINE
  8
LAYER01
 10
584.099609
 11
622.200195
 20
1731.0
 21
1690.349609
  0
LINE
  8
LAYER01
 10
622.200195
 11
653.950195
 20
1690.349609
 21
1643.349609
  0
LINE
  8
LAYER01
 10
653.950195
 11
680.649902
 20
1643.349609
 21
1588.700195
  0
LINE
  8
LAYER01
 10
680.649902
 11
700.949951
 20
1588.700195
 21
1530.25
  0
LINE
  8
LAYER01
 10
700.949951
 11
727.649902
 20
1530.25
 21
1393.049805
  0
LINE
  8
LAYER01
 10
727.649902
 11
734.0
 20
1393.049805
 21
1231.700195
  0
LINE
  8
LAYER01
 10
589.150391
 11
2596.550049
 20
2020.650391
 21
2056.25
  0
LINE
  8
LAYER01
 10
2596.550049
 11
2613.049805
 20
2056.25
 21
2061.349609
  0
LINE
  8
LAYER01
 10
2613.049805
 11
2621.949951
 20
2061.349609
 21
2071.5
  0
LINE
  8
LAYER01
 10
2621.949951
 11
2623.25
 20
2071.5
 21
2084.200195
  0
LINE
  8
LAYER01
 10
2623.25
 11
2614.349854
 20
2084.200195
 21
2099.450195
  0
LINE
  8
LAYER01
 10
2614.349854
 11
2475.850098
 20
2099.450195
 21
2225.200195
  0
LINE
  8
LAYER01
 10
2475.850098
 11
2399.649902
 20
2225.200195
 21
2281.150391
  0
LINE
  8
LAYER01
 10
2399.649902
 11
2319.600098
 20
2281.150391
 21
2331.950195
  0
LINE
  8
LAYER01
 10
2319.600098
 11
2234.449951
 20
2331.950195
 21
2376.400391
  0
LINE
  8
LAYER01
 10
2234.449951
 11
2145.550049
 20
2376.400391
 21
2414.549805
  0
LINE
  8
LAYER01
 10
2145.550049
 11
2051.499756
 20
2414.549805
 21
2444.950195
  0
LINE
  8
LAYER01
 10
2051.499756
 11
1953.699951
 20
2444.950195
 21
2470.400391
  0
LINE
  8
LAYER01
 10
1953.699951
 11
1747.849854
 20
2470.400391
 21
2499.599609
  0
LINE
  8
LAYER01
 10
1747.849854
 11
1540.749756
 20
2499.599609
 21
2503.400391
  0
LINE
  8
LAYER01
 10
1540.749756
 11
1333.699951
 20
2503.400391
 21
2480.549805
  0
LINE
  8
LAYER01
 10
1333.699951
 11
1126.600098
 20
2480.549805
 21
2429.75
  0
LINE
  8
LAYER01
 10
1126.600098
 11
1050.350098
 20
2429.75
 21
2401.799805
  0
LINE
  8
LAYER01
 10
1050.350098
 11
976.649902
 20
2401.799805
 21
2368.799805
  0
LINE
  8
LAYER01
 10
976.649902
 11
835.650146
 20
2368.799805
 21
2284.950195
  0
LINE
  8
LAYER01
 10
835.650146
 11
700.949951
 20
2284.950195
 21
2187.099609
  0
LINE
  8
LAYER01
 10
700.949951
 11
571.400391
 20
2187.099609
 21
2077.849609
  0
LINE
  8
LAYER01
 10
571.400391
 11
553.599609
 20
2077.849609
 21
2053.700195
  0
LINE
  8
LAYER01
 10
553.599609
 11
554.849609
 20
2053.700195
 21
2034.650391
  0
LINE
  8
LAYER01
 10
554.849609
 11
568.849609
 20
2034.650391
 21
2023.200195
  0
LINE
  8
LAYER01
 10
568.849609
 11
589.150391
 20
2023.200195
 21
2020.650391
  0
LINE
  8
LAYER01
 10
1951.149902
 11
1951.149902
 20
2450.049805
 21
2063.849609
  0
LINE
  8
LAYER01
 10
1951.149902
 11
2595.300049
 20
2063.849609
 21
2076.599609
  0
LINE
  8
LAYER01
 10
2595.300049
 11
2600.349854
 20
2076.599609
 21
2076.599609
  0
LINE
  8
LAYER01
 10
2600.349854
 11
2602.899658
 20
2076.599609
 21
2077.849609
  0
LINE
  8
LAYER01
 10
2602.899658
 11
2599.099854
 20
2077.849609
 21
2086.75
  0
LINE
  8
LAYER01
 10
2599.099854
 11
2463.150146
 20
2086.75
 21
2211.25
  0
LINE
  8
LAYER01
 10
2463.150146
 11
2388.199951
 20
2211.25
 21
2265.900391
  0
LINE
  8
LAYER01
 10
2388.199951
 11
2309.399902
 20
2265.900391
 21
2314.150391
  0
LINE
  8
LAYER01
 10
2309.399902
 11
2225.550049
 20
2314.150391
 21
2359.900391
  0
LINE
  8
LAYER01
 10
2225.550049
 11
2137.899902
 20
2359.900391
 21
2396.75
  0
LINE
  8
LAYER01
 10
2137.899902
 11
2045.149902
 20
2396.75
 21
2427.25
  0
LINE
  8
LAYER01
 10
2045.149902
 11
1951.149902
 20
2427.25
 21
2450.049805
  0
LINE
  8
LAYER01
 10
1788.5
 11
1788.5
 20
2061.349609
 21
2475.450195
  0
LINE
  8
LAYER01
 10
1788.5
 11
1586.5
 20
2475.450195
 21
2484.349609
  0
LINE
  8
LAYER01
 10
1586.5
 11
1388.300049
 20
2484.349609
 21
2469.099609
  0
LINE
  8
LAYER01
 10
1388.300049
 11
1280.299805
 20
2469.099609
 21
2448.799805
  0
LINE
  8
LAYER01
 10
1280.299805
 11
1172.300049
 20
2448.799805
 21
2423.400391
  0
LINE
  8
LAYER01
 10
1172.300049
 11
1068.150146
 20
2423.400391
 21
2387.849609
  0
LINE
  8
LAYER01
 10
1068.150146
 11
967.75
 20
2387.849609
 21
2340.849609
  0
LINE
  8
LAYER01
 10
967.75
 11
827.999756
 20
2340.849609
 21
2257.0
  0
LINE
  8
LAYER01
 10
827.999756
 11
695.900146
 20
2257.0
 21
2157.900391
  0
LINE
  8
LAYER01
 10
695.900146
 11
695.900146
 20
2157.900391
 21
2041.0
  0
LINE
  8
LAYER01
 10
695.900146
 11
1788.5
 20
2041.0
 21
2061.349609
  0
LINE
  8
LAYER01
 10
1004.599854
 11
908.050049
 20
2480.549805
 21
2446.25
  0
LINE
  8
LAYER01
 10
908.050049
 11
817.849854
 20
2446.25
 21
2408.200195
  0
LINE
  8
LAYER01
 10
817.849854
 11
647.599609
 20
2408.200195
 21
2314.150391
  0
LINE
  8
LAYER01
 10
647.599609
 11
481.150391
 20
2314.150391
 21
2202.349609
  0
LINE
  8
LAYER01
 10
481.150391
 11
305.849609
 20
2202.349609
 21
2076.599609
  0
LINE
  8
LAYER01
 10
305.849609
 11
465.899902
 20
2076.599609
 21
2057.5
  0
LINE
  8
LAYER01
 10
465.899902
 11
606.950195
 20
2057.5
 21
2182.049805
  0
LINE
  8
LAYER01
 10
606.950195
 11
755.599854
 20
2182.049805
 21
2292.549805
  0
LINE
  8
LAYER01
 10
755.599854
 11
913.149902
 20
2292.549805
 21
2385.299805
  0
LINE
  8
LAYER01
 10
913.149902
 11
1082.100098
 20
2385.299805
 21
2456.400391
  0
LINE
  8
LAYER01
 10
1082.100098
 11
1004.599854
 20
2456.400391
 21
2480.549805
  0
LINE
  8
LAYER01
 10
330.0
 11
491.349609
 20
2094.349609
 21
2208.700195
  0
LINE
  8
LAYER01
 10
491.349609
 11
645.049805
 20
2208.700195
 21
2312.900391
  0
LINE
  8
LAYER01
 10
645.049805
 11
801.349854
 20
2312.900391
 21
2401.799805
  0
LINE
  8
LAYER01
 10
801.349854
 11
883.899902
 20
2401.799805
 21
2438.599609
  0
LINE
  8
LAYER01
 10
883.899902
 11
971.600098
 20
2438.599609
 21
2471.650391
  0
LINE
  8
LAYER01
 10
971.600098
 11
1021.149902
 20
2471.650391
 21
2455.150391
  0
LINE
  8
LAYER01
 10
1021.149902
 11
839.449951
 20
2455.150391
 21
2366.25
  0
LINE
  8
LAYER01
 10
839.449951
 11
751.800049
 20
2366.25
 21
2314.150391
  0
LINE
  8
LAYER01
 10
751.800049
 11
667.950195
 20
2314.150391
 21
2254.450195
  0
LINE
  8
LAYER01
 10
667.950195
 11
561.200195
 20
2254.450195
 21
2169.299805
  0
LINE
  8
LAYER01
 10
561.200195
 11
459.549805
 20
2169.299805
 21
2077.849609
  0
LINE
  8
LAYER01
 10
459.549805
 11
330.0
 20
2077.849609
 21
2094.349609
  0
LINE
  8
LAYER01
 10
2350.099854
 11
2595.300049
 20
2447.5
 21
2351.0
  0
LINE
  8
LAYER01
 10
2595.300049
 11
2663.899658
 20
2351.0
 21
2315.450195
  0
LINE
  8
LAYER01
 10
2663.899658
 11
2765.550049
 20
2315.450195
 21
2254.450195
  0
LINE
  8
LAYER01
 10
2765.550049
 11
2890.050049
 20
2254.450195
 21
2171.849609
  0
LINE
  8
LAYER01
 10
2890.050049
 11
3026.0
 20
2171.849609
 21
2071.5
  0
LINE
  8
LAYER01
 10
3026.0
 11
2923.049561
 20
2071.5
 21
2052.450195
  0
LINE
  8
LAYER01
 10
2923.049561
 11
2787.149902
 20
2052.450195
 21
2157.900391
  0
LINE
  8
LAYER01
 10
2787.149902
 11
2643.549805
 20
2157.900391
 21
2255.700195
  0
LINE
  8
LAYER01
 10
2643.549805
 11
2492.349854
 20
2255.700195
 21
2347.200195
  0
LINE
  8
LAYER01
 10
2492.349854
 11
2332.300049
 20
2347.200195
 21
2427.25
  0
LINE
  8
LAYER01
 10
2332.300049
 11
2350.099854
 20
2427.25
 21
2447.5
  0
LINE
  8
LAYER01
 10
2375.5
 11
2596.550049
 20
2439.900391
 21
2351.0
  0
LINE
  8
LAYER01
 10
2596.550049
 11
2662.599854
 20
2351.0
 21
2317.950195
  0
LINE
  8
LAYER01
 10
2662.599854
 11
2760.449707
 20
2317.950195
 21
2258.25
  0
LINE
  8
LAYER01
 10
2760.449707
 11
2879.849854
 20
2258.25
 21
2179.5
  0
LINE
  8
LAYER01
 10
2879.849854
 11
3012.0
 20
2179.5
 21
2082.950195
  0
LINE
  8
LAYER01
 10
3012.0
 11
2926.900146
 20
2082.950195
 21
2068.950195
  0
LINE
  8
LAYER01
 10
2926.900146
 11
2794.75
 20
2068.950195
 21
2170.599609
  0
LINE
  8
LAYER01
 10
2794.75
 11
2656.249756
 20
2170.599609
 21
2264.599609
  0
LINE
  8
LAYER01
 10
2656.249756
 11
2512.699951
 20
2264.599609
 21
2349.75
  0
LINE
  8
LAYER01
 10
2512.699951
 11
2364.050049
 20
2349.75
 21
2424.700195
  0
LINE
  8
LAYER01
 10
2364.050049
 11
2375.5
 20
2424.700195
 21
2439.900391
  0
LINE
  8
LAYER01
 10
-239.150391
 11
-136.299805
 20
1883.450195
 21
1935.549805
  0
LINE
  8
LAYER01
 10
-136.299805
 11
-25.75
 20
1935.549805
 21
1968.599609
  0
LINE
  8
LAYER01
 10
-25.75
 11
92.400391
 20
1968.599609
 21
1985.099609
  0
LINE
  8
LAYER01
 10
92.400391
 11
219.450195
 20
1985.099609
 21
1985.099609
  0
LINE
  8
LAYER01
 10
219.450195
 11
355.400391
 20
1985.099609
 21
1963.5
  0
LINE
  8
LAYER01
 10
355.400391
 11
420.200195
 20
1963.5
 21
1944.450195
  0
LINE
  8
LAYER01
 10
420.200195
 11
479.899902
 20
1944.450195
 21
1920.299805
  0
LINE
  8
LAYER01
 10
479.899902
 11
537.049805
 20
1920.299805
 21
1888.549805
  0
LINE
  8
LAYER01
 10
537.049805
 11
589.150391
 20
1888.549805
 21
1850.450195
  0
LINE
  8
LAYER01
 10
589.150391
 11
638.700195
 20
1850.450195
 21
1807.25
  0
LINE
  8
LAYER01
 10
638.700195
 11
681.899902
 20
1807.25
 21
1755.150391
  0
LINE
  8
LAYER01
 10
681.899902
 11
739.099854
 20
1755.150391
 21
1662.400391
  0
LINE
  8
LAYER01
 10
739.099854
 11
778.449951
 20
1662.400391
 21
1560.75
  0
LINE
  8
LAYER01
 10
778.449951
 11
801.349854
 20
1560.75
 21
1454.049805
  0
LINE
  8
LAYER01
 10
801.349854
 11
808.949951
 20
1454.049805
 21
1344.75
  0
LINE
  8
LAYER01
 10
808.949951
 11
800.050049
 20
1344.75
 21
1316.799805
  0
LINE
  8
LAYER01
 10
800.050049
 11
777.199951
 20
1316.799805
 21
1281.25
  0
LINE
  8
LAYER01
 10
777.199951
 11
734.0
 20
1281.25
 21
1231.700195
  0
LINE
  8
LAYER01
 10
637.450195
 11
631.100098
 20
1235.5
 21
1273.599609
  0
LINE
  8
LAYER01
 10
631.100098
 11
623.450195
 20
1273.599609
 21
1412.099609
  0
LINE
  8
LAYER01
 10
623.450195
 11
603.149902
 20
1412.099609
 21
1504.849609
  0
LINE
  8
LAYER01
 10
603.149902
 11
568.849609
 20
1504.849609
 21
1593.799805
  0
LINE
  8
LAYER01
 10
568.849609
 11
528.200195
 20
1593.799805
 21
1653.5
  0
LINE
  8
LAYER01
 10
528.200195
 11
479.899902
 20
1653.5
 21
1703.049805
  0
LINE
  8
LAYER01
 10
479.899902
 11
422.75
 20
1703.049805
 21
1741.150391
  0
LINE
  8
LAYER01
 10
422.75
 11
355.400391
 20
1741.150391
 21
1769.099609
  0
LINE
  8
LAYER01
 10
355.400391
 11
243.599609
 20
1769.099609
 21
1789.450195
  0
LINE
  8
LAYER01
 10
243.599609
 11
130.5
 20
1789.450195
 21
1785.650391
  0
LINE
  8
LAYER01
 10
130.5
 11
20.0
 20
1785.650391
 21
1757.700195
  0
LINE
  8
LAYER01
 10
20.0
 11
-29.549805
 20
1757.700195
 21
1733.549805
  0
LINE
  8
LAYER01
 10
-29.549805
 11
-76.599609
 20
1733.549805
 21
1703.049805
  0
LINE
  8
LAYER01
 10
-76.599609
 11
-142.599609
 20
1703.049805
 21
1629.349609
  0
LINE
  8
LAYER01
 10
-142.599609
 11
-189.600098
 20
1629.349609
 21
1542.950195
  0
LINE
  8
LAYER01
 10
-189.600098
 11
-211.200195
 20
1542.950195
 21
1479.450195
  0
LINE
  8
LAYER01
 10
-211.200195
 11
-225.200195
 20
1479.450195
 21
1414.650391
  0
LINE
  8
LAYER01
 10
-225.200195
 11
-236.599609
 20
1414.650391
 21
1281.25
  0
LINE
  8
LAYER01
 10
-236.599609
 11
-239.150391
 20
1281.25
 21
1258.349609
  0
LINE
  8
LAYER01
 10
-239.150391
 11
-236.599609
 20
1258.349609
 21
1281.25
  0
LINE
  8
LAYER01
 10
-236.599609
 11
-225.200195
 20
1281.25
 21
1414.650391
  0
LINE
  8
LAYER01
 10
-225.200195
 11
-211.200195
 20
1414.650391
 21
1479.450195
  0
LINE
  8
LAYER01
 10
-211.200195
 11
-189.600098
 20
1479.450195
 21
1542.950195
  0
LINE
  8
LAYER01
 10
-189.600098
 11
-142.599609
 20
1542.950195
 21
1629.349609
  0
LINE
  8
LAYER01
 10
-142.599609
 11
-76.599609
 20
1629.349609
 21
1703.049805
  0
LINE
  8
LAYER01
 10
-76.599609
 11
-29.549805
 20
1703.049805
 21
1733.549805
  0
LINE
  8
LAYER01
 10
-29.549805
 11
20.0
 20
1733.549805
 21
1757.700195
  0
LINE
  8
LAYER01
 10
20.0
 11
130.5
 20
1757.700195
 21
1785.650391
  0
LINE
  8
LAYER01
 10
130.5
 11
243.599609
 20
1785.650391
 21
1789.450195
  0
LINE
  8
LAYER01
 10
243.599609
 11
355.400391
 20
1789.450195
 21
1769.099609
  0
LINE
  8
LAYER01
 10
355.400391
 11
422.75
 20
1769.099609
 21
1741.150391
  0
LINE
  8
LAYER01
 10
422.75
 11
479.899902
 20
1741.150391
 21
1703.049805
  0
LINE
  8
LAYER01
 10
479.899902
 11
528.200195
 20
1703.049805
 21
1653.5
  0
LINE
  8
LAYER01
 10
528.200195
 11
568.849609
 20
1653.5
 21
1593.799805
  0
LINE
  8
LAYER01
 10
568.849609
 11
603.149902
 20
1593.799805
 21
1504.849609
  0
LINE
  8
LAYER01
 10
603.149902
 11
623.450195
 20
1504.849609
 21
1412.099609
  0
LINE
  8
LAYER01
 10
623.450195
 11
631.100098
 20
1412.099609
 21
1273.599609
  0
LINE
  8
LAYER01
 10
631.100098
 11
637.450195
 20
1273.599609
 21
1235.5
  0
LINE
  8
LAYER01
 10
462.099609
 11
379.549805
 20
2056.25
 21
1954.599609
  0
LINE
  8
LAYER01
 10
684.450195
 11
684.450195
 20
2023.200195
 21
1750.049805
  0
LINE
  8
LAYER01
 10
1779.599854
 11
1960.050049
 20
2060.049805
 21
2065.150391
  0
LINE
  8
LAYER01
 10
1788.5
 11
1951.149902
 20
2475.450195
 21
2450.049805
  0
LINE
  8
LAYER01
 10
1881.25
 11
1881.25
 20
2484.349609
 21
2038.450195
  0
LINE
  8
LAYER01
 10
1881.25
 11
1881.25
 20
2038.450195
 21
1338.400391
  0
LINE
  8
LAYER01
 10
807.699951
 11
2219.199951
 20
1339.700195
 21
1339.700195
  0
LINE
  8
LAYER01
 10
2219.199951
 11
2257.349854
 20
1339.700195
 21
1282.5
  0
LINE
  8
LAYER01
 10
2257.349854
 11
2306.900146
 20
1282.5
 21
1234.25
  0
LINE
  8
LAYER01
 10
1078.299805
 11
1214.25
 20
2456.400391
 21
2492.0
  0
LINE
  8
LAYER01
 10
1214.25
 11
1354.0
 20
2492.0
 21
2517.400391
  0
LINE
  8
LAYER01
 10
1354.0
 11
1500.099854
 20
2517.400391
 21
2532.650391
  0
LINE
  8
LAYER01
 10
1500.099854
 11
1652.549805
 20
2532.650391
 21
2537.700195
  0
LINE
  8
LAYER01
 10
1652.549805
 11
1811.399902
 20
2537.700195
 21
2530.099609
  0
LINE
  8
LAYER01
 10
1811.399902
 11
1977.800049
 20
2530.099609
 21
2509.75
  0
LINE
  8
LAYER01
 10
1977.800049
 11
2151.900146
 20
2509.75
 21
2475.450195
  0
LINE
  8
LAYER01
 10
2151.900146
 11
2333.550049
 20
2475.450195
 21
2427.25
  0
LINE
  8
LAYER01
 10
3186.049805
 11
3235.600098
 20
1880.900391
 21
1858.049805
  0
LINE
  8
LAYER01
 10
3235.600098
 11
3278.800049
 20
1858.049805
 21
1828.849609
  0
LINE
  8
LAYER01
 10
3278.800049
 11
3313.099854
 20
1828.849609
 21
1794.549805
  0
LINE
  8
LAYER01
 10
3313.099854
 11
3342.350098
 20
1794.549805
 21
1752.599609
  0
LINE
  8
LAYER01
 10
3342.350098
 11
3344.899902
 20
1752.599609
 21
1728.450195
  0
LINE
  8
LAYER01
 10
3344.899902
 11
3335.999756
 20
1728.450195
 21
1723.400391
  0
LINE
  8
LAYER01
 10
3335.999756
 11
3318.199951
 20
1723.400391
 21
1725.900391
  0
LINE
  8
LAYER01
 10
3318.199951
 11
3268.649658
 20
1725.900391
 21
1748.799805
  0
LINE
  8
LAYER01
 10
3268.649658
 11
3224.199951
 20
1748.799805
 21
1775.450195
  0
LINE
  8
LAYER01
 10
3224.199951
 11
3188.599854
 20
1775.450195
 21
1811.049805
  0
LINE
  8
LAYER01
 10
3188.599854
 11
3161.949951
 20
1811.049805
 21
1854.25
  0
LINE
  8
LAYER01
 10
3161.949951
 11
3158.099854
 20
1854.25
 21
1868.200195
  0
LINE
  8
LAYER01
 10
3158.099854
 11
3163.200195
 20
1868.200195
 21
1878.400391
  0
LINE
  8
LAYER01
 10
3163.200195
 11
3186.049805
 20
1878.400391
 21
1880.900391
  0
LINE
  8
LAYER01
 10
2921.800049
 11
3017.099854
 20
2051.150391
 21
1967.299805
  0
LINE
  8
LAYER01
 10
3257.199951
 11
3248.300049
 20
1276.150391
 21
1384.150391
  0
LINE
  8
LAYER01
 10
3248.300049
 11
3230.550049
 20
1384.150391
 21
1480.700195
  0
LINE
  8
LAYER01
 10
3230.550049
 11
3196.249756
 20
1480.700195
 21
1559.5
  0
LINE
  8
LAYER01
 10
3196.249756
 11
3150.499756
 20
1559.5
 21
1630.650391
  0
LINE
  8
LAYER01
 10
3150.499756
 11
3083.149902
 20
1630.650391
 21
1696.700195
  0
LINE
  8
LAYER01
 10
3083.149902
 11
3005.650146
 20
1696.700195
 21
1743.700195
  0
LINE
  8
LAYER01
 10
3005.650146
 11
2919.250244
 20
1743.700195
 21
1772.950195
  0
LINE
  8
LAYER01
 10
2919.250244
 11
2825.25
 20
1772.950195
 21
1781.799805
  0
LINE
  8
LAYER01
 10
2825.25
 11
2737.599854
 20
1781.799805
 21
1772.950195
  0
LINE
  8
LAYER01
 10
2737.599854
 11
2652.449951
 20
1772.950195
 21
1748.799805
  0
LINE
  8
LAYER01
 10
2652.449951
 11
2590.199951
 20
1748.799805
 21
1717.0
  0
LINE
  8
LAYER01
 10
2590.199951
 11
2536.849854
 20
1717.0
 21
1676.349609
  0
LINE
  8
LAYER01
 10
2536.849854
 11
2492.349854
 20
1676.349609
 21
1626.799805
  0
LINE
  8
LAYER01
 10
2492.349854
 11
2454.249756
 20
1626.799805
 21
1568.400391
  0
LINE
  8
LAYER01
 10
2454.249756
 11
2421.199951
 20
1568.400391
 21
1488.349609
  0
LINE
  8
LAYER01
 10
2421.199951
 11
2400.900146
 20
1488.349609
 21
1403.200195
  0
LINE
  8
LAYER01
 10
2400.900146
 11
2390.749756
 20
1403.200195
 21
1235.5
  0
LINE
  8
LAYER01
 10
2390.749756
 11
2400.900146
 20
1235.5
 21
1403.200195
  0
LINE
  8
LAYER01
 10
2400.900146
 11
2421.199951
 20
1403.200195
 21
1488.349609
  0
LINE
  8
LAYER01
 10
2421.199951
 11
2454.249756
 20
1488.349609
 21
1568.400391
  0
LINE
  8
LAYER01
 10
2454.249756
 11
2492.349854
 20
1568.400391
 21
1626.799805
  0
LINE
  8
LAYER01
 10
2492.349854
 11
2536.849854
 20
1626.799805
 21
1676.349609
  0
LINE
  8
LAYER01
 10
2536.849854
 11
2590.199951
 20
1676.349609
 21
1717.0
  0
LINE
  8
LAYER01
 10
2590.199951
 11
2652.449951
 20
1717.0
 21
1748.799805
  0
LINE
  8
LAYER01
 10
2652.449951
 11
2737.599854
 20
1748.799805
 21
1772.950195
  0
LINE
  8
LAYER01
 10
2737.599854
 11
2825.25
 20
1772.950195
 21
1781.799805
  0
LINE
  8
LAYER01
 10
2825.25
 11
2919.250244
 20
1781.799805
 21
1772.950195
  0
LINE
  8
LAYER01
 10
2919.250244
 11
3005.650146
 20
1772.950195
 21
1743.700195
  0
LINE
  8
LAYER01
 10
3005.650146
 11
3083.149902
 20
1743.700195
 21
1696.700195
  0
LINE
  8
LAYER01
 10
3083.149902
 11
3150.499756
 20
1696.700195
 21
1630.650391
  0
LINE
  8
LAYER01
 10
3150.499756
 11
3196.249756
 20
1630.650391
 21
1559.5
  0
LINE
  8
LAYER01
 10
3196.249756
 11
3230.550049
 20
1559.5
 21
1480.700195
  0
LINE
  8
LAYER01
 10
3230.550049
 11
3248.300049
 20
1480.700195
 21
1384.150391
  0
LINE
  8
LAYER01
 10
3248.300049
 11
3257.199951
 20
1384.150391
 21
1276.150391
  0
LINE
  8
LAYER01
 10
2285.300049
 11
2287.800049
 20
1253.299805
 21
1347.299805
  0
LINE
  8
LAYER01
 10
2287.800049
 11
2297.999756
 20
1347.299805
 21
1437.5
  0
LINE
  8
LAYER01
 10
2297.999756
 11
2317.050049
 20
1437.5
 21
1521.349609
  0
LINE
  8
LAYER01
 10
2317.050049
 11
2345.0
 20
1521.349609
 21
1598.849609
  0
LINE
  8
LAYER01
 10
2345.0
 11
2381.849854
 20
1598.849609
 21
1667.5
  0
LINE
  8
LAYER01
 10
2381.849854
 11
2427.600098
 20
1667.5
 21
1728.450195
  0
LINE
  8
LAYER01
 10
2427.600098
 11
2483.5
 20
1728.450195
 21
1780.549805
  0
LINE
  8
LAYER01
 10
2483.5
 11
2548.25
 20
1780.549805
 21
1822.5
  0
LINE
  8
LAYER01
 10
2548.25
 11
2635.950195
 20
1822.5
 21
1861.849609
  0
LINE
  8
LAYER01
 10
2635.950195
 11
2723.599854
 20
1861.849609
 21
1886.0
  0
LINE
  8
LAYER01
 10
2723.599854
 11
2811.25
 20
1886.0
 21
1897.450195
  0
LINE
  8
LAYER01
 10
2811.25
 11
2896.400146
 20
1897.450195
 21
1897.450195
  0
LINE
  8
LAYER01
 10
2896.400146
 11
2978.949951
 20
1897.450195
 21
1887.25
  0
LINE
  8
LAYER01
 10
2978.949951
 11
3056.449951
 20
1887.25
 21
1866.950195
  0
LINE
  8
LAYER01
 10
3056.449951
 11
3127.599854
 20
1866.950195
 21
1839.0
  0
LINE
  8
LAYER01
 10
3127.599854
 11
3192.400146
 20
1839.0
 21
1803.400391
  0
LINE
  8
LAYER01
 10
2217.949951
 11
2226.849854
 20
1339.700195
 21
1446.400391
  0
LINE
  8
LAYER01
 10
2226.849854
 11
2262.400146
 20
1446.400391
 21
1588.700195
  0
LINE
  8
LAYER01
 10
2262.400146
 11
2292.900146
 20
1588.700195
 21
1663.650391
  0
LINE
  8
LAYER01
 10
2292.900146
 11
2333.550049
 20
1663.650391
 21
1737.349609
  0
LINE
  8
LAYER01
 10
2333.550049
 11
2384.399902
 20
1737.349609
 21
1805.950195
  0
LINE
  8
LAYER01
 10
2384.399902
 11
2447.899902
 20
1805.950195
 21
1865.650391
  0
LINE
  8
LAYER01
 10
2447.899902
 11
2508.900146
 20
1865.650391
 21
1906.349609
  0
LINE
  8
LAYER01
 10
2508.900146
 11
2573.699951
 20
1906.349609
 21
1939.349609
  0
LINE
  8
LAYER01
 10
2573.699951
 11
2639.75
 20
1939.349609
 21
1963.5
  0
LINE
  8
LAYER01
 10
2639.75
 11
2708.350098
 20
1963.5
 21
1980.0
  0
LINE
  8
LAYER01
 10
2708.350098
 11
2779.5
 20
1980.0
 21
1988.900391
  0
LINE
  8
LAYER01
 10
2779.5
 11
2850.649658
 20
1988.900391
 21
1990.200195
  0
LINE
  8
LAYER01
 10
2850.649658
 11
2999.300049
 20
1990.200195
 21
1971.099609
  0
LINE
  8
LAYER01
 10
2999.300049
 11
3090.799805
 20
1971.099609
 21
1944.450195
  0
LINE
  8
LAYER01
 10
3090.799805
 11
3170.799805
 20
1944.450195
 21
1910.150391
  0
LINE
  8
LAYER01
 10
3170.799805
 11
3302.949951
 20
1910.150391
 21
1828.849609
  0
LINE
  8
LAYER01
 10
3433.799805
 11
3396.949951
 20
1657.299805
 21
1657.299805
  0
LINE
  8
LAYER01
 10
3396.949951
 11
3371.550049
 20
1657.299805
 21
1662.400391
  0
LINE
  8
LAYER01
 10
3371.550049
 11
3344.899902
 20
1662.400391
 21
1676.349609
  0
LINE
  8
LAYER01
 10
3344.899902
 11
3315.649902
 20
1676.349609
 21
1701.799805
  0
LINE
  8
LAYER01
 10
3315.649902
 11
3287.699951
 20
1701.799805
 21
1739.900391
  0
LINE
  8
LAYER01
 10
3313.099854
 11
3346.149902
 20
1276.150391
 21
1334.599609
  0
LINE
  8
LAYER01
 10
3346.149902
 11
3388.049805
 20
1334.599609
 21
1386.700195
  0
LINE
  8
LAYER01
 10
3388.049805
 11
3436.350098
 20
1386.700195
 21
1433.700195
  0
LINE
  8
LAYER01
 10
3436.350098
 11
3489.700195
 20
1433.700195
 21
1475.650391
  0
LINE
  8
LAYER01
 10
-570.75
 11
-518.650391
 20
1464.200195
 21
1433.700195
  0
LINE
  8
LAYER01
 10
-518.650391
 11
-476.75
 20
1433.700195
 21
1390.5
  0
LINE
  8
LAYER01
 10
-476.75
 11
-443.700195
 20
1390.5
 21
1335.849609
  0
LINE
  8
LAYER01
 10
-443.700195
 11
-418.299805
 20
1335.849609
 21
1271.099609
  0
LINE
  8
LAYER01
 10
1824.099854
 11
1813.899902
 20
1888.549805
 21
1868.200195
  0
LINE
  8
LAYER01
 10
1813.899902
 11
1797.400146
 20
1868.200195
 21
1850.450195
  0
LINE
  8
LAYER01
 10
1797.400146
 11
1775.799805
 20
1850.450195
 21
1839.0
  0
LINE
  8
LAYER01
 10
1775.799805
 11
1752.949951
 20
1839.0
 21
1835.200195
  0
LINE
  8
LAYER01
 10
1752.949951
 11
1727.549805
 20
1835.200195
 21
1839.0
  0
LINE
  8
LAYER01
 10
1727.549805
 11
1707.199951
 20
1839.0
 21
1850.450195
  0
LINE
  8
LAYER01
 10
1707.199951
 11
1690.699951
 20
1850.450195
 21
1868.200195
  0
LINE
  8
LAYER01
 10
1690.699951
 11
1681.800049
 20
1868.200195
 21
1889.799805
  0
LINE
  8
LAYER01
 10
1681.800049
 11
1690.699951
 20
1889.799805
 21
1868.200195
  0
LINE
  8
LAYER01
 10
1690.699951
 11
1707.199951
 20
1868.200195
 21
1850.450195
  0
LINE
  8
LAYER01
 10
1707.199951
 11
1727.549805
 20
1850.450195
 21
1839.0
  0
LINE
  8
LAYER01
 10
1727.549805
 11
1752.949951
 20
1839.0
 21
1835.200195
  0
LINE
  8
LAYER01
 10
1752.949951
 11
1775.799805
 20
1835.200195
 21
1839.0
  0
LINE
  8
LAYER01
 10
1775.799805
 11
1797.400146
 20
1839.0
 21
1850.450195
  0
LINE
  8
LAYER01
 10
1797.400146
 11
1813.899902
 20
1850.450195
 21
1868.200195
  0
LINE
  8
LAYER01
 10
1813.899902
 11
1824.099854
 20
1868.200195
 21
1888.549805
  0
LINE
  8
LAYER01
 10
1680.5
 11
1699.599854
 20
1931.75
 21
1963.5
  0
LINE
  8
LAYER01
 10
1699.599854
 11
1723.699951
 20
1963.5
 21
1980.0
  0
LINE
  8
LAYER01
 10
1723.699951
 11
1750.399902
 20
1980.0
 21
1985.099609
  0
LINE
  8
LAYER01
 10
1750.399902
 11
1773.25
 20
1985.099609
 21
1982.549805
  0
LINE
  8
LAYER01
 10
1773.25
 11
1794.849854
 20
1982.549805
 21
1971.099609
  0
LINE
  8
LAYER01
 10
1794.849854
 11
1812.650146
 20
1971.099609
 21
1955.900391
  0
LINE
  8
LAYER01
 10
1812.650146
 11
1824.099854
 20
1955.900391
 21
1934.299805
  0
LINE
  8
LAYER01
 10
1824.099854
 11
1824.099854
 20
1934.299805
 21
1931.75
  0
LINE
  8
LAYER01
 10
1824.099854
 11
1824.099854
 20
1931.75
 21
1934.299805
  0
LINE
  8
LAYER01
 10
1824.099854
 11
1812.650146
 20
1934.299805
 21
1955.900391
  0
LINE
  8
LAYER01
 10
1812.650146
 11
1794.849854
 20
1955.900391
 21
1971.099609
  0
LINE
  8
LAYER01
 10
1794.849854
 11
1773.25
 20
1971.099609
 21
1982.549805
  0
LINE
  8
LAYER01
 10
1773.25
 11
1750.399902
 20
1982.549805
 21
1985.099609
  0
LINE
  8
LAYER01
 10
1750.399902
 11
1723.699951
 20
1985.099609
 21
1980.0
  0
LINE
  8
LAYER01
 10
1723.699951
 11
1699.599854
 20
1980.0
 21
1963.5
  0
LINE
  8
LAYER01
 10
1699.599854
 11
1680.5
 20
1963.5
 21
1931.75
  0
LINE
  8
LAYER01
 10
1864.75
 11
1849.5
 20
1894.900391
 21
1888.549805
  0
LINE
  8
LAYER01
 10
1849.5
 11
1688.149902
 20
1888.549805
 21
1888.549805
  0
LINE
  8
LAYER01
 10
1688.149902
 11
1672.899902
 20
1888.549805
 21
1894.900391
  0
LINE
  8
LAYER01
 10
1672.899902
 11
1666.550049
 20
1894.900391
 21
1910.150391
  0
LINE
  8
LAYER01
 10
1666.550049
 11
1672.899902
 20
1910.150391
 21
1925.400391
  0
LINE
  8
LAYER01
 10
1672.899902
 11
1688.149902
 20
1925.400391
 21
1931.75
  0
LINE
  8
LAYER01
 10
1688.149902
 11
1768.199951
 20
1931.75
 21
1931.75
  0
LINE
  8
LAYER01
 10
1768.199951
 11
1849.5
 20
1931.75
 21
1931.75
  0
LINE
  8
LAYER01
 10
1849.5
 11
1864.75
 20
1931.75
 21
1926.650391
  0
LINE
  8
LAYER01
 10
1846.949951
 11
1857.100098
 20
1925.400391
 21
1920.299805
  0
LINE
  8
LAYER01
 10
1857.100098
 11
1860.949951
 20
1920.299805
 21
1910.150391
  0
LINE
  8
LAYER01
 10
1860.949951
 11
1857.100098
 20
1910.150391
 21
1900.0
  0
LINE
  8
LAYER01
 10
1857.100098
 11
1846.949951
 20
1900.0
 21
1896.150391
  0
LINE
  8
LAYER01
 10
1846.949951
 11
1835.499756
 20
1896.150391
 21
1900.0
  0
LINE
  8
LAYER01
 10
1835.499756
 11
1831.699951
 20
1900.0
 21
1910.150391
  0
LINE
  8
LAYER01
 10
1831.699951
 11
1835.499756
 20
1910.150391
 21
1920.299805
  0
LINE
  8
LAYER01
 10
1835.499756
 11
1846.949951
 20
1920.299805
 21
1925.400391
  0
LINE
  8
LAYER01
 10
633.649902
 11
2398.349854
 20
1250.75
 21
1250.75
  0
LINE
  8
LAYER01
 10
721.300049
 11
751.800049
 20
2184.549805
 21
2197.25
  0
LINE
  8
LAYER01
 10
751.800049
 11
786.099854
 20
2197.25
 21
2204.900391
  0
LINE
  8
LAYER01
 10
786.099854
 11
803.900146
 20
2204.900391
 21
2201.099609
  0
LINE
  8
LAYER01
 10
803.900146
 11
812.75
 20
2201.099609
 21
2178.200195
  0
LINE
  8
LAYER01
 10
812.75
 11
816.599854
 20
2178.200195
 21
2136.299805
  0
LINE
  8
LAYER01
 10
816.599854
 11
812.75
 20
2136.299805
 21
2090.549805
  0
LINE
  8
LAYER01
 10
812.75
 11
802.599854
 20
2090.549805
 21
2072.75
  0
LINE
  8
LAYER01
 10
802.599854
 11
786.099854
 20
2072.75
 21
2065.150391
  0
LINE
  8
LAYER01
 10
786.099854
 11
721.300049
 20
2065.150391
 21
2068.950195
  0
LINE
  8
LAYER01
 10
721.300049
 11
706.050049
 20
2068.950195
 21
2077.849609
  0
LINE
  8
LAYER01
 10
706.050049
 11
695.900146
 20
2077.849609
 21
2094.349609
  0
LINE
  8
LAYER01
 10
695.900146
 11
689.549805
 20
2094.349609
 21
2127.400391
  0
LINE
  8
LAYER01
 10
689.549805
 11
695.900146
 20
2127.400391
 21
2157.900391
  0
LINE
  8
LAYER01
 10
695.900146
 11
706.050049
 20
2157.900391
 21
2174.400391
  0
LINE
  8
LAYER01
 10
706.050049
 11
721.300049
 20
2174.400391
 21
2184.549805
  0
LINE
  8
LAYER01
 10
706.050049
 11
695.900146
 20
2076.599609
 21
2095.650391
  0
LINE
  8
LAYER01
 10
695.900146
 11
689.549805
 20
2095.650391
 21
2127.400391
  0
LINE
  8
LAYER01
 10
689.549805
 11
695.900146
 20
2127.400391
 21
2157.900391
  0
LINE
  8
LAYER01
 10
695.900146
 11
697.149902
 20
2157.900391
 21
2160.450195
  0
LINE
  8
LAYER01
 10
697.149902
 11
694.599854
 20
2160.450195
 21
2160.450195
  0
LINE
  8
LAYER01
 10
694.599854
 11
651.399902
 20
2160.450195
 21
2147.700195
  0
LINE
  8
LAYER01
 10
651.399902
 11
634.899902
 20
2147.700195
 21
2129.950195
  0
LINE
  8
LAYER01
 10
634.899902
 11
631.100098
 20
2129.950195
 21
2109.599609
  0
LINE
  8
LAYER01
 10
631.100098
 11
634.899902
 20
2109.599609
 21
2089.299805
  0
LINE
  8
LAYER01
 10
634.899902
 11
651.399902
 20
2089.299805
 21
2071.5
  0
LINE
  8
LAYER01
 10
651.399902
 11
694.599854
 20
2071.5
 21
2068.950195
  0
LINE
  8
LAYER01
 10
694.599854
 11
706.050049
 20
2068.950195
 21
2076.599609
  0
LINE
  8
LAYER01
 10
2300.550049
 11
2235.75
 20
2465.299805
 21
2484.349609
  0
LINE
  8
LAYER01
 10
2235.75
 11
2233.199951
 20
2484.349609
 21
2490.700195
  0
LINE
  8
LAYER01
 10
2233.199951
 11
2245.899902
 20
2490.700195
 21
2498.349609
  0
LINE
  8
LAYER01
 10
2245.899902
 11
2273.849854
 20
2498.349609
 21
2497.049805
  0
LINE
  8
LAYER01
 10
2273.849854
 11
2300.550049
 20
2497.049805
 21
2488.150391
  0
LINE
  8
LAYER01
 10
2300.550049
 11
2309.399902
 20
2488.150391
 21
2476.75
  0
LINE
  8
LAYER01
 10
2309.399902
 11
2300.550049
 20
2476.75
 21
2465.299805
  0
LINE
  8
LAYER01
 10
2300.550049
 11
2276.399902
 20
2489.450195
 21
2497.049805
  0
LINE
  8
LAYER01
 10
2276.399902
 11
2667.699951
 20
2497.049805
 21
2766.400391
  0
LINE
  8
LAYER01
 10
2667.699951
 11
2300.550049
 20
2766.400391
 21
2489.450195
  0
LINE
  8
LAYER01
 10
-2920.050293
 11
-2934.0
 20
2533.899414
 21
2540.25
  0
LINE
  8
LAYER01
 10
-2934.0
 11
-2948.0
 20
2540.25
 21
2535.149414
  0
LINE
  8
LAYER01
 10
-2948.0
 11
-2969.600097
 20
2535.149414
 21
2513.549805
  0
LINE
  8
LAYER01
 10
-2969.600097
 11
-3034.399902
 20
2513.549805
 21
2400.549805
  0
LINE
  8
LAYER01
 10
-3034.399902
 11
-3091.549804
 20
2400.549805
 21
2264.599609
  0
LINE
  8
LAYER01
 10
-3091.549804
 11
-3139.850097
 20
2264.599609
 21
2119.75
  0
LINE
  8
LAYER01
 10
-3139.850097
 11
-3176.649902
 20
2119.75
 21
1978.75
  0
LINE
  8
LAYER01
 10
-3176.649902
 11
-3231.299316
 20
1978.75
 21
1958.400391
  0
LINE
  8
LAYER01
 10
-3231.299316
 11
-3274.5
 20
1958.400391
 21
1925.349609
  0
LINE
  8
LAYER01
 10
-3274.5
 11
-3304.999023
 20
1925.349609
 21
1870.75
  0
LINE
  8
LAYER01
 10
-3304.999023
 11
-3318.950195
 20
1870.75
 21
1789.399414
  0
LINE
  8
LAYER01
 10
-3318.950195
 11
-3317.700683
 20
1789.399414
 21
1681.450195
  0
LINE
  8
LAYER01
 10
-3317.700683
 11
-3310.100097
 20
1681.450195
 21
1572.149414
  0
LINE
  8
LAYER01
 10
-3310.100097
 11
-3289.749511
 20
1572.149414
 21
1424.800781
  0
LINE
  8
LAYER01
 10
-3289.749511
 11
-3251.649902
 20
1424.800781
 21
1290.099609
  0
LINE
  8
LAYER01
 10
-3251.649902
 11
-3241.449218
 20
1290.099609
 21
1263.449219
  0
LINE
  8
LAYER01
 10
-3241.449218
 11
-3231.299316
 20
1263.449219
 21
1252.0
  0
LINE
  8
LAYER01
 10
-3231.299316
 11
-3218.599121
 20
1252.0
 21
1246.899414
  0
LINE
  8
LAYER01
 10
-3218.599121
 11
-3130.949707
 20
1246.899414
 21
1246.899414
  0
LINE
  8
LAYER01
 10
-3130.949707
 11
-3094.099609
 20
1246.899414
 21
1254.550781
  0
LINE
  8
LAYER01
 10
-3094.099609
 11
-3049.600586
 20
1254.550781
 21
1262.150391
  0
LINE
  8
LAYER01
 10
-3049.600586
 11
-1868.049804
 20
1262.150391
 21
1262.150391
  0
LINE
  8
LAYER01
 10
-1868.049804
 11
-1823.599609
 20
1262.150391
 21
1254.550781
  0
LINE
  8
LAYER01
 10
-1823.599609
 11
-1786.749511
 20
1254.550781
 21
1246.899414
  0
LINE
  8
LAYER01
 10
-1786.749511
 11
-1699.100097
 20
1246.899414
 21
1246.899414
  0
LINE
  8
LAYER01
 10
-1699.100097
 11
-1686.40039
 20
1246.899414
 21
1252.0
  0
LINE
  8
LAYER01
 10
-1686.40039
 11
-1677.499511
 20
1252.0
 21
1263.449219
  0
LINE
  8
LAYER01
 10
-1677.499511
 11
-1666.049316
 20
1263.449219
 21
1290.099609
  0
LINE
  8
LAYER01
 10
-1666.049316
 11
-1627.949707
 20
1290.099609
 21
1423.5
  0
LINE
  8
LAYER01
 10
-1627.949707
 11
-1608.899414
 20
1423.5
 21
1572.149414
  0
LINE
  8
LAYER01
 10
-1608.899414
 11
-1600.000488
 20
1572.149414
 21
1681.450195
  0
LINE
  8
LAYER01
 10
-1600.000488
 11
-1598.700195
 20
1681.450195
 21
1789.399414
  0
LINE
  8
LAYER01
 10
-1598.700195
 11
-1612.700195
 20
1789.399414
 21
1870.75
  0
LINE
  8
LAYER01
 10
-1612.700195
 11
-1643.199218
 20
1870.75
 21
1925.349609
  0
LINE
  8
LAYER01
 10
-1643.199218
 11
-1687.649902
 20
1925.349609
 21
1958.400391
  0
LINE
  8
LAYER01
 10
-1687.649902
 11
-1740.999023
 20
1958.400391
 21
1978.75
  0
LINE
  8
LAYER01
 10
-1740.999023
 11
-1777.849121
 20
1978.75
 21
2119.75
  0
LINE
  8
LAYER01
 10
-1777.849121
 11
-1826.149414
 20
2119.75
 21
2264.599609
  0
LINE
  8
LAYER01
 10
-1826.149414
 11
-1884.599609
 20
2264.599609
 21
2400.549805
  0
LINE
  8
LAYER01
 10
-1884.599609
 11
-1949.350097
 20
2400.549805
 21
2513.549805
  0
LINE
  8
LAYER01
 10
-1949.350097
 11
-1968.449707
 20
2513.549805
 21
2533.899414
  0
LINE
  8
LAYER01
 10
-1968.449707
 11
-1982.399414
 20
2533.899414
 21
2538.949219
  0
LINE
  8
LAYER01
 10
-1982.399414
 11
-1997.65039
 20
2538.949219
 21
2533.899414
  0
LINE
  8
LAYER01
 10
-1997.65039
 11
-2225.049316
 20
2533.899414
 21
2554.200195
  0
LINE
  8
LAYER01
 10
-2225.049316
 11
-2458.850586
 20
2554.200195
 21
2558.049805
  0
LINE
  8
LAYER01
 10
-2458.850586
 11
-2692.599609
 20
2558.049805
 21
2554.200195
  0
LINE
  8
LAYER01
 10
-2692.599609
 11
-2920.050293
 20
2554.200195
 21
2533.899414
  0
LINE
  8
LAYER01
 10
-1840.100586
 11
-1718.148925
 20
1556.900391
 21
1556.900391
  0
LINE
  8
LAYER01
 10
-1718.148925
 11
-1707.999023
 20
1556.900391
 21
1553.099609
  0
LINE
  8
LAYER01
 10
-1707.999023
 11
-1704.149414
 20
1553.099609
 21
1542.949219
  0
LINE
  8
LAYER01
 10
-1704.149414
 11
-1704.149414
 20
1542.949219
 21
1497.200195
  0
LINE
  8
LAYER01
 10
-1704.149414
 11
-1707.999023
 20
1497.200195
 21
1487.049805
  0
LINE
  8
LAYER01
 10
-1707.999023
 11
-1718.148925
 20
1487.049805
 21
1483.25
  0
LINE
  8
LAYER01
 10
-1718.148925
 11
-1840.100586
 20
1483.25
 21
1483.25
  0
LINE
  8
LAYER01
 10
-1840.100586
 11
-1850.250488
 20
1483.25
 21
1487.049805
  0
LINE
  8
LAYER01
 10
-1850.250488
 11
-1855.350097
 20
1487.049805
 21
1497.200195
  0
LINE
  8
LAYER01
 10
-1855.350097
 11
-1855.350097
 20
1497.200195
 21
1542.949219
  0
LINE
  8
LAYER01
 10
-1855.350097
 11
-1850.250488
 20
1542.949219
 21
1553.099609
  0
LINE
  8
LAYER01
 10
-1850.250488
 11
-1840.100586
 20
1553.099609
 21
1556.900391
  0
LINE
  8
LAYER01
 10
-1734.649902
 11
-1622.850586
 20
1728.450195
 21
1728.450195
  0
LINE
  8
LAYER01
 10
-1622.850586
 11
-1600.000488
 20
1728.450195
 21
1700.5
  0
LINE
  8
LAYER01
 10
-1777.849121
 11
-1784.199707
 20
2203.599609
 21
2178.199219
  0
LINE
  8
LAYER01
 10
-1784.199707
 11
-1781.649902
 20
2178.199219
 21
2145.150391
  0
LINE
  8
LAYER01
 10
-1781.649902
 11
-1763.899414
 20
2145.150391
 21
2068.950195
  0
LINE
  8
LAYER01
 10
-1763.899414
 11
-1645.700195
 20
2068.950195
 21
2071.450195
  0
LINE
  8
LAYER01
 10
-1645.700195
 11
-1630.499511
 20
2071.450195
 21
2080.349609
  0
LINE
  8
LAYER01
 10
-1630.499511
 11
-1620.298828
 20
2080.349609
 21
2098.150391
  0
LINE
  8
LAYER01
 10
-1620.298828
 11
-1615.25
 20
2098.150391
 21
2129.899414
  0
LINE
  8
LAYER01
 10
-1615.25
 11
-1620.298828
 20
2129.899414
 21
2161.699219
  0
LINE
  8
LAYER01
 10
-1620.298828
 11
-1631.749023
 20
2161.699219
 21
2176.950195
  0
LINE
  8
LAYER01
 10
-1631.749023
 11
-1645.700195
 20
2176.950195
 21
2187.099609
  0
LINE
  8
LAYER01
 10
-1645.700195
 11
-1701.599609
 20
2187.099609
 21
2199.799805
  0
LINE
  8
LAYER01
 10
-1701.599609
 11
-1761.349609
 20
2199.799805
 21
2207.399414
  0
LINE
  8
LAYER01
 10
-1761.349609
 11
-1777.849121
 20
2207.399414
 21
2203.599609
  0
LINE
  8
LAYER01
 10
-2452.499511
 11
-2457.550293
 20
2559.299805
 21
2559.299805
  0
LINE
  8
LAYER01
 10
-2457.550293
 11
-2472.799804
 20
2559.299805
 21
2559.299805
  0
LINE
  8
LAYER01
 10
-2472.799804
 11
-2465.199707
 20
2559.299805
 21
2758.75
  0
LINE
  8
LAYER01
 10
-2465.199707
 11
-2452.499511
 20
2758.75
 21
2559.299805
  0
LINE
  8
LAYER01
 10
-1854.100586
 11
-1786.749511
 20
1262.150391
 21
1246.899414
  0
LINE
  8
LAYER01
 10
-1786.749511
 11
-1699.100097
 20
1246.899414
 21
1246.899414
  0
LINE
  8
LAYER01
 10
-1699.100097
 11
-1686.40039
 20
1246.899414
 21
1252.0
  0
LINE
  8
LAYER01
 10
-1686.40039
 11
-1677.499511
 20
1252.0
 21
1263.449219
  0
LINE
  8
LAYER01
 10
-1677.499511
 11
-1664.799804
 20
1263.449219
 21
1290.099609
  0
LINE
  8
LAYER01
 10
-1664.799804
 11
-1627.949707
 20
1290.099609
 21
1424.800781
  0
LINE
  8
LAYER01
 10
-1627.949707
 11
-1608.899414
 20
1424.800781
 21
1572.149414
  0
LINE
  8
LAYER01
 10
-1608.899414
 11
-1606.349609
 20
1572.149414
 21
1596.299805
  0
LINE
  8
LAYER01
 10
-1606.349609
 11
-1606.349609
 20
1596.299805
 21
1076.649414
  0
LINE
  8
LAYER01
 10
-1606.349609
 11
-1613.949707
 20
1076.649414
 21
1057.599609
  0
LINE
  8
LAYER01
 10
-1613.949707
 11
-1631.749023
 20
1057.599609
 21
1050.0
  0
LINE
  8
LAYER01
 10
-1631.749023
 11
-1827.398925
 20
1050.0
 21
1050.0
  0
LINE
  8
LAYER01
 10
-1827.398925
 11
-1846.449707
 20
1050.0
 21
1057.599609
  0
LINE
  8
LAYER01
 10
-1846.449707
 11
-1854.100586
 20
1057.599609
 21
1076.649414
  0
LINE
  8
LAYER01
 10
-1854.100586
 11
-1854.100586
 20
1076.649414
 21
1262.150391
  0
LINE
  8
LAYER01
 10
-3311.349609
 11
-3311.349609
 20
1605.199219
 21
1609.0
  0
LINE
  8
LAYER01
 10
-3311.349609
 11
-3311.349609
 20
1609.0
 21
1076.649414
  0
LINE
  8
LAYER01
 10
-3311.349609
 11
-3303.699218
 20
1076.649414
 21
1057.599609
  0
LINE
  8
LAYER01
 10
-3303.699218
 11
-3285.950195
 20
1057.599609
 21
1050.0
  0
LINE
  8
LAYER01
 10
-3285.950195
 11
-3090.300293
 20
1050.0
 21
1050.0
  0
LINE
  8
LAYER01
 10
-3090.300293
 11
-3071.199218
 20
1050.0
 21
1057.599609
  0
LINE
  8
LAYER01
 10
-3071.199218
 11
-3063.599121
 20
1057.599609
 21
1076.649414
  0
LINE
  8
LAYER01
 10
-3063.599121
 11
-3063.599121
 20
1076.649414
 21
1262.150391
  0
LINE
  8
LAYER01
 10
-3063.599121
 11
-3130.949707
 20
1262.150391
 21
1246.899414
  0
LINE
  8
LAYER01
 10
-3130.949707
 11
-3217.349609
 20
1246.899414
 21
1246.899414
  0
LINE
  8
LAYER01
 10
-3217.349609
 11
-3228.749511
 20
1246.899414
 21
1250.75
  0
LINE
  8
LAYER01
 10
-3228.749511
 11
-3237.649902
 20
1250.75
 21
1260.899414
  0
LINE
  8
LAYER01
 10
-3237.649902
 11
-3249.100097
 20
1260.899414
 21
1285.048828
  0
LINE
  8
LAYER01
 10
-3249.100097
 11
-3251.649902
 20
1285.048828
 21
1290.099609
  0
LINE
  8
LAYER01
 10
-3251.649902
 11
-3289.749511
 20
1290.099609
 21
1424.800781
  0
LINE
  8
LAYER01
 10
-3289.749511
 11
-3308.799804
 20
1424.800781
 21
1572.149414
  0
LINE
  8
LAYER01
 10
-3308.799804
 11
-3311.349609
 20
1572.149414
 21
1605.199219
  0
LINE
  8
LAYER01
 10
-2693.899902
 11
-2221.249511
 20
1562.0
 21
1562.0
  0
LINE
  8
LAYER01
 10
-2221.249511
 11
-2208.549804
 20
1562.0
 21
1556.900391
  0
LINE
  8
LAYER01
 10
-2208.549804
 11
-2198.399414
 20
1556.900391
 21
1548.049805
  0
LINE
  8
LAYER01
 10
-2198.399414
 11
-2189.499023
 20
1548.049805
 21
1528.949219
  0
LINE
  8
LAYER01
 10
-2189.499023
 11
-2189.499023
 20
1528.949219
 21
1476.899414
  0
LINE
  8
LAYER01
 10
-2189.499023
 11
-2202.199218
 20
1476.899414
 21
1456.549805
  0
LINE
  8
LAYER01
 10
-2202.199218
 11
-2221.249511
 20
1456.549805
 21
1443.849609
  0
LINE
  8
LAYER01
 10
-2221.249511
 11
-2693.899902
 20
1443.849609
 21
1443.849609
  0
LINE
  8
LAYER01
 10
-2693.899902
 11
-2709.149414
 20
1443.849609
 21
1454.0
  0
LINE
  8
LAYER01
 10
-2709.149414
 11
-2720.549316
 20
1454.0
 21
1464.149414
  0
LINE
  8
LAYER01
 10
-2720.549316
 11
-2725.65039
 20
1464.149414
 21
1476.899414
  0
LINE
  8
LAYER01
 10
-2725.65039
 11
-2725.65039
 20
1476.899414
 21
1528.949219
  0
LINE
  8
LAYER01
 10
-2725.65039
 11
-2716.75
 20
1528.949219
 21
1551.849609
  0
LINE
  8
LAYER01
 10
-2716.75
 11
-2693.899902
 20
1551.849609
 21
1562.0
  0
LINE
  8
LAYER01
 10
-2460.100097
 11
-2481.69873
 20
1764.0
 21
1769.099609
  0
LINE
  8
LAYER01
 10
-2481.69873
 11
-2499.5
 20
1769.099609
 21
1780.549805
  0
LINE
  8
LAYER01
 10
-2499.5
 11
-2510.950195
 20
1780.549805
 21
1798.298828
  0
LINE
  8
LAYER01
 10
-2510.950195
 11
-2515.999023
 20
1798.298828
 21
1821.199219
  0
LINE
  8
LAYER01
 10
-2515.999023
 11
-2510.950195
 20
1821.199219
 21
1842.798828
  0
LINE
  8
LAYER01
 10
-2510.950195
 11
-2499.5
 20
1842.798828
 21
1860.549805
  0
LINE
  8
LAYER01
 10
-2499.5
 11
-2481.69873
 20
1860.549805
 21
1872.0
  0
LINE
  8
LAYER01
 10
-2481.69873
 11
-2460.100097
 20
1872.0
 21
1877.099609
  0
LINE
  8
LAYER01
 10
-2460.100097
 11
-2437.25
 20
1877.099609
 21
1872.0
  0
LINE
  8
LAYER01
 10
-2437.25
 11
-2419.449218
 20
1872.0
 21
1860.549805
  0
LINE
  8
LAYER01
 10
-2419.449218
 11
-2407.999023
 20
1860.549805
 21
1842.798828
  0
LINE
  8
LAYER01
 10
-2407.999023
 11
-2402.949707
 20
1842.798828
 21
1821.199219
  0
LINE
  8
LAYER01
 10
-2402.949707
 11
-2407.999023
 20
1821.199219
 21
1798.298828
  0
LINE
  8
LAYER01
 10
-2407.999023
 11
-2419.449218
 20
1798.298828
 21
1780.549805
  0
LINE
  8
LAYER01
 10
-2419.449218
 11
-2437.25
 20
1780.549805
 21
1769.099609
  0
LINE
  8
LAYER01
 10
-2437.25
 11
-2460.100097
 20
1769.099609
 21
1764.0
  0
LINE
  8
LAYER01
 10
-2460.100097
 11
-2480.449218
 20
1769.099609
 21
1772.899414
  0
LINE
  8
LAYER01
 10
-2480.449218
 11
-2496.950195
 20
1772.899414
 21
1784.349609
  0
LINE
  8
LAYER01
 10
-2496.950195
 11
-2508.40039
 20
1784.349609
 21
1800.849609
  0
LINE
  8
LAYER01
 10
-2508.40039
 11
-2512.199707
 20
1800.849609
 21
1821.199219
  0
LINE
  8
LAYER01
 10
-2512.199707
 11
-2508.40039
 20
1821.199219
 21
1841.5
  0
LINE
  8
LAYER01
 10
-2508.40039
 11
-2496.950195
 20
1841.5
 21
1858.049805
  0
LINE
  8
LAYER01
 10
-2496.950195
 11
-2480.449218
 20
1858.049805
 21
1869.449219
  0
LINE
  8
LAYER01
 10
-2480.449218
 11
-2460.100097
 20
1869.449219
 21
1873.298828
  0
LINE
  8
LAYER01
 10
-2460.100097
 11
-2438.5
 20
1873.298828
 21
1869.449219
  0
LINE
  8
LAYER01
 10
-2438.5
 11
-2422.000488
 20
1869.449219
 21
1858.049805
  0
LINE
  8
LAYER01
 10
-2422.000488
 11
-2410.550293
 20
1858.049805
 21
1841.5
  0
LINE
  8
LAYER01
 10
-2410.550293
 11
-2406.749023
 20
1841.5
 21
1821.199219
  0
LINE
  8
LAYER01
 10
-2406.749023
 11
-2410.550293
 20
1821.199219
 21
1800.849609
  0
LINE
  8
LAYER01
 10
-2410.550293
 11
-2422.000488
 20
1800.849609
 21
1784.349609
  0
LINE
  8
LAYER01
 10
-2422.000488
 11
-2438.5
 20
1784.349609
 21
1772.899414
  0
LINE
  8
LAYER01
 10
-2438.5
 11
-2460.100097
 20
1772.899414
 21
1769.099609
  0
LINE
  8
LAYER01
 10
-2463.899414
 11
-2452.499511
 20
1821.199219
 21
1821.199219
  0
LINE
  8
LAYER01
 10
-2452.499511
 11
-2437.25
 20
1821.199219
 21
1856.75
  0
LINE
  8
LAYER01
 10
-2437.25
 11
-2425.799804
 20
1856.75
 21
1847.849609
  0
LINE
  8
LAYER01
 10
-2425.799804
 11
-2444.849121
 20
1847.849609
 21
1799.599609
  0
LINE
  8
LAYER01
 10
-2444.849121
 11
-2452.499511
 20
1799.599609
 21
1818.650391
  0
LINE
  8
LAYER01
 10
-2452.499511
 11
-2463.899414
 20
1818.650391
 21
1818.650391
  0
LINE
  8
LAYER01
 10
-2463.899414
 11
-2472.799804
 20
1818.650391
 21
1799.599609
  0
LINE
  8
LAYER01
 10
-2472.799804
 11
-2493.148925
 20
1799.599609
 21
1846.599609
  0
LINE
  8
LAYER01
 10
-2493.148925
 11
-2480.449218
 20
1846.599609
 21
1856.75
  0
LINE
  8
LAYER01
 10
-2480.449218
 11
-2463.899414
 20
1856.75
 21
1821.199219
  0
LINE
  8
LAYER01
 10
-2458.850586
 11
-2469.000488
 20
1833.899414
 21
1861.849609
  0
LINE
  8
LAYER01
 10
-2469.000488
 11
-2446.148925
 20
1861.849609
 21
1860.549805
  0
LINE
  8
LAYER01
 10
-2446.148925
 11
-2458.850586
 20
1860.549805
 21
1833.899414
  0
LINE
  8
LAYER01
 10
-2476.649902
 11
-2496.950195
 20
1781.799805
 21
1802.150391
  0
LINE
  8
LAYER01
 10
-2496.950195
 11
-2499.5
 20
1802.150391
 21
1833.899414
  0
LINE
  8
LAYER01
 10
-2499.5
 11
-2476.649902
 20
1833.899414
 21
1781.799805
  0
LINE
  8
LAYER01
 10
-2447.40039
 11
-2470.300781
 20
1778.0
 21
1779.25
  0
LINE
  8
LAYER01
 10
-2470.300781
 11
-2458.850586
 20
1779.25
 21
1805.949219
  0
LINE
  8
LAYER01
 10
-2458.850586
 11
-2447.40039
 20
1805.949219
 21
1778.0
  0
LINE
  8
LAYER01
 10
-2441.049316
 11
-2419.449218
 20
1781.799805
 21
1836.449219
  0
LINE
  8
LAYER01
 10
-2419.449218
 11
-2419.449218
 20
1836.449219
 21
1803.399414
  0
LINE
  8
LAYER01
 10
-2419.449218
 11
-2441.049316
 20
1803.399414
 21
1781.799805
  0
LINE
  8
LAYER01
 10
-1948.099121
 11
-1968.449707
 20
2444.950195
 21
2495.75
  0
LINE
  8
LAYER01
 10
-1968.449707
 11
-1995.099121
 20
2495.75
 21
2536.449219
  0
LINE
  8
LAYER01
 10
-1923.950683
 11
-1859.149414
 20
2475.450195
 21
2284.900391
  0
LINE
  8
LAYER01
 10
-1859.149414
 11
-1804.550293
 20
2284.900391
 21
2072.75
  0
LINE
  8
LAYER01
 10
-1804.550293
 11
-1785.5
 20
2072.75
 21
2066.400391
  0
LINE
  8
LAYER01
 10
-1785.5
 11
-1761.349609
 20
2066.400391
 21
2067.650391
  0
LINE
  8
LAYER01
 10
-1827.398925
 11
-1873.149414
 20
2048.599609
 21
2250.599609
  0
LINE
  8
LAYER01
 10
-1873.149414
 11
-1906.149414
 20
2250.599609
 21
2349.699219
  0
LINE
  8
LAYER01
 10
-1906.149414
 11
-1944.299804
 20
2349.699219
 21
2442.399414
  0
LINE
  8
LAYER01
 10
-1944.299804
 11
-2059.90039
 20
2442.399414
 21
2462.75
  0
LINE
  8
LAYER01
 10
-2059.90039
 11
-2186.949218
 20
2462.75
 21
2472.899414
  0
LINE
  8
LAYER01
 10
-2186.949218
 11
-2458.850586
 20
2472.899414
 21
2476.699219
  0
LINE
  8
LAYER01
 10
-2458.850586
 11
-2730.75
 20
2476.699219
 21
2472.899414
  0
LINE
  8
LAYER01
 10
-2730.75
 11
-2856.500488
 20
2472.899414
 21
2462.75
  0
LINE
  8
LAYER01
 10
-2856.500488
 11
-2970.850097
 20
2462.75
 21
2442.399414
  0
LINE
  8
LAYER01
 10
-2970.850097
 11
-3010.249511
 20
2442.399414
 21
2349.699219
  0
LINE
  8
LAYER01
 10
-3010.249511
 11
-3043.25
 20
2349.699219
 21
2250.599609
  0
LINE
  8
LAYER01
 10
-3043.25
 11
-3068.700195
 20
2250.599609
 21
2148.949219
  0
LINE
  8
LAYER01
 10
-3068.700195
 11
-3087.750488
 20
2148.949219
 21
2048.599609
  0
LINE
  8
LAYER01
 10
-3087.750488
 11
-2773.950683
 20
2048.599609
 21
2062.599609
  0
LINE
  8
LAYER01
 10
-2773.950683
 11
-2457.550293
 20
2062.599609
 21
2066.400391
  0
LINE
  8
LAYER01
 10
-2457.550293
 11
-2141.199218
 20
2066.400391
 21
2062.599609
  0
LINE
  8
LAYER01
 10
-2141.199218
 11
-1827.398925
 20
2062.599609
 21
2048.599609
  0
LINE
  8
LAYER01
 10
-1990.049804
 11
-2155.200683
 20
2437.349609
 21
2455.099609
  0
LINE
  8
LAYER01
 10
-2155.200683
 11
-2320.349609
 20
2455.099609
 21
2461.449219
  0
LINE
  8
LAYER01
 10
-2320.349609
 11
-2533.799804
 20
2461.449219
 21
2462.75
  0
LINE
  8
LAYER01
 10
-2533.799804
 11
-2745.999511
 20
2462.75
 21
2456.399414
  0
LINE
  8
LAYER01
 10
-2745.999511
 11
-2853.949218
 20
2456.399414
 21
2447.5
  0
LINE
  8
LAYER01
 10
-2853.949218
 11
-2960.699707
 20
2447.5
 21
2429.75
  0
LINE
  8
LAYER01
 10
-2960.699707
 11
-3025.499023
 20
2429.75
 21
2250.599609
  0
LINE
  8
LAYER01
 10
-3025.499023
 11
-3069.949707
 20
2250.599609
 21
2065.099609
  0
LINE
  8
LAYER01
 10
-3069.949707
 11
-2782.800781
 20
2065.099609
 21
2076.549805
  0
LINE
  8
LAYER01
 10
-2782.800781
 11
-2496.950195
 20
2076.549805
 21
2081.650391
  0
LINE
  8
LAYER01
 10
-2496.950195
 11
-2171.699707
 20
2081.650391
 21
2079.099609
  0
LINE
  8
LAYER01
 10
-2171.699707
 11
-1846.449707
 20
2079.099609
 21
2065.099609
  0
LINE
  8
LAYER01
 10
-1846.449707
 11
-1882.049804
 20
2065.099609
 21
2225.200195
  0
LINE
  8
LAYER01
 10
-1882.049804
 11
-1934.149414
 20
2225.200195
 21
2380.199219
  0
LINE
  8
LAYER01
 10
-1934.149414
 11
-1955.699218
 20
2380.199219
 21
2431.0
  0
LINE
  8
LAYER01
 10
-1955.699218
 11
-1990.049804
 20
2431.0
 21
2437.349609
  0
LINE
  8
LAYER01
 10
-1827.398925
 11
-1871.849609
 20
1878.349609
 21
1870.75
  0
LINE
  8
LAYER01
 10
-1871.849609
 11
-1908.699218
 20
1870.75
 21
1850.400391
  0
LINE
  8
LAYER01
 10
-1908.699218
 11
-1934.149414
 20
1850.400391
 21
1821.199219
  0
LINE
  8
LAYER01
 10
-1934.149414
 11
-1942.999511
 20
1821.199219
 21
1784.349609
  0
LINE
  8
LAYER01
 10
-1942.999511
 11
-1934.149414
 20
1784.349609
 21
1747.5
  0
LINE
  8
LAYER01
 10
-1934.149414
 11
-1908.699218
 20
1747.5
 21
1717.0
  0
LINE
  8
LAYER01
 10
-1908.699218
 11
-1871.849609
 20
1717.0
 21
1697.950195
  0
LINE
  8
LAYER01
 10
-1871.849609
 11
-1827.398925
 20
1697.950195
 21
1690.299805
  0
LINE
  8
LAYER01
 10
-1827.398925
 11
-1782.950195
 20
1690.299805
 21
1697.950195
  0
LINE
  8
LAYER01
 10
-1782.950195
 11
-1746.100097
 20
1697.950195
 21
1717.0
  0
LINE
  8
LAYER01
 10
-1746.100097
 11
-1720.700195
 20
1717.0
 21
1747.5
  0
LINE
  8
LAYER01
 10
-1720.700195
 11
-1711.799804
 20
1747.5
 21
1784.349609
  0
LINE
  8
LAYER01
 10
-1711.799804
 11
-1720.700195
 20
1784.349609
 21
1821.199219
  0
LINE
  8
LAYER01
 10
-1720.700195
 11
-1746.100097
 20
1821.199219
 21
1850.400391
  0
LINE
  8
LAYER01
 10
-1746.100097
 11
-1782.950195
 20
1850.400391
 21
1870.75
  0
LINE
  8
LAYER01
 10
-1782.950195
 11
-1827.398925
 20
1870.75
 21
1878.349609
  0
LINE
  8
LAYER01
 10
-2477.899414
 11
-2333.049316
 20
1727.150391
 21
1727.150391
  0
LINE
  8
LAYER01
 10
-2333.049316
 11
-2217.450195
 20
1727.150391
 21
1734.799805
  0
LINE
  8
LAYER01
 10
-2217.450195
 11
-2169.149902
 20
1734.799805
 21
1746.25
  0
LINE
  8
LAYER01
 10
-2169.149902
 11
-2125.949218
 20
1746.25
 21
1762.75
  0
LINE
  8
LAYER01
 10
-2125.949218
 11
-2087.849609
 20
1762.75
 21
1786.899414
  0
LINE
  8
LAYER01
 10
-2087.849609
 11
-2053.549316
 20
1786.899414
 21
1821.199219
  0
LINE
  8
LAYER01
 10
-2053.549316
 11
-1944.299804
 20
1821.199219
 21
1941.900391
  0
LINE
  8
LAYER01
 10
-1944.299804
 11
-1826.149414
 20
1941.900391
 21
2048.599609
  0
LINE
  8
LAYER01
 10
-1743.550293
 11
-1828.65039
 20
1978.75
 21
1974.900391
  0
LINE
  8
LAYER01
 10
-1828.65039
 11
-1909.999511
 20
1974.900391
 21
1949.5
  0
LINE
  8
LAYER01
 10
-1909.999511
 11
-1982.399414
 20
1949.5
 21
1902.5
  0
LINE
  8
LAYER01
 10
-1982.399414
 11
-2042.099121
 20
1902.5
 21
1833.899414
  0
LINE
  8
LAYER01
 10
-3303.699218
 11
-3287.199707
 20
1870.75
 21
1852.949219
  0
LINE
  8
LAYER01
 10
-3287.199707
 11
-3271.950195
 20
1852.949219
 21
1825.0
  0
LINE
  8
LAYER01
 10
-3271.950195
 11
-3252.899414
 20
1825.0
 21
1728.450195
  0
LINE
  8
LAYER01
 10
-3252.899414
 11
-3240.199707
 20
1728.450195
 21
1671.25
  0
LINE
  8
LAYER01
 10
-3240.199707
 11
-3212.25
 20
1671.25
 21
1625.549805
  0
LINE
  8
LAYER01
 10
-3212.25
 11
-3176.649902
 20
1625.549805
 21
1595.049805
  0
LINE
  8
LAYER01
 10
-3176.649902
 11
-3138.550293
 20
1595.049805
 21
1582.349609
  0
LINE
  8
LAYER01
 10
-3138.550293
 11
-1780.40039
 20
1582.349609
 21
1582.349609
  0
LINE
  8
LAYER01
 10
-1780.40039
 11
-1742.299316
 20
1582.349609
 21
1595.049805
  0
LINE
  8
LAYER01
 10
-1742.299316
 11
-1706.700195
 20
1595.049805
 21
1625.549805
  0
LINE
  8
LAYER01
 10
-1706.700195
 11
-1678.749511
 20
1625.549805
 21
1671.25
  0
LINE
  8
LAYER01
 10
-1678.749511
 11
-1664.799804
 20
1671.25
 21
1728.450195
  0
LINE
  8
LAYER01
 10
-1664.799804
 11
-1647.000488
 20
1728.450195
 21
1825.0
  0
LINE
  8
LAYER01
 10
-1647.000488
 11
-1631.749023
 20
1825.0
 21
1852.949219
  0
LINE
  8
LAYER01
 10
-1631.749023
 11
-1613.949707
 20
1852.949219
 21
1870.75
  0
LINE
  8
LAYER01
 10
-3138.550293
 11
-1780.40039
 20
1600.099609
 21
1600.099609
  0
LINE
  8
LAYER01
 10
-1827.398925
 11
-1790.548828
 20
2048.599609
 21
1978.75
  0
LINE
  8
LAYER01
 10
-3062.349121
 11
-3049.600586
 20
1262.150391
 21
1262.150391
  0
LINE
  8
LAYER01
 10
-3049.600586
 11
-1868.049804
 20
1262.150391
 21
1262.150391
  0
LINE
  8
LAYER01
 10
-1868.049804
 11
-1854.100586
 20
1262.150391
 21
1262.150391
  0
LINE
  8
LAYER01
 10
-1854.100586
 11
-1854.100586
 20
1262.150391
 21
1171.949219
  0
LINE
  8
LAYER01
 10
-1854.100586
 11
-3062.349121
 20
1171.949219
 21
1171.949219
  0
LINE
  8
LAYER01
 10
-3062.349121
 11
-3062.349121
 20
1171.949219
 21
1262.150391
  0
LINE
  8
LAYER01
 10
-3062.349121
 11
-3047.099609
 20
1260.899414
 21
1332.049805
  0
LINE
  8
LAYER01
 10
-3047.099609
 11
-3015.300293
 20
1332.049805
 21
1385.399414
  0
LINE
  8
LAYER01
 10
-3015.300293
 11
-2965.750488
 20
1385.399414
 21
1417.149414
  0
LINE
  8
LAYER01
 10
-2965.750488
 11
-2899.699707
 20
1417.149414
 21
1428.599609
  0
LINE
  8
LAYER01
 10
-2899.699707
 11
-2016.699707
 20
1428.599609
 21
1428.599609
  0
LINE
  8
LAYER01
 10
-2016.699707
 11
-1950.65039
 20
1428.599609
 21
1417.149414
  0
LINE
  8
LAYER01
 10
-1950.65039
 11
-1902.350097
 20
1417.149414
 21
1385.399414
  0
LINE
  8
LAYER01
 10
-1902.350097
 11
-1869.350097
 20
1385.399414
 21
1332.049805
  0
LINE
  8
LAYER01
 10
-1869.350097
 11
-1854.100586
 20
1332.049805
 21
1260.899414
  0
LINE
  8
LAYER01
 10
-1987.500488
 11
-2001.449707
 20
1333.299805
 21
1313.0
  0
LINE
  8
LAYER01
 10
-2001.449707
 11
-2025.600097
 20
1313.0
 21
1305.349609
  0
LINE
  8
LAYER01
 10
-2025.600097
 11
-2048.450195
 20
1305.349609
 21
1313.0
  0
LINE
  8
LAYER01
 10
-2048.450195
 11
-2062.450195
 20
1313.0
 21
1333.299805
  0
LINE
  8
LAYER01
 10
-2062.450195
 11
-2853.949218
 20
1333.299805
 21
1333.299805
  0
LINE
  8
LAYER01
 10
-2853.949218
 11
-2869.19873
 20
1333.299805
 21
1313.0
  0
LINE
  8
LAYER01
 10
-2869.19873
 11
-2892.099121
 20
1313.0
 21
1305.349609
  0
LINE
  8
LAYER01
 10
-2892.099121
 11
-2916.199218
 20
1305.349609
 21
1313.0
  0
LINE
  8
LAYER01
 10
-2916.199218
 11
-2930.200683
 20
1313.0
 21
1333.299805
  0
LINE
  8
LAYER01
 10
-2930.200683
 11
-3019.149902
 20
1333.299805
 21
1333.299805
  0
LINE
  8
LAYER01
 10
-3019.149902
 11
-3019.149902
 20
1333.299805
 21
1306.650391
  0
LINE
  8
LAYER01
 10
-3019.149902
 11
-3012.799316
 20
1306.650391
 21
1288.849609
  0
LINE
  8
LAYER01
 10
-3012.799316
 11
-2973.399414
 20
1288.849609
 21
1282.5
  0
LINE
  8
LAYER01
 10
-2973.399414
 11
-1944.299804
 20
1282.5
 21
1281.199219
  0
LINE
  8
LAYER01
 10
-1944.299804
 11
-1904.899902
 20
1281.199219
 21
1288.849609
  0
LINE
  8
LAYER01
 10
-1904.899902
 11
-1898.549316
 20
1288.849609
 21
1306.650391
  0
LINE
  8
LAYER01
 10
-1898.549316
 11
-1899.800293
 20
1306.650391
 21
1333.299805
  0
LINE
  8
LAYER01
 10
-1899.800293
 11
-1987.500488
 20
1333.299805
 21
1333.299805
  0
LINE
  8
LAYER01
 10
-1984.949218
 11
-1997.65039
 20
1348.549805
 21
1373.949219
  0
LINE
  8
LAYER01
 10
-1997.65039
 11
-2025.600097
 20
1373.949219
 21
1385.399414
  0
LINE
  8
LAYER01
 10
-2025.600097
 11
-2052.299804
 20
1385.399414
 21
1373.949219
  0
LINE
  8
LAYER01
 10
-2052.299804
 11
-2064.999511
 20
1373.949219
 21
1348.549805
  0
LINE
  8
LAYER01
 10
-2064.999511
 11
-2852.699707
 20
1348.549805
 21
1348.549805
  0
LINE
  8
LAYER01
 10
-2852.699707
 11
-2865.399414
 20
1348.549805
 21
1373.949219
  0
LINE
  8
LAYER01
 10
-2865.399414
 11
-2892.099121
 20
1373.949219
 21
1385.399414
  0
LINE
  8
LAYER01
 10
-2892.099121
 11
-2920.050293
 20
1385.399414
 21
1373.949219
  0
LINE
  8
LAYER01
 10
-2920.050293
 11
-2932.75
 20
1373.949219
 21
1348.549805
  0
LINE
  8
LAYER01
 10
-2932.75
 11
-3011.499511
 20
1348.549805
 21
1348.549805
  0
LINE
  8
LAYER01
 10
-3011.499511
 11
-3001.349121
 20
1348.549805
 21
1363.799805
  0
LINE
  8
LAYER01
 10
-3001.349121
 11
-2986.099609
 20
1363.799805
 21
1373.949219
  0
LINE
  8
LAYER01
 10
-2986.099609
 11
-2954.349121
 20
1373.949219
 21
1386.650391
  0
LINE
  8
LAYER01
 10
-2954.349121
 11
-2899.699707
 20
1386.650391
 21
1396.849609
  0
LINE
  8
LAYER01
 10
-2899.699707
 11
-2822.200195
 20
1396.849609
 21
1400.650391
  0
LINE
  8
LAYER01
 10
-2822.200195
 11
-2095.499023
 20
1400.650391
 21
1399.399414
  0
LINE
  8
LAYER01
 10
-2095.499023
 11
-2016.699707
 20
1399.399414
 21
1395.549805
  0
LINE
  8
LAYER01
 10
-2016.699707
 11
-1963.350097
 20
1395.549805
 21
1386.650391
  0
LINE
  8
LAYER01
 10
-1963.350097
 11
-1930.299804
 20
1386.650391
 21
1373.949219
  0
LINE
  8
LAYER01
 10
-1930.299804
 11
-1916.350097
 20
1373.949219
 21
1363.799805
  0
LINE
  8
LAYER01
 10
-1916.350097
 11
-1906.149414
 20
1363.799805
 21
1348.549805
  0
LINE
  8
LAYER01
 10
-1906.149414
 11
-1984.949218
 20
1348.549805
 21
1348.549805
  0
LINE
  8
LAYER01
 10
-2025.600097
 11
-2003.999511
 20
1375.25
 21
1366.349609
  0
LINE
  8
LAYER01
 10
-2003.999511
 11
-1995.099121
 20
1366.349609
 21
1344.75
  0
LINE
  8
LAYER01
 10
-1995.099121
 11
-2003.999511
 20
1344.75
 21
1323.150391
  0
LINE
  8
LAYER01
 10
-2003.999511
 11
-2025.600097
 20
1323.150391
 21
1314.25
  0
LINE
  8
LAYER01
 10
-2025.600097
 11
-2047.200195
 20
1314.25
 21
1323.150391
  0
LINE
  8
LAYER01
 10
-2047.200195
 11
-2056.099121
 20
1323.150391
 21
1344.75
  0
LINE
  8
LAYER01
 10
-2056.099121
 11
-2047.200195
 20
1344.75
 21
1366.349609
  0
LINE
  8
LAYER01
 10
-2047.200195
 11
-2025.600097
 20
1366.349609
 21
1375.25
  0
LINE
  8
LAYER01
 10
-3077.600586
 11
-3200.799804
 20
1556.900391
 21
1556.900391
  0
LINE
  8
LAYER01
 10
-3200.799804
 11
-3211.000488
 20
1556.900391
 21
1553.099609
  0
LINE
  8
LAYER01
 10
-3211.000488
 11
-3214.799804
 20
1553.099609
 21
1542.949219
  0
LINE
  8
LAYER01
 10
-3214.799804
 11
-3214.799804
 20
1542.949219
 21
1497.200195
  0
LINE
  8
LAYER01
 10
-3214.799804
 11
-3211.000488
 20
1497.200195
 21
1487.049805
  0
LINE
  8
LAYER01
 10
-3211.000488
 11
-3200.799804
 20
1487.049805
 21
1483.25
  0
LINE
  8
LAYER01
 10
-3200.799804
 11
-3077.600586
 20
1483.25
 21
1483.25
  0
LINE
  8
LAYER01
 10
-3077.600586
 11
-3067.399902
 20
1483.25
 21
1487.049805
  0
LINE
  8
LAYER01
 10
-3067.399902
 11
-3063.599121
 20
1487.049805
 21
1497.200195
  0
LINE
  8
LAYER01
 10
-3063.599121
 11
-3063.599121
 20
1497.200195
 21
1542.949219
  0
LINE
  8
LAYER01
 10
-3063.599121
 11
-3067.399902
 20
1542.949219
 21
1553.099609
  0
LINE
  8
LAYER01
 10
-3067.399902
 11
-3077.600586
 20
1553.099609
 21
1556.900391
  0
LINE
  8
LAYER01
 10
-3184.298828
 11
-3296.100097
 20
1728.450195
 21
1728.450195
  0
LINE
  8
LAYER01
 10
-3296.100097
 11
-3318.950195
 20
1728.450195
 21
1700.5
  0
LINE
  8
LAYER01
 10
-3141.099609
 11
-3134.749023
 20
2203.599609
 21
2178.199219
  0
LINE
  8
LAYER01
 10
-3134.749023
 11
-3137.300293
 20
2178.199219
 21
2145.150391
  0
LINE
  8
LAYER01
 10
-3137.300293
 11
-3155.099609
 20
2145.150391
 21
2068.950195
  0
LINE
  8
LAYER01
 10
-3155.099609
 11
-3273.25
 20
2068.950195
 21
2071.450195
  0
LINE
  8
LAYER01
 10
-3273.25
 11
-3288.5
 20
2071.450195
 21
2080.349609
  0
LINE
  8
LAYER01
 10
-3288.5
 11
-3298.649902
 20
2080.349609
 21
2098.150391
  0
LINE
  8
LAYER01
 10
-3298.649902
 11
-3303.699218
 20
2098.150391
 21
2129.899414
  0
LINE
  8
LAYER01
 10
-3303.699218
 11
-3298.649902
 20
2129.899414
 21
2161.699219
  0
LINE
  8
LAYER01
 10
-3298.649902
 11
-3287.199707
 20
2161.699219
 21
2176.950195
  0
LINE
  8
LAYER01
 10
-3287.199707
 11
-3273.25
 20
2176.950195
 21
2187.099609
  0
LINE
  8
LAYER01
 10
-3273.25
 11
-3216.049316
 20
2187.099609
 21
2199.799805
  0
LINE
  8
LAYER01
 10
-3216.049316
 11
-3157.599121
 20
2199.799805
 21
2207.399414
  0
LINE
  8
LAYER01
 10
-3157.599121
 11
-3141.099609
 20
2207.399414
 21
2203.599609
  0
LINE
  8
LAYER01
 10
-2970.850097
 11
-2950.549804
 20
2444.950195
 21
2495.75
  0
LINE
  8
LAYER01
 10
-2950.549804
 11
-2923.849609
 20
2495.75
 21
2536.449219
  0
LINE
  8
LAYER01
 10
-2993.700195
 11
-3059.799316
 20
2475.450195
 21
2284.900391
  0
LINE
  8
LAYER01
 10
-3059.799316
 11
-3113.15039
 20
2284.900391
 21
2072.75
  0
LINE
  8
LAYER01
 10
-3113.15039
 11
-3133.499511
 20
2072.75
 21
2066.400391
  0
LINE
  8
LAYER01
 10
-3133.499511
 11
-3157.599121
 20
2066.400391
 21
2067.650391
  0
LINE
  8
LAYER01
 10
-3091.549804
 11
-3047.099609
 20
1878.349609
 21
1870.75
  0
LINE
  8
LAYER01
 10
-3047.099609
 11
-3010.249511
 20
1870.75
 21
1850.400391
  0
LINE
  8
LAYER01
 10
-3010.249511
 11
-2984.849609
 20
1850.400391
 21
1821.199219
  0
LINE
  8
LAYER01
 10
-2984.849609
 11
-2975.949218
 20
1821.199219
 21
1784.349609
  0
LINE
  8
LAYER01
 10
-2975.949218
 11
-2984.849609
 20
1784.349609
 21
1747.5
  0
LINE
  8
LAYER01
 10
-2984.849609
 11
-3010.249511
 20
1747.5
 21
1717.0
  0
LINE
  8
LAYER01
 10
-3010.249511
 11
-3047.099609
 20
1717.0
 21
1697.950195
  0
LINE
  8
LAYER01
 10
-3047.099609
 11
-3091.549804
 20
1697.950195
 21
1690.299805
  0
LINE
  8
LAYER01
 10
-3091.549804
 11
-3136.000488
 20
1690.299805
 21
1697.950195
  0
LINE
  8
LAYER01
 10
-3136.000488
 11
-3172.850586
 20
1697.950195
 21
1717.0
  0
LINE
  8
LAYER01
 10
-3172.850586
 11
-3198.25
 20
1717.0
 21
1747.5
  0
LINE
  8
LAYER01
 10
-3198.25
 11
-3207.15039
 20
1747.5
 21
1784.349609
  0
LINE
  8
LAYER01
 10
-3207.15039
 11
-3198.25
 20
1784.349609
 21
1821.199219
  0
LINE
  8
LAYER01
 10
-3198.25
 11
-3172.850586
 20
1821.199219
 21
1850.400391
  0
LINE
  8
LAYER01
 10
-3172.850586
 11
-3136.000488
 20
1850.400391
 21
1870.75
  0
LINE
  8
LAYER01
 10
-3136.000488
 11
-3091.549804
 20
1870.75
 21
1878.349609
  0
LINE
  8
LAYER01
 10
-2439.799804
 11
-2585.899414
 20
1727.150391
 21
1727.150391
  0
LINE
  8
LAYER01
 10
-2585.899414
 11
-2701.5
 20
1727.150391
 21
1734.799805
  0
LINE
  8
LAYER01
 10
-2701.5
 11
-2749.800293
 20
1734.799805
 21
1746.25
  0
LINE
  8
LAYER01
 10
-2749.800293
 11
-2792.999511
 20
1746.25
 21
1762.75
  0
LINE
  8
LAYER01
 10
-2792.999511
 11
-2831.099121
 20
1762.75
 21
1786.899414
  0
LINE
  8
LAYER01
 10
-2831.099121
 11
-2865.399414
 20
1786.899414
 21
1821.199219
  0
LINE
  8
LAYER01
 10
-2865.399414
 11
-2973.399414
 20
1821.199219
 21
1941.900391
  0
LINE
  8
LAYER01
 10
-2973.399414
 11
-3092.799804
 20
1941.900391
 21
2048.599609
  0
LINE
  8
LAYER01
 10
-3175.399902
 11
-3089.0
 20
1978.75
 21
1974.900391
  0
LINE
  8
LAYER01
 10
-3089.0
 11
-3008.949707
 20
1974.900391
 21
1949.5
  0
LINE
  8
LAYER01
 10
-3008.949707
 11
-2936.549804
 20
1949.5
 21
1902.5
  0
LINE
  8
LAYER01
 10
-2936.549804
 11
-2876.849609
 20
1902.5
 21
1833.899414
  0
LINE
  8
LAYER01
 10
-3090.300293
 11
-3128.399902
 20
2048.599609
 21
1978.75
  0
LINE
  8
LAYER01
 10
-2893.350586
 11
-2914.949218
 20
1375.25
 21
1366.349609
  0
LINE
  8
LAYER01
 10
-2914.949218
 11
-2923.849609
 20
1366.349609
 21
1344.75
  0
LINE
  8
LAYER01
 10
-2923.849609
 11
-2914.949218
 20
1344.75
 21
1323.150391
  0
LINE
  8
LAYER01
 10
-2914.949218
 11
-2893.350586
 20
1323.150391
 21
1314.25
  0
LINE
  8
LAYER01
 10
-2893.350586
 11
-2871.75
 20
1314.25
 21
1323.150391
  0
LINE
  8
LAYER01
 10
-2871.75
 11
-2862.849609
 20
1323.150391
 21
1344.75
  0
LINE
  8
LAYER01
 10
-2862.849609
 11
-2871.75
 20
1344.75
 21
1366.349609
  0
LINE
  8
LAYER01
 10
-2871.75
 11
-2893.350586
 20
1366.349609
 21
1375.25
  0
LINE
  8
LAYER01
 10
-2921.300293
 11
-2935.300293
 20
39.0
 21
44.099609
  0
LINE
  8
LAYER01
 10
-2935.300293
 11
-2949.250244
 20
44.099609
 21
37.75
  0
LINE
  8
LAYER01
 10
-2949.250244
 11
-2969.600097
 20
37.75
 21
14.849609
  0
LINE
  8
LAYER01
 10
-2969.600097
 11
-3034.400146
 20
14.849609
 21
-89.299805
  0
LINE
  8
LAYER01
 10
-3034.400146
 11
-3091.550293
 20
-89.299805
 21
-206.200195
  0
LINE
  8
LAYER01
 10
-3091.550293
 11
-3139.850097
 20
-206.200195
 21
-332.0
  0
LINE
  8
LAYER01
 10
-3139.850097
 11
-3176.650146
 20
-332.0
 21
-464.099609
  0
LINE
  8
LAYER01
 10
-3176.650146
 11
-3205.900146
 20
-464.099609
 21
-475.549805
  0
LINE
  8
LAYER01
 10
-3205.900146
 11
-3232.600097
 20
-475.549805
 21
-494.599609
  0
LINE
  8
LAYER01
 10
-3232.600097
 11
-3278.300293
 20
-494.599609
 21
-549.25
  0
LINE
  8
LAYER01
 10
-3278.300293
 11
-3308.800293
 20
-549.25
 21
-611.5
  0
LINE
  8
LAYER01
 10
-3308.800293
 11
-3318.950195
 20
-611.5
 21
-667.400391
  0
LINE
  8
LAYER01
 10
-3318.950195
 11
-3318.950195
 20
-667.400391
 21
-797.0
  0
LINE
  8
LAYER01
 10
-3318.950195
 11
-3310.100097
 20
-797.0
 21
-927.849609
  0
LINE
  8
LAYER01
 10
-3310.100097
 11
-3289.750244
 20
-927.849609
 21
-1075.200195
  0
LINE
  8
LAYER01
 10
-3289.750244
 11
-3252.900146
 20
-1075.200195
 21
-1209.900391
  0
LINE
  8
LAYER01
 10
-3252.900146
 11
-3241.450195
 20
-1209.900391
 21
-1223.849609
  0
LINE
  8
LAYER01
 10
-3241.450195
 11
-3218.600097
 20
-1223.849609
 21
-1228.950195
  0
LINE
  8
LAYER01
 10
-3218.600097
 11
-3130.950195
 20
-1228.950195
 21
-1228.950195
  0
LINE
  8
LAYER01
 10
-3130.950195
 11
-3111.900146
 20
-1228.950195
 21
-1222.599609
  0
LINE
  8
LAYER01
 10
-3111.900146
 11
-3094.100097
 20
-1222.599609
 21
-1207.349609
  0
LINE
  8
LAYER01
 10
-3094.100097
 11
-3075.050049
 20
-1207.349609
 21
-1193.400391
  0
LINE
  8
LAYER01
 10
-3075.050049
 11
-3049.600097
 20
-1193.400391
 21
-1187.049805
  0
LINE
  8
LAYER01
 10
-3049.600097
 11
-1869.350097
 20
-1187.049805
 21
-1187.049805
  0
LINE
  8
LAYER01
 10
-1869.350097
 11
-1843.900146
 20
-1187.049805
 21
-1193.400391
  0
LINE
  8
LAYER01
 10
-1843.900146
 11
-1824.850097
 20
-1193.400391
 21
-1208.599609
  0
LINE
  8
LAYER01
 10
-1824.850097
 11
-1807.100097
 20
-1208.599609
 21
-1222.599609
  0
LINE
  8
LAYER01
 10
-1807.100097
 11
-1788.000244
 20
-1222.599609
 21
-1228.950195
  0
LINE
  8
LAYER01
 10
-1788.000244
 11
-1700.350097
 20
-1228.950195
 21
-1228.950195
  0
LINE
  8
LAYER01
 10
-1700.350097
 11
-1677.5
 20
-1228.950195
 21
-1223.849609
  0
LINE
  8
LAYER01
 10
-1677.5
 11
-1666.050293
 20
-1223.849609
 21
-1209.900391
  0
LINE
  8
LAYER01
 10
-1666.050293
 11
-1629.200195
 20
-1209.900391
 21
-1075.200195
  0
LINE
  8
LAYER01
 10
-1629.200195
 11
-1608.900146
 20
-1075.200195
 21
-927.849609
  0
LINE
  8
LAYER01
 10
-1608.900146
 11
-1601.250244
 20
-927.849609
 21
-797.0
  0
LINE
  8
LAYER01
 10
-1601.250244
 11
-1600.0
 20
-797.0
 21
-667.400391
  0
LINE
  8
LAYER01
 10
-1600.0
 11
-1611.400146
 20
-667.400391
 21
-614.049805
  0
LINE
  8
LAYER01
 10
-1611.400146
 11
-1643.200195
 20
-614.049805
 21
-551.799805
  0
LINE
  8
LAYER01
 10
-1643.200195
 11
-1687.650146
 20
-551.799805
 21
-495.849609
  0
LINE
  8
LAYER01
 10
-1687.650146
 11
-1713.050293
 20
-495.849609
 21
-475.549805
  0
LINE
  8
LAYER01
 10
-1713.050293
 11
-1741.000244
 20
-475.549805
 21
-464.099609
  0
LINE
  8
LAYER01
 10
-1741.000244
 11
-1779.100097
 20
-464.099609
 21
-332.0
  0
LINE
  8
LAYER01
 10
-1779.100097
 11
-1827.400146
 20
-332.0
 21
-206.200195
  0
LINE
  8
LAYER01
 10
-1827.400146
 11
-1884.600097
 20
-206.200195
 21
-90.599609
  0
LINE
  8
LAYER01
 10
-1884.600097
 11
-1949.350097
 20
-90.599609
 21
14.849609
  0
LINE
  8
LAYER01
 10
-1949.350097
 11
-1968.450195
 20
14.849609
 21
36.450195
  0
LINE
  8
LAYER01
 10
-1968.450195
 11
-1982.400146
 20
36.450195
 21
42.799805
  0
LINE
  8
LAYER01
 10
-1982.400146
 11
-1997.650146
 20
42.799805
 21
37.75
  0
LINE
  8
LAYER01
 10
-1997.650146
 11
-2226.350097
 20
37.75
 21
59.349609
  0
LINE
  8
LAYER01
 10
-2226.350097
 11
-2458.850097
 20
59.349609
 21
63.150391
  0
LINE
  8
LAYER01
 10
-2458.850097
 11
-2692.600097
 20
63.150391
 21
59.349609
  0
LINE
  8
LAYER01
 10
-2692.600097
 11
-2921.300293
 20
59.349609
 21
39.0
  0
LINE
  8
LAYER01
 10
-1630.500244
 11
-1657.150146
 20
-875.75
 21
-875.75
  0
LINE
  8
LAYER01
 10
-1657.150146
 11
-1659.700195
 20
-875.75
 21
-885.900391
  0
LINE
  8
LAYER01
 10
-1659.700195
 11
-1659.700195
 20
-885.900391
 21
-918.950195
  0
LINE
  8
LAYER01
 10
-1659.700195
 11
-1657.150146
 20
-918.950195
 21
-929.099609
  0
LINE
  8
LAYER01
 10
-1657.150146
 11
-1630.500244
 20
-929.099609
 21
-929.099609
  0
LINE
  8
LAYER01
 10
-1630.500244
 11
-1627.950195
 20
-929.099609
 21
-918.950195
  0
LINE
  8
LAYER01
 10
-1627.950195
 11
-1627.950195
 20
-918.950195
 21
-885.900391
  0
LINE
  8
LAYER01
 10
-1627.950195
 11
-1630.500244
 20
-885.900391
 21
-875.75
  0
LINE
  8
LAYER01
 10
-1784.200195
 11
-1624.100097
 20
-757.599609
 21
-757.599609
  0
LINE
  8
LAYER01
 10
-1624.100097
 11
-1601.250244
 20
-757.599609
 21
-786.799805
  0
LINE
  8
LAYER01
 10
-1791.850097
 11
-1748.650146
 20
-296.400391
 21
-431.099609
  0
LINE
  8
LAYER01
 10
-1748.650146
 11
-1709.250244
 20
-431.099609
 21
-428.549805
  0
LINE
  8
LAYER01
 10
-1709.250244
 11
-1694.000244
 20
-428.549805
 21
-419.650391
  0
LINE
  8
LAYER01
 10
-1694.000244
 11
-1683.850097
 20
-419.650391
 21
-401.849609
  0
LINE
  8
LAYER01
 10
-1683.850097
 11
-1678.750244
 20
-401.849609
 21
-370.099609
  0
LINE
  8
LAYER01
 10
-1678.750244
 11
-1683.850097
 20
-370.099609
 21
-338.349609
  0
LINE
  8
LAYER01
 10
-1683.850097
 11
-1695.250244
 20
-338.349609
 21
-323.099609
  0
LINE
  8
LAYER01
 10
-1695.250244
 11
-1709.250244
 20
-323.099609
 21
-312.900391
  0
LINE
  8
LAYER01
 10
-1709.250244
 11
-1741.000244
 20
-312.900391
 21
-300.200195
  0
LINE
  8
LAYER01
 10
-1741.000244
 11
-1774.050049
 20
-300.200195
 21
-292.599609
  0
LINE
  8
LAYER01
 10
-1774.050049
 11
-1791.850097
 20
-292.599609
 21
-296.400391
  0
LINE
  8
LAYER01
 10
-2499.500244
 11
-2419.450195
 20
-22.0
 21
-22.0
  0
LINE
  8
LAYER01
 10
-2419.450195
 11
-2420.750244
 20
-22.0
 21
-6.75
  0
LINE
  8
LAYER01
 10
-2420.750244
 11
-2430.900146
 20
-6.75
 21
-0.400391
  0
LINE
  8
LAYER01
 10
-2430.900146
 11
-2457.550049
 20
-0.400391
 21
0.900391
  0
LINE
  8
LAYER01
 10
-2457.550049
 11
-2486.800049
 20
0.900391
 21
-0.400391
  0
LINE
  8
LAYER01
 10
-2486.800049
 11
-2499.500244
 20
-0.400391
 21
-9.25
  0
LINE
  8
LAYER01
 10
-2499.500244
 11
-2499.500244
 20
-9.25
 21
-22.0
  0
LINE
  8
LAYER01
 10
-2452.5
 11
-2458.850097
 20
-0.400391
 21
-0.400391
  0
LINE
  8
LAYER01
 10
-2458.850097
 11
-2472.800293
 20
-0.400391
 21
-0.400391
  0
LINE
  8
LAYER01
 10
-2472.800293
 11
-2465.200195
 20
-0.400391
 21
255.0
  0
LINE
  8
LAYER01
 10
-2465.200195
 11
-2452.5
 20
255.0
 21
-0.400391
  0
LINE
  8
LAYER01
 10
-1814.700195
 11
-1812.150146
 20
-558.150391
 21
-546.700195
  0
LINE
  8
LAYER01
 10
-1812.150146
 11
-1802.000244
 20
-546.700195
 21
-540.349609
  0
LINE
  8
LAYER01
 10
-1802.000244
 11
-1733.400146
 20
-540.349609
 21
-530.200195
  0
LINE
  8
LAYER01
 10
-1733.400146
 11
-1721.950195
 20
-530.200195
 21
-532.700195
  0
LINE
  8
LAYER01
 10
-1721.950195
 11
-1715.600097
 20
-532.700195
 21
-541.599609
  0
LINE
  8
LAYER01
 10
-1715.600097
 11
-1711.800049
 20
-541.599609
 21
-564.5
  0
LINE
  8
LAYER01
 10
-1711.800049
 11
-1714.350097
 20
-564.5
 21
-575.900391
  0
LINE
  8
LAYER01
 10
-1714.350097
 11
-1724.5
 20
-575.900391
 21
-581.0
  0
LINE
  8
LAYER01
 10
-1724.5
 11
-1793.100097
 20
-581.0
 21
-592.450195
  0
LINE
  8
LAYER01
 10
-1793.100097
 11
-1804.550293
 20
-592.450195
 21
-589.900391
  0
LINE
  8
LAYER01
 10
-1804.550293
 11
-1810.900146
 20
-589.900391
 21
-581.0
  0
LINE
  8
LAYER01
 10
-1810.900146
 11
-1812.150146
 20
-581.0
 21
-569.549805
  0
LINE
  8
LAYER01
 10
-1812.150146
 11
-1814.700195
 20
-569.549805
 21
-558.150391
  0
LINE
  8
LAYER01
 10
-3312.600097
 11
-3310.100097
 20
-887.200195
 21
-926.549805
  0
LINE
  8
LAYER01
 10
-3310.100097
 11
-3289.750244
 20
-926.549805
 21
-1075.200195
  0
LINE
  8
LAYER01
 10
-3289.750244
 11
-3251.650146
 20
-1075.200195
 21
-1209.900391
  0
LINE
  8
LAYER01
 10
-3251.650146
 11
-3241.450195
 20
-1209.900391
 21
-1223.849609
  0
LINE
  8
LAYER01
 10
-3241.450195
 11
-3218.600097
 20
-1223.849609
 21
-1228.950195
  0
LINE
  8
LAYER01
 10
-3218.600097
 11
-3130.950195
 20
-1228.950195
 21
-1228.950195
  0
LINE
  8
LAYER01
 10
-3130.950195
 11
-3113.150146
 20
-1228.950195
 21
-1222.599609
  0
LINE
  8
LAYER01
 10
-3113.150146
 11
-3099.150146
 20
-1222.599609
 21
-1211.150391
  0
LINE
  8
LAYER01
 10
-3099.150146
 11
-3063.600097
 20
-1211.150391
 21
-1188.299805
  0
LINE
  8
LAYER01
 10
-3063.600097
 11
-3063.600097
 20
-1188.299805
 21
-1423.349609
  0
LINE
  8
LAYER01
 10
-3063.600097
 11
-3071.200195
 20
-1423.349609
 21
-1442.400391
  0
LINE
  8
LAYER01
 10
-3071.200195
 11
-3090.300049
 20
-1442.400391
 21
-1450.0
  0
LINE
  8
LAYER01
 10
-3090.300049
 11
-3285.950195
 20
-1450.0
 21
-1450.0
  0
LINE
  8
LAYER01
 10
-3285.950195
 11
-3305.000244
 20
-1450.0
 21
-1442.400391
  0
LINE
  8
LAYER01
 10
-3305.000244
 11
-3312.600097
 20
-1442.400391
 21
-1423.349609
  0
LINE
  8
LAYER01
 10
-3312.600097
 11
-3312.600097
 20
-1423.349609
 21
-887.200195
  0
LINE
  8
LAYER01
 10
-1606.350341
 11
-1608.900146
 20
-887.200195
 21
-926.549805
  0
LINE
  8
LAYER01
 10
-1608.900146
 11
-1629.200195
 20
-926.549805
 21
-1075.200195
  0
LINE
  8
LAYER01
 10
-1629.200195
 11
-1667.300049
 20
-1075.200195
 21
-1209.900391
  0
LINE
  8
LAYER01
 10
-1667.300049
 11
-1677.5
 20
-1209.900391
 21
-1223.849609
  0
LINE
  8
LAYER01
 10
-1677.5
 11
-1700.350097
 20
-1223.849609
 21
-1228.950195
  0
LINE
  8
LAYER01
 10
-1700.350097
 11
-1788.000244
 20
-1228.950195
 21
-1228.950195
  0
LINE
  8
LAYER01
 10
-1788.000244
 11
-1804.550293
 20
-1228.950195
 21
-1222.599609
  0
LINE
  8
LAYER01
 10
-1804.550293
 11
-1819.800049
 20
-1222.599609
 21
-1211.150391
  0
LINE
  8
LAYER01
 10
-1819.800049
 11
-1855.350097
 20
-1211.150391
 21
-1188.299805
  0
LINE
  8
LAYER01
 10
-1855.350097
 11
-1855.350097
 20
-1188.299805
 21
-1423.349609
  0
LINE
  8
LAYER01
 10
-1855.350097
 11
-1847.75
 20
-1423.349609
 21
-1442.400391
  0
LINE
  8
LAYER01
 10
-1847.75
 11
-1828.650146
 20
-1442.400391
 21
-1450.0
  0
LINE
  8
LAYER01
 10
-1828.650146
 11
-1633.0
 20
-1450.0
 21
-1450.0
  0
LINE
  8
LAYER01
 10
-1633.0
 11
-1613.950195
 20
-1450.0
 21
-1442.400391
  0
LINE
  8
LAYER01
 10
-1613.950195
 11
-1606.350341
 20
-1442.400391
 21
-1423.349609
  0
LINE
  8
LAYER01
 10
-1606.350341
 11
-1606.350341
 20
-1423.349609
 21
-887.200195
  0
LINE
  8
LAYER01
 10
-3063.600097
 11
-3049.600097
 20
-1188.299805
 21
-1187.049805
  0
LINE
  8
LAYER01
 10
-3049.600097
 11
-1868.050049
 20
-1187.049805
 21
-1187.049805
  0
LINE
  8
LAYER01
 10
-1868.050049
 11
-1854.100097
 20
-1187.049805
 21
-1188.299805
  0
LINE
  8
LAYER01
 10
-1854.100097
 11
-1854.100097
 20
-1188.299805
 21
-1264.549805
  0
LINE
  8
LAYER01
 10
-1854.100097
 11
-3063.600097
 20
-1264.549805
 21
-1264.549805
  0
LINE
  8
LAYER01
 10
-3063.600097
 11
-3063.600097
 20
-1264.549805
 21
-1188.299805
  0
LINE
  8
LAYER01
 10
-1823.600097
 11
-1835.050049
 20
-1207.349609
 21
-1198.450195
  0
LINE
  8
LAYER01
 10
-1835.050049
 11
-1823.600097
 20
-1198.450195
 21
-1207.349609
  0
LINE
  8
LAYER01
 10
-3063.600097
 11
-3049.600097
 20
-1188.299805
 21
-1187.049805
  0
LINE
  8
LAYER01
 10
-3049.600097
 11
-1868.050049
 20
-1187.049805
 21
-1187.049805
  0
LINE
  8
LAYER01
 10
-1868.050049
 11
-1854.100097
 20
-1187.049805
 21
-1188.299805
  0
LINE
  8
LAYER01
 10
-1854.100097
 11
-1854.100097
 20
-1188.299805
 21
-1264.549805
  0
LINE
  8
LAYER01
 10
-1854.100097
 11
-3063.600097
 20
-1264.549805
 21
-1264.549805
  0
LINE
  8
LAYER01
 10
-3063.600097
 11
-3063.600097
 20
-1264.549805
 21
-1188.299805
  0
LINE
  8
LAYER01
 10
-1823.600097
 11
-1835.050049
 20
-1207.349609
 21
-1198.450195
  0
LINE
  8
LAYER01
 10
-1835.050049
 11
-1823.600097
 20
-1198.450195
 21
-1207.349609
  0
LINE
  8
LAYER01
 10
-3007.700195
 11
-2991.200195
 20
-443.799805
 21
-254.5
  0
LINE
  8
LAYER01
 10
-2991.200195
 11
-2955.600097
 20
-254.5
 21
-70.25
  0
LINE
  8
LAYER01
 10
-2955.600097
 11
-2707.850097
 20
-70.25
 21
-43.599609
  0
LINE
  8
LAYER01
 10
-2707.850097
 11
-2458.850097
 20
-43.599609
 21
-34.700195
  0
LINE
  8
LAYER01
 10
-2458.850097
 11
-2209.800049
 20
-34.700195
 21
-43.599609
  0
LINE
  8
LAYER01
 10
-2209.800049
 11
-1962.100097
 20
-43.599609
 21
-70.25
  0
LINE
  8
LAYER01
 10
-1962.100097
 11
-1927.750244
 20
-70.25
 21
-254.5
  0
LINE
  8
LAYER01
 10
-1927.750244
 11
-1911.250244
 20
-254.5
 21
-445.049805
  0
LINE
  8
LAYER01
 10
-1911.250244
 11
-2171.700195
 20
-445.049805
 21
-431.099609
  0
LINE
  8
LAYER01
 10
-2171.700195
 11
-2441.050049
 20
-431.099609
 21
-426.0
  0
LINE
  8
LAYER01
 10
-2441.050049
 11
-2718.000244
 20
-426.0
 21
-431.099609
  0
LINE
  8
LAYER01
 10
-2718.000244
 11
-3007.700195
 20
-431.099609
 21
-443.799805
  0
LINE
  8
LAYER01
 10
-2954.350097
 11
-2940.350097
 20
-152.849609
 21
-88.049805
  0
LINE
  8
LAYER01
 10
-2940.350097
 11
-2698.950195
 20
-88.049805
 21
-63.900391
  0
LINE
  8
LAYER01
 10
-2698.950195
 11
-2458.850097
 20
-63.900391
 21
-56.299805
  0
LINE
  8
LAYER01
 10
-2458.850097
 11
-2220.000244
 20
-56.299805
 21
-65.150391
  0
LINE
  8
LAYER01
 10
-2220.000244
 11
-1978.600097
 20
-65.150391
 21
-88.049805
  0
LINE
  8
LAYER01
 10
-1978.600097
 11
-1949.350097
 20
-88.049805
 21
-241.75
  0
LINE
  8
LAYER01
 10
-1949.350097
 11
-1932.850097
 20
-241.75
 21
-398.049805
  0
LINE
  8
LAYER01
 10
-1932.850097
 11
-1931.600097
 20
-398.049805
 21
-423.450195
  0
LINE
  8
LAYER01
 10
-1931.600097
 11
-2458.850097
 20
-423.450195
 21
-409.5
  0
LINE
  8
LAYER01
 10
-2458.850097
 11
-2986.100097
 20
-409.5
 21
-423.450195
  0
LINE
  8
LAYER01
 10
-2986.100097
 11
-2975.950195
 20
-423.450195
 21
-287.5
  0
LINE
  8
LAYER01
 10
-2975.950195
 11
-2954.350097
 20
-287.5
 21
-152.849609
  0
LINE
  8
LAYER01
 10
-1734.650146
 11
-1700.350097
 20
-672.450195
 21
-615.299805
  0
LINE
  8
LAYER01
 10
-1700.350097
 11
-1674.950195
 20
-615.299805
 21
-584.799805
  0
LINE
  8
LAYER01
 10
-1674.950195
 11
-1653.350097
 20
-584.799805
 21
-578.450195
  0
LINE
  8
LAYER01
 10
-1653.350097
 11
-1629.200195
 20
-578.450195
 21
-587.349609
  0
LINE
  8
LAYER01
 10
-2488.050293
 11
-2284.800049
 20
-722.0
 21
-722.0
  0
LINE
  8
LAYER01
 10
-2284.800049
 11
-2230.150146
 20
-722.0
 21
-714.400391
  0
LINE
  8
LAYER01
 10
-2230.150146
 11
-2184.400146
 20
-714.400391
 21
-699.150391
  0
LINE
  8
LAYER01
 10
-2184.400146
 11
-2139.950195
 20
-699.150391
 21
-673.75
  0
LINE
  8
LAYER01
 10
-2139.950195
 11
-2090.400146
 20
-673.75
 21
-606.400391
  0
LINE
  8
LAYER01
 10
-2090.400146
 11
-2025.600097
 20
-606.400391
 21
-558.150391
  0
LINE
  8
LAYER01
 10
-2025.600097
 11
-1950.650146
 20
-558.150391
 21
-527.650391
  0
LINE
  8
LAYER01
 10
-1950.650146
 11
-1871.850097
 20
-527.650391
 21
-511.099609
  0
LINE
  8
LAYER01
 10
-1871.850097
 11
-1795.650146
 20
-511.099609
 21
-509.849609
  0
LINE
  8
LAYER01
 10
-1795.650146
 11
-1727.050049
 20
-509.849609
 21
-520.0
  0
LINE
  8
LAYER01
 10
-1727.050049
 11
-1672.400146
 20
-520.0
 21
-540.349609
  0
LINE
  8
LAYER01
 10
-1672.400146
 11
-1638.100097
 20
-540.349609
 21
-569.549805
  0
LINE
  8
LAYER01
 10
-1842.650146
 11
-1799.450195
 20
-614.049805
 21
-620.400391
  0
LINE
  8
LAYER01
 10
-1799.450195
 11
-1763.900146
 20
-620.400391
 21
-636.900391
  0
LINE
  8
LAYER01
 10
-1763.900146
 11
-1739.75
 20
-636.900391
 21
-662.299805
  0
LINE
  8
LAYER01
 10
-1739.75
 11
-1730.850097
 20
-662.299805
 21
-691.549805
  0
LINE
  8
LAYER01
 10
-1730.850097
 11
-1739.75
 20
-691.549805
 21
-722.0
  0
LINE
  8
LAYER01
 10
-1739.75
 11
-1763.900146
 20
-722.0
 21
-746.150391
  0
LINE
  8
LAYER01
 10
-1763.900146
 11
-1799.450195
 20
-746.150391
 21
-762.700195
  0
LINE
  8
LAYER01
 10
-1799.450195
 11
-1842.650146
 20
-762.700195
 21
-769.049805
  0
LINE
  8
LAYER01
 10
-1842.650146
 11
-1885.850097
 20
-769.049805
 21
-762.700195
  0
LINE
  8
LAYER01
 10
-1885.850097
 11
-1921.400146
 20
-762.700195
 21
-746.150391
  0
LINE
  8
LAYER01
 10
-1921.400146
 11
-1945.550293
 20
-746.150391
 21
-722.0
  0
LINE
  8
LAYER01
 10
-1945.550293
 11
-1954.450195
 20
-722.0
 21
-691.549805
  0
LINE
  8
LAYER01
 10
-1954.450195
 11
-1945.550293
 20
-691.549805
 21
-662.299805
  0
LINE
  8
LAYER01
 10
-1945.550293
 11
-1921.400146
 20
-662.299805
 21
-636.900391
  0
LINE
  8
LAYER01
 10
-1921.400146
 11
-1885.850097
 20
-636.900391
 21
-620.400391
  0
LINE
  8
LAYER01
 10
-1885.850097
 11
-1842.650146
 20
-620.400391
 21
-614.049805
  0
LINE
  8
LAYER01
 10
-1832.500244
 11
-1802.000244
 20
-630.549805
 21
-636.900391
  0
LINE
  8
LAYER01
 10
-1802.000244
 11
-1772.75
 20
-636.900391
 21
-649.599609
  0
LINE
  8
LAYER01
 10
-1772.75
 11
-1752.450195
 20
-649.599609
 21
-671.200195
  0
LINE
  8
LAYER01
 10
-1752.450195
 11
-1748.650146
 20
-671.200195
 21
-702.950195
  0
LINE
  8
LAYER01
 10
-1748.650146
 11
-1763.900146
 20
-702.950195
 21
-727.099609
  0
LINE
  8
LAYER01
 10
-1763.900146
 11
-1788.000244
 20
-727.099609
 21
-742.349609
  0
LINE
  8
LAYER01
 10
-1788.000244
 11
-1850.250244
 20
-742.349609
 21
-752.5
  0
LINE
  8
LAYER01
 10
-1850.250244
 11
-1897.300049
 20
-752.5
 21
-742.349609
  0
LINE
  8
LAYER01
 10
-1897.300049
 11
-1931.600097
 20
-742.349609
 21
-714.400391
  0
LINE
  8
LAYER01
 10
-1931.600097
 11
-1936.650146
 20
-714.400391
 21
-680.099609
  0
LINE
  8
LAYER01
 10
-1936.650146
 11
-1917.600097
 20
-680.099609
 21
-654.700195
  0
LINE
  8
LAYER01
 10
-1917.600097
 11
-1885.850097
 20
-654.700195
 21
-638.150391
  0
LINE
  8
LAYER01
 10
-1885.850097
 11
-1852.800049
 20
-638.150391
 21
-630.549805
  0
LINE
  8
LAYER01
 10
-1852.800049
 11
-1842.650146
 20
-630.549805
 21
-629.299805
  0
LINE
  8
LAYER01
 10
-1842.650146
 11
-1832.500244
 20
-629.299805
 21
-630.549805
  0
LINE
  8
LAYER01
 10
-1832.500244
 11
-1802.000244
 20
-630.549805
 21
-636.900391
  0
LINE
  8
LAYER01
 10
-1802.000244
 11
-1772.75
 20
-636.900391
 21
-649.599609
  0
LINE
  8
LAYER01
 10
-1772.75
 11
-1752.450195
 20
-649.599609
 21
-671.200195
  0
LINE
  8
LAYER01
 10
-1752.450195
 11
-1748.650146
 20
-671.200195
 21
-702.950195
  0
LINE
  8
LAYER01
 10
-1748.650146
 11
-1763.900146
 20
-702.950195
 21
-727.099609
  0
LINE
  8
LAYER01
 10
-1763.900146
 11
-1788.000244
 20
-727.099609
 21
-742.349609
  0
LINE
  8
LAYER01
 10
-1788.000244
 11
-1850.250244
 20
-742.349609
 21
-752.5
  0
LINE
  8
LAYER01
 10
-1850.250244
 11
-1897.300049
 20
-752.5
 21
-742.349609
  0
LINE
  8
LAYER01
 10
-1897.300049
 11
-1931.600097
 20
-742.349609
 21
-714.400391
  0
LINE
  8
LAYER01
 10
-1931.600097
 11
-1936.650146
 20
-714.400391
 21
-680.099609
  0
LINE
  8
LAYER01
 10
-1936.650146
 11
-1917.600097
 20
-680.099609
 21
-654.700195
  0
LINE
  8
LAYER01
 10
-1917.600097
 11
-1885.850097
 20
-654.700195
 21
-638.150391
  0
LINE
  8
LAYER01
 10
-1885.850097
 11
-1852.800049
 20
-638.150391
 21
-630.549805
  0
LINE
  8
LAYER01
 10
-1852.800049
 11
-1842.650146
 20
-630.549805
 21
-629.299805
  0
LINE
  8
LAYER01
 10
-1842.650146
 11
-1832.500244
 20
-629.299805
 21
-630.549805
  0
LINE
  8
LAYER01
 10
-3063.600097
 11
-3053.450195
 20
-1189.549805
 21
-1115.900391
  0
LINE
  8
LAYER01
 10
-3053.450195
 11
-3040.750244
 20
-1115.900391
 21
-1093.0
  0
LINE
  8
LAYER01
 10
-3040.750244
 11
-3024.200195
 20
-1093.0
 21
-1076.5
  0
LINE
  8
LAYER01
 10
-3024.200195
 11
-2979.750244
 20
-1076.5
 21
-1062.5
  0
LINE
  8
LAYER01
 10
-2979.750244
 11
-2917.500244
 20
-1062.5
 21
-1061.25
  0
LINE
  8
LAYER01
 10
-2917.500244
 11
-1998.900146
 20
-1061.25
 21
-1061.25
  0
LINE
  8
LAYER01
 10
-1998.900146
 11
-1937.950195
 20
-1061.25
 21
-1062.5
  0
LINE
  8
LAYER01
 10
-1937.950195
 11
-1892.200195
 20
-1062.5
 21
-1076.5
  0
LINE
  8
LAYER01
 10
-1892.200195
 11
-1875.700195
 20
-1076.5
 21
-1093.0
  0
LINE
  8
LAYER01
 10
-1875.700195
 11
-1864.25
 20
-1093.0
 21
-1115.900391
  0
LINE
  8
LAYER01
 10
-1864.25
 11
-1854.100097
 20
-1115.900391
 21
-1189.549805
  0
LINE
  8
LAYER01
 10
-1936.650146
 11
-1917.600097
 20
-1076.5
 21
-1080.299805
  0
LINE
  8
LAYER01
 10
-1917.600097
 11
-1902.350097
 20
-1080.299805
 21
-1091.75
  0
LINE
  8
LAYER01
 10
-1902.350097
 11
-1892.200195
 20
-1091.75
 21
-1107.0
  0
LINE
  8
LAYER01
 10
-1892.200195
 11
-1888.400146
 20
-1107.0
 21
-1126.049805
  0
LINE
  8
LAYER01
 10
-1888.400146
 11
-1892.200195
 20
-1126.049805
 21
-1145.099609
  0
LINE
  8
LAYER01
 10
-1892.200195
 11
-1902.350097
 20
-1145.099609
 21
-1160.349609
  0
LINE
  8
LAYER01
 10
-1902.350097
 11
-1917.600097
 20
-1160.349609
 21
-1170.5
  0
LINE
  8
LAYER01
 10
-1917.600097
 11
-1936.650146
 20
-1170.5
 21
-1174.299805
  0
LINE
  8
LAYER01
 10
-1936.650146
 11
-1955.700195
 20
-1174.299805
 21
-1170.5
  0
LINE
  8
LAYER01
 10
-1955.700195
 11
-1970.950195
 20
-1170.5
 21
-1160.349609
  0
LINE
  8
LAYER01
 10
-1970.950195
 11
-1981.150146
 20
-1160.349609
 21
-1145.099609
  0
LINE
  8
LAYER01
 10
-1981.150146
 11
-1984.950195
 20
-1145.099609
 21
-1126.049805
  0
LINE
  8
LAYER01
 10
-1984.950195
 11
-1981.150146
 20
-1126.049805
 21
-1107.0
  0
LINE
  8
LAYER01
 10
-1981.150146
 11
-1970.950195
 20
-1107.0
 21
-1091.75
  0
LINE
  8
LAYER01
 10
-1970.950195
 11
-1955.700195
 20
-1091.75
 21
-1080.299805
  0
LINE
  8
LAYER01
 10
-1955.700195
 11
-1936.650146
 20
-1080.299805
 21
-1076.5
  0
LINE
  8
LAYER01
 10
-1908.700195
 11
-1904.900146
 20
-443.799805
 21
-516.200195
  0
LINE
  8
LAYER01
 10
-1639.350097
 11
-1658.450195
 20
-757.599609
 21
-777.900391
  0
LINE
  8
LAYER01
 10
-1658.450195
 11
-1683.850097
 20
-777.900391
 21
-795.700195
  0
LINE
  8
LAYER01
 10
-1683.850097
 11
-1744.800049
 20
-795.700195
 21
-821.099609
  0
LINE
  8
LAYER01
 10
-1744.800049
 11
-1840.100097
 20
-821.099609
 21
-838.900391
  0
LINE
  8
LAYER01
 10
-1840.100097
 11
-2288.600097
 20
-838.900391
 21
-838.900391
  0
LINE
  8
LAYER01
 10
-1692.75
 11
-1770.250244
 20
-761.400391
 21
-800.799805
  0
LINE
  8
LAYER01
 10
-1770.250244
 11
-1840.100097
 20
-800.799805
 21
-812.25
  0
LINE
  8
LAYER01
 10
-1840.100097
 11
-2288.600097
 20
-812.25
 21
-812.25
  0
LINE
  8
LAYER01
 10
-1910.000244
 11
-1742.300049
 20
-445.049805
 21
-462.849609
  0
LINE
  8
LAYER01
 10
-3288.500244
 11
-3261.800049
 20
-875.75
 21
-875.75
  0
LINE
  8
LAYER01
 10
-3261.800049
 11
-3258.0
 20
-875.75
 21
-885.900391
  0
LINE
  8
LAYER01
 10
-3258.0
 11
-3258.0
 20
-885.900391
 21
-918.950195
  0
LINE
  8
LAYER01
 10
-3258.0
 11
-3261.800049
 20
-918.950195
 21
-929.099609
  0
LINE
  8
LAYER01
 10
-3261.800049
 11
-3288.500244
 20
-929.099609
 21
-929.099609
  0
LINE
  8
LAYER01
 10
-3288.500244
 11
-3291.0
 20
-929.099609
 21
-918.950195
  0
LINE
  8
LAYER01
 10
-3291.0
 11
-3291.0
 20
-918.950195
 21
-885.900391
  0
LINE
  8
LAYER01
 10
-3291.0
 11
-3288.500244
 20
-885.900391
 21
-875.75
  0
LINE
  8
LAYER01
 10
-3134.75
 11
-3294.850097
 20
-757.599609
 21
-757.599609
  0
LINE
  8
LAYER01
 10
-3294.850097
 11
-3317.700195
 20
-757.599609
 21
-786.799805
  0
LINE
  8
LAYER01
 10
-3127.150146
 11
-3169.050049
 20
-296.400391
 21
-431.099609
  0
LINE
  8
LAYER01
 10
-3169.050049
 11
-3209.700195
 20
-431.099609
 21
-428.549805
  0
LINE
  8
LAYER01
 10
-3209.700195
 11
-3224.950195
 20
-428.549805
 21
-419.650391
  0
LINE
  8
LAYER01
 10
-3224.950195
 11
-3235.100097
 20
-419.650391
 21
-401.849609
  0
LINE
  8
LAYER01
 10
-3235.100097
 11
-3240.200195
 20
-401.849609
 21
-370.099609
  0
LINE
  8
LAYER01
 10
-3240.200195
 11
-3235.100097
 20
-370.099609
 21
-338.349609
  0
LINE
  8
LAYER01
 10
-3235.100097
 11
-3223.699951
 20
-338.349609
 21
-323.099609
  0
LINE
  8
LAYER01
 10
-3223.699951
 11
-3209.700195
 20
-323.099609
 21
-312.900391
  0
LINE
  8
LAYER01
 10
-3209.700195
 11
-3177.950195
 20
-312.900391
 21
-300.200195
  0
LINE
  8
LAYER01
 10
-3177.950195
 11
-3143.650146
 20
-300.200195
 21
-292.599609
  0
LINE
  8
LAYER01
 10
-3143.650146
 11
-3127.150146
 20
-292.599609
 21
-296.400391
  0
LINE
  8
LAYER01
 10
-3184.300049
 11
-3218.600097
 20
-672.450195
 21
-615.299805
  0
LINE
  8
LAYER01
 10
-3218.600097
 11
-3244.000244
 20
-615.299805
 21
-584.799805
  0
LINE
  8
LAYER01
 10
-3244.000244
 11
-3265.600097
 20
-584.799805
 21
-578.450195
  0
LINE
  8
LAYER01
 10
-3265.600097
 11
-3288.500244
 20
-578.450195
 21
-587.349609
  0
LINE
  8
LAYER01
 10
-2430.900146
 11
-2634.150146
 20
-722.0
 21
-722.0
  0
LINE
  8
LAYER01
 10
-2634.150146
 11
-2688.800049
 20
-722.0
 21
-714.400391
  0
LINE
  8
LAYER01
 10
-2688.800049
 11
-2734.550293
 20
-714.400391
 21
-699.150391
  0
LINE
  8
LAYER01
 10
-2734.550293
 11
-2777.750244
 20
-699.150391
 21
-673.75
  0
LINE
  8
LAYER01
 10
-2777.750244
 11
-2828.550049
 20
-673.75
 21
-606.400391
  0
LINE
  8
LAYER01
 10
-2828.550049
 11
-2894.600097
 20
-606.400391
 21
-558.150391
  0
LINE
  8
LAYER01
 10
-2894.600097
 11
-2970.850097
 20
-558.150391
 21
-526.349609
  0
LINE
  8
LAYER01
 10
-2970.850097
 11
-3050.900146
 20
-526.349609
 21
-511.099609
  0
LINE
  8
LAYER01
 10
-3050.900146
 11
-3128.400146
 20
-511.099609
 21
-508.599609
  0
LINE
  8
LAYER01
 10
-3128.400146
 11
-3198.25
 20
-508.599609
 21
-520.0
  0
LINE
  8
LAYER01
 10
-3198.25
 11
-3252.900146
 20
-520.0
 21
-540.349609
  0
LINE
  8
LAYER01
 10
-3252.900146
 11
-3288.500244
 20
-540.349609
 21
-569.549805
  0
LINE
  8
LAYER01
 10
-3076.300049
 11
-3119.5
 20
-614.049805
 21
-620.400391
  0
LINE
  8
LAYER01
 10
-3119.5
 11
-3155.100097
 20
-620.400391
 21
-636.900391
  0
LINE
  8
LAYER01
 10
-3155.100097
 11
-3179.200195
 20
-636.900391
 21
-662.299805
  0
LINE
  8
LAYER01
 10
-3179.200195
 11
-3186.850097
 20
-662.299805
 21
-691.549805
  0
LINE
  8
LAYER01
 10
-3186.850097
 11
-3179.200195
 20
-691.549805
 21
-722.0
  0
LINE
  8
LAYER01
 10
-3179.200195
 11
-3155.100097
 20
-722.0
 21
-746.150391
  0
LINE
  8
LAYER01
 10
-3155.100097
 11
-3119.5
 20
-746.150391
 21
-762.700195
  0
LINE
  8
LAYER01
 10
-3119.5
 11
-3076.300049
 20
-762.700195
 21
-769.049805
  0
LINE
  8
LAYER01
 10
-3076.300049
 11
-3033.100341
 20
-769.049805
 21
-762.700195
  0
LINE
  8
LAYER01
 10
-3033.100341
 11
-2997.550049
 20
-762.700195
 21
-746.150391
  0
LINE
  8
LAYER01
 10
-2997.550049
 11
-2973.400146
 20
-746.150391
 21
-722.0
  0
LINE
  8
LAYER01
 10
-2973.400146
 11
-2964.500244
 20
-722.0
 21
-691.549805
  0
LINE
  8
LAYER01
 10
-2964.500244
 11
-2973.400146
 20
-691.549805
 21
-662.299805
  0
LINE
  8
LAYER01
 10
-2973.400146
 11
-2997.550049
 20
-662.299805
 21
-636.900391
  0
LINE
  8
LAYER01
 10
-2997.550049
 11
-3033.100341
 20
-636.900391
 21
-620.400391
  0
LINE
  8
LAYER01
 10
-3033.100341
 11
-3076.300049
 20
-620.400391
 21
-614.049805
  0
LINE
  8
LAYER01
 10
-2982.300049
 11
-3001.350097
 20
-1076.5
 21
-1080.299805
  0
LINE
  8
LAYER01
 10
-3001.350097
 11
-3016.600097
 20
-1080.299805
 21
-1091.75
  0
LINE
  8
LAYER01
 10
-3016.600097
 11
-3026.75
 20
-1091.75
 21
-1107.0
  0
LINE
  8
LAYER01
 10
-3026.75
 11
-3030.550049
 20
-1107.0
 21
-1126.049805
  0
LINE
  8
LAYER01
 10
-3030.550049
 11
-3026.75
 20
-1126.049805
 21
-1145.099609
  0
LINE
  8
LAYER01
 10
-3026.75
 11
-3016.600097
 20
-1145.099609
 21
-1160.349609
  0
LINE
  8
LAYER01
 10
-3016.600097
 11
-3001.350097
 20
-1160.349609
 21
-1170.5
  0
LINE
  8
LAYER01
 10
-3001.350097
 11
-2982.300049
 20
-1170.5
 21
-1174.299805
  0
LINE
  8
LAYER01
 10
-2982.300049
 11
-2963.25
 20
-1174.299805
 21
-1170.5
  0
LINE
  8
LAYER01
 10
-2963.25
 11
-2948.0
 20
-1170.5
 21
-1160.349609
  0
LINE
  8
LAYER01
 10
-2948.0
 11
-2937.800049
 20
-1160.349609
 21
-1145.099609
  0
LINE
  8
LAYER01
 10
-2937.800049
 11
-2934.000244
 20
-1145.099609
 21
-1126.049805
  0
LINE
  8
LAYER01
 10
-2934.000244
 11
-2937.800049
 20
-1126.049805
 21
-1107.0
  0
LINE
  8
LAYER01
 10
-2937.800049
 11
-2948.0
 20
-1107.0
 21
-1091.75
  0
LINE
  8
LAYER01
 10
-2948.0
 11
-2963.25
 20
-1091.75
 21
-1080.299805
  0
LINE
  8
LAYER01
 10
-2963.25
 11
-2982.300049
 20
-1080.299805
 21
-1076.5
  0
LINE
  8
LAYER01
 10
-3008.950195
 11
-3014.050293
 20
-443.799805
 21
-516.200195
  0
LINE
  8
LAYER01
 10
-3278.300293
 11
-3260.550293
 20
-757.599609
 21
-777.900391
  0
LINE
  8
LAYER01
 10
-3260.550293
 11
-3235.100097
 20
-777.900391
 21
-795.700195
  0
LINE
  8
LAYER01
 10
-3235.100097
 11
-3172.850097
 20
-795.700195
 21
-821.099609
  0
LINE
  8
LAYER01
 10
-3172.850097
 11
-3078.850097
 20
-821.099609
 21
-838.900391
  0
LINE
  8
LAYER01
 10
-3078.850097
 11
-2630.350341
 20
-838.900391
 21
-838.900391
  0
LINE
  8
LAYER01
 10
-3226.200195
 11
-3148.699951
 20
-761.400391
 21
-800.799805
  0
LINE
  8
LAYER01
 10
-3148.699951
 11
-3078.850097
 20
-800.799805
 21
-812.25
  0
LINE
  8
LAYER01
 10
-3078.850097
 11
-2630.350341
 20
-812.25
 21
-812.25
  0
LINE
  8
LAYER01
 10
-3008.950195
 11
-3176.650146
 20
-445.049805
 21
-462.849609
  0
LINE
  8
LAYER01
 10
-2550.300049
 11
-2368.650146
 20
-794.450195
 21
-794.450195
  0
LINE
  8
LAYER01
 10
-2368.650146
 11
-2345.750244
 20
-794.450195
 21
-804.599609
  0
LINE
  8
LAYER01
 10
-2345.750244
 11
-2335.600097
 20
-804.599609
 21
-827.450195
  0
LINE
  8
LAYER01
 10
-2335.600097
 11
-2335.600097
 20
-827.450195
 21
-918.950195
  0
LINE
  8
LAYER01
 10
-2335.600097
 11
-2345.750244
 20
-918.950195
 21
-941.799805
  0
LINE
  8
LAYER01
 10
-2345.750244
 11
-2368.650146
 20
-941.799805
 21
-952.0
  0
LINE
  8
LAYER01
 10
-2368.650146
 11
-2550.300049
 20
-952.0
 21
-952.0
  0
LINE
  8
LAYER01
 10
-2550.300049
 11
-2573.200195
 20
-952.0
 21
-941.799805
  0
LINE
  8
LAYER01
 10
-2573.200195
 11
-2583.350097
 20
-941.799805
 21
-918.950195
  0
LINE
  8
LAYER01
 10
-2583.350097
 11
-2583.350097
 20
-918.950195
 21
-827.450195
  0
LINE
  8
LAYER01
 10
-2583.350097
 11
-2573.200195
 20
-827.450195
 21
-804.599609
  0
LINE
  8
LAYER01
 10
-2573.200195
 11
-2550.300049
 20
-804.599609
 21
-794.450195
  0
LINE
  8
LAYER01
 10
-2289.850097
 11
-2289.850097
 20
-809.700195
 21
-948.150391
  0
LINE
  8
LAYER01
 10
-2289.850097
 11
-2294.950195
 20
-948.150391
 21
-969.75
  0
LINE
  8
LAYER01
 10
-2294.950195
 11
-2314.000244
 20
-969.75
 21
-973.599609
  0
LINE
  8
LAYER01
 10
-2314.000244
 11
-2604.949951
 20
-973.599609
 21
-973.599609
  0
LINE
  8
LAYER01
 10
-2604.949951
 11
-2625.300049
 20
-973.599609
 21
-969.75
  0
LINE
  8
LAYER01
 10
-2625.300049
 11
-2630.350341
 20
-969.75
 21
-948.150391
  0
LINE
  8
LAYER01
 10
-2630.350341
 11
-2630.350341
 20
-948.150391
 21
-812.25
  0
LINE
  8
LAYER01
 10
-2289.850097
 11
-2289.850097
 20
-809.700195
 21
-948.150391
  0
LINE
  8
LAYER01
 10
-2289.850097
 11
-2294.950195
 20
-948.150391
 21
-969.75
  0
LINE
  8
LAYER01
 10
-2294.950195
 11
-2314.000244
 20
-969.75
 21
-973.599609
  0
LINE
  8
LAYER01
 10
-2314.000244
 11
-2604.949951
 20
-973.599609
 21
-973.599609
  0
LINE
  8
LAYER01
 10
-2604.949951
 11
-2625.300049
 20
-973.599609
 21
-969.75
  0
LINE
  8
LAYER01
 10
-2625.300049
 11
-2630.350341
 20
-969.75
 21
-948.150391
  0
LINE
  8
LAYER01
 10
-2630.350341
 11
-2630.350341
 20
-948.150391
 21
-812.25
  0
LINE
  8
LAYER01
 10
-2610.050049
 11
-2324.150146
 20
-434.900391
 21
-434.900391
  0
LINE
  8
LAYER01
 10
-2324.150146
 11
-2310.200195
 20
-434.900391
 21
-442.5
  0
LINE
  8
LAYER01
 10
-2310.200195
 11
-2310.200195
 20
-442.5
 21
-456.5
  0
LINE
  8
LAYER01
 10
-2310.200195
 11
-2324.150146
 20
-456.5
 21
-464.099609
  0
LINE
  8
LAYER01
 10
-2324.150146
 11
-2610.050049
 20
-464.099609
 21
-464.099609
  0
LINE
  8
LAYER01
 10
-2610.050049
 11
-2622.750244
 20
-464.099609
 21
-456.5
  0
LINE
  8
LAYER01
 10
-2622.750244
 11
-2622.750244
 20
-456.5
 21
-442.5
  0
LINE
  8
LAYER01
 10
-2622.750244
 11
-2610.050049
 20
-442.5
 21
-434.900391
  0
LINE
  8
LAYER01
 10
-2460.100097
 11
-2499.500244
 20
-603.849609
 21
-593.700195
  0
LINE
  8
LAYER01
 10
-2499.500244
 11
-2512.200195
 20
-593.700195
 21
-581.0
  0
LINE
  8
LAYER01
 10
-2512.200195
 11
-2516.0
 20
-581.0
 21
-565.75
  0
LINE
  8
LAYER01
 10
-2516.0
 11
-2512.200195
 20
-565.75
 21
-550.5
  0
LINE
  8
LAYER01
 10
-2512.200195
 11
-2499.500244
 20
-550.5
 21
-537.799805
  0
LINE
  8
LAYER01
 10
-2499.500244
 11
-2460.100097
 20
-537.799805
 21
-526.349609
  0
LINE
  8
LAYER01
 10
-2460.100097
 11
-2420.750244
 20
-526.349609
 21
-537.799805
  0
LINE
  8
LAYER01
 10
-2420.750244
 11
-2408.0
 20
-537.799805
 21
-550.5
  0
LINE
  8
LAYER01
 10
-2408.0
 11
-2404.200195
 20
-550.5
 21
-565.75
  0
LINE
  8
LAYER01
 10
-2404.200195
 11
-2408.0
 20
-565.75
 21
-581.0
  0
LINE
  8
LAYER01
 10
-2408.0
 11
-2420.750244
 20
-581.0
 21
-593.700195
  0
LINE
  8
LAYER01
 10
-2420.750244
 11
-2460.100097
 20
-593.700195
 21
-603.849609
  0
LINE
  8
LAYER01
 10
-2460.100097
 11
-2496.950195
 20
-601.349609
 21
-591.150391
  0
LINE
  8
LAYER01
 10
-2496.950195
 11
-2508.400146
 20
-591.150391
 21
-579.75
  0
LINE
  8
LAYER01
 10
-2508.400146
 11
-2512.200195
 20
-579.75
 21
-565.75
  0
LINE
  8
LAYER01
 10
-2512.200195
 11
-2508.400146
 20
-565.75
 21
-550.5
  0
LINE
  8
LAYER01
 10
-2508.400146
 11
-2496.950195
 20
-550.5
 21
-539.049805
  0
LINE
  8
LAYER01
 10
-2496.950195
 11
-2460.100097
 20
-539.049805
 21
-528.900391
  0
LINE
  8
LAYER01
 10
-2460.100097
 11
-2423.25
 20
-528.900391
 21
-539.049805
  0
LINE
  8
LAYER01
 10
-2423.25
 11
-2411.850097
 20
-539.049805
 21
-550.5
  0
LINE
  8
LAYER01
 10
-2411.850097
 11
-2406.750244
 20
-550.5
 21
-565.75
  0
LINE
  8
LAYER01
 10
-2406.750244
 11
-2411.850097
 20
-565.75
 21
-579.75
  0
LINE
  8
LAYER01
 10
-2411.850097
 11
-2423.25
 20
-579.75
 21
-591.150391
  0
LINE
  8
LAYER01
 10
-2423.25
 11
-2460.100097
 20
-591.150391
 21
-601.349609
  0
LINE
  8
LAYER01
 10
-2465.200195
 11
-2453.750244
 20
-564.5
 21
-564.5
  0
LINE
  8
LAYER01
 10
-2453.750244
 11
-2437.25
 20
-564.5
 21
-540.349609
  0
LINE
  8
LAYER01
 10
-2437.25
 11
-2425.800049
 20
-540.349609
 21
-546.700195
  0
LINE
  8
LAYER01
 10
-2425.800049
 11
-2446.150146
 20
-546.700195
 21
-579.75
  0
LINE
  8
LAYER01
 10
-2446.150146
 11
-2453.750244
 20
-579.75
 21
-567.0
  0
LINE
  8
LAYER01
 10
-2453.750244
 11
-2465.200195
 20
-567.0
 21
-567.0
  0
LINE
  8
LAYER01
 10
-2465.200195
 11
-2472.800293
 20
-567.0
 21
-579.75
  0
LINE
  8
LAYER01
 10
-2472.800293
 11
-2493.150146
 20
-579.75
 21
-547.950195
  0
LINE
  8
LAYER01
 10
-2493.150146
 11
-2480.450195
 20
-547.950195
 21
-540.349609
  0
LINE
  8
LAYER01
 10
-2480.450195
 11
-2465.200195
 20
-540.349609
 21
-564.5
  0
LINE
  8
LAYER01
 10
-2458.850097
 11
-2470.300293
 20
-556.849609
 21
-536.549805
  0
LINE
  8
LAYER01
 10
-2470.300293
 11
-2447.400146
 20
-536.549805
 21
-537.799805
  0
LINE
  8
LAYER01
 10
-2447.400146
 11
-2458.850097
 20
-537.799805
 21
-556.849609
  0
LINE
  8
LAYER01
 10
-2477.900146
 11
-2498.25
 20
-592.450195
 21
-578.450195
  0
LINE
  8
LAYER01
 10
-2498.25
 11
-2500.75
 20
-578.450195
 21
-556.849609
  0
LINE
  8
LAYER01
 10
-2500.75
 11
-2477.900146
 20
-556.849609
 21
-592.450195
  0
LINE
  8
LAYER01
 10
-2448.699951
 11
-2471.550049
 20
-594.950195
 21
-593.700195
  0
LINE
  8
LAYER01
 10
-2471.550049
 11
-2458.850097
 20
-593.700195
 21
-575.900391
  0
LINE
  8
LAYER01
 10
-2458.850097
 11
-2448.699951
 20
-575.900391
 21
-594.950195
  0
LINE
  8
LAYER01
 10
-2442.350097
 11
-2419.450195
 20
-592.450195
 21
-554.299805
  0
LINE
  8
LAYER01
 10
-2419.450195
 11
-2419.450195
 20
-554.299805
 21
-577.200195
  0
LINE
  8
LAYER01
 10
-2419.450195
 11
-2442.350097
 20
-577.200195
 21
-592.450195
  0
LINE
  8
LAYER01
 10
-1962.100097
 11
-1976.050049
 20
-70.25
 21
-6.75
  0
LINE
  8
LAYER01
 10
-1976.050049
 11
-1995.100097
 20
-6.75
 21
37.75
  0
LINE
  8
LAYER01
 10
-2955.600097
 11
-2941.650146
 20
-70.25
 21
-6.75
  0
LINE
  8
LAYER01
 10
-2941.650146
 11
-2922.550049
 20
-6.75
 21
37.75
  0
LINE
  8
LAYER01
 10
-1937.950195
 11
-1747.350097
 20
-691.549805
 21
-691.549805
  0
LINE
  8
LAYER01
 10
-3064.850097
 11
-3035.650146
 20
-630.549805
 21
-636.900391
  0
LINE
  8
LAYER01
 10
-3035.650146
 11
-3005.150146
 20
-636.900391
 21
-649.599609
  0
LINE
  8
LAYER01
 10
-3005.150146
 11
-2984.850341
 20
-649.599609
 21
-671.200195
  0
LINE
  8
LAYER01
 10
-2984.850341
 11
-2981.0
 20
-671.200195
 21
-702.950195
  0
LINE
  8
LAYER01
 10
-2981.0
 11
-2997.550049
 20
-702.950195
 21
-727.099609
  0
LINE
  8
LAYER01
 10
-2997.550049
 11
-3021.650146
 20
-727.099609
 21
-742.349609
  0
LINE
  8
LAYER01
 10
-3021.650146
 11
-3082.650146
 20
-742.349609
 21
-752.5
  0
LINE
  8
LAYER01
 10
-3082.650146
 11
-3130.950195
 20
-752.5
 21
-742.349609
  0
LINE
  8
LAYER01
 10
-3130.950195
 11
-3165.250244
 20
-742.349609
 21
-714.400391
  0
LINE
  8
LAYER01
 10
-3165.250244
 11
-3170.300293
 20
-714.400391
 21
-680.099609
  0
LINE
  8
LAYER01
 10
-3170.300293
 11
-3151.250244
 20
-680.099609
 21
-654.700195
  0
LINE
  8
LAYER01
 10
-3151.250244
 11
-3119.5
 20
-654.700195
 21
-638.150391
  0
LINE
  8
LAYER01
 10
-3119.5
 11
-3086.450195
 20
-638.150391
 21
-630.549805
  0
LINE
  8
LAYER01
 10
-3086.450195
 11
-3075.050049
 20
-630.549805
 21
-629.299805
  0
LINE
  8
LAYER01
 10
-3075.050049
 11
-3064.850097
 20
-629.299805
 21
-630.549805
  0
LINE
  8
LAYER01
 10
-3064.850097
 11
-3035.650146
 20
-630.549805
 21
-636.900391
  0
LINE
  8
LAYER01
 10
-3035.650146
 11
-3005.150146
 20
-636.900391
 21
-649.599609
  0
LINE
  8
LAYER01
 10
-3005.150146
 11
-2984.850341
 20
-649.599609
 21
-671.200195
  0
LINE
  8
LAYER01
 10
-2984.850341
 11
-2981.0
 20
-671.200195
 21
-702.950195
  0
LINE
  8
LAYER01
 10
-2981.0
 11
-2997.550049
 20
-702.950195
 21
-727.099609
  0
LINE
  8
LAYER01
 10
-2997.550049
 11
-3021.650146
 20
-727.099609
 21
-742.349609
  0
LINE
  8
LAYER01
 10
-3021.650146
 11
-3082.650146
 20
-742.349609
 21
-752.5
  0
LINE
  8
LAYER01
 10
-3082.650146
 11
-3130.950195
 20
-752.5
 21
-742.349609
  0
LINE
  8
LAYER01
 10
-3130.950195
 11
-3165.250244
 20
-742.349609
 21
-714.400391
  0
LINE
  8
LAYER01
 10
-3165.250244
 11
-3170.300293
 20
-714.400391
 21
-680.099609
  0
LINE
  8
LAYER01
 10
-3170.300293
 11
-3151.250244
 20
-680.099609
 21
-654.700195
  0
LINE
  8
LAYER01
 10
-3151.250244
 11
-3119.5
 20
-654.700195
 21
-638.150391
  0
LINE
  8
LAYER01
 10
-3119.5
 11
-3086.450195
 20
-638.150391
 21
-630.549805
  0
LINE
  8
LAYER01
 10
-3086.450195
 11
-3075.050049
 20
-630.549805
 21
-629.299805
  0
LINE
  8
LAYER01
 10
-3075.050049
 11
-3064.850097
 20
-629.299805
 21
-630.549805
  0
LINE
  8
LAYER01
 10
-3171.600097
 11
-2981.0
 20
-691.549805
 21
-691.549805
  0
LINE
  8
LAYER01
 10
-1925.250244
 11
-1860.450195
 20
-23.25
 21
-208.75
  0
LINE
  8
LAYER01
 10
-1860.450195
 11
-1805.800293
 20
-208.75
 21
-414.549805
  0
LINE
  8
LAYER01
 10
-1805.800293
 11
-1784.200195
 20
-414.549805
 21
-439.950195
  0
LINE
  8
LAYER01
 10
-1784.200195
 11
-1741.000244
 20
-439.950195
 21
-456.5
  0
LINE
  8
LAYER01
 10
-2989.900146
 11
-3054.700195
 20
-23.25
 21
-208.75
  0
LINE
  8
LAYER01
 10
-3054.700195
 11
-3109.350097
 20
-208.75
 21
-414.549805
  0
LINE
  8
LAYER01
 10
-3109.350097
 11
-3130.950195
 20
-414.549805
 21
-439.950195
  0
LINE
  8
LAYER01
 10
-3130.950195
 11
-3174.150146
 20
-439.950195
 21
-456.5
  0
ENDSEC
  0
EOF
