  0
SECTION
  2
HEADER
  9
$ACADVER
  1
AC1009
  9
$LIMMIN
 10
0.000000
 20
0.000000
  9
$LIMMAX
 10
17.991795
 20
17.799842
  0
ENDSEC
  0
SECTION
  2
TABLES
  0
TABLE
  2
LTYPE
 70
     4
  0
LTYPE
  2
CONTINUOUS
 70
     0
  3
Solid line
 72
     65
 73
     0
 40
0.000000
  0
LTYPE
  2
HIDDEN
 70
     0
  3
 _ _ _ _ _ _ _ _ _ _ _
 72
     65
 73
     2
 40
0.375000
 49
0.250000
 49
-0.125000
  0
LTYPE
  2
DASHED
 70
     0
  3
 ___ ___ ___ ___ ___ ___ ___ 
 72
     65
 73
     2
 40
0.750000
 49
0.500000
 49
-0.250000
  0
LTYPE
  2
CENTER
 70
     0
  3
___ _ ___ _ ___ _ ___
 72
     65
 73
     4
 40
2.000000
 49
1.250000
 49
-0.250000
 49
0.250000
 49
-0.250000
  0
LTYPE
  2
BORDER
 70
     0
  3
___ ___ . ___ ___ . ___ ___
 72
     65
 73
     6
 40
1.750000
 49
0.500000
 49
-0.250000
 49
0.500000
 49
-0.250000
 49
0.000000
 49
-0.250000
  0
LTYPE
  2
DOT
 70
     0
  3
.................
 72
     65
 73
     2
 40
0.250000
 49
0.000000
 49
-0.250000
  0
LTYPE
  2
DASHDOT
 70
     0
  3
__ . __ . __ . __
 72
     65
 73
     4
 40
1.000000
 49
0.500000
 49
-0.250000
 49
0.000000
 49
-0.250000
  0
LTYPE
  2
DIVIDE
 70
     0
  3
___ .. ___ .. ___ .. ___
 72
     65
 73
     6
 40
1.250000
 49
0.500000
 49
-0.250000
 49
0.000000
 49
-0.250000
 49
0.000000
 49
-0.250000
  0
ENDTAB
  0
TABLE
  2
LAYER
 70
     8
  0
LAYER
  2
BLACK
 70
     0
 62
     1
  6
CONTINUOUS
  0
LAYER
  2
WHITE
 70
     0
 62
     7
  6
CONTINUOUS
  0
LAYER
  2
RED
 70
     0
 62
     1
  6
CONTINUOUS
  0
LAYER
  2
YELLOW
 70
     0
 62
     2
  6
CONTINUOUS
  0
LAYER
  2
GREEN
 70
     0
 62
     3
  6
CONTINUOUS
  0
LAYER
  2
CYAN
 70
     0
 62
     4
  6
CONTINUOUS
  0
LAYER
  2
BLUE
 70
     0
 62
     5
  6
CONTINUOUS
  0
LAYER
  2
MAGENTA
 70
     0
 62
     6
  6
CONTINUOUS
  0
ENDTAB
  0
TABLE
  2
APPID
 70
     1
  0
APPID
  2
TC_BEND_DATA
 70
     0
  0
ENDTAB
  0
ENDSEC
  0
SECTION
  2
BLOCKS
  0
ENDSEC
  0
SECTION
  2
ENTITIES
  0
ARC
  8
WHITE
 10
15.271673
 20
5.909394
 30
0.000000
 40
0.248460
 50
17.831988
 51
48.430690
  6
CONTINUOUS
  0
ARC
  8
WHITE
 10
15.171173
 20
5.859363
 30
0.000000
 40
0.359847
 50
0.662636
 51
20.516098
  6
CONTINUOUS
  0
ARC
  8
WHITE
 10
17.087917
 20
5.679403
 30
0.000000
 40
1.567770
 50
173.255506
 51
177.522101
  6
CONTINUOUS
  0
ARC
  8
WHITE
 10
15.641584
 20
5.759084
 30
0.000000
 40
0.120560
 50
-174.335158
 51
-148.293901
  6
CONTINUOUS
  0
ARC
  8
WHITE
 10
15.469301
 20
5.633855
 30
0.000000
 40
0.093208
 50
-23.866901
 51
41.586425
  6
CONTINUOUS
  0
ARC
  8
WHITE
 10
20.157763
 20
4.303538
 30
0.000000
 40
4.781265
 50
164.315037
 51
169.085471
  6
CONTINUOUS
  0
ARC
  8
WHITE
 10
15.596538
 20
5.176083
 30
0.000000
 40
0.137510
 50
166.217124
 51
197.223179
  6
CONTINUOUS
  0
ARC
  8
WHITE
 10
13.059477
 20
4.755012
 30
0.000000
 40
2.435599
 50
-4.185960
 51
8.984360
  6
CONTINUOUS
  0
ARC
  8
WHITE
 10
14.302033
 20
4.628091
 30
0.000000
 40
1.187635
 50
-15.958726
 51
-2.454551
  6
CONTINUOUS
  0
ARC
  8
WHITE
 10
17.483487
 20
3.826594
 30
0.000000
 40
2.094162
 50
166.891058
 51
174.542837
  6
CONTINUOUS
  0
LINE
  8
WHITE
 10
15.398816
 20
4.025752
 30
0.000000
 11
15.393294
 21
4.084383
 31
0.000000
  6
CONTINUOUS
  0
ARC
  8
WHITE
 10
15.481750
 20
4.046044
 30
0.000000
 40
0.096407
 50
156.566908
 51
170.819425
  6
CONTINUOUS
  0
ARC
  8
WHITE
 10
17.117625
 20
3.727144
 30
0.000000
 40
1.763028
 50
169.070185
 51
171.570217
  6
CONTINUOUS
  0
ARC
  8
WHITE
 10
19.873024
 20
3.319275
 30
0.000000
 40
4.548451
 50
171.576155
 51
174.946668
  6
CONTINUOUS
  0
ARC
  8
WHITE
 10
18.263698
 20
3.412529
 30
0.000000
 40
2.937573
 50
173.993583
 51
187.197316
  6
CONTINUOUS
  0
ARC
  8
WHITE
 10
15.459224
 20
3.050830
 30
0.000000
 40
0.110135
 50
-176.699911
 51
-160.394573
  6
CONTINUOUS
  0
ARC
  8
WHITE
 10
15.386848
 20
3.037442
 30
0.000000
 40
0.039238
 50
-143.087280
 51
-66.933563
  6
CONTINUOUS
  0
ARC
  8
WHITE
 10
15.488956
 20
2.810325
 30
0.000000
 40
0.209785
 50
96.510680
 51
114.421373
  6
CONTINUOUS
  0
ARC
  8
WHITE
 10
15.615169
 20
9.436812
 30
0.000000
 40
6.419809
 50
-91.338849
 51
-88.661150
  6
CONTINUOUS
  0
ARC
  8
WHITE
 10
16.053488
 20
-58.193682
 30
0.000000
 40
61.213117
 50
88.333271
 51
90.269869
  6
CONTINUOUS
  0
ARC
  8
WHITE
 10
17.834949
 20
2.727712
 30
0.000000
 40
0.265827
 50
68.820757
 51
90.221604
  6
CONTINUOUS
  0
ARC
  8
WHITE
 10
17.905132
 20
2.892868
 30
0.000000
 40
0.086663
 50
-43.528367
 51
72.640837
  6
CONTINUOUS
  0
ARC
  8
WHITE
 10
17.789174
 20
3.052005
 30
0.000000
 40
0.282577
 50
-72.074542
 51
-50.749106
  6
CONTINUOUS
  0
ARC
  8
WHITE
 10
16.424626
 20
7.029816
 30
0.000000
 40
4.487886
 50
-74.453188
 51
-71.129485
  6
CONTINUOUS
  0
ARC
  8
WHITE
 10
17.403165
 20
4.006854
 30
0.000000
 40
1.319924
 50
-86.427618
 51
-80.214714
  6
CONTINUOUS
  0
ARC
  8
WHITE
 10
16.875539
 20
10.290444
 30
0.000000
 40
7.625377
 50
-87.164946
 51
-85.412643
  6
CONTINUOUS
  0
ARC
  8
WHITE
 10
25.682640
 20
-114.873698
 30
0.000000
 40
117.849986
 50
94.101935
 51
94.476604
  6
CONTINUOUS
  0
ARC
  8
WHITE
 10
15.466605
 20
9.923148
 30
0.000000
 40
7.376909
 50
-92.828699
 51
-82.071060
  6
CONTINUOUS
  0
ARC
  8
WHITE
 10
15.210800
 20
3.827262
 30
0.000000
 40
1.276632
 50
-106.648294
 51
-94.863961
  6
CONTINUOUS
  0
ARC
  8
WHITE
 10
14.882678
 20
2.735128
 30
0.000000
 40
0.136282
 50
179.000538
 51
253.972067
  6
CONTINUOUS
  0
ARC
  8
WHITE
 10
14.673294
 20
2.581001
 30
0.000000
 40
0.172744
 50
64.956821
 51
87.707020
  6
CONTINUOUS
  0
ARC
  8
WHITE
 10
14.610824
 20
1.784533
 30
0.000000
 40
0.971554
 50
85.904864
 51
92.482643
  6
CONTINUOUS
  0
ARC
  8
WHITE
 10
14.741767
 20
-0.838167
 30
0.000000
 40
3.597506
 50
92.756792
 51
97.443371
  6
CONTINUOUS
  0
ARC
  8
WHITE
 10
14.686163
 20
-0.907727
 30
0.000000
 40
3.659839
 50
96.439086
 51
102.899816
  6
CONTINUOUS
  0
ARC
  8
WHITE
 10
13.928673
 20
2.593636
 30
0.000000
 40
0.088980
 50
132.016041
 51
152.953753
  6
CONTINUOUS
  0
ARC
  8
WHITE
 10
13.870256
 20
2.623693
 30
0.000000
 40
0.023285
 50
153.463581
 51
203.357345
  6
CONTINUOUS
  0
ARC
  8
WHITE
 10
13.886676
 20
2.639672
 30
0.000000
 40
0.045434
 50
-146.296714
 51
-106.915966
  6
CONTINUOUS
  0
ARC
  8
WHITE
 10
14.026493
 20
3.189666
 30
0.000000
 40
0.612877
 50
-104.459915
 51
-90.366485
  6
CONTINUOUS
  0
ARC
  8
WHITE
 10
14.038999
 20
0.574926
 30
0.000000
 40
2.001943
 50
79.360295
 51
90.470123
  6
CONTINUOUS
  0
ARC
  8
WHITE
 10
29.273760
 20
126.444676
 30
0.000000
 40
124.790759
 50
-96.841347
 51
-96.081676
  6
CONTINUOUS
  0
ARC
  8
WHITE
 10
16.107869
 20
-1.258523
 30
0.000000
 40
3.615199
 50
79.327276
 51
90.874853
  6
CONTINUOUS
  0
ARC
  8
WHITE
 10
16.715614
 20
1.937434
 30
0.000000
 40
0.362013
 50
45.947457
 51
80.173134
  6
CONTINUOUS
  0
ARC
  8
WHITE
 10
16.921693
 20
2.162445
 30
0.000000
 40
0.057615
 50
-59.938526
 51
37.619766
  6
CONTINUOUS
  0
ARC
  8
WHITE
 10
16.706254
 20
2.488389
 30
0.000000
 40
0.448235
 50
-76.595802
 51
-56.973550
  6
CONTINUOUS
  0
ARC
  8
WHITE
 10
16.112990
 20
4.863136
 30
0.000000
 40
2.895943
 50
-83.508846
 51
-76.069697
  6
CONTINUOUS
  0
ARC
  8
WHITE
 10
16.456842
 20
1.915388
 30
0.000000
 40
0.072270
 50
103.170037
 51
150.433894
  6
CONTINUOUS
  0
ARC
  8
WHITE
 10
16.282123
 20
2.017224
 30
0.000000
 40
0.129969
 50
-86.450216
 51
-30.608522
  6
CONTINUOUS
  0
ARC
  8
WHITE
 10
16.276325
 20
2.333623
 30
0.000000
 40
0.446333
 50
-110.914775
 51
-88.222416
  6
CONTINUOUS
  0
ARC
  8
WHITE
 10
16.032316
 20
1.748331
 30
0.000000
 40
0.188461
 50
63.300579
 51
76.074903
  6
CONTINUOUS
  0
ARC
  8
WHITE
 10
15.977070
 20
-16.536073
 30
0.000000
 40
18.467600
 50
89.687887
 51
93.956982
  6
CONTINUOUS
  0
ARC
  8
WHITE
 10
14.501882
 20
-9.857209
 30
0.000000
 40
11.746429
 50
89.020577
 51
92.092959
  6
CONTINUOUS
  0
ARC
  8
WHITE
 10
14.078000
 20
1.693377
 30
0.000000
 40
0.188076
 50
91.556356
 51
118.654847
  6
CONTINUOUS
  0
ARC
  8
WHITE
 10
13.989580
 20
1.847672
 30
0.000000
 40
0.010891
 50
99.345221
 51
256.238935
  6
CONTINUOUS
  0
ARC
  8
WHITE
 10
14.047730
 20
2.153718
 30
0.000000
 40
0.322398
 50
-100.859589
 51
-88.617883
  6
CONTINUOUS
  0
ARC
  8
WHITE
 10
14.099573
 20
-3.127710
 30
0.000000
 40
4.959319
 50
86.858321
 51
90.509116
  6
CONTINUOUS
  0
ARC
  8
WHITE
 10
8.632686
 20
-27.933135
 30
0.000000
 40
30.305591
 50
76.667908
 51
79.084531
  6
CONTINUOUS
  0
ARC
  8
WHITE
 10
15.530829
 20
1.409277
 30
0.000000
 40
0.171973
 50
-3.095267
 51
58.377774
  6
CONTINUOUS
  0
ARC
  8
WHITE
 10
15.488544
 20
1.413556
 30
0.000000
 40
0.214437
 50
-29.421300
 51
-3.626859
  6
CONTINUOUS
  0
ARC
  8
WHITE
 10
15.585376
 20
1.378153
 30
0.000000
 40
0.113936
 50
-77.775799
 51
-37.864651
  6
CONTINUOUS
  0
ARC
  8
WHITE
 10
14.257540
 20
9.654964
 30
0.000000
 40
8.496417
 50
-82.972240
 51
-80.844104
  6
CONTINUOUS
  0
ARC
  8
WHITE
 10
15.461642
 20
-0.080019
 30
0.000000
 40
1.312755
 50
97.201393
 51
105.602083
  6
CONTINUOUS
  0
ARC
  8
WHITE
 10
15.135388
 20
1.084213
 30
0.000000
 40
0.103680
 50
104.990528
 51
142.308389
  6
CONTINUOUS
  0
ARC
  8
WHITE
 10
15.063971
 20
1.137799
 30
0.000000
 40
0.014459
 50
137.301720
 51
239.118281
  6
CONTINUOUS
  0
ARC
  8
WHITE
 10
15.088368
 20
1.229959
 30
0.000000
 40
0.109303
 50
-106.923976
 51
-86.476898
  6
CONTINUOUS
  0
ARC
  8
WHITE
 10
15.139162
 20
0.440813
 30
0.000000
 40
0.681477
 50
82.084563
 51
93.708423
  6
CONTINUOUS
  0
ARC
  8
WHITE
 10
13.604412
 20
-8.477632
 30
0.000000
 40
9.730684
 50
74.152216
 51
80.365223
  6
CONTINUOUS
  0
ARC
  8
WHITE
 10
16.203282
 20
0.745019
 30
0.000000
 40
0.150014
 50
-12.195758
 51
67.084789
  6
CONTINUOUS
  0
ARC
  8
WHITE
 10
16.171875
 20
0.759685
 30
0.000000
 40
0.183972
 50
-59.821190
 51
-14.594596
  6
CONTINUOUS
  0
ARC
  8
WHITE
 10
15.838017
 20
1.289872
 30
0.000000
 40
0.810428
 50
-72.333436
 51
-58.259840
  6
CONTINUOUS
  0
ARC
  8
WHITE
 10
14.189223
 20
6.664990
 30
0.000000
 40
6.432702
 50
-76.856824
 51
-72.869555
  6
CONTINUOUS
  0
ARC
  8
WHITE
 10
14.122485
 20
5.262662
 30
0.000000
 40
5.096759
 50
-89.511556
 51
-72.537547
  6
CONTINUOUS
  0
ARC
  8
WHITE
 10
11.095699
 20
23.924992
 30
0.000000
 40
23.956457
 50
-86.528257
 51
-82.636780
  6
CONTINUOUS
  0
ARC
  8
WHITE
 10
8.530482
 20
302.538714
 30
0.000000
 40
302.552869
 50
-89.444238
 51
-89.239463
  6
CONTINUOUS
  0
ARC
  8
WHITE
 10
11.546839
 20
11.749703
 30
0.000000
 40
11.749908
 50
-95.618815
 51
-90.398285
  6
CONTINUOUS
  0
ARC
  8
WHITE
 10
10.375339
 20
-3.696749
 30
0.000000
 40
3.753058
 50
89.678336
 51
99.937541
  6
CONTINUOUS
  0
ARC
  8
WHITE
 10
9.469367
 20
-0.396876
 30
0.000000
 40
0.473523
 50
56.943626
 51
99.616140
  6
CONTINUOUS
  0
ARC
  8
WHITE
 10
4.734511
 20
-57.179281
 30
0.000000
 40
57.438276
 50
85.350694
 51
87.181165
  6
CONTINUOUS
  0
LINE
  8
WHITE
 10
7.559217
 20
0.189496
 30
0.000000
 11
7.110751
 21
0.244115
 31
0.000000
  6
CONTINUOUS
  0
LINE
  8
WHITE
 10
7.110751
 20
0.244115
 30
0.000000
 11
6.774379
 21
0.284896
 31
0.000000
  6
CONTINUOUS
  0
LINE
  8
WHITE
 10
6.774379
 20
0.284896
 30
0.000000
 11
6.522088
 21
0.315379
 31
0.000000
  6
CONTINUOUS
  0
LINE
  8
WHITE
 10
6.522088
 20
0.315379
 30
0.000000
 11
6.143631
 21
0.360938
 31
0.000000
  6
CONTINUOUS
  0
LINE
  8
WHITE
 10
6.143631
 20
0.360938
 30
0.000000
 11
5.765150
 21
0.406298
 31
0.000000
  6
CONTINUOUS
  0
ARC
  8
WHITE
 10
6.274495
 20
5.193994
 30
0.000000
 40
4.814713
 50
-103.784292
 51
-96.072641
  6
CONTINUOUS
  0
ARC
  8
WHITE
 10
4.531261
 20
-2.593201
 30
0.000000
 40
3.167729
 50
79.154469
 51
82.927405
  6
CONTINUOUS
  0
ARC
  8
WHITE
 10
4.952526
 20
0.733310
 30
0.000000
 40
0.185533
 50
-162.784276
 51
-99.691298
  6
CONTINUOUS
  0
ARC
  8
WHITE
 10
4.858884
 20
0.712543
 30
0.000000
 40
0.090284
 50
142.347235
 51
202.222002
  6
CONTINUOUS
  0
ARC
  8
WHITE
 10
4.959079
 20
0.615760
 30
0.000000
 40
0.229253
 50
110.961691
 51
138.490696
  6
CONTINUOUS
  0
ARC
  8
WHITE
 10
5.296625
 20
-0.328893
 30
0.000000
 40
1.232353
 50
96.429952
 51
109.904545
  6
CONTINUOUS
  0
ARC
  8
WHITE
 10
-14.392029
 20
101.953889
 30
0.000000
 40
102.931936
 50
-79.050858
 51
-78.232104
  6
CONTINUOUS
  0
ARC
  8
WHITE
 10
6.600879
 20
1.200305
 30
0.000000
 40
0.014912
 50
-90.740150
 51
61.167867
  6
CONTINUOUS
  0
ARC
  8
WHITE
 10
6.498413
 20
0.939987
 30
0.000000
 40
0.294554
 50
68.143568
 51
84.279487
  6
CONTINUOUS
  0
ARC
  8
WHITE
 10
5.815779
 20
-5.118832
 30
0.000000
 40
6.391685
 50
83.604333
 51
86.618762
  6
CONTINUOUS
  0
ARC
  8
WHITE
 10
6.284713
 20
4.408456
 30
0.000000
 40
3.148073
 50
-105.463227
 51
-91.673857
  6
CONTINUOUS
  0
ARC
  8
WHITE
 10
5.494015
 20
1.507142
 30
0.000000
 40
0.141432
 50
-152.071321
 51
-110.115704
  6
CONTINUOUS
  0
ARC
  8
WHITE
 10
5.457642
 20
1.470621
 30
0.000000
 40
0.093440
 50
115.189704
 51
198.547185
  6
CONTINUOUS
  0
ARC
  8
WHITE
 10
5.691590
 20
1.025846
 30
0.000000
 40
0.595911
 50
97.887653
 51
117.343616
  6
CONTINUOUS
  0
ARC
  8
WHITE
 10
6.221542
 20
-2.709906
 30
0.000000
 40
4.369062
 50
91.724075
 51
98.048651
  6
CONTINUOUS
  0
ARC
  8
WHITE
 10
6.036058
 20
2.246880
 30
0.000000
 40
0.592171
 50
-84.764510
 51
-72.331086
  6
CONTINUOUS
  0
ARC
  8
WHITE
 10
6.452935
 20
0.504294
 30
0.000000
 40
1.201976
 50
89.715645
 51
101.378810
  6
CONTINUOUS
  0
ARC
  8
WHITE
 10
6.350092
 20
-2.909830
 30
0.000000
 40
4.617366
 50
86.140104
 51
88.649699
  6
CONTINUOUS
  0
ARC
  8
WHITE
 10
6.714185
 20
2.356979
 30
0.000000
 40
0.662062
 50
-94.614697
 51
-77.671367
  6
CONTINUOUS
  0
ARC
  8
WHITE
 10
6.832881
 20
1.816592
 30
0.000000
 40
0.108795
 50
-77.974746
 51
-14.868120
  6
CONTINUOUS
  0
ARC
  8
WHITE
 10
7.630040
 20
1.581428
 30
0.000000
 40
0.722374
 50
111.629849
 51
163.327667
  6
CONTINUOUS
  0
ARC
  8
WHITE
 10
7.238922
 20
2.507907
 30
0.000000
 40
0.283895
 50
-63.911710
 51
-47.631675
  6
CONTINUOUS
  0
ARC
  8
WHITE
 10
7.410187
 20
2.315331
 30
0.000000
 40
0.026400
 50
-40.581082
 51
39.591389
  6
CONTINUOUS
  0
ARC
  8
WHITE
 10
7.769589
 20
2.605474
 30
0.000000
 40
0.435502
 50
-160.024632
 51
-141.127358
  6
CONTINUOUS
  0
ARC
  8
WHITE
 10
7.638938
 20
2.544783
 30
0.000000
 40
0.292242
 50
135.847939
 51
197.542113
  6
CONTINUOUS
  0
ARC
  8
WHITE
 10
7.624649
 20
2.522902
 30
0.000000
 40
0.298336
 50
113.453760
 51
130.915221
  6
CONTINUOUS
  0
ARC
  8
WHITE
 10
6.659556
 20
4.571218
 30
0.000000
 40
1.966118
 50
-64.502671
 51
-59.804133
  6
CONTINUOUS
  0
ARC
  8
WHITE
 10
8.116049
 20
1.885707
 30
0.000000
 40
1.091424
 50
57.198644
 51
115.369149
  6
CONTINUOUS
  0
ARC
  8
WHITE
 10
7.595971
 20
1.295570
 30
0.000000
 40
1.872894
 50
42.706201
 51
53.602943
  6
CONTINUOUS
  0
ARC
  8
WHITE
 10
4.547782
 20
-1.722005
 30
0.000000
 40
6.161293
 50
41.618276
 51
44.101581
  6
CONTINUOUS
  0
ARC
  8
WHITE
 10
8.983254
 20
2.194388
 30
0.000000
 40
0.244931
 50
29.585505
 51
45.842665
  6
CONTINUOUS
  0
ARC
  8
WHITE
 10
9.222432
 20
2.325180
 30
0.000000
 40
0.027978
 50
-159.355214
 51
-3.845554
  6
CONTINUOUS
  0
ARC
  8
WHITE
 10
8.962535
 20
2.246182
 30
0.000000
 40
0.297966
 50
15.000483
 51
23.063356
  6
CONTINUOUS
  0
ARC
  8
WHITE
 10
12.733812
 20
3.429132
 30
0.000000
 40
3.656053
 50
-165.688189
 51
-163.044312
  6
CONTINUOUS
  0
ARC
  8
WHITE
 10
4.233742
 20
1.418504
 30
0.000000
 40
5.079543
 50
12.585991
 51
33.224804
  6
CONTINUOUS
  0
ARC
  8
WHITE
 10
5.784674
 20
3.483958
 30
0.000000
 40
2.792078
 50
14.896230
 51
23.141169
  6
CONTINUOUS
  0
ARC
  8
WHITE
 10
10.641466
 20
4.815843
 30
0.000000
 40
2.301356
 50
173.693798
 51
185.850993
  6
CONTINUOUS
  0
ARC
  8
WHITE
 10
8.862021
 20
5.028021
 30
0.000000
 40
0.509607
 50
158.050834
 51
175.429609
  6
CONTINUOUS
  0
ARC
  8
WHITE
 10
8.334050
 20
5.244956
 30
0.000000
 40
0.061304
 50
-25.562567
 51
48.545200
  6
CONTINUOUS
  0
ARC
  8
WHITE
 10
8.462379
 20
5.349398
 30
0.000000
 40
0.105455
 50
-172.612332
 51
-146.309931
  6
CONTINUOUS
  0
ARC
  8
WHITE
 10
8.805435
 20
5.403709
 30
0.000000
 40
0.452752
 50
-179.235331
 51
-171.378464
  6
CONTINUOUS
  0
ARC
  8
WHITE
 10
7.109458
 20
5.413956
 30
0.000000
 40
1.243372
 50
-0.750646
 51
4.215145
  6
CONTINUOUS
  0
ARC
  8
WHITE
 10
6.822896
 20
5.136379
 30
0.000000
 40
1.570527
 50
13.587616
 51
20.181808
  6
CONTINUOUS
  0
ARC
  8
WHITE
 10
9.155293
 20
5.993292
 30
0.000000
 40
0.914302
 50
-171.372902
 51
-159.841795
  6
CONTINUOUS
  0
ARC
  8
WHITE
 10
-76.128692
 20
-27.175796
 30
0.000000
 40
90.615110
 50
21.378670
 51
22.320172
  6
CONTINUOUS
  0
ARC
  8
WHITE
 10
4.474406
 20
5.714589
 30
0.000000
 40
3.564771
 50
25.302819
 51
36.449640
  6
CONTINUOUS
  0
ARC
  8
WHITE
 10
7.133237
 20
7.729623
 30
0.000000
 40
0.232576
 50
26.246629
 51
44.022757
  6
CONTINUOUS
  0
ARC
  8
WHITE
 10
7.211877
 20
7.797291
 30
0.000000
 40
0.129142
 50
46.682492
 51
54.470570
  6
CONTINUOUS
  0
ARC
  8
WHITE
 10
7.272463
 20
7.881654
 30
0.000000
 40
0.025280
 50
55.107030
 51
89.805101
  6
CONTINUOUS
  0
ARC
  8
WHITE
 10
7.281169
 20
7.839287
 30
0.000000
 40
0.068194
 50
97.261869
 51
127.116508
  6
CONTINUOUS
  0
ARC
  8
WHITE
 10
7.504793
 20
7.549742
 30
0.000000
 40
0.434037
 50
127.591427
 51
183.241953
  6
CONTINUOUS
  0
ARC
  8
WHITE
 10
8.229733
 20
7.539785
 30
0.000000
 40
1.158374
 50
-179.278381
 51
-156.278145
  6
CONTINUOUS
  0
ARC
  8
WHITE
 10
6.541640
 20
6.911803
 30
0.000000
 40
0.648154
 50
8.706486
 51
14.471362
  6
CONTINUOUS
  0
ARC
  8
WHITE
 10
3.738286
 20
6.425967
 30
0.000000
 40
3.493195
 50
7.470152
 51
9.623178
  6
CONTINUOUS
  0
ARC
  8
WHITE
 10
5.493700
 20
6.627007
 30
0.000000
 40
1.726784
 50
-0.685905
 51
8.428689
  6
CONTINUOUS
  0
ARC
  8
WHITE
 10
3.249007
 20
7.199654
 30
0.000000
 40
4.015429
 50
-13.155110
 51
-8.497116
  6
CONTINUOUS
  0
ARC
  8
WHITE
 10
11.857258
 20
4.399347
 30
0.000000
 40
5.062778
 50
158.123306
 51
159.755727
  6
CONTINUOUS
  0
ARC
  8
WHITE
 10
6.893207
 20
6.221391
 30
0.000000
 40
0.225242
 50
-49.365468
 51
-18.160925
  6
CONTINUOUS
  0
ARC
  8
WHITE
 10
7.005500
 20
6.118325
 30
0.000000
 40
0.076082
 50
-108.235549
 51
-63.125759
  6
CONTINUOUS
  0
ARC
  8
WHITE
 10
7.040342
 20
6.245324
 30
0.000000
 40
0.207712
 50
-127.267418
 51
-106.401189
  6
CONTINUOUS
  0
ARC
  8
WHITE
 10
6.993447
 20
6.203857
 30
0.000000
 40
0.146824
 50
-173.938069
 51
-122.497091
  6
CONTINUOUS
  0
ARC
  8
WHITE
 10
12.887123
 20
5.262189
 30
0.000000
 40
6.110278
 50
170.437688
 51
171.281813
  6
CONTINUOUS
  0
ARC
  8
WHITE
 10
6.593550
 20
6.322950
 30
0.000000
 40
0.272063
 50
-9.674568
 51
9.490550
  6
CONTINUOUS
  0
ARC
  8
WHITE
 10
5.610353
 20
6.127919
 30
0.000000
 40
1.274319
 50
10.850648
 51
17.614079
  6
CONTINUOUS
  0
ARC
  8
WHITE
 10
6.560657
 20
6.428671
 30
0.000000
 40
0.277562
 50
17.802802
 51
41.067962
  6
CONTINUOUS
  0
ARC
  8
WHITE
 10
6.669046
 20
6.517044
 30
0.000000
 40
0.137863
 50
42.971517
 51
77.495576
  6
CONTINUOUS
  0
ARC
  8
WHITE
 10
6.691486
 20
6.625500
 30
0.000000
 40
0.027168
 50
74.172848
 51
180.930600
  6
CONTINUOUS
  0
ARC
  8
WHITE
 10
5.334385
 20
6.742085
 30
0.000000
 40
1.335076
 50
-18.787212
 51
-5.028720
  6
CONTINUOUS
  0
ARC
  8
WHITE
 10
7.184126
 20
6.245185
 30
0.000000
 40
0.589608
 50
173.481671
 51
184.131393
  6
CONTINUOUS
  0
ARC
  8
WHITE
 10
6.412858
 20
6.188475
 30
0.000000
 40
0.183745
 50
-28.269575
 51
4.442421
  6
CONTINUOUS
  0
ARC
  8
WHITE
 10
5.931804
 20
6.524048
 30
0.000000
 40
0.769343
 50
-72.275362
 51
-33.318852
  6
CONTINUOUS
  0
ARC
  8
WHITE
 10
5.867109
 20
6.566283
 30
0.000000
 40
0.830702
 50
-80.583027
 51
-68.909913
  6
CONTINUOUS
  0
ARC
  8
WHITE
 10
5.958164
 20
6.017284
 30
0.000000
 40
0.274202
 50
-115.451339
 51
-80.583379
  6
CONTINUOUS
  0
ARC
  8
WHITE
 10
5.634156
 20
5.370611
 30
0.000000
 40
0.449192
 50
62.678512
 51
122.617319
  6
CONTINUOUS
  0
ARC
  8
WHITE
 10
5.348071
 20
5.828852
 30
0.000000
 40
0.091187
 50
-96.318156
 51
-61.178809
  6
CONTINUOUS
  0
ARC
  8
WHITE
 10
5.367929
 20
6.052086
 30
0.000000
 40
0.315287
 50
-109.662724
 51
-95.440505
  6
CONTINUOUS
  0
ARC
  8
WHITE
 10
5.644427
 20
6.780357
 30
0.000000
 40
1.094237
 50
-121.533927
 51
-110.465174
  6
CONTINUOUS
  0
ARC
  8
WHITE
 10
5.913914
 20
7.282444
 30
0.000000
 40
1.663450
 50
-134.472708
 51
-120.400607
  6
CONTINUOUS
  0
ARC
  8
WHITE
 10
5.261825
 20
6.492501
 30
0.000000
 40
0.648932
 50
-178.439724
 51
-142.274427
  6
CONTINUOUS
  0
ARC
  8
WHITE
 10
6.237104
 20
6.557400
 30
0.000000
 40
1.626068
 50
169.606463
 51
182.910617
  6
CONTINUOUS
  0
ARC
  8
WHITE
 10
3.903601
 20
6.911300
 30
0.000000
 40
0.736608
 50
-4.714628
 51
13.310637
  6
CONTINUOUS
  0
ARC
  8
WHITE
 10
5.466853
 20
7.279525
 30
0.000000
 40
0.869427
 50
177.837710
 51
193.206838
  6
CONTINUOUS
  0
ARC
  8
WHITE
 10
5.686085
 20
7.104718
 30
0.000000
 40
1.107670
 50
137.765946
 51
169.197161
  6
CONTINUOUS
  0
ARC
  8
WHITE
 10
4.752681
 20
7.915435
 30
0.000000
 40
0.131197
 50
-30.296069
 51
-6.747158
  6
CONTINUOUS
  0
ARC
  8
WHITE
 10
4.108447
 20
8.018587
 30
0.000000
 40
0.783545
 50
-8.703434
 51
-2.188014
  6
CONTINUOUS
  0
ARC
  8
WHITE
 10
1.692627
 20
8.094600
 30
0.000000
 40
3.200547
 50
-1.896652
 51
2.357185
  6
CONTINUOUS
  0
ARC
  8
WHITE
 10
-9.618349
 20
7.608406
 30
0.000000
 40
14.521963
 50
2.438355
 51
3.791779
  6
CONTINUOUS
  0
ARC
  8
WHITE
 10
6.139061
 20
8.415683
 30
0.000000
 40
1.276447
 50
163.288677
 51
173.112539
  6
CONTINUOUS
  0
ARC
  8
WHITE
 10
16.554935
 20
5.471137
 30
0.000000
 40
12.100381
 50
163.346544
 51
164.116852
  6
CONTINUOUS
  0
ARC
  8
WHITE
 10
-8.445985
 20
12.941538
 30
0.000000
 40
13.992777
 50
-16.621671
 51
-15.116533
  6
CONTINUOUS
  0
ARC
  8
WHITE
 10
4.624288
 20
9.425982
 30
0.000000
 40
0.458205
 50
-16.942169
 51
27.714276
  6
CONTINUOUS
  0
ARC
  8
WHITE
 10
3.538516
 20
8.875721
 30
0.000000
 40
1.675414
 50
27.104920
 51
44.062105
  6
CONTINUOUS
  0
ARC
  8
WHITE
 10
4.926468
 20
10.190665
 30
0.000000
 40
0.237283
 50
175.285579
 51
219.146290
  6
CONTINUOUS
  0
ARC
  8
WHITE
 10
5.435369
 20
10.157602
 30
0.000000
 40
0.747231
 50
158.340260
 51
175.966115
  6
CONTINUOUS
  0
ARC
  8
WHITE
 10
6.445857
 20
9.761075
 30
0.000000
 40
1.832732
 50
143.003301
 51
158.478933
  6
CONTINUOUS
  0
ARC
  8
WHITE
 10
4.754378
 20
11.041717
 30
0.000000
 40
0.288895
 50
-37.974687
 51
-17.046215
  6
CONTINUOUS
  0
ARC
  8
WHITE
 10
4.940636
 20
10.989588
 30
0.000000
 40
0.095656
 50
-19.899321
 51
36.837363
  6
CONTINUOUS
  0
ARC
  8
WHITE
 10
4.906196
 20
10.925381
 30
0.000000
 40
0.164610
 50
47.599882
 51
100.498211
  6
CONTINUOUS
  0
ARC
  8
WHITE
 10
4.997759
 20
10.293631
 30
0.000000
 40
0.802860
 50
98.708266
 51
114.643995
  6
CONTINUOUS
  0
ARC
  8
WHITE
 10
7.000251
 20
6.120155
 30
0.000000
 40
5.431784
 50
115.486263
 51
121.719886
  6
CONTINUOUS
  0
ARC
  8
WHITE
 10
3.476506
 20
11.925371
 30
0.000000
 40
1.360072
 50
-68.614450
 51
-60.588961
  6
CONTINUOUS
  0
ARC
  8
WHITE
 10
4.300975
 20
9.845130
 30
0.000000
 40
0.877624
 50
111.983530
 51
124.227088
  6
CONTINUOUS
  0
ARC
  8
WHITE
 10
3.697495
 20
10.747059
 30
0.000000
 40
0.207715
 50
-84.919639
 51
-58.075613
  6
CONTINUOUS
  0
ARC
  8
WHITE
 10
3.650842
 20
11.146188
 30
0.000000
 40
0.609508
 50
-95.039531
 51
-83.873728
  6
CONTINUOUS
  0
ARC
  8
WHITE
 10
3.646177
 20
11.256588
 30
0.000000
 40
0.719216
 50
-109.418173
 51
-93.896684
  6
CONTINUOUS
  0
ARC
  8
WHITE
 10
-3.223189
 20
-15.490864
 30
0.000000
 40
26.899085
 50
75.730314
 51
77.000480
  6
CONTINUOUS
  0
ARC
  8
WHITE
 10
3.334339
 20
15.262706
 30
0.000000
 40
4.572028
 50
-109.336993
 51
-96.363821
  6
CONTINUOUS
  0
ARC
  8
WHITE
 10
0.020134
 20
5.391095
 30
0.000000
 40
5.841825
 50
72.050781
 51
74.932451
  6
CONTINUOUS
  0
ARC
  8
WHITE
 10
2.039687
 20
11.869015
 30
0.000000
 40
0.975393
 50
-137.308552
 51
-120.901474
  6
CONTINUOUS
  0
ARC
  8
WHITE
 10
1.734360
 20
11.621513
 30
0.000000
 40
0.583694
 50
-167.183142
 51
-134.843069
  6
CONTINUOUS
  0
ARC
  8
WHITE
 10
2.747896
 20
11.874898
 30
0.000000
 40
1.628339
 50
-178.023048
 51
-166.400795
  6
CONTINUOUS
  0
ARC
  8
WHITE
 10
3.297803
 20
12.061768
 30
0.000000
 40
2.190800
 50
178.573411
 51
186.369406
  6
CONTINUOUS
  0
ARC
  8
WHITE
 10
1.728510
 20
12.104822
 30
0.000000
 40
0.620933
 50
147.676353
 51
178.939867
  6
CONTINUOUS
  0
ARC
  8
WHITE
 10
1.316232
 20
12.376106
 30
0.000000
 40
0.127790
 50
108.119573
 51
151.625335
  6
CONTINUOUS
  0
ARC
  8
WHITE
 10
1.284428
 20
12.408789
 30
0.000000
 40
0.089124
 50
43.977830
 51
95.110461
  6
CONTINUOUS
  0
ARC
  8
WHITE
 10
0.746687
 20
11.947057
 30
0.000000
 40
0.797765
 50
21.495108
 51
41.022528
  6
CONTINUOUS
  0
ARC
  8
WHITE
 10
7.688119
 20
14.617338
 30
0.000000
 40
6.639593
 50
-159.013447
 51
-153.585635
  6
CONTINUOUS
  0
ARC
  8
WHITE
 10
2.560487
 20
12.265144
 30
0.000000
 40
1.015977
 50
-143.698484
 51
-111.680064
  6
CONTINUOUS
  0
ARC
  8
WHITE
 10
2.577042
 20
12.378905
 30
0.000000
 40
1.128121
 50
-110.326823
 51
-83.838034
  6
CONTINUOUS
  0
ARC
  8
WHITE
 10
2.683293
 20
11.355126
 30
0.000000
 40
0.098944
 50
-81.373487
 51
-42.197992
  6
CONTINUOUS
  0
ARC
  8
WHITE
 10
2.667053
 20
11.332860
 30
0.000000
 40
0.099853
 50
-26.269384
 51
35.657960
  6
CONTINUOUS
  0
ARC
  8
WHITE
 10
1.935627
 20
10.872692
 30
0.000000
 40
0.963829
 50
32.536125
 51
45.170894
  6
CONTINUOUS
  0
ARC
  8
WHITE
 10
8.483639
 20
18.425304
 30
0.000000
 40
9.034567
 50
-140.617266
 51
-130.508647
  6
CONTINUOUS
  0
ARC
  8
WHITE
 10
2.183111
 20
13.222772
 30
0.000000
 40
0.864058
 50
-163.581506
 51
-142.175483
  6
CONTINUOUS
  0
ARC
  8
WHITE
 10
0.811895
 20
12.839541
 30
0.000000
 40
0.559921
 50
14.374379
 51
31.376268
  6
CONTINUOUS
  0
ARC
  8
WHITE
 10
0.184813
 20
11.775861
 30
0.000000
 40
1.748679
 50
50.803958
 51
57.559016
  6
CONTINUOUS
  0
ARC
  8
WHITE
 10
2.579445
 20
15.525523
 30
0.000000
 40
2.700397
 50
-126.838660
 51
-122.642612
  6
CONTINUOUS
  0
ARC
  8
WHITE
 10
5.404704
 20
18.302545
 30
0.000000
 40
6.643645
 50
-137.591555
 51
-131.986692
  6
CONTINUOUS
  0
ARC
  8
WHITE
 10
1.027511
 20
14.375733
 30
0.000000
 40
0.765245
 50
-152.053132
 51
-133.646922
  6
CONTINUOUS
  0
ARC
  8
WHITE
 10
-72.055204
 20
-24.579209
 30
0.000000
 40
82.051244
 50
28.059792
 51
28.228470
  6
CONTINUOUS
  0
ARC
  8
WHITE
 10
2.687797
 20
15.733880
 30
0.000000
 40
2.874891
 50
-157.717798
 51
-148.461250
  6
CONTINUOUS
  0
ARC
  8
WHITE
 10
1.900239
 20
14.966395
 30
0.000000
 40
1.900239
 50
149.545048
 51
189.773842
  6
CONTINUOUS
  0
ARC
  8
WHITE
 10
0.839063
 20
15.606524
 30
0.000000
 40
0.661166
 50
144.262691
 51
150.753212
  6
CONTINUOUS
  0
ARC
  8
WHITE
 10
0.377703
 20
15.938374
 30
0.000000
 40
0.092855
 50
105.053125
 51
144.199309
  6
CONTINUOUS
  0
ARC
  8
WHITE
 10
0.383322
 20
15.798320
 30
0.000000
 40
0.231640
 50
66.165856
 51
97.375264
  6
CONTINUOUS
  0
ARC
  8
WHITE
 10
0.409224
 20
15.804300
 30
0.000000
 40
0.216749
 50
-16.120379
 51
71.799215
  6
CONTINUOUS
  0
ARC
  8
WHITE
 10
36.197354
 20
8.335663
 30
0.000000
 40
36.343015
 50
168.237923
 51
169.093299
  6
CONTINUOUS
  0
ARC
  8
WHITE
 10
1.296146
 20
15.144720
 30
0.000000
 40
0.788217
 50
175.093562
 51
221.335486
  6
CONTINUOUS
  0
ARC
  8
WHITE
 10
1.608792
 20
15.341932
 30
0.000000
 40
1.154698
 50
-141.564269
 51
-113.540617
  6
CONTINUOUS
  0
ARC
  8
WHITE
 10
1.175700
 20
14.361014
 30
0.000000
 40
0.082607
 50
-109.882093
 51
-44.795853
  6
CONTINUOUS
  0
ARC
  8
WHITE
 10
1.048000
 20
14.482103
 30
0.000000
 40
0.258576
 50
-43.898886
 51
-16.356539
  6
CONTINUOUS
  0
ARC
  8
WHITE
 10
0.680375
 20
14.592283
 30
0.000000
 40
0.642353
 50
-16.552107
 51
14.238666
  6
CONTINUOUS
  0
ARC
  8
WHITE
 10
-0.415895
 20
13.875636
 30
0.000000
 40
1.928621
 50
26.968848
 51
29.263155
  6
CONTINUOUS
  0
ARC
  8
WHITE
 10
3.238495
 20
15.861315
 30
0.000000
 40
2.230707
 50
-157.212040
 51
-152.125781
  6
CONTINUOUS
  0
ARC
  8
WHITE
 10
4.874928
 20
16.495181
 30
0.000000
 40
3.985224
 50
-169.142984
 51
-157.922816
  6
CONTINUOUS
  0
ARC
  8
WHITE
 10
1.904665
 20
15.919322
 30
0.000000
 40
0.959680
 50
167.003118
 51
190.494235
  6
CONTINUOUS
  0
ARC
  8
WHITE
 10
1.218584
 20
15.978180
 30
0.000000
 40
0.294360
 50
111.466496
 51
147.773661
  6
CONTINUOUS
  0
ARC
  8
WHITE
 10
1.140289
 20
16.181416
 30
0.000000
 40
0.076584
 50
54.986046
 51
112.597640
  6
CONTINUOUS
  0
ARC
  8
WHITE
 10
0.816717
 20
15.794657
 30
0.000000
 40
0.580605
 50
26.805407
 51
50.729247
  6
CONTINUOUS
  0
ARC
  8
WHITE
 10
-0.598125
 20
15.450180
 30
0.000000
 40
2.025912
 50
10.840357
 51
17.414149
  6
CONTINUOUS
  0
ARC
  8
WHITE
 10
2.542574
 20
16.108898
 30
0.000000
 40
1.183968
 50
-166.434959
 51
-147.942775
  6
CONTINUOUS
  0
ARC
  8
WHITE
 10
3.297774
 20
16.466403
 30
0.000000
 40
2.016140
 50
-150.724407
 51
-148.508442
  6
CONTINUOUS
  0
ARC
  8
WHITE
 10
1.703790
 20
15.481974
 30
0.000000
 40
0.142845
 50
-151.231122
 51
-121.843701
  6
CONTINUOUS
  0
ARC
  8
WHITE
 10
1.646143
 20
15.399365
 30
0.000000
 40
0.042597
 50
-114.579984
 51
-76.141448
  6
CONTINUOUS
  0
ARC
  8
WHITE
 10
1.645873
 20
15.378511
 30
0.000000
 40
0.023022
 50
-62.941165
 51
-6.113916
  6
CONTINUOUS
  0
ARC
  8
WHITE
 10
1.459755
 20
15.393115
 30
0.000000
 40
0.209705
 50
-4.665234
 51
13.692080
  6
CONTINUOUS
  0
ARC
  8
WHITE
 10
44.836355
 20
26.211646
 30
0.000000
 40
44.495668
 50
-166.390534
 51
-165.994138
  6
CONTINUOUS
  0
ARC
  8
WHITE
 10
3.290845
 20
16.196623
 30
0.000000
 40
1.760605
 50
162.370631
 51
194.974709
  6
CONTINUOUS
  0
ARC
  8
WHITE
 10
1.750099
 20
16.664531
 30
0.000000
 40
0.151926
 50
106.873714
 51
154.541579
  6
CONTINUOUS
  0
ARC
  8
WHITE
 10
1.742587
 20
16.720473
 30
0.000000
 40
0.096636
 50
29.489988
 51
112.246974
  6
CONTINUOUS
  0
ARC
  8
WHITE
 10
0.967141
 20
16.396053
 30
0.000000
 40
0.936603
 50
16.635533
 51
23.401429
  6
CONTINUOUS
  0
ARC
  8
WHITE
 10
-8.184708
 20
13.461903
 30
0.000000
 40
10.547134
 50
16.615135
 51
17.674943
  6
CONTINUOUS
  0
ARC
  8
WHITE
 10
48.171998
 20
30.138148
 30
0.000000
 40
48.225133
 50
-163.544970
 51
-163.208323
  6
CONTINUOUS
  0
ARC
  8
WHITE
 10
3.342402
 20
16.563032
 30
0.000000
 40
1.385995
 50
-165.083331
 51
-162.174926
  6
CONTINUOUS
  0
ARC
  8
WHITE
 10
2.065425
 20
16.149537
 30
0.000000
 40
0.043829
 50
-165.768927
 51
-35.795781
  6
CONTINUOUS
  0
ARC
  8
WHITE
 10
1.840739
 20
16.240022
 30
0.000000
 40
0.284968
 50
-24.047014
 51
-8.089301
  6
CONTINUOUS
  0
ARC
  8
WHITE
 10
-0.536123
 20
16.797904
 30
0.000000
 40
2.725406
 50
-12.674390
 51
-7.211486
  6
CONTINUOUS
  0
ARC
  8
WHITE
 10
5.823558
 20
16.079579
 30
0.000000
 40
3.675139
 50
162.964864
 51
174.124730
  6
CONTINUOUS
  0
ARC
  8
WHITE
 10
2.405574
 20
17.111399
 30
0.000000
 40
0.105875
 50
96.679289
 51
154.941973
  6
CONTINUOUS
  0
ARC
  8
WHITE
 10
2.454070
 20
16.877210
 30
0.000000
 40
0.344750
 50
79.852512
 51
100.159548
  6
CONTINUOUS
  0
ARC
  8
WHITE
 10
2.491436
 20
17.133205
 30
0.000000
 40
0.086577
 50
9.911172
 51
74.337656
  6
CONTINUOUS
  0
ARC
  8
WHITE
 10
1.838066
 20
16.974965
 30
0.000000
 40
0.758676
 50
0.005806
 51
13.192044
  6
CONTINUOUS
  0
ARC
  8
WHITE
 10
3.304006
 20
17.052968
 30
0.000000
 40
0.711544
 50
-173.712530
 51
-142.571920
  6
CONTINUOUS
  0
ARC
  8
WHITE
 10
2.929742
 20
16.745438
 30
0.000000
 40
0.228045
 50
-146.784159
 51
-112.733716
  6
CONTINUOUS
  0
ARC
  8
WHITE
 10
2.842211
 20
16.560486
 30
0.000000
 40
0.025382
 50
-91.346243
 51
-33.786314
  6
CONTINUOUS
  0
ARC
  8
WHITE
 10
2.735640
 20
16.641524
 30
0.000000
 40
0.159227
 50
-36.698031
 51
-21.260259
  6
CONTINUOUS
  0
ARC
  8
WHITE
 10
1.851378
 20
16.971680
 30
0.000000
 40
1.103100
 50
-20.587550
 51
-13.414795
  6
CONTINUOUS
  0
ARC
  8
WHITE
 10
9.581149
 20
15.172023
 30
0.000000
 40
6.833424
 50
163.970442
 51
166.943606
  6
CONTINUOUS
  0
ARC
  8
WHITE
 10
3.492216
 20
16.860567
 30
0.000000
 40
0.518278
 50
134.084116
 51
157.493402
  6
CONTINUOUS
  0
ARC
  8
WHITE
 10
3.283908
 20
17.097808
 30
0.000000
 40
0.203526
 50
90.430353
 51
138.429313
  6
CONTINUOUS
  0
ARC
  8
WHITE
 10
3.265080
 20
17.203043
 30
0.000000
 40
0.099795
 50
24.213085
 51
80.017440
  6
CONTINUOUS
  0
ARC
  8
WHITE
 10
3.032440
 20
17.100669
 30
0.000000
 40
0.353963
 50
4.145879
 51
23.882035
  6
CONTINUOUS
  0
ARC
  8
WHITE
 10
0.086347
 20
16.926953
 30
0.000000
 40
3.305143
 50
-1.333307
 51
3.457136
  6
CONTINUOUS
  0
ARC
  8
WHITE
 10
3.789189
 20
16.876125
 30
0.000000
 40
0.399446
 50
-176.256800
 51
-146.233972
  6
CONTINUOUS
  0
ARC
  8
WHITE
 10
3.560701
 20
16.715052
 30
0.000000
 40
0.120175
 50
-149.529322
 51
-109.043294
  6
CONTINUOUS
  0
ARC
  8
WHITE
 10
3.526776
 20
16.687003
 30
0.000000
 40
0.085711
 50
-93.535580
 51
-43.955917
  6
CONTINUOUS
  0
ARC
  8
WHITE
 10
3.353553
 20
16.865735
 30
0.000000
 40
0.334576
 50
-45.399636
 51
-28.753404
  6
CONTINUOUS
  0
ARC
  8
WHITE
 10
2.773987
 20
17.186188
 30
0.000000
 40
0.996834
 50
-28.876730
 51
-17.826634
  6
CONTINUOUS
  0
ARC
  8
WHITE
 10
3.912788
 20
16.806564
 30
0.000000
 40
0.203908
 50
89.419674
 51
158.583625
  6
CONTINUOUS
  0
ARC
  8
WHITE
 10
3.896478
 20
16.894880
 30
0.000000
 40
0.117033
 50
22.156074
 51
80.966660
  6
CONTINUOUS
  0
ARC
  8
WHITE
 10
3.506541
 20
16.749953
 30
0.000000
 40
0.532987
 50
-0.445181
 51
20.776542
  6
CONTINUOUS
  0
ARC
  8
WHITE
 10
-2.067874
 20
16.898386
 30
0.000000
 40
6.109291
 50
-9.347864
 51
-1.431061
  6
CONTINUOUS
  0
ARC
  8
WHITE
 10
4.816366
 20
15.899047
 30
0.000000
 40
0.856106
 50
179.530315
 51
186.053185
  6
CONTINUOUS
  0
ARC
  8
WHITE
 10
-1.688856
 20
15.361082
 30
0.000000
 40
5.671586
 50
2.217333
 51
4.527358
  6
CONTINUOUS
  0
ARC
  8
WHITE
 10
-5.289405
 20
15.305788
 30
0.000000
 40
9.271959
 50
-4.171454
 51
1.697923
  6
CONTINUOUS
  0
ARC
  8
WHITE
 10
1.154216
 20
14.891630
 30
0.000000
 40
2.815833
 50
-22.458597
 51
-5.304012
  6
CONTINUOUS
  0
ARC
  8
WHITE
 10
8.494810
 20
11.855878
 30
0.000000
 40
5.127725
 50
157.527038
 51
166.978306
  6
CONTINUOUS
  0
ARC
  8
WHITE
 10
5.463054
 20
12.762924
 30
0.000000
 40
1.979745
 50
172.794022
 51
184.900999
  6
CONTINUOUS
  0
ARC
  8
WHITE
 10
3.754567
 20
12.613754
 30
0.000000
 40
0.264774
 50
-175.674887
 51
-154.750605
  6
CONTINUOUS
  0
ARC
  8
WHITE
 10
-53.269413
 20
-12.897961
 30
0.000000
 40
62.205928
 50
23.927211
 51
24.098182
  6
CONTINUOUS
  0
ARC
  8
WHITE
 10
4.330581
 20
12.638752
 30
0.000000
 40
0.801304
 50
-157.434015
 51
-115.690977
  6
CONTINUOUS
  0
ARC
  8
WHITE
 10
4.671568
 20
13.776922
 30
0.000000
 40
1.983537
 50
-110.306353
 51
-86.912915
  6
CONTINUOUS
  0
ARC
  8
WHITE
 10
4.847924
 20
12.692334
 30
0.000000
 40
0.898765
 50
-94.437255
 51
-67.248125
  6
CONTINUOUS
  0
ARC
  8
WHITE
 10
4.994227
 20
12.074650
 30
0.000000
 40
0.291717
 50
-46.369530
 51
-23.703115
  6
CONTINUOUS
  0
ARC
  8
WHITE
 10
3.131543
 20
12.924035
 30
0.000000
 40
2.338897
 50
-24.412003
 51
-18.963734
  6
CONTINUOUS
  0
ARC
  8
WHITE
 10
5.243995
 20
12.199057
 30
0.000000
 40
0.105507
 50
-19.427115
 51
22.739608
  6
CONTINUOUS
  0
ARC
  8
WHITE
 10
5.126862
 20
12.148170
 30
0.000000
 40
0.233211
 50
23.146113
 51
44.470977
  6
CONTINUOUS
  0
ARC
  8
WHITE
 10
4.824119
 20
11.843391
 30
0.000000
 40
0.662784
 50
44.938313
 51
61.501831
  6
CONTINUOUS
  0
ARC
  8
WHITE
 10
5.577920
 20
13.040621
 30
0.000000
 40
0.754577
 50
-148.763197
 51
-125.442305
  6
CONTINUOUS
  0
ARC
  8
WHITE
 10
6.742898
 20
13.982142
 30
0.000000
 40
2.247915
 50
-149.801063
 51
-143.635735
  6
CONTINUOUS
  0
ARC
  8
WHITE
 10
5.343879
 20
13.179697
 30
0.000000
 40
0.635214
 50
-178.451003
 51
-148.883558
  6
CONTINUOUS
  0
ARC
  8
WHITE
 10
-8.567350
 20
13.456277
 30
0.000000
 40
13.279497
 50
-1.267523
 51
1.267521
  6
CONTINUOUS
  0
ARC
  8
WHITE
 10
-6.940277
 20
13.378320
 30
0.000000
 40
11.655102
 50
1.827602
 51
3.406352
  6
CONTINUOUS
  0
ARC
  8
WHITE
 10
5.574730
 20
14.139329
 30
0.000000
 40
0.883156
 50
166.221623
 51
184.448308
  6
CONTINUOUS
  0
ARC
  8
WHITE
 10
4.891986
 20
14.289157
 30
0.000000
 40
0.185165
 50
94.961122
 51
160.925761
  6
CONTINUOUS
  0
ARC
  8
WHITE
 10
4.882323
 20
14.049193
 30
0.000000
 40
0.424483
 50
47.281521
 51
90.857145
  6
CONTINUOUS
  0
ARC
  8
WHITE
 10
3.934718
 20
13.000322
 30
0.000000
 40
1.838001
 50
32.628726
 51
47.760003
  6
CONTINUOUS
  0
ARC
  8
WHITE
 10
12.329540
 20
18.416221
 30
0.000000
 40
8.152258
 50
-147.127088
 51
-143.846805
  6
CONTINUOUS
  0
ARC
  8
WHITE
 10
12.358371
 20
18.972541
 30
0.000000
 40
8.514712
 50
-140.937350
 51
-137.383303
  6
CONTINUOUS
  0
ARC
  8
WHITE
 10
10.085820
 20
16.225598
 30
0.000000
 40
5.005746
 50
-142.917487
 51
-139.475004
  6
CONTINUOUS
  0
ARC
  8
WHITE
 10
5.360801
 20
12.404791
 30
0.000000
 40
1.081340
 50
26.450465
 51
31.697636
  6
CONTINUOUS
  0
ARC
  8
WHITE
 10
6.632356
 20
13.032345
 30
0.000000
 40
0.336667
 50
-154.318712
 51
-138.236530
  6
CONTINUOUS
  0
ARC
  8
WHITE
 10
6.409866
 20
12.831443
 30
0.000000
 40
0.036938
 50
-140.815299
 51
-32.341732
  6
CONTINUOUS
  0
ARC
  8
WHITE
 10
5.183341
 20
13.778948
 30
0.000000
 40
1.586661
 50
-37.562264
 51
-30.229675
  6
CONTINUOUS
  0
ARC
  8
WHITE
 10
5.266358
 20
14.098540
 30
0.000000
 40
1.705728
 50
-40.971779
 51
-39.020964
  6
CONTINUOUS
  0
ARC
  8
WHITE
 10
4.071724
 20
14.606376
 30
0.000000
 40
2.975164
 50
-32.117576
 51
-30.714439
  6
CONTINUOUS
  0
ARC
  8
WHITE
 10
5.643349
 20
13.813356
 30
0.000000
 40
1.224943
 50
-36.380762
 51
-28.749338
  6
CONTINUOUS
  0
ARC
  8
WHITE
 10
6.878278
 20
13.117138
 30
0.000000
 40
0.193324
 50
111.989920
 51
146.377667
  6
CONTINUOUS
  0
ARC
  8
WHITE
 10
6.549236
 20
13.920907
 30
0.000000
 40
0.675191
 50
-67.658928
 51
-57.781376
  6
CONTINUOUS
  0
ARC
  8
WHITE
 10
6.634518
 20
13.679077
 30
0.000000
 40
0.428905
 50
-50.173791
 51
-33.740535
  6
CONTINUOUS
  0
ARC
  8
WHITE
 10
7.213903
 20
13.292020
 30
0.000000
 40
0.267873
 50
120.302444
 51
146.248371
  6
CONTINUOUS
  0
ARC
  8
WHITE
 10
7.103064
 20
13.475458
 30
0.000000
 40
0.053664
 50
66.739360
 51
116.948612
  6
CONTINUOUS
  0
ARC
  8
WHITE
 10
7.159102
 20
13.699883
 30
0.000000
 40
0.178557
 50
-101.253590
 51
-74.050420
  6
CONTINUOUS
  0
ARC
  8
WHITE
 10
6.939376
 20
14.269549
 30
0.000000
 40
0.788573
 50
-70.070812
 51
-59.357232
  6
CONTINUOUS
  0
ARC
  8
WHITE
 10
7.989807
 20
12.472652
 30
0.000000
 40
1.292853
 50
113.028336
 51
120.106587
  6
CONTINUOUS
  0
ARC
  8
WHITE
 10
7.505238
 20
13.579293
 30
0.000000
 40
0.085840
 50
57.839889
 51
104.282821
  6
CONTINUOUS
  0
ARC
  8
WHITE
 10
7.686240
 20
13.873292
 30
0.000000
 40
0.259414
 50
-121.439608
 51
-105.851376
  6
CONTINUOUS
  0
ARC
  8
WHITE
 10
7.620757
 20
13.677886
 30
0.000000
 40
0.054410
 50
-95.668620
 51
-68.264793
  6
CONTINUOUS
  0
ARC
  8
WHITE
 10
7.583951
 20
13.772670
 30
0.000000
 40
0.156088
 50
-68.599163
 51
-55.546049
  6
CONTINUOUS
  0
ARC
  8
WHITE
 10
7.358325
 20
14.084168
 30
0.000000
 40
0.540679
 50
-54.505481
 51
-43.750282
  6
CONTINUOUS
  0
ARC
  8
WHITE
 10
6.144710
 20
15.221269
 30
0.000000
 40
2.203743
 50
-43.286501
 51
-35.759520
  6
CONTINUOUS
  0
ARC
  8
WHITE
 10
5.379108
 20
15.836553
 30
0.000000
 40
3.184996
 50
-36.692895
 51
-26.659066
  6
CONTINUOUS
  0
ARC
  8
WHITE
 10
5.475941
 20
15.729899
 30
0.000000
 40
3.051045
 50
-25.684972
 51
-11.554389
  6
CONTINUOUS
  0
ARC
  8
WHITE
 10
-0.341947
 20
14.741536
 30
0.000000
 40
8.815179
 50
2.452716
 51
3.707752
  6
CONTINUOUS
  0
ARC
  8
WHITE
 10
8.971576
 20
15.356569
 30
0.000000
 40
0.518748
 50
164.921314
 51
184.974172
  6
CONTINUOUS
  0
ARC
  8
WHITE
 10
8.542569
 20
15.469917
 30
0.000000
 40
0.075056
 50
96.654008
 51
163.273115
  6
CONTINUOUS
  0
ARC
  8
WHITE
 10
8.532205
 20
15.613426
 30
0.000000
 40
0.068978
 50
-88.615281
 51
-39.557698
  6
CONTINUOUS
  0
ARC
  8
WHITE
 10
8.432583
 20
15.667779
 30
0.000000
 40
0.181681
 50
-32.748898
 51
-8.501871
  6
CONTINUOUS
  0
ARC
  8
WHITE
 10
-15.674448
 20
19.001864
 30
0.000000
 40
24.518167
 50
-7.878901
 51
-7.107980
  6
CONTINUOUS
  0
ARC
  8
WHITE
 10
8.717087
 20
15.963910
 30
0.000000
 40
0.061932
 50
108.850398
 51
176.219218
  6
CONTINUOUS
  0
ARC
  8
WHITE
 10
8.880315
 20
15.284999
 30
0.000000
 40
0.759942
 50
98.616844
 51
103.952692
  6
CONTINUOUS
  0
ARC
  8
WHITE
 10
8.759882
 20
16.103195
 30
0.000000
 40
0.067153
 50
-84.382222
 51
-19.481769
  6
CONTINUOUS
  0
ARC
  8
WHITE
 10
10.107310
 20
15.677857
 30
0.000000
 40
1.345854
 50
135.788513
 51
162.578743
  6
CONTINUOUS
  0
ARC
  8
WHITE
 10
9.546264
 20
16.095680
 30
0.000000
 40
0.658780
 50
104.695324
 51
127.783721
  6
CONTINUOUS
  0
ARC
  8
WHITE
 10
9.381903
 20
16.649418
 30
0.000000
 40
0.083538
 50
66.147694
 51
91.891726
  6
CONTINUOUS
  0
ARC
  8
WHITE
 10
9.690666
 20
17.369354
 30
0.000000
 40
0.699821
 50
-113.137038
 51
-109.428355
  6
CONTINUOUS
  0
ARC
  8
WHITE
 10
9.489805
 20
16.781007
 30
0.000000
 40
0.078415
 50
-114.019701
 51
-40.818792
  6
CONTINUOUS
  0
ARC
  8
WHITE
 10
9.737661
 20
16.576103
 30
0.000000
 40
0.243196
 50
108.881419
 51
140.818427
  6
CONTINUOUS
  0
ARC
  8
WHITE
 10
9.497007
 20
17.305495
 30
0.000000
 40
0.524892
 50
-72.028388
 51
-53.055840
  6
CONTINUOUS
  0
ARC
  8
WHITE
 10
9.740497
 20
16.977168
 30
0.000000
 40
0.116172
 50
-51.707312
 51
-27.564295
  6
CONTINUOUS
  0
ARC
  8
WHITE
 10
9.508975
 20
17.129945
 30
0.000000
 40
0.393131
 50
-31.692409
 51
-24.231519
  6
CONTINUOUS
  0
ARC
  8
WHITE
 10
9.933398
 20
16.941477
 30
0.000000
 40
0.071288
 50
94.618736
 51
157.642107
  6
CONTINUOUS
  0
ARC
  8
WHITE
 10
9.944547
 20
16.849355
 30
0.000000
 40
0.164050
 50
18.464060
 51
95.909241
  6
CONTINUOUS
  0
ARC
  8
WHITE
 10
10.207285
 20
16.931685
 30
0.000000
 40
0.111355
 50
-164.171177
 51
-90.207821
  6
CONTINUOUS
  0
ARC
  8
WHITE
 10
10.279198
 20
17.508657
 30
0.000000
 40
0.692116
 50
-95.997595
 51
-86.508561
  6
CONTINUOUS
  0
ARC
  8
WHITE
 10
10.208683
 20
15.850717
 30
0.000000
 40
0.973649
 50
76.070031
 51
83.355213
  6
CONTINUOUS
  0
ARC
  8
WHITE
 10
10.549473
 20
17.222299
 30
0.000000
 40
0.439636
 50
-104.005399
 51
-87.979131
  6
CONTINUOUS
  0
ARC
  8
WHITE
 10
10.551931
 20
16.890762
 30
0.000000
 40
0.108612
 50
-83.101687
 51
-43.358839
  6
CONTINUOUS
  0
ARC
  8
WHITE
 10
10.413201
 20
17.020531
 30
0.000000
 40
0.298574
 50
-43.186838
 51
-24.747725
  6
CONTINUOUS
  0
ARC
  8
WHITE
 10
9.638569
 20
17.350961
 30
0.000000
 40
1.140647
 50
-23.532243
 51
-10.651973
  6
CONTINUOUS
  0
ARC
  8
WHITE
 10
6.199410
 20
17.998983
 30
0.000000
 40
4.640325
 50
-10.666188
 51
-4.856928
  6
CONTINUOUS
  0
ARC
  8
WHITE
 10
11.036842
 20
17.563280
 30
0.000000
 40
0.218015
 50
124.088233
 51
168.673945
  6
CONTINUOUS
  0
ARC
  8
WHITE
 10
11.088094
 20
17.518793
 30
0.000000
 40
0.284123
 50
98.436875
 51
127.621923
  6
CONTINUOUS
  0
ARC
  8
WHITE
 10
11.034928
 20
17.471295
 30
0.000000
 40
0.328748
 50
21.868634
 51
87.998904
  6
CONTINUOUS
  0
ARC
  8
WHITE
 10
12.886276
 20
17.704819
 30
0.000000
 40
1.550242
 50
-175.891327
 51
-170.295557
  6
CONTINUOUS
  0
ARC
  8
WHITE
 10
11.540668
 20
17.473042
 30
0.000000
 40
0.184826
 50
-170.802987
 51
-156.194971
  6
CONTINUOUS
  0
ARC
  8
WHITE
 10
11.414340
 20
17.423004
 30
0.000000
 40
0.049325
 50
-150.133747
 51
-57.627983
  6
CONTINUOUS
  0
ARC
  8
WHITE
 10
10.725947
 20
18.231135
 30
0.000000
 40
1.110443
 50
-49.931079
 51
-42.370542
  6
CONTINUOUS
  0
ARC
  8
WHITE
 10
11.683067
 20
17.356262
 30
0.000000
 40
0.186281
 50
103.316546
 51
137.219443
  6
CONTINUOUS
  0
ARC
  8
WHITE
 10
11.656264
 20
17.220746
 30
0.000000
 40
0.317197
 50
48.193972
 51
92.910001
  6
CONTINUOUS
  0
ARC
  8
WHITE
 10
11.462471
 20
17.002381
 30
0.000000
 40
0.609153
 50
24.650589
 51
48.298381
  6
CONTINUOUS
  0
ARC
  8
WHITE
 10
11.650650
 20
17.064561
 30
0.000000
 40
0.412775
 50
-4.523150
 51
27.702011
  6
CONTINUOUS
  0
ARC
  8
WHITE
 10
12.088656
 20
17.037489
 30
0.000000
 40
0.027078
 50
-168.323592
 51
-71.736186
  6
CONTINUOUS
  0
ARC
  8
WHITE
 10
12.029867
 20
17.275754
 30
0.000000
 40
0.272416
 50
-75.702528
 51
-60.539066
  6
CONTINUOUS
  0
ARC
  8
WHITE
 10
12.488353
 20
16.503001
 30
0.000000
 40
0.626204
 50
105.462934
 51
121.212151
  6
CONTINUOUS
  0
ARC
  8
WHITE
 10
12.354879
 20
16.898902
 30
0.000000
 40
0.210318
 50
43.271736
 51
99.160086
  6
CONTINUOUS
  0
ARC
  8
WHITE
 10
12.229016
 20
16.899450
 30
0.000000
 40
0.313792
 50
-4.277316
 51
27.237515
  6
CONTINUOUS
  0
ARC
  8
WHITE
 10
16.389656
 20
16.620292
 30
0.000000
 40
3.856212
 50
176.197202
 51
178.442665
  6
CONTINUOUS
  0
ARC
  8
WHITE
 10
45.779506
 20
18.916498
 30
0.000000
 40
33.316785
 50
-176.228659
 51
-174.905188
  6
CONTINUOUS
  0
ARC
  8
WHITE
 10
12.821569
 20
16.041893
 30
0.000000
 40
0.242270
 50
-159.697355
 51
-103.463267
  6
CONTINUOUS
  0
ARC
  8
WHITE
 10
13.226262
 20
20.148261
 30
0.000000
 40
4.366394
 50
-96.061833
 51
-90.474148
  6
CONTINUOUS
  0
ARC
  8
WHITE
 10
13.122691
 20
17.830182
 30
0.000000
 40
2.049275
 50
-88.114170
 51
-79.349337
  6
CONTINUOUS
  0
ARC
  8
WHITE
 10
13.262724
 20
16.611994
 30
0.000000
 40
0.830816
 50
-73.302073
 51
-66.326902
  6
CONTINUOUS
  0
ARC
  8
WHITE
 10
13.755034
 20
15.496466
 30
0.000000
 40
0.388524
 50
99.755183
 51
114.112322
  6
CONTINUOUS
  0
ARC
  8
WHITE
 10
13.700177
 20
15.820131
 30
0.000000
 40
0.060248
 50
37.477760
 51
100.494656
  6
CONTINUOUS
  0
ARC
  8
WHITE
 10
13.861692
 20
15.955910
 30
0.000000
 40
0.150841
 50
-138.919552
 51
-79.175286
  6
CONTINUOUS
  0
ARC
  8
WHITE
 10
13.863122
 20
15.979048
 30
0.000000
 40
0.173394
 50
-81.075641
 51
-18.152150
  6
CONTINUOUS
  0
ARC
  8
WHITE
 10
14.223255
 20
15.925772
 30
0.000000
 40
0.195370
 50
171.664400
 51
180.218022
  6
CONTINUOUS
  0
ARC
  8
WHITE
 10
14.080470
 20
15.947523
 30
0.000000
 40
0.050948
 50
139.974999
 51
172.588338
  6
CONTINUOUS
  0
ARC
  8
WHITE
 10
14.189301
 20
15.856243
 30
0.000000
 40
0.192990
 50
129.771660
 51
140.002509
  6
CONTINUOUS
  0
ARC
  8
WHITE
 10
14.105695
 20
15.956667
 30
0.000000
 40
0.062319
 50
98.527529
 51
129.757529
  6
CONTINUOUS
  0
ARC
  8
WHITE
 10
14.140283
 20
15.839833
 30
0.000000
 40
0.183766
 50
63.908809
 51
103.798204
  6
CONTINUOUS
  0
ARC
  8
WHITE
 10
14.157899
 20
15.917256
 30
0.000000
 40
0.108035
 50
14.745521
 51
54.194251
  6
CONTINUOUS
  0
ARC
  8
WHITE
 10
13.919560
 20
15.865318
 30
0.000000
 40
0.351900
 50
2.691779
 51
13.046084
  6
CONTINUOUS
  0
ARC
  8
WHITE
 10
14.350138
 20
15.883935
 30
0.000000
 40
0.079094
 50
-178.485334
 51
-132.359078
  6
CONTINUOUS
  0
ARC
  8
WHITE
 10
14.448275
 20
16.086120
 30
0.000000
 40
0.301428
 50
-120.156957
 51
-107.775939
  6
CONTINUOUS
  0
ARC
  8
WHITE
 10
14.340625
 20
15.738175
 30
0.000000
 40
0.062879
 50
18.010239
 51
75.611594
  6
CONTINUOUS
  0
ARC
  8
WHITE
 10
14.465585
 20
15.776304
 30
0.000000
 40
0.067788
 50
-163.997808
 51
-116.596284
  6
CONTINUOUS
  0
ARC
  8
WHITE
 10
14.515440
 20
15.879427
 30
0.000000
 40
0.182326
 50
-116.097007
 51
-95.865187
  6
CONTINUOUS
  0
ARC
  8
WHITE
 10
14.615089
 20
17.087340
 30
0.000000
 40
1.394311
 50
-94.866298
 51
-88.970182
  6
CONTINUOUS
  0
ARC
  8
WHITE
 10
14.629102
 20
15.557734
 30
0.000000
 40
0.135970
 50
59.702981
 51
85.339977
  6
CONTINUOUS
  0
ARC
  8
WHITE
 10
14.745104
 20
15.764850
 30
0.000000
 40
0.101472
 50
-117.852606
 51
-81.332546
  6
CONTINUOUS
  0
ARC
  8
WHITE
 10
14.762385
 20
15.623209
 30
0.000000
 40
0.041376
 50
70.292623
 51
92.755702
  6
CONTINUOUS
  0
ARC
  8
WHITE
 10
14.721132
 20
15.496869
 30
0.000000
 40
0.174268
 50
63.225759
 51
71.531311
  6
CONTINUOUS
  0
ARC
  8
WHITE
 10
14.560892
 20
15.187748
 30
0.000000
 40
0.522446
 50
55.012319
 51
62.808054
  6
CONTINUOUS
  0
ARC
  8
WHITE
 10
14.491610
 20
15.073493
 30
0.000000
 40
0.655836
 50
41.319455
 51
55.777014
  6
CONTINUOUS
  0
ARC
  8
WHITE
 10
17.618181
 20
17.839244
 30
0.000000
 40
3.518472
 50
-138.471291
 51
-134.582649
  6
CONTINUOUS
  0
ARC
  8
WHITE
 10
14.959473
 20
15.172000
 30
0.000000
 40
0.248412
 50
7.590170
 51
40.476215
  6
CONTINUOUS
  0
ARC
  8
WHITE
 10
15.650973
 20
15.265686
 30
0.000000
 40
0.449406
 50
-172.215092
 51
-154.052814
  6
CONTINUOUS
  0
ARC
  8
WHITE
 10
13.810993
 20
14.337880
 30
0.000000
 40
1.611318
 50
8.051439
 51
26.985961
  6
CONTINUOUS
  0
ARC
  8
WHITE
 10
16.178708
 20
14.822661
 30
0.000000
 40
0.814584
 50
-161.453635
 51
-151.867841
  6
CONTINUOUS
  0
ARC
  8
WHITE
 10
14.924669
 20
14.151945
 30
0.000000
 40
0.607553
 50
15.348892
 51
28.150182
  6
CONTINUOUS
  0
ARC
  8
WHITE
 10
14.102776
 20
14.019438
 30
0.000000
 40
1.438010
 50
5.074911
 51
11.769742
  6
CONTINUOUS
  0
ARC
  8
WHITE
 10
16.352802
 20
14.219987
 30
0.000000
 40
0.820936
 50
-174.874159
 51
-152.033213
  6
CONTINUOUS
  0
ARC
  8
WHITE
 10
14.672793
 20
13.715350
 30
0.000000
 40
0.962408
 50
0.890664
 51
7.141734
  6
CONTINUOUS
  0
ARC
  8
WHITE
 10
7.156507
 20
13.451223
 30
0.000000
 40
8.483171
 50
0.492443
 51
1.885309
  6
CONTINUOUS
  0
ARC
  8
WHITE
 10
-0.594108
 20
13.274691
 30
0.000000
 40
16.235388
 50
-0.152947
 51
0.880332
  6
CONTINUOUS
  0
ARC
  8
WHITE
 10
15.713024
 20
13.237354
 30
0.000000
 40
0.072052
 50
-175.221561
 51
-133.872639
  6
CONTINUOUS
  0
ARC
  8
WHITE
 10
15.621524
 20
13.138588
 30
0.000000
 40
0.062611
 50
4.753052
 51
48.406412
  6
CONTINUOUS
  0
ARC
  8
WHITE
 10
14.452232
 20
12.954759
 30
0.000000
 40
1.246106
 50
0.656159
 51
8.724652
  6
CONTINUOUS
  0
ARC
  8
WHITE
 10
16.193711
 20
13.050224
 30
0.000000
 40
0.502064
 50
-170.693139
 51
-160.346591
  6
CONTINUOUS
  0
ARC
  8
WHITE
 10
15.140202
 20
12.674382
 30
0.000000
 40
0.616479
 50
11.146511
 51
19.618170
  6
CONTINUOUS
  0
ARC
  8
WHITE
 10
14.863226
 20
12.680298
 30
0.000000
 40
0.889071
 50
-5.478500
 51
7.318945
  6
CONTINUOUS
  0
ARC
  8
WHITE
 10
16.380477
 20
12.538331
 30
0.000000
 40
0.634814
 50
174.840721
 51
193.092229
  6
CONTINUOUS
  0
ARC
  8
WHITE
 10
16.222427
 20
12.554683
 30
0.000000
 40
0.487329
 50
-160.814545
 51
-141.161905
  6
CONTINUOUS
  0
ARC
  8
WHITE
 10
15.869572
 20
12.297841
 30
0.000000
 40
0.055620
 50
-118.730383
 51
8.422454
  6
CONTINUOUS
  0
ARC
  8
WHITE
 10
15.754060
 20
12.286050
 30
0.000000
 40
0.171694
 50
6.668441
 51
27.550468
  6
CONTINUOUS
  0
ARC
  8
WHITE
 10
16.975847
 20
12.900361
 30
0.000000
 40
1.195859
 50
-157.639916
 51
-153.429970
  6
CONTINUOUS
  0
ARC
  8
WHITE
 10
16.568963
 20
12.703053
 30
0.000000
 40
0.745021
 50
176.388967
 51
200.230610
  6
CONTINUOUS
  0
ARC
  8
WHITE
 10
15.276282
 20
12.751580
 30
0.000000
 40
0.549141
 50
-0.167311
 51
8.166963
  6
CONTINUOUS
  0
ARC
  8
WHITE
 10
15.905903
 20
12.842323
 30
0.000000
 40
0.086987
 50
144.198940
 51
188.417183
  6
CONTINUOUS
  0
ARC
  8
WHITE
 10
15.847863
 20
12.888426
 30
0.000000
 40
0.013393
 50
21.491506
 51
159.083087
  6
CONTINUOUS
  0
ARC
  8
WHITE
 10
15.638436
 20
12.760414
 30
0.000000
 40
0.258655
 50
18.283284
 51
30.922961
  6
CONTINUOUS
  0
ARC
  8
WHITE
 10
16.253044
 20
12.948571
 30
0.000000
 40
0.384214
 50
-163.827864
 51
-143.122923
  6
CONTINUOUS
  0
ARC
  8
WHITE
 10
15.844519
 20
12.592557
 30
0.000000
 40
0.161166
 50
38.821016
 51
51.111251
  6
CONTINUOUS
  0
ARC
  8
WHITE
 10
15.925969
 20
12.656988
 30
0.000000
 40
0.057324
 50
5.527285
 51
39.682073
  6
CONTINUOUS
  0
ARC
  8
WHITE
 10
15.908470
 20
12.661389
 30
0.000000
 40
0.074564
 50
-24.932348
 51
0.860913
  6
CONTINUOUS
  0
LINE
  8
WHITE
 10
15.976085
 20
12.629957
 30
0.000000
 11
15.985028
 21
12.624316
 31
0.000000
  6
CONTINUOUS
  0
LINE
  8
WHITE
 10
15.985028
 20
12.624316
 30
0.000000
 11
15.991230
 21
12.619758
 31
0.000000
  6
CONTINUOUS
  0
ARC
  8
WHITE
 10
16.028602
 20
12.600673
 30
0.000000
 40
0.041963
 50
152.947747
 51
188.457133
  6
CONTINUOUS
  0
ARC
  8
WHITE
 10
16.110443
 20
12.633777
 30
0.000000
 40
0.129450
 50
-162.337888
 51
-142.547444
  6
CONTINUOUS
  0
ARC
  8
WHITE
 10
16.330064
 20
12.789044
 30
0.000000
 40
0.398349
 50
-144.028033
 51
-137.595868
  6
CONTINUOUS
  0
ARC
  8
WHITE
 10
15.986277
 20
12.482420
 30
0.000000
 40
0.062515
 50
-15.201552
 51
37.429027
  6
CONTINUOUS
  0
ARC
  8
WHITE
 10
16.372949
 20
12.402065
 30
0.000000
 40
0.332554
 50
168.910752
 51
184.643574
  6
CONTINUOUS
  0
ARC
  8
WHITE
 10
16.355521
 20
12.388215
 30
0.000000
 40
0.314306
 50
-177.616282
 51
-149.823465
  6
CONTINUOUS
  0
ARC
  8
WHITE
 10
16.022393
 20
12.184116
 30
0.000000
 40
0.076797
 50
16.740204
 51
36.897259
  6
CONTINUOUS
  0
ARC
  8
WHITE
 10
9.472758
 20
11.913173
 30
0.000000
 40
6.629658
 50
-2.437011
 51
2.533577
  6
CONTINUOUS
  0
ARC
  8
WHITE
 10
14.963943
 20
11.500015
 30
0.000000
 40
1.140058
 50
-4.300762
 51
6.611281
  6
CONTINUOUS
  0
ARC
  8
WHITE
 10
16.032277
 20
11.420593
 30
0.000000
 40
0.068783
 50
-42.375116
 51
-5.065587
  6
CONTINUOUS
  0
ARC
  8
WHITE
 10
16.163790
 20
11.277784
 30
0.000000
 40
0.125758
 50
129.919044
 51
191.660861
  6
CONTINUOUS
  0
ARC
  8
WHITE
 10
8.677200
 20
9.787554
 30
0.000000
 40
7.507712
 50
10.097426
 51
11.251012
  6
CONTINUOUS
  0
ARC
  8
WHITE
 10
15.930207
 20
11.075563
 30
0.000000
 40
0.141274
 50
-42.636180
 51
11.539826
  6
CONTINUOUS
  0
ARC
  8
WHITE
 10
16.105735
 20
10.891231
 30
0.000000
 40
0.113945
 50
128.928364
 51
174.190539
  6
CONTINUOUS
  0
ARC
  8
WHITE
 10
18.913840
 20
10.777996
 30
0.000000
 40
2.924128
 50
177.554524
 51
180.915564
  6
CONTINUOUS
  0
ARC
  8
WHITE
 10
14.944664
 20
10.815962
 30
0.000000
 40
1.048847
 50
-10.455399
 51
-4.631458
  6
CONTINUOUS
  0
ARC
  8
WHITE
 10
16.215988
 20
10.580786
 30
0.000000
 40
0.244047
 50
169.412190
 51
196.985971
  6
CONTINUOUS
  0
ARC
  8
WHITE
 10
15.482357
 20
10.597473
 30
0.000000
 40
0.507909
 50
-22.757742
 51
-9.975338
  6
CONTINUOUS
  0
ARC
  8
WHITE
 10
-5.141966
 20
19.246501
 30
0.000000
 40
22.872353
 50
-23.234885
 51
-22.751400
  6
CONTINUOUS
  0
ARC
  8
WHITE
 10
16.011749
 20
10.178469
 30
0.000000
 40
0.143602
 50
161.798570
 51
180.312134
  6
CONTINUOUS
  0
ARC
  8
WHITE
 10
16.737256
 20
10.172004
 30
0.000000
 40
0.869125
 50
179.625374
 51
183.511173
  6
CONTINUOUS
  0
ARC
  8
WHITE
 10
15.408498
 20
10.075971
 30
0.000000
 40
0.463245
 50
-9.458455
 51
5.301830
  6
CONTINUOUS
  0
ARC
  8
WHITE
 10
15.804699
 20
10.011584
 30
0.000000
 40
0.061870
 50
-58.378694
 51
-10.937556
  6
CONTINUOUS
  0
ARC
  8
WHITE
 10
15.876577
 20
9.903206
 30
0.000000
 40
0.068244
 50
125.304151
 51
172.230333
  6
CONTINUOUS
  0
ARC
  8
WHITE
 10
15.976919
 20
9.878326
 30
0.000000
 40
0.171388
 50
168.521560
 51
187.344661
  6
CONTINUOUS
  0
ARC
  8
WHITE
 10
15.748916
 20
9.847535
 30
0.000000
 40
0.058698
 50
-28.456959
 51
8.702536
  6
CONTINUOUS
  0
ARC
  8
WHITE
 10
16.367024
 20
9.465701
 30
0.000000
 40
0.667941
 50
148.009120
 51
158.478572
  6
CONTINUOUS
  0
ARC
  8
WHITE
 10
15.694657
 20
9.730578
 30
0.000000
 40
0.054720
 50
-87.435177
 51
-21.262398
  6
CONTINUOUS
  0
ARC
  8
WHITE
 10
15.700789
 20
9.609913
 30
0.000000
 40
0.066103
 50
93.194228
 51
144.210507
  6
CONTINUOUS
  0
ARC
  8
WHITE
 10
15.826401
 20
9.524148
 30
0.000000
 40
0.218186
 50
145.231797
 51
162.730440
  6
CONTINUOUS
  0
ARC
  8
WHITE
 10
15.147742
 20
9.711058
 30
0.000000
 40
0.485910
 50
-31.454827
 51
-14.557930
  6
CONTINUOUS
  0
ARC
  8
WHITE
 10
17.564736
 20
8.141109
 30
0.000000
 40
2.396422
 50
146.680018
 51
166.423214
  6
CONTINUOUS
  0
LINE
  8
WHITE
 10
15.235279
 20
8.703665
 30
0.000000
 11
15.235810
 21
8.691717
 31
0.000000
  6
CONTINUOUS
  0
ARC
  8
WHITE
 10
15.509375
 20
8.769972
 30
0.000000
 40
0.284538
 50
-164.036487
 51
-134.619302
  6
CONTINUOUS
  0
ARC
  8
WHITE
 10
15.269766
 20
8.627746
 30
0.000000
 40
0.072228
 50
-56.607903
 51
-26.793522
  6
CONTINUOUS
  0
ARC
  8
WHITE
 10
14.905887
 20
8.875680
 30
0.000000
 40
0.512017
 50
-33.217487
 51
-28.979795
  6
CONTINUOUS
  0
ARC
  8
WHITE
 10
12.848096
 20
10.049406
 30
0.000000
 40
2.880980
 50
-29.571708
 51
-28.065448
  6
CONTINUOUS
  0
ARC
  8
WHITE
 10
10.384572
 20
11.323655
 30
0.000000
 40
5.654434
 50
-27.714571
 51
-26.179680
  6
CONTINUOUS
  0
ARC
  8
WHITE
 10
6.158647
 20
13.430622
 30
0.000000
 40
10.376442
 50
-26.325441
 51
-24.652623
  6
CONTINUOUS
  0
ARC
  8
WHITE
 10
15.686804
 20
9.082353
 30
0.000000
 40
0.099540
 50
118.538576
 51
168.355131
  6
CONTINUOUS
  0
ARC
  8
WHITE
 10
15.654902
 20
9.148043
 30
0.000000
 40
0.026802
 50
27.356280
 51
125.735393
  6
CONTINUOUS
  0
ARC
  8
WHITE
 10
15.607443
 20
9.147369
 30
0.000000
 40
0.072438
 50
-28.336979
 51
10.330597
  6
CONTINUOUS
  0
ARC
  8
WHITE
 10
15.775676
 20
9.055632
 30
0.000000
 40
0.119183
 50
151.234487
 51
176.490424
  6
CONTINUOUS
  0
ARC
  8
WHITE
 10
15.836422
 20
9.088706
 30
0.000000
 40
0.181544
 50
-171.836729
 51
-154.275252
  6
CONTINUOUS
  0
ARC
  8
WHITE
 10
15.586949
 20
8.964015
 30
0.000000
 40
0.097409
 50
-47.103047
 51
28.107354
  6
CONTINUOUS
  0
ARC
  8
WHITE
 10
15.717133
 20
8.834144
 30
0.000000
 40
0.086626
 50
137.511476
 51
182.657712
  6
CONTINUOUS
  0
ARC
  8
WHITE
 10
21.945585
 20
8.870813
 30
0.000000
 40
6.315116
 50
-179.630864
 51
-176.325998
  6
CONTINUOUS
  0
ARC
  8
WHITE
 10
14.867385
 20
8.267915
 30
0.000000
 40
0.800979
 50
7.382554
 51
14.328600
  6
CONTINUOUS
  0
ARC
  8
WHITE
 10
15.614418
 20
8.353287
 30
0.000000
 40
0.050457
 50
-36.446753
 51
20.352600
  6
CONTINUOUS
  0
ARC
  8
WHITE
 10
15.701872
 20
8.289243
 30
0.000000
 40
0.057940
 50
143.985080
 51
169.121419
  6
CONTINUOUS
  0
ARC
  8
WHITE
 10
16.459371
 20
8.130528
 30
0.000000
 40
0.831881
 50
168.232810
 51
184.268679
  6
CONTINUOUS
  0
ARC
  8
WHITE
 10
11.018540
 20
8.000483
 30
0.000000
 40
4.611761
 50
-2.459411
 51
0.846406
  6
CONTINUOUS
  0
ARC
  8
WHITE
 10
15.558628
 20
7.789062
 30
0.000000
 40
0.068768
 50
-46.067363
 51
11.340800
  6
CONTINUOUS
  0
ARC
  8
WHITE
 10
15.649921
 20
7.679742
 30
0.000000
 40
0.073993
 50
126.085425
 51
153.057874
  6
CONTINUOUS
  0
ARC
  8
WHITE
 10
15.725241
 20
7.645008
 30
0.000000
 40
0.156907
 50
154.212812
 51
180.499196
  6
CONTINUOUS
  0
ARC
  8
WHITE
 10
17.098326
 20
7.498756
 30
0.000000
 40
1.536831
 50
174.590399
 51
180.317516
  6
CONTINUOUS
  0
ARC
  8
WHITE
 10
15.517948
 20
7.479967
 30
0.000000
 40
0.044765
 50
-36.873538
 51
13.266039
  6
CONTINUOUS
  0
ARC
  8
WHITE
 10
16.118267
 20
6.980305
 30
0.000000
 40
0.736350
 50
140.052354
 51
143.127843
  6
CONTINUOUS
  0
ARC
  8
WHITE
 10
15.602942
 20
7.383101
 30
0.000000
 40
0.083432
 50
152.103026
 51
179.736484
  6
CONTINUOUS
  0
ARC
  8
WHITE
 10
16.103440
 20
7.319941
 30
0.000000
 40
0.587377
 50
173.789467
 51
181.897656
  6
CONTINUOUS
  0
ARC
  8
WHITE
 10
15.139337
 20
7.275535
 30
0.000000
 40
0.377873
 50
-23.105051
 51
3.786674
  6
CONTINUOUS
  0
ARC
  8
WHITE
 10
22.501560
 20
4.672572
 30
0.000000
 40
7.431751
 50
160.713245
 51
163.838076
  6
CONTINUOUS
  0
ARC
  8
WHITE
 10
15.593143
 20
6.647731
 30
0.000000
 40
0.247926
 50
157.846444
 51
182.004126
  6
CONTINUOUS
  0
ARC
  8
WHITE
 10
14.976091
 20
6.663882
 30
0.000000
 40
0.370112
 50
-29.045054
 51
-3.845388
  6
CONTINUOUS
  0
ARC
  8
WHITE
 10
15.383901
 20
6.437511
 30
0.000000
 40
0.096314
 50
151.007560
 51
184.114496
  6
CONTINUOUS
  0
ARC
  8
WHITE
 10
16.271305
 20
6.374753
 30
0.000000
 40
0.985054
 50
176.749882
 51
183.440107
  6
CONTINUOUS
  0
ARC
  8
WHITE
 10
14.971716
 20
6.258725
 30
0.000000
 40
0.321391
 50
-33.564440
 51
10.201151
  6
CONTINUOUS
  0
ARC
  8
WHITE
 10
15.357023
 20
6.008990
 30
0.000000
 40
0.137832
 50
148.485819
 51
174.383140
  6
CONTINUOUS
  0
ARC
  8
WHITE
 10
15.721469
 20
5.960045
 30
0.000000
 40
0.505487
 50
172.904971
 51
187.482437
  6
CONTINUOUS
  0
ARC
  8
WHITE
 10
15.421876
 20
5.922999
 30
0.000000
 40
0.203634
 50
-171.875151
 51
-134.579883
  6
CONTINUOUS
  0
ARC
  8
WHITE
 10
15.103910
 20
5.725991
 30
0.000000
 40
0.182587
 50
-5.512142
 51
16.535493
  6
CONTINUOUS
  0
ARC
  8
WHITE
 10
15.310878
 20
5.721256
 30
0.000000
 40
0.028290
 50
-153.089933
 51
1.217138
  6
CONTINUOUS
  0
ARC
  8
WHITE
 10
14.992202
 20
5.807842
 30
0.000000
 40
0.357454
 50
-13.918908
 51
-2.782149
  6
CONTINUOUS
  0
ARC
  8
WHITE
 10
12.887847
 20
6.032423
 30
0.000000
 40
2.473250
 50
-5.613605
 51
-2.284268
  6
CONTINUOUS
  0
ARC
  8
WHITE
 10
15.515153
 20
5.934000
 30
0.000000
 40
0.156022
 50
153.270968
 51
180.056688
  6
CONTINUOUS
  0
ARC
  8
WHITE
 10
15.820629
 20
5.811585
 30
0.000000
 40
0.484728
 50
147.823895
 51
156.589603
  6
CONTINUOUS
  0
ARC
  8
WHITE
 10
15.457425
 20
6.047691
 30
0.000000
 40
0.051974
 50
113.702828
 51
154.929557
  6
CONTINUOUS
  0
ARC
  8
WHITE
 10
12.281170
 20
3.222819
 30
0.000000
 40
0.086417
 50
-115.491629
 51
-95.069496
  6
CONTINUOUS
  0
ARC
  8
WHITE
 10
11.693960
 20
3.007985
 30
0.000000
 40
0.566782
 50
13.970050
 51
90.380003
  6
CONTINUOUS
  0
ARC
  8
WHITE
 10
11.748877
 20
3.140021
 30
0.000000
 40
0.438676
 50
97.686758
 51
131.260661
  6
CONTINUOUS
  0
ARC
  8
WHITE
 10
12.173006
 20
2.635881
 30
0.000000
 40
1.097439
 50
130.548094
 51
144.027747
  6
CONTINUOUS
  0
ARC
  8
WHITE
 10
11.127884
 20
3.439125
 30
0.000000
 40
0.223152
 50
-89.859883
 51
-45.300010
  6
CONTINUOUS
  0
ARC
  8
WHITE
 10
10.877002
 20
9.662984
 30
0.000000
 40
6.451911
 50
-89.657182
 51
-87.766647
  6
CONTINUOUS
  0
ARC
  8
WHITE
 10
10.923716
 20
3.017487
 30
0.000000
 40
0.193871
 50
92.397636
 51
115.920776
  6
CONTINUOUS
  0
ARC
  8
WHITE
 10
10.869456
 20
3.137738
 30
0.000000
 40
0.062113
 50
119.394680
 51
180.480202
  6
CONTINUOUS
  0
ARC
  8
WHITE
 10
10.917815
 20
3.135846
 30
0.000000
 40
0.110478
 50
179.288737
 51
240.171060
  6
CONTINUOUS
  0
ARC
  8
WHITE
 10
6.678866
 20
-3.262231
 30
0.000000
 40
7.564655
 50
55.671540
 51
56.420185
  6
CONTINUOUS
  0
ARC
  8
WHITE
 10
10.863583
 20
2.861948
 30
0.000000
 40
0.147299
 50
20.163880
 51
56.515189
  6
CONTINUOUS
  0
ARC
  8
WHITE
 10
10.811238
 20
2.891714
 30
0.000000
 40
0.191769
 50
-35.162188
 51
6.289447
  6
CONTINUOUS
  0
ARC
  8
WHITE
 10
10.374539
 20
3.146462
 30
0.000000
 40
0.696832
 50
-44.878227
 51
-31.605479
  6
CONTINUOUS
  0
ARC
  8
WHITE
 10
10.421857
 20
3.087605
 30
0.000000
 40
0.621827
 50
-49.904960
 51
-44.111697
  6
CONTINUOUS
  0
ARC
  8
WHITE
 10
10.742234
 20
2.701004
 30
0.000000
 40
0.119809
 50
-64.357757
 51
-48.033731
  6
CONTINUOUS
  0
ARC
  8
WHITE
 10
10.791270
 20
2.608800
 30
0.000000
 40
0.016054
 50
-170.378895
 51
-79.913955
  6
CONTINUOUS
  0
ARC
  8
WHITE
 10
10.826701
 20
2.622527
 30
0.000000
 40
0.053822
 50
165.524974
 51
197.751966
  6
CONTINUOUS
  0
ARC
  8
WHITE
 10
10.869479
 20
2.613602
 30
0.000000
 40
0.097494
 50
146.044868
 51
166.730418
  6
CONTINUOUS
  0
ARC
  8
WHITE
 10
10.538975
 20
2.870096
 30
0.000000
 40
0.321150
 50
-38.984583
 51
-31.674755
  6
CONTINUOUS
  0
ARC
  8
WHITE
 10
10.114622
 20
3.174186
 30
0.000000
 40
0.842737
 50
-34.120824
 51
-22.581403
  6
CONTINUOUS
  0
ARC
  8
WHITE
 10
10.819324
 20
2.875491
 30
0.000000
 40
0.077538
 50
-18.741188
 51
27.535505
  6
CONTINUOUS
  0
ARC
  8
WHITE
 10
10.660585
 20
2.764789
 30
0.000000
 40
0.270610
 50
32.788948
 51
50.528134
  6
CONTINUOUS
  0
ARC
  8
WHITE
 10
10.585077
 20
2.699313
 30
0.000000
 40
0.369530
 50
47.943439
 51
85.716544
  6
CONTINUOUS
  0
ARC
  8
WHITE
 10
10.699662
 20
4.314501
 30
0.000000
 40
1.249721
 50
-96.923806
 51
-93.991193
  6
CONTINUOUS
  0
ARC
  8
WHITE
 10
10.549536
 20
3.085451
 30
0.000000
 40
0.011570
 50
111.644874
 51
267.388755
  6
CONTINUOUS
  0
ARC
  8
WHITE
 10
10.599350
 20
3.042443
 30
0.000000
 40
0.076257
 50
91.964236
 51
135.169718
  6
CONTINUOUS
  0
ARC
  8
WHITE
 10
10.622070
 20
2.733830
 30
0.000000
 40
0.385659
 50
86.381557
 51
93.766449
  6
CONTINUOUS
  0
ARC
  8
WHITE
 10
10.641960
 20
3.191686
 30
0.000000
 40
0.073101
 50
-86.510294
 51
-22.904397
  6
CONTINUOUS
  0
ARC
  8
WHITE
 10
10.306468
 20
3.336213
 30
0.000000
 40
0.438398
 50
-23.238995
 51
-5.715862
  6
CONTINUOUS
  0
ARC
  8
WHITE
 10
19.441076
 20
2.287845
 30
0.000000
 40
8.756221
 50
172.497488
 51
173.411260
  6
CONTINUOUS
  0
ARC
  8
WHITE
 10
134.963407
 20
-22.369715
 30
0.000000
 40
126.855100
 50
167.979218
 51
168.264826
  6
CONTINUOUS
  0
ARC
  8
WHITE
 10
13.249945
 20
3.629317
 30
0.000000
 40
2.397167
 50
159.661906
 51
169.893984
  6
CONTINUOUS
  0
ARC
  8
WHITE
 10
-2.422756
 20
10.179522
 30
0.000000
 40
14.591595
 50
-23.066805
 51
-21.958255
  6
CONTINUOUS
  0
ARC
  8
WHITE
 10
10.402325
 20
5.007585
 30
0.000000
 40
0.762943
 50
-21.879254
 51
-1.038306
  6
CONTINUOUS
  0
ARC
  8
WHITE
 10
13.049916
 20
4.706498
 30
0.000000
 40
1.906538
 50
156.011984
 51
171.334130
  6
CONTINUOUS
  0
ARC
  8
WHITE
 10
10.603499
 20
5.755848
 30
0.000000
 40
0.756043
 50
-21.269254
 51
-3.414447
  6
CONTINUOUS
  0
ARC
  8
WHITE
 10
11.112782
 20
5.720569
 30
0.000000
 40
0.245611
 50
-2.274935
 51
46.936426
  6
CONTINUOUS
  0
ARC
  8
WHITE
 10
11.335753
 20
5.920393
 30
0.000000
 40
0.058904
 50
170.214773
 51
200.243557
  6
CONTINUOUS
  0
ARC
  8
WHITE
 10
12.019548
 20
5.856074
 30
0.000000
 40
0.745557
 50
167.202380
 51
174.278254
  6
CONTINUOUS
  0
ARC
  8
WHITE
 10
11.646292
 20
5.953132
 30
0.000000
 40
0.360273
 50
158.399841
 51
169.106014
  6
CONTINUOUS
  0
ARC
  8
WHITE
 10
10.842923
 20
6.340154
 30
0.000000
 40
0.533022
 50
-28.507317
 51
-10.388251
  6
CONTINUOUS
  0
ARC
  8
WHITE
 10
12.000035
 20
6.132618
 30
0.000000
 40
0.642561
 50
134.508402
 51
170.014195
  6
CONTINUOUS
  0
ARC
  8
WHITE
 10
11.785915
 20
6.314341
 30
0.000000
 40
0.363746
 50
121.142981
 51
130.518636
  6
CONTINUOUS
  0
ARC
  8
WHITE
 10
11.371125
 20
7.002183
 30
0.000000
 40
0.439484
 50
-58.951518
 51
-54.986535
  6
CONTINUOUS
  0
ARC
  8
WHITE
 10
10.190854
 20
8.214100
 30
0.000000
 40
2.126643
 50
-47.657175
 51
-42.969438
  6
CONTINUOUS
  0
ARC
  8
WHITE
 10
11.849112
 20
6.675308
 30
0.000000
 40
0.135655
 50
96.297041
 51
138.856038
  6
CONTINUOUS
  0
ARC
  8
WHITE
 10
19.822631
 20
-1.304009
 30
0.000000
 40
11.386571
 50
133.537919
 51
134.552548
  6
CONTINUOUS
  0
ARC
  8
WHITE
 10
12.359338
 20
6.557686
 30
0.000000
 40
0.546531
 50
99.175525
 51
134.075348
  6
CONTINUOUS
  0
ARC
  8
WHITE
 10
12.262391
 20
7.222302
 30
0.000000
 40
0.125460
 50
-85.521173
 51
-47.437355
  6
CONTINUOUS
  0
ARC
  8
WHITE
 10
11.565820
 20
8.020410
 30
0.000000
 40
1.184759
 50
-48.732847
 51
-44.650970
  6
CONTINUOUS
  0
ARC
  8
WHITE
 10
11.774288
 20
7.901612
 30
0.000000
 40
0.954978
 50
-48.373121
 51
-33.274333
  6
CONTINUOUS
  0
ARC
  8
WHITE
 10
11.231666
 20
8.197531
 30
0.000000
 40
1.571801
 50
-31.440299
 51
-27.369770
  6
CONTINUOUS
  0
ARC
  8
WHITE
 10
12.096219
 20
7.622623
 30
0.000000
 40
0.551445
 50
-15.535670
 51
-6.623762
  6
CONTINUOUS
  0
ARC
  8
WHITE
 10
12.801887
 20
7.535230
 30
0.000000
 40
0.159685
 50
155.155457
 51
171.434204
  6
CONTINUOUS
  0
ARC
  8
WHITE
 10
12.673043
 20
7.596651
 30
0.000000
 40
0.017034
 50
62.503579
 51
160.551018
  6
CONTINUOUS
  0
ARC
  8
WHITE
 10
12.545533
 20
7.431486
 30
0.000000
 40
0.225445
 50
12.917180
 51
53.095873
  6
CONTINUOUS
  0
ARC
  8
WHITE
 10
10.671705
 20
6.901597
 30
0.000000
 40
2.172500
 50
10.180731
 51
15.492064
  6
CONTINUOUS
  0
ARC
  8
WHITE
 10
12.964979
 20
7.314365
 30
0.000000
 40
0.157629
 50
-169.483312
 51
-149.518880
  6
CONTINUOUS
  0
ARC
  8
WHITE
 10
12.840218
 20
7.241682
 30
0.000000
 40
0.013256
 50
-146.718674
 51
-76.096709
  6
CONTINUOUS
  0
ARC
  8
WHITE
 10
12.824117
 20
7.268213
 30
0.000000
 40
0.043866
 50
-63.917583
 51
-31.079183
  6
CONTINUOUS
  0
ARC
  8
WHITE
 10
11.782945
 20
7.694082
 30
0.000000
 40
1.168267
 50
-22.576318
 51
-1.803169
  6
CONTINUOUS
  0
ARC
  8
WHITE
 10
14.588123
 20
7.530439
 30
0.000000
 40
1.642398
 50
168.847715
 51
175.569241
  6
CONTINUOUS
  0
ARC
  8
WHITE
 10
13.111771
 20
7.820682
 30
0.000000
 40
0.137789
 50
145.329971
 51
168.519259
  6
CONTINUOUS
  0
ARC
  8
WHITE
 10
13.017846
 20
7.884527
 30
0.000000
 40
0.024240
 50
57.208397
 51
143.153980
  6
CONTINUOUS
  0
ARC
  8
WHITE
 10
12.978817
 20
7.835688
 30
0.000000
 40
0.086667
 50
9.689660
 51
53.000618
  6
CONTINUOUS
  0
ARC
  8
WHITE
 10
12.669837
 20
7.768272
 30
0.000000
 40
0.402845
 50
-16.004790
 51
11.745200
  6
CONTINUOUS
  0
ARC
  8
WHITE
 10
12.973251
 20
7.760665
 30
0.000000
 40
0.133154
 50
-58.747264
 51
-50.989205
  6
CONTINUOUS
  0
ARC
  8
WHITE
 10
13.130707
 20
7.597755
 30
0.000000
 40
0.101087
 50
150.954418
 51
163.987677
  6
CONTINUOUS
  0
ARC
  8
WHITE
 10
12.856459
 20
7.439377
 30
0.000000
 40
0.257006
 50
40.482468
 51
46.447176
  6
CONTINUOUS
  0
ARC
  8
WHITE
 10
13.900041
 20
7.577222
 30
0.000000
 40
0.848598
 50
178.041103
 51
187.043710
  6
CONTINUOUS
  0
ARC
  8
WHITE
 10
13.077960
 20
7.470645
 30
0.000000
 40
0.020269
 50
172.868460
 51
297.993328
  6
CONTINUOUS
  0
ARC
  8
WHITE
 10
13.049069
 20
7.496036
 30
0.000000
 40
0.057869
 50
-48.421293
 51
-23.241235
  6
CONTINUOUS
  0
ARC
  8
WHITE
 10
12.442014
 20
7.811313
 30
0.000000
 40
0.741770
 50
-27.117636
 51
-11.422237
  6
CONTINUOUS
  0
ARC
  8
WHITE
 10
13.228184
 20
7.678561
 30
0.000000
 40
0.060761
 50
138.651739
 51
193.463266
  6
CONTINUOUS
  0
ARC
  8
WHITE
 10
13.202751
 20
7.707174
 30
0.000000
 40
0.023242
 50
73.643605
 51
150.263333
  6
CONTINUOUS
  0
ARC
  8
WHITE
 10
12.706392
 20
7.137425
 30
0.000000
 40
0.776811
 50
44.444371
 51
49.654462
  6
CONTINUOUS
  0
ARC
  8
WHITE
 10
13.659935
 20
8.047112
 30
0.000000
 40
0.541238
 50
-137.486159
 51
-128.928307
  6
CONTINUOUS
  0
ARC
  8
WHITE
 10
13.312266
 20
7.644845
 30
0.000000
 40
0.020253
 50
-68.008176
 51
-4.917506
  6
CONTINUOUS
  0
ARC
  8
WHITE
 10
13.599605
 20
7.657885
 30
0.000000
 40
0.267570
 50
168.901846
 51
183.165715
  6
CONTINUOUS
  0
ARC
  8
WHITE
 10
13.293720
 20
7.688247
 30
0.000000
 40
0.048204
 50
9.648291
 51
26.015357
  6
CONTINUOUS
  0
ARC
  8
WHITE
 10
13.444839
 20
7.719499
 30
0.000000
 40
0.106157
 50
131.211308
 51
192.608908
  6
CONTINUOUS
  0
ARC
  8
WHITE
 10
13.337394
 20
7.852619
 30
0.000000
 40
0.065140
 50
-54.846869
 51
-13.199142
  6
CONTINUOUS
  0
ARC
  8
WHITE
 10
12.818279
 20
7.892155
 30
0.000000
 40
0.585070
 50
-5.336056
 51
2.605741
  6
CONTINUOUS
  0
ARC
  8
WHITE
 10
13.674893
 20
7.931377
 30
0.000000
 40
0.272443
 50
165.509087
 51
182.655611
  6
CONTINUOUS
  0
ARC
  8
WHITE
 10
13.531170
 20
7.949990
 30
0.000000
 40
0.129878
 50
124.816737
 51
157.568381
  6
CONTINUOUS
  0
ARC
  8
WHITE
 10
13.335663
 20
8.229706
 30
0.000000
 40
0.211390
 50
-54.965611
 51
-34.671837
  6
CONTINUOUS
  0
ARC
  8
WHITE
 10
13.363281
 20
8.169186
 30
0.000000
 40
0.157964
 50
-22.219311
 51
3.774753
  6
CONTINUOUS
  0
ARC
  8
WHITE
 10
13.636014
 20
8.187655
 30
0.000000
 40
0.115394
 50
148.697229
 51
184.009990
  6
CONTINUOUS
  0
ARC
  8
WHITE
 10
14.052184
 20
7.879087
 30
0.000000
 40
0.633082
 50
130.839343
 51
144.401065
  6
CONTINUOUS
  0
ARC
  8
WHITE
 10
13.702103
 20
8.283677
 30
0.000000
 40
0.098059
 50
78.748320
 51
130.678800
  6
CONTINUOUS
  0
ARC
  8
WHITE
 10
13.711592
 20
8.342186
 30
0.000000
 40
0.038881
 50
-13.666856
 51
75.638067
  6
CONTINUOUS
  0
ARC
  8
WHITE
 10
13.806225
 20
8.308230
 30
0.000000
 40
0.062014
 50
156.458471
 51
181.118078
  6
CONTINUOUS
  0
ARC
  8
WHITE
 10
13.845873
 20
8.324159
 30
0.000000
 40
0.103085
 50
-170.429468
 51
-155.407172
  6
CONTINUOUS
  0
ARC
  8
WHITE
 10
8.617458
 20
7.814422
 30
0.000000
 40
5.155859
 50
-1.688148
 51
5.194952
  6
CONTINUOUS
  0
ARC
  8
WHITE
 10
14.325829
 20
7.598806
 30
0.000000
 40
0.558398
 50
173.446851
 51
181.759351
  6
CONTINUOUS
  0
ARC
  8
WHITE
 10
13.883774
 20
7.583361
 30
0.000000
 40
0.116092
 50
-179.161581
 51
-158.477383
  6
CONTINUOUS
  0
ARC
  8
WHITE
 10
13.790717
 20
7.545962
 30
0.000000
 40
0.015817
 50
-160.838467
 51
-56.383024
  6
CONTINUOUS
  0
ARC
  8
WHITE
 10
13.280385
 20
8.301546
 30
0.000000
 40
0.927598
 50
-55.971497
 51
-53.999283
  6
CONTINUOUS
  0
ARC
  8
WHITE
 10
13.841555
 20
7.529870
 30
0.000000
 40
0.026551
 50
56.243071
 51
126.873344
  6
CONTINUOUS
  0
ARC
  8
WHITE
 10
13.759439
 20
7.403754
 30
0.000000
 40
0.177043
 50
30.140108
 51
56.828048
  6
CONTINUOUS
  0
ARC
  8
WHITE
 10
13.283275
 20
7.323182
 30
0.000000
 40
0.651691
 50
-1.380023
 51
15.072657
  6
CONTINUOUS
  0
ARC
  8
WHITE
 10
14.237942
 20
7.309974
 30
0.000000
 40
0.303175
 50
-179.529973
 51
-164.620692
  6
CONTINUOUS
  0
ARC
  8
WHITE
 10
13.974013
 20
7.235102
 30
0.000000
 40
0.028924
 50
-168.972743
 51
-70.870604
  6
CONTINUOUS
  0
ARC
  8
WHITE
 10
13.954384
 20
7.264693
 30
0.000000
 40
0.063929
 50
-62.915047
 51
-26.430403
  6
CONTINUOUS
  0
ARC
  8
WHITE
 10
14.969950
 20
6.749951
 30
0.000000
 40
1.074640
 50
148.622965
 51
153.095079
  6
CONTINUOUS
  0
ARC
  8
WHITE
 10
14.071547
 20
7.297412
 30
0.000000
 40
0.022578
 50
80.732227
 51
147.686102
  6
CONTINUOUS
  0
ARC
  8
WHITE
 10
14.042634
 20
7.263060
 30
0.000000
 40
0.065322
 50
22.400113
 51
60.113360
  6
CONTINUOUS
  0
ARC
  8
WHITE
 10
10.589160
 20
6.171211
 30
0.000000
 40
3.687054
 50
8.049555
 51
17.630765
  6
CONTINUOUS
  0
ARC
  8
WHITE
 10
14.320278
 20
6.695997
 30
0.000000
 40
0.080838
 50
-173.971739
 51
-132.697424
  6
CONTINUOUS
  0
ARC
  8
WHITE
 10
13.992052
 20
6.376140
 30
0.000000
 40
0.377602
 50
38.443468
 51
43.609117
  6
CONTINUOUS
  0
ARC
  8
WHITE
 10
14.237895
 20
6.571056
 30
0.000000
 40
0.063865
 50
9.020372
 51
38.612542
  6
CONTINUOUS
  0
ARC
  8
WHITE
 10
21.071853
 20
8.999769
 30
0.000000
 40
7.189921
 50
-160.342218
 51
-155.466007
  6
CONTINUOUS
  0
ARC
  8
WHITE
 10
13.301050
 20
5.220064
 30
0.000000
 40
1.464148
 50
27.920239
 51
32.849874
  6
CONTINUOUS
  0
ARC
  8
WHITE
 10
14.178922
 20
5.672785
 30
0.000000
 40
0.476606
 50
6.291113
 51
29.246596
  6
CONTINUOUS
  0
ARC
  8
WHITE
 10
14.863460
 20
5.767336
 30
0.000000
 40
0.215009
 50
-168.647208
 51
-148.141012
  6
CONTINUOUS
  0
ARC
  8
WHITE
 10
14.581125
 20
5.589413
 30
0.000000
 40
0.118723
 50
9.095764
 51
32.869522
  6
CONTINUOUS
  0
ARC
  8
WHITE
 10
14.639161
 20
5.615792
 30
0.000000
 40
0.059681
 50
-172.625256
 51
-7.326402
  6
CONTINUOUS
  0
ARC
  8
WHITE
 10
9.240314
 20
4.414966
 30
0.000000
 40
5.471344
 50
12.596015
 51
14.635391
  6
CONTINUOUS
  0
ARC
  8
WHITE
 10
14.292932
 20
5.734471
 30
0.000000
 40
0.249272
 50
14.621303
 51
33.880530
  6
CONTINUOUS
  0
ARC
  8
WHITE
 10
14.454647
 20
5.848665
 30
0.000000
 40
0.051567
 50
28.702577
 51
131.071942
  6
CONTINUOUS
  0
ARC
  8
WHITE
 10
14.886174
 20
5.635396
 30
0.000000
 40
0.529322
 50
151.552348
 51
174.351596
  6
CONTINUOUS
  0
ARC
  8
WHITE
 10
15.272739
 20
5.680053
 30
0.000000
 40
0.913347
 50
179.533221
 51
214.555050
  6
CONTINUOUS
  0
ARC
  8
WHITE
 10
173.885365
 20
5.092770
 30
0.000000
 40
159.364856
 50
179.975108
 51
180.163680
  6
CONTINUOUS
  0
ARC
  8
WHITE
 10
16.655727
 20
5.430360
 30
0.000000
 40
2.277059
 50
-159.623181
 51
-154.365317
  6
CONTINUOUS
  0
ARC
  8
WHITE
 10
13.583834
 20
3.976874
 30
0.000000
 40
1.121447
 50
7.587401
 51
24.685504
  6
CONTINUOUS
  0
ARC
  8
WHITE
 10
-18.642850
 20
1.606045
 30
0.000000
 40
33.433336
 50
2.560635
 51
4.320819
  6
CONTINUOUS
  0
ARC
  8
WHITE
 10
14.649630
 20
3.093276
 30
0.000000
 40
0.107667
 50
-23.725172
 51
3.438735
  6
CONTINUOUS
  0
ARC
  8
WHITE
 10
14.703669
 20
3.067064
 30
0.000000
 40
0.047702
 50
-76.370084
 51
-21.016689
  6
CONTINUOUS
  0
ARC
  8
WHITE
 10
16.703339
 20
74.647117
 30
0.000000
 40
71.654006
 50
-92.583597
 51
-91.590187
  6
CONTINUOUS
  0
ARC
  8
WHITE
 10
15.860816
 20
59.582102
 30
0.000000
 40
56.566560
 50
-93.272806
 51
-92.418920
  6
CONTINUOUS
  0
ARC
  8
WHITE
 10
13.212184
 20
13.185066
 30
0.000000
 40
10.093987
 50
-94.884750
 51
-93.298367
  6
CONTINUOUS
  0
ARC
  8
WHITE
 10
12.483295
 20
4.628886
 30
0.000000
 40
1.506818
 50
-98.002025
 51
-94.973417
  6
CONTINUOUS
  0
ARC
  8
WHITE
 10
13.268023
 20
7.674223
 30
0.000000
 40
0.076483
 50
-13.006062
 51
16.797399
  6
CONTINUOUS
  0
ARC
  8
WHITE
 10
13.695887
 20
7.688385
 30
0.000000
 40
0.354733
 50
178.717328
 51
185.074225
  6
CONTINUOUS
  0
ARC
  8
WHITE
 10
3.896798
 20
16.768467
 30
0.000000
 40
0.778435
 50
-148.942679
 51
-142.301910
  6
CONTINUOUS
  0
ARC
  8
WHITE
 10
3.174525
 20
16.214415
 30
0.000000
 40
0.131903
 50
18.240378
 51
36.273121
  6
CONTINUOUS
  0
ARC
  8
WHITE
 10
3.495857
 20
16.299246
 30
0.000000
 40
0.200834
 50
-167.477711
 51
-130.088304
  6
CONTINUOUS
  0
ARC
  8
WHITE
 10
3.417271
 20
16.209943
 30
0.000000
 40
0.081948
 50
-128.260213
 51
-55.088843
  6
CONTINUOUS
  0
ARC
  8
WHITE
 10
3.027207
 20
16.881925
 30
0.000000
 40
0.858678
 50
-59.410804
 51
-51.873461
  6
CONTINUOUS
  0
ARC
  8
WHITE
 10
3.594509
 20
16.153851
 30
0.000000
 40
0.064395
 50
98.959271
 51
125.237626
  6
CONTINUOUS
  0
ARC
  8
WHITE
 10
3.585528
 20
16.201081
 30
0.000000
 40
0.016413
 50
36.756047
 51
93.658820
  6
CONTINUOUS
  0
ARC
  8
WHITE
 10
3.553820
 20
16.181764
 30
0.000000
 40
0.053490
 50
5.935357
 51
33.006758
  6
CONTINUOUS
  0
ARC
  8
WHITE
 10
-213.385185
 20
11.925768
 30
0.000000
 40
217.034051
 50
0.669706
 51
1.125092
  6
CONTINUOUS
  0
ARC
  8
WHITE
 10
1.742675
 20
14.699793
 30
0.000000
 40
1.906189
 50
-29.141115
 51
-7.150171
  6
CONTINUOUS
  0
ARC
  8
WHITE
 10
6.409975
 20
12.094715
 30
0.000000
 40
3.438913
 50
150.816631
 51
162.569048
  6
CONTINUOUS
  0
ARC
  8
WHITE
 10
4.343309
 20
12.856302
 30
0.000000
 40
1.243670
 50
167.529193
 51
226.323217
  6
CONTINUOUS
  0
ARC
  8
WHITE
 10
3.451481
 20
11.908628
 30
0.000000
 40
0.058387
 50
-50.776238
 51
55.629303
  6
CONTINUOUS
  0
ARC
  8
WHITE
 10
3.223921
 20
12.140497
 30
0.000000
 40
0.383060
 50
-57.635774
 51
-46.334800
  6
CONTINUOUS
  0
ARC
  8
WHITE
 10
3.691697
 20
11.400577
 30
0.000000
 40
0.492324
 50
122.251798
 51
130.540867
  6
CONTINUOUS
  0
ARC
  8
WHITE
 10
3.654119
 20
11.486213
 30
0.000000
 40
0.403731
 50
134.390450
 51
152.036945
  6
CONTINUOUS
  0
ARC
  8
WHITE
 10
3.252257
 20
11.692559
 30
0.000000
 40
0.048366
 50
-104.204557
 51
-20.623397
  6
CONTINUOUS
  0
ARC
  8
WHITE
 10
-34.757609
 20
-27.569147
 30
0.000000
 40
54.604486
 50
45.902867
 51
46.522921
  6
CONTINUOUS
  0
ARC
  8
WHITE
 10
11.501938
 20
22.623066
 30
0.000000
 40
13.681256
 50
-133.722990
 51
-129.422964
  6
CONTINUOUS
  0
ARC
  8
WHITE
 10
2.992037
 20
13.538959
 30
0.000000
 40
1.241143
 50
-151.901479
 51
-139.673346
  6
CONTINUOUS
  0
ARC
  8
WHITE
 10
0.667500
 20
12.304905
 30
0.000000
 40
1.390663
 50
27.842072
 51
37.994416
  6
CONTINUOUS
  0
ARC
  8
WHITE
 10
4.863301
 20
14.835210
 30
0.000000
 40
3.523095
 50
-161.308535
 51
-151.626519
  6
CONTINUOUS
  0
ARC
  8
WHITE
 10
0.616351
 20
13.383071
 30
0.000000
 40
0.965340
 50
19.553435
 51
34.674233
  6
CONTINUOUS
  0
ARC
  8
WHITE
 10
1.359477
 20
13.892495
 30
0.000000
 40
0.064491
 50
38.071196
 51
78.088673
  6
CONTINUOUS
  0
ARC
  8
WHITE
 10
1.373083
 20
13.918162
 30
0.000000
 40
0.037437
 50
90.451818
 51
145.590940
  6
CONTINUOUS
  0
ARC
  8
WHITE
 10
1.498779
 20
13.828766
 30
0.000000
 40
0.191676
 50
144.776844
 51
163.903790
  6
CONTINUOUS
  0
ARC
  8
WHITE
 10
2.352852
 20
13.679097
 30
0.000000
 40
1.057858
 50
168.946887
 51
178.667391
  6
CONTINUOUS
  0
ARC
  8
WHITE
 10
0.932645
 20
13.720239
 30
0.000000
 40
0.363011
 50
-14.826234
 51
-2.611506
  6
CONTINUOUS
  0
ARC
  8
WHITE
 10
1.230812
 20
13.642843
 30
0.000000
 40
0.054987
 50
-42.573684
 51
-16.366760
  6
CONTINUOUS
  0
ARC
  8
WHITE
 10
1.251927
 20
13.619485
 30
0.000000
 40
0.023814
 50
-90.594567
 51
-35.540526
  6
CONTINUOUS
  0
ARC
  8
WHITE
 10
1.260766
 20
13.642413
 30
0.000000
 40
0.047616
 50
-173.855472
 51
-101.000758
  6
CONTINUOUS
  0
ARC
  8
WHITE
 10
1.865815
 20
13.650779
 30
0.000000
 40
0.652529
 50
175.671651
 51
181.182173
  6
CONTINUOUS
  0
ARC
  8
WHITE
 10
1.993582
 20
13.679287
 30
0.000000
 40
0.778712
 50
156.594027
 51
178.473834
  6
CONTINUOUS
  0
ARC
  8
WHITE
 10
1.704396
 20
13.809272
 30
0.000000
 40
0.461707
 50
139.066396
 51
157.141505
  6
CONTINUOUS
  0
ARC
  8
WHITE
 10
1.497032
 20
13.990579
 30
0.000000
 40
0.186264
 50
101.725308
 51
139.407933
  6
CONTINUOUS
  0
ARC
  8
WHITE
 10
1.476072
 20
14.094151
 30
0.000000
 40
0.080594
 50
39.406026
 51
102.098720
  6
CONTINUOUS
  0
ARC
  8
WHITE
 10
1.742757
 20
14.299732
 30
0.000000
 40
0.256182
 50
-142.931605
 51
-121.539903
  6
CONTINUOUS
  0
ARC
  8
WHITE
 10
1.633008
 20
14.153265
 30
0.000000
 40
0.075854
 50
-108.650561
 51
-53.678336
  6
CONTINUOUS
  0
ARC
  8
WHITE
 10
1.614637
 20
14.202126
 30
0.000000
 40
0.126893
 50
-60.076062
 51
-9.452609
  6
CONTINUOUS
  0
ARC
  8
WHITE
 10
-1.719448
 20
14.214530
 30
0.000000
 40
3.459415
 50
-0.550602
 51
3.855106
  6
CONTINUOUS
  0
ARC
  8
WHITE
 10
-0.673068
 20
14.297853
 30
0.000000
 40
2.409834
 50
3.551187
 51
7.083719
  6
CONTINUOUS
  0
ARC
  8
WHITE
 10
1.229342
 20
14.543058
 30
0.000000
 40
0.491785
 50
6.066673
 51
17.871587
  6
CONTINUOUS
  0
ARC
  8
WHITE
 10
1.751993
 20
14.719484
 30
0.000000
 40
0.060261
 50
126.694504
 51
205.039580
  6
CONTINUOUS
  0
ARC
  8
WHITE
 10
0.823634
 20
16.195726
 30
0.000000
 40
1.683822
 50
-57.997545
 51
-49.315497
  6
CONTINUOUS
  0
ARC
  8
WHITE
 10
1.625205
 20
15.131932
 30
0.000000
 40
0.364792
 50
-35.737733
 51
0.982762
  6
CONTINUOUS
  0
ARC
  8
WHITE
 10
7.331615
 20
15.197627
 30
0.000000
 40
5.342002
 50
175.142691
 51
180.637519
  6
CONTINUOUS
  0
ARC
  8
WHITE
 10
2.140755
 20
15.618073
 30
0.000000
 40
0.135756
 50
108.597960
 51
166.415775
  6
CONTINUOUS
  0
ARC
  8
WHITE
 10
-7.550158
 20
38.417398
 30
0.000000
 40
24.638085
 50
-66.947569
 51
-66.725167
  6
CONTINUOUS
  0
ARC
  8
WHITE
 10
2.106397
 20
15.972329
 30
0.000000
 40
0.203892
 50
-67.206978
 51
-41.478687
  6
CONTINUOUS
  0
ARC
  8
WHITE
 10
1.125496
 20
16.653154
 30
0.000000
 40
1.396720
 50
-35.741835
 51
-23.702799
  6
CONTINUOUS
  0
ARC
  8
WHITE
 10
3.297381
 20
15.662296
 30
0.000000
 40
0.990859
 50
147.474789
 51
154.319756
  6
CONTINUOUS
  0
ARC
  8
WHITE
 10
2.597743
 20
16.105045
 30
0.000000
 40
0.162928
 50
132.182530
 51
146.465878
  6
CONTINUOUS
  0
ARC
  8
WHITE
 10
2.516589
 20
16.195509
 30
0.000000
 40
0.041403
 50
94.001631
 51
133.027009
  6
CONTINUOUS
  0
ARC
  8
WHITE
 10
2.489282
 20
16.113753
 30
0.000000
 40
0.125457
 50
44.243663
 51
78.776908
  6
CONTINUOUS
  0
ARC
  8
WHITE
 10
1.289562
 20
14.832998
 30
0.000000
 40
1.880230
 50
43.199235
 51
46.695883
  6
CONTINUOUS
  0
ARC
  8
WHITE
 10
2.714510
 20
16.178048
 30
0.000000
 40
0.079425
 50
-133.132645
 51
-84.343649
  6
CONTINUOUS
  0
ARC
  8
WHITE
 10
2.703297
 20
16.350592
 30
0.000000
 40
0.252301
 50
-85.671768
 51
-70.055370
  6
CONTINUOUS
  0
ARC
  8
WHITE
 10
2.543549
 20
16.811066
 30
0.000000
 40
0.739680
 50
-70.590349
 51
-42.895606
  6
CONTINUOUS
  0
ARC
  8
WHITE
 10
3.492138
 20
15.909236
 30
0.000000
 40
0.569292
 50
124.303711
 51
135.594037
  6
CONTINUOUS
  0
ARC
  8
WHITE
 10
3.195366
 20
16.348779
 30
0.000000
 40
0.039032
 50
27.621729
 51
128.072270
  6
CONTINUOUS
  0
ARC
  8
WHITE
 10
9.612980
 20
12.432617
 30
0.000000
 40
0.724845
 50
-90.304785
 51
-34.877082
  6
CONTINUOUS
  0
ARC
  8
WHITE
 10
6.778632
 20
14.710014
 30
0.000000
 40
4.359383
 50
-38.133090
 51
-28.600538
  6
CONTINUOUS
  0
ARC
  8
WHITE
 10
9.234848
 20
13.698004
 30
0.000000
 40
1.742275
 50
-38.090855
 51
-18.765842
  6
CONTINUOUS
  0
ARC
  8
WHITE
 10
6.674019
 20
14.149544
 30
0.000000
 40
4.330404
 50
-13.515227
 51
-9.883138
  6
CONTINUOUS
  0
ARC
  8
WHITE
 10
7.214292
 20
13.292248
 30
0.000000
 40
3.727613
 50
1.752969
 51
3.397214
  6
CONTINUOUS
  0
ARC
  8
WHITE
 10
11.238792
 20
13.532467
 30
0.000000
 40
0.304052
 50
160.593530
 51
183.644771
  6
CONTINUOUS
  0
ARC
  8
WHITE
 10
11.127270
 20
13.559976
 30
0.000000
 40
0.190053
 50
129.485999
 51
157.242534
  6
CONTINUOUS
  0
ARC
  8
WHITE
 10
11.070032
 20
13.632124
 30
0.000000
 40
0.097987
 50
78.577521
 51
130.481851
  6
CONTINUOUS
  0
ARC
  8
WHITE
 10
11.056584
 20
13.588132
 30
0.000000
 40
0.143840
 50
25.002135
 51
76.796950
  6
CONTINUOUS
  0
ARC
  8
WHITE
 10
10.781107
 20
13.464648
 30
0.000000
 40
0.445716
 50
4.058268
 51
24.421302
  6
CONTINUOUS
  0
ARC
  8
WHITE
 10
8.766540
 20
13.345980
 30
0.000000
 40
2.463750
 50
-4.853517
 51
3.495421
  6
CONTINUOUS
  0
ARC
  8
WHITE
 10
11.476976
 20
13.122768
 30
0.000000
 40
0.255946
 50
176.694546
 51
191.006025
  6
CONTINUOUS
  0
ARC
  8
WHITE
 10
11.346641
 20
13.089264
 30
0.000000
 40
0.121875
 50
-172.760091
 51
-159.270584
  6
CONTINUOUS
  0
ARC
  8
WHITE
 10
11.256692
 20
13.053834
 30
0.000000
 40
0.025243
 50
-162.219069
 51
-64.228298
  6
CONTINUOUS
  0
ARC
  8
WHITE
 10
11.155918
 20
13.152248
 30
0.000000
 40
0.164815
 50
-47.310413
 51
-37.833228
  6
CONTINUOUS
  0
ARC
  8
WHITE
 10
10.755044
 20
13.564816
 30
0.000000
 40
0.738820
 50
-44.046625
 51
-37.852663
  6
CONTINUOUS
  0
ARC
  8
WHITE
 10
10.008765
 20
14.156992
 30
0.000000
 40
1.691481
 50
-38.179052
 51
-31.883536
  6
CONTINUOUS
  0
ARC
  8
WHITE
 10
9.861574
 20
14.444512
 30
0.000000
 40
1.975351
 50
-36.715595
 51
-1.842313
  6
CONTINUOUS
  0
ARC
  8
WHITE
 10
12.225738
 20
14.288779
 30
0.000000
 40
0.400595
 50
156.607170
 51
166.689590
  6
CONTINUOUS
  0
ARC
  8
WHITE
 10
11.616322
 20
14.552760
 30
0.000000
 40
0.263539
 50
-23.463404
 51
-7.408432
  6
CONTINUOUS
  0
ARC
  8
WHITE
 10
25.009826
 20
14.090587
 30
0.000000
 40
13.139143
 50
171.566163
 51
178.132456
  6
CONTINUOUS
  0
ARC
  8
WHITE
 10
12.135841
 20
15.976656
 30
0.000000
 40
0.129724
 50
77.362318
 51
161.569456
  6
CONTINUOUS
  0
ARC
  8
WHITE
 10
12.149373
 20
16.024572
 30
0.000000
 40
0.080055
 50
37.393083
 51
79.310037
  6
CONTINUOUS
  0
ARC
  8
WHITE
 10
12.071901
 20
15.966626
 30
0.000000
 40
0.176798
 50
15.872837
 51
37.065833
  6
CONTINUOUS
  0
ARC
  8
WHITE
 10
11.776629
 20
15.886308
 30
0.000000
 40
0.482792
 50
-1.482180
 51
15.457196
  6
CONTINUOUS
  0
ARC
  8
WHITE
 10
12.365227
 20
15.865475
 30
0.000000
 40
0.106298
 50
175.497231
 51
189.824481
  6
CONTINUOUS
  0
ARC
  8
WHITE
 10
12.300397
 20
15.863497
 30
0.000000
 40
0.043056
 50
-157.956114
 51
-112.967137
  6
CONTINUOUS
  0
ARC
  8
WHITE
 10
12.327326
 20
15.884571
 30
0.000000
 40
0.074824
 50
-125.762394
 51
-99.338170
  6
CONTINUOUS
  0
ARC
  8
WHITE
 10
12.312674
 20
15.850012
 30
0.000000
 40
0.039354
 50
-86.341745
 51
-15.950035
  6
CONTINUOUS
  0
ARC
  8
WHITE
 10
11.734028
 20
15.850872
 30
0.000000
 40
0.616595
 50
-1.084886
 51
1.922921
  6
CONTINUOUS
  0
ARC
  8
WHITE
 10
9.175272
 20
16.108857
 30
0.000000
 40
3.183859
 50
-4.274256
 51
-2.343010
  6
CONTINUOUS
  0
ARC
  8
WHITE
 10
3.085475
 20
16.359687
 30
0.000000
 40
9.278819
 50
-2.353249
 51
-0.370012
  6
CONTINUOUS
  0
ARC
  8
WHITE
 10
10.184486
 20
16.410252
 30
0.000000
 40
2.182414
 50
-2.901887
 51
10.368841
  6
CONTINUOUS
  0
ARC
  8
WHITE
 10
12.247896
 20
16.730361
 30
0.000000
 40
0.110605
 50
41.087497
 51
69.540481
  6
CONTINUOUS
  0
ARC
  8
WHITE
 10
12.267170
 20
16.772882
 30
0.000000
 40
0.064109
 50
72.397267
 51
110.973643
  6
CONTINUOUS
  0
ARC
  8
WHITE
 10
12.343580
 20
16.637146
 30
0.000000
 40
0.219385
 50
116.929097
 51
144.764140
  6
CONTINUOUS
  0
ARC
  8
WHITE
 10
10.771641
 20
17.703018
 30
0.000000
 40
1.679891
 50
-43.260597
 51
-33.996558
  6
CONTINUOUS
  0
ARC
  8
WHITE
 10
11.934848
 20
16.642393
 30
0.000000
 40
0.108785
 50
-170.848549
 51
-56.423326
  6
CONTINUOUS
  0
ARC
  8
WHITE
 10
12.466397
 20
16.739439
 30
0.000000
 40
0.649101
 50
175.112700
 51
190.146359
  6
CONTINUOUS
  0
ARC
  8
WHITE
 10
2.926016
 20
17.517597
 30
0.000000
 40
8.922968
 50
-4.646671
 51
-3.511929
  6
CONTINUOUS
  0
ARC
  8
WHITE
 10
11.505426
 20
17.020278
 30
0.000000
 40
0.330494
 50
-8.573501
 51
45.765691
  6
CONTINUOUS
  0
ARC
  8
WHITE
 10
11.675739
 20
17.197814
 30
0.000000
 40
0.084502
 50
44.531546
 51
81.592579
  6
CONTINUOUS
  0
ARC
  8
WHITE
 10
11.686781
 20
17.225200
 30
0.000000
 40
0.056223
 50
88.661693
 51
133.594151
  6
CONTINUOUS
  0
ARC
  8
WHITE
 10
11.870087
 20
17.065186
 30
0.000000
 40
0.299351
 50
137.889559
 51
160.493267
  6
CONTINUOUS
  0
ARC
  8
WHITE
 10
10.035787
 20
17.667533
 30
0.000000
 40
1.631413
 50
-27.714877
 51
-17.935552
  6
CONTINUOUS
  0
ARC
  8
WHITE
 10
11.387830
 20
16.978520
 30
0.000000
 40
0.115590
 50
-69.758142
 51
-37.091705
  6
CONTINUOUS
  0
ARC
  8
WHITE
 10
11.414591
 20
16.922586
 30
0.000000
 40
0.054157
 50
-127.160641
 51
-75.859228
  6
CONTINUOUS
  0
ARC
  8
WHITE
 10
11.553907
 20
17.069435
 30
0.000000
 40
0.256317
 50
-158.200228
 51
-132.156901
  6
CONTINUOUS
  0
ARC
  8
WHITE
 10
22.311126
 20
21.116231
 30
0.000000
 40
11.749493
 50
-161.199649
 51
-159.358203
  6
CONTINUOUS
  0
ARC
  8
WHITE
 10
10.833097
 20
17.227364
 30
0.000000
 40
0.369845
 50
16.064044
 51
45.452924
  6
CONTINUOUS
  0
ARC
  8
WHITE
 10
11.087874
 20
17.465318
 30
0.000000
 40
0.026047
 50
79.677100
 51
153.687140
  6
CONTINUOUS
  0
ARC
  8
WHITE
 10
11.250099
 20
17.356871
 30
0.000000
 40
0.220987
 50
147.112981
 51
163.473290
  6
CONTINUOUS
  0
ARC
  8
WHITE
 10
12.885845
 20
16.911487
 30
0.000000
 40
1.916235
 50
164.619264
 51
170.888393
  6
CONTINUOUS
  0
ARC
  8
WHITE
 10
7.845643
 20
17.645601
 30
0.000000
 40
3.177467
 50
-15.122591
 51
-7.789643
  6
CONTINUOUS
  0
ARC
  8
WHITE
 10
11.324510
 20
16.653121
 30
0.000000
 40
0.442742
 50
158.324569
 51
173.949655
  6
CONTINUOUS
  0
ARC
  8
WHITE
 10
27.306861
 20
14.851204
 30
0.000000
 40
16.526340
 50
173.577639
 51
173.879679
  6
CONTINUOUS
  0
ARC
  8
WHITE
 10
-22.457415
 20
26.877840
 30
0.000000
 40
34.876843
 50
-17.979623
 51
-17.116249
  6
CONTINUOUS
  0
ARC
  8
WHITE
 10
12.646052
 20
15.561558
 30
0.000000
 40
2.006783
 50
164.077268
 51
169.402864
  6
CONTINUOUS
  0
ARC
  8
WHITE
 10
10.055099
 20
16.044501
 30
0.000000
 40
0.628798
 50
-25.983067
 51
-10.435324
  6
CONTINUOUS
  0
ARC
  8
WHITE
 10
11.518297
 20
15.409713
 30
0.000000
 40
0.967177
 50
158.191685
 51
164.422166
  6
CONTINUOUS
  0
ARC
  8
WHITE
 10
21.614395
 20
12.416919
 30
0.000000
 40
11.497396
 50
163.567089
 51
164.718520
  6
CONTINUOUS
  0
ARC
  8
WHITE
 10
28.074386
 20
10.667594
 30
0.000000
 40
18.190040
 50
164.766177
 51
166.869193
  6
CONTINUOUS
  0
ARC
  8
WHITE
 10
142.117290
 20
14.188830
 30
0.000000
 40
131.758764
 50
179.734266
 51
180.122869
  6
CONTINUOUS
  0
ARC
  8
WHITE
 10
6.164139
 20
13.986118
 30
0.000000
 40
4.195450
 50
-13.525455
 51
-1.090417
  6
CONTINUOUS
  0
ARC
  8
WHITE
 10
8.207082
 20
13.231609
 30
0.000000
 40
2.048733
 50
-23.040154
 51
-6.353331
  6
CONTINUOUS
  0
ARC
  8
WHITE
 10
8.229560
 20
13.432961
 30
0.000000
 40
2.115774
 50
-50.730738
 51
-28.303503
  6
CONTINUOUS
  0
ARC
  8
WHITE
 10
10.195005
 20
11.433485
 30
0.000000
 40
0.723077
 50
150.004759
 51
152.731080
  6
CONTINUOUS
  0
ARC
  8
WHITE
 10
9.588991
 20
11.753286
 30
0.000000
 40
0.038461
 50
162.618675
 51
255.660312
  6
CONTINUOUS
  0
ARC
  8
WHITE
 10
9.630953
 20
11.843829
 30
0.000000
 40
0.137787
 50
-111.942468
 51
-99.115454
  6
CONTINUOUS
  0
ARC
  8
WHITE
 10
9.455243
 20
0.699388
 30
0.000000
 40
0.079023
 50
-100.465621
 51
-79.275595
  6
CONTINUOUS
  0
ARC
  8
WHITE
 10
9.423601
 20
0.902842
 30
0.000000
 40
0.284892
 50
-80.637353
 51
-72.095346
  6
CONTINUOUS
  0
ARC
  8
WHITE
 10
9.404490
 20
0.975148
 30
0.000000
 40
0.359593
 50
-72.739690
 51
-57.875365
  6
CONTINUOUS
  0
ARC
  8
WHITE
 10
6.506185
 20
4.185729
 30
0.000000
 40
4.679874
 50
-48.686972
 51
-47.265897
  6
CONTINUOUS
  0
ARC
  8
WHITE
 10
12.446013
 20
-2.350570
 30
0.000000
 40
4.152494
 50
127.724153
 51
131.731704
  6
CONTINUOUS
  0
ARC
  8
WHITE
 10
10.022035
 20
0.799793
 30
0.000000
 40
0.177827
 50
75.615390
 51
131.044462
  6
CONTINUOUS
  0
ARC
  8
WHITE
 10
9.963096
 20
0.681361
 30
0.000000
 40
0.308431
 50
40.404873
 51
70.468487
  6
CONTINUOUS
  0
ARC
  8
WHITE
 10
9.381917
 20
0.191082
 30
0.000000
 40
1.068786
 50
27.465244
 51
40.224100
  6
CONTINUOUS
  0
ARC
  8
WHITE
 10
10.475421
 20
0.852308
 30
0.000000
 40
0.222259
 50
-130.783490
 51
-51.738503
  6
CONTINUOUS
  0
ARC
  8
WHITE
 10
10.589412
 20
0.708279
 30
0.000000
 40
0.038580
 50
-52.205912
 51
23.627031
  6
CONTINUOUS
  0
ARC
  8
WHITE
 10
10.411095
 20
0.635401
 30
0.000000
 40
0.231205
 50
22.462919
 51
40.461020
  6
CONTINUOUS
  0
ARC
  8
WHITE
 10
12.187414
 20
2.196550
 30
0.000000
 40
2.133669
 50
-143.229031
 51
-138.596692
  6
CONTINUOUS
  0
ARC
  8
WHITE
 10
10.554410
 20
0.970272
 30
0.000000
 40
0.091627
 50
115.846011
 51
213.801855
  6
CONTINUOUS
  0
ARC
  8
WHITE
 10
10.834895
 20
0.469511
 30
0.000000
 40
0.665449
 50
97.743434
 51
118.784982
  6
CONTINUOUS
  0
ARC
  8
WHITE
 10
11.088263
 20
-1.028124
 30
0.000000
 40
2.184122
 50
83.387923
 51
99.036043
  6
CONTINUOUS
  0
ARC
  8
WHITE
 10
18.978368
 20
48.069961
 30
0.000000
 40
47.546100
 50
-99.245029
 51
-98.310655
  6
CONTINUOUS
  0
ARC
  8
WHITE
 10
12.110741
 20
1.087793
 30
0.000000
 40
0.064817
 50
-94.155186
 51
-62.866577
  6
CONTINUOUS
  0
ARC
  8
WHITE
 10
12.123627
 20
1.031076
 30
0.000000
 40
0.016703
 50
-3.317915
 51
83.494001
  6
CONTINUOUS
  0
ARC
  8
WHITE
 10
11.867567
 20
0.533594
 30
0.000000
 40
0.575165
 50
63.353525
 51
70.350770
  6
CONTINUOUS
  0
ARC
  8
WHITE
 10
10.455556
 20
-3.433564
 30
0.000000
 40
4.786117
 50
70.401193
 51
73.212129
  6
CONTINUOUS
  0
ARC
  8
WHITE
 10
16.224355
 20
15.907096
 30
0.000000
 40
15.396584
 50
-108.246232
 51
-106.552647
  6
CONTINUOUS
  0
ARC
  8
WHITE
 10
11.424006
 20
1.368314
 30
0.000000
 40
0.086095
 50
167.863216
 51
256.333136
  6
CONTINUOUS
  0
ARC
  8
WHITE
 10
11.406428
 20
1.364965
 30
0.000000
 40
0.069963
 50
106.719468
 51
162.145817
  6
CONTINUOUS
  0
ARC
  8
WHITE
 10
11.498643
 20
1.040181
 30
0.000000
 40
0.407578
 50
89.930931
 51
105.999811
  6
CONTINUOUS
  0
ARC
  8
WHITE
 10
11.424967
 20
-3.663614
 30
0.000000
 40
5.111910
 50
84.567468
 51
89.168682
  6
CONTINUOUS
  0
ARC
  8
WHITE
 10
11.532789
 20
-14.488392
 30
0.000000
 40
15.918172
 50
86.755735
 51
88.645995
  6
CONTINUOUS
  0
ARC
  8
WHITE
 10
12.414671
 20
1.310563
 30
0.000000
 40
0.095607
 50
60.413709
 51
78.553933
  6
CONTINUOUS
  0
ARC
  8
WHITE
 10
12.521469
 20
1.494695
 30
0.000000
 40
0.117263
 50
-120.544376
 51
-105.473889
  6
CONTINUOUS
  0
ARC
  8
WHITE
 10
12.503474
 20
1.437419
 30
0.000000
 40
0.057298
 50
-103.412002
 51
-73.716943
  6
CONTINUOUS
  0
ARC
  8
WHITE
 10
12.511383
 20
1.412518
 30
0.000000
 40
0.031185
 50
-74.837645
 51
-23.271242
  6
CONTINUOUS
  0
ARC
  8
WHITE
 10
12.488488
 20
1.418806
 30
0.000000
 40
0.054799
 50
-19.851262
 51
53.972415
  6
CONTINUOUS
  0
ARC
  8
WHITE
 10
12.339990
 20
1.226079
 30
0.000000
 40
0.298084
 50
52.677125
 51
71.153958
  6
CONTINUOUS
  0
ARC
  8
WHITE
 10
13.267065
 20
4.148955
 30
0.000000
 40
2.768372
 50
-111.450644
 51
-107.463557
  6
CONTINUOUS
  0
ARC
  8
WHITE
 10
12.359502
 20
1.755943
 30
0.000000
 40
0.211422
 50
-138.926307
 51
-119.724540
  6
CONTINUOUS
  0
ARC
  8
WHITE
 10
12.234653
 20
1.647332
 30
0.000000
 40
0.045942
 50
171.056655
 51
221.262495
  6
CONTINUOUS
  0
ARC
  8
WHITE
 10
12.265397
 20
1.624790
 30
0.000000
 40
0.081710
 50
118.179741
 51
158.697921
  6
CONTINUOUS
  0
ARC
  8
WHITE
 10
13.899266
 20
-1.799894
 30
0.000000
 40
3.876091
 50
112.251407
 51
115.561520
  6
CONTINUOUS
  0
ARC
  8
WHITE
 10
12.364100
 20
1.961046
 30
0.000000
 40
0.186129
 50
-68.769457
 51
-33.959614
  6
CONTINUOUS
  0
ARC
  8
WHITE
 10
12.443973
 20
1.894715
 30
0.000000
 40
0.083477
 50
-26.803304
 51
9.277842
  6
CONTINUOUS
  0
ARC
  8
WHITE
 10
12.483295
 20
1.894809
 30
0.000000
 40
0.045088
 50
17.241603
 51
68.618514
  6
CONTINUOUS
  0
ARC
  8
WHITE
 10
12.423005
 20
1.679437
 30
0.000000
 40
0.268551
 50
73.398647
 51
98.073951
  6
CONTINUOUS
  0
ARC
  8
WHITE
 10
13.297466
 20
-4.165079
 30
0.000000
 40
6.178117
 50
98.490581
 51
101.722010
  6
CONTINUOUS
  0
ARC
  8
WHITE
 10
11.956098
 20
2.219363
 30
0.000000
 40
0.346078
 50
-99.696958
 51
-75.577026
  6
CONTINUOUS
  0
ARC
  8
WHITE
 10
11.917948
 20
1.933327
 30
0.000000
 40
0.058664
 50
160.427819
 51
249.918731
  6
CONTINUOUS
  0
ARC
  8
WHITE
 10
12.155011
 20
1.729254
 30
0.000000
 40
0.368122
 50
125.900835
 51
142.573259
  6
CONTINUOUS
  0
ARC
  8
WHITE
 10
11.821301
 20
2.180626
 30
0.000000
 40
0.193269
 50
-52.427283
 51
-32.494250
  6
CONTINUOUS
  0
ARC
  8
WHITE
 10
11.939886
 20
2.093244
 30
0.000000
 40
0.047372
 50
-20.312236
 51
13.467557
  6
CONTINUOUS
  0
ARC
  8
WHITE
 10
11.974594
 20
2.097359
 30
0.000000
 40
0.013303
 50
31.335014
 51
107.340893
  6
CONTINUOUS
  0
ARC
  8
WHITE
 10
12.016069
 20
1.942877
 30
0.000000
 40
0.173246
 50
105.205791
 51
121.822345
  6
CONTINUOUS
  0
ARC
  8
WHITE
 10
10.530435
 20
4.259610
 30
0.000000
 40
2.578930
 50
-61.842206
 51
-57.272493
  6
CONTINUOUS
  0
ARC
  8
WHITE
 10
11.612750
 20
2.200067
 30
0.000000
 40
0.253003
 50
-96.727342
 51
-57.835796
  6
CONTINUOUS
  0
ARC
  8
WHITE
 10
11.598596
 20
1.991887
 30
0.000000
 40
0.045780
 50
154.347880
 51
250.231105
  6
CONTINUOUS
  0
ARC
  8
WHITE
 10
11.862127
 20
1.830106
 30
0.000000
 40
0.354797
 50
129.601438
 51
149.213478
  6
CONTINUOUS
  0
ARC
  8
WHITE
 10
12.915245
 20
0.668100
 30
0.000000
 40
1.922722
 50
122.803991
 51
131.709068
  6
CONTINUOUS
  0
ARC
  8
WHITE
 10
9.370976
 20
6.806513
 30
0.000000
 40
5.168587
 50
-61.040286
 51
-58.619013
  6
CONTINUOUS
  0
ARC
  8
WHITE
 10
11.945629
 20
2.603582
 30
0.000000
 40
0.239943
 50
-60.879784
 51
-9.770953
  6
CONTINUOUS
  0
ARC
  8
WHITE
 10
12.087351
 20
2.581874
 30
0.000000
 40
0.096628
 50
-11.347523
 51
68.682683
  6
CONTINUOUS
  0
ARC
  8
WHITE
 10
12.043748
 20
2.391870
 30
0.000000
 40
0.290878
 50
74.296181
 51
125.401551
  6
CONTINUOUS
  0
ARC
  8
WHITE
 10
12.176460
 20
2.186676
 30
0.000000
 40
0.535121
 50
124.256420
 51
152.725320
  6
CONTINUOUS
  0
ARC
  8
WHITE
 10
11.415874
 20
2.568703
 30
0.000000
 40
0.316096
 50
-95.574552
 51
-25.644829
  6
CONTINUOUS
  0
ARC
  8
WHITE
 10
11.407766
 20
2.315691
 30
0.000000
 40
0.065604
 50
-158.019887
 51
-110.148749
  6
CONTINUOUS
  0
ARC
  8
WHITE
 10
11.504763
 20
2.356728
 30
0.000000
 40
0.170919
 50
179.662574
 51
202.566654
  6
CONTINUOUS
  0
ARC
  8
WHITE
 10
11.564378
 20
2.362703
 30
0.000000
 40
0.230584
 50
143.697649
 51
181.234661
  6
CONTINUOUS
  0
ARC
  8
WHITE
 10
13.540548
 20
0.361765
 30
0.000000
 40
3.040222
 50
123.502465
 51
135.327079
  6
CONTINUOUS
  0
ARC
  8
WHITE
 10
11.695369
 20
3.091655
 30
0.000000
 40
0.256598
 50
-49.378686
 51
-16.880736
  6
CONTINUOUS
  0
ARC
  8
WHITE
 10
11.715231
 20
3.066747
 30
0.000000
 40
0.231065
 50
-12.396152
 51
150.854684
  6
CONTINUOUS
  0
ARC
  8
WHITE
 10
13.635010
 20
1.967684
 30
0.000000
 40
2.443175
 50
150.270154
 51
159.931801
  6
CONTINUOUS
  0
ARC
  8
WHITE
 10
1.474693
 20
8.488190
 30
0.000000
 40
11.384842
 50
-34.349390
 51
-29.940383
  6
CONTINUOUS
  0
ARC
  8
WHITE
 10
10.663527
 20
2.241649
 30
0.000000
 40
0.275266
 50
-83.845193
 51
-40.076368
  6
CONTINUOUS
  0
ARC
  8
WHITE
 10
10.681389
 20
2.040293
 30
0.000000
 40
0.073257
 50
172.383451
 51
279.151217
  6
CONTINUOUS
  0
ARC
  8
WHITE
 10
10.095609
 20
2.070459
 30
0.000000
 40
0.513578
 50
-2.282767
 51
11.676989
  6
CONTINUOUS
  0
ARC
  8
WHITE
 10
10.516035
 20
2.160578
 30
0.000000
 40
0.083673
 50
9.511131
 51
56.404065
  6
CONTINUOUS
  0
ARC
  8
WHITE
 10
10.556019
 20
2.209600
 30
0.000000
 40
0.021617
 50
73.014658
 51
118.910538
  6
CONTINUOUS
  0
ARC
  8
WHITE
 10
10.603104
 20
2.113672
 30
0.000000
 40
0.128458
 50
116.608992
 51
128.670726
  6
CONTINUOUS
  0
ARC
  8
WHITE
 10
14.101309
 20
-2.114594
 30
0.000000
 40
5.616215
 50
129.580940
 51
130.367820
  6
CONTINUOUS
  0
ARC
  8
WHITE
 10
11.420101
 20
1.038914
 30
0.000000
 40
1.476953
 50
130.355557
 51
165.377267
  6
CONTINUOUS
  0
ARC
  8
WHITE
 10
9.878421
 20
1.452023
 30
0.000000
 40
0.119546
 50
-99.143844
 51
-19.674091
  6
CONTINUOUS
  0
ARC
  8
WHITE
 10
9.878115
 20
1.389999
 30
0.000000
 40
0.059040
 50
-173.823266
 51
-108.456920
  6
CONTINUOUS
  0
ARC
  8
WHITE
 10
10.145955
 20
1.438722
 30
0.000000
 40
0.331149
 50
173.364227
 51
189.573694
  6
CONTINUOUS
  0
ARC
  8
WHITE
 10
11.538574
 20
1.270608
 30
0.000000
 40
1.733876
 50
168.215937
 51
173.163961
  6
CONTINUOUS
  0
ARC
  8
WHITE
 10
9.826144
 20
1.630125
 30
0.000000
 40
0.016040
 50
-19.743325
 51
62.644899
  6
CONTINUOUS
  0
ARC
  8
WHITE
 10
9.846192
 20
1.601925
 30
0.000000
 40
0.044299
 50
106.629442
 51
140.453260
  6
CONTINUOUS
  0
ARC
  8
WHITE
 10
10.393482
 20
1.116185
 30
0.000000
 40
0.776031
 50
138.526395
 51
147.089619
  6
CONTINUOUS
  0
ARC
  8
WHITE
 10
-7.218796
 20
12.459439
 30
0.000000
 40
20.172998
 50
-33.375082
 51
-32.778840
  6
CONTINUOUS
  0
ARC
  8
WHITE
 10
9.514943
 20
1.503451
 30
0.000000
 40
0.180781
 50
-140.962774
 51
-51.526694
  6
CONTINUOUS
  0
ARC
  8
WHITE
 10
9.462981
 20
1.448097
 30
0.000000
 40
0.106056
 50
-163.938337
 51
-146.518944
  6
CONTINUOUS
  0
ARC
  8
WHITE
 10
8.754210
 20
1.243705
 30
0.000000
 40
0.631597
 50
16.090380
 51
19.031325
  6
CONTINUOUS
  0
ARC
  8
WHITE
 10
6.174537
 20
-0.156410
 30
0.000000
 40
3.559660
 50
26.819810
 51
33.271318
  6
CONTINUOUS
  0
ARC
  8
WHITE
 10
0.073535
 20
-3.910609
 30
0.000000
 40
10.722190
 50
32.158603
 51
33.928480
  6
CONTINUOUS
  0
ARC
  8
WHITE
 10
5.526727
 20
-0.593930
 30
0.000000
 40
4.356039
 50
37.769141
 51
45.453752
  6
CONTINUOUS
  0
ARC
  8
WHITE
 10
7.723339
 20
1.496007
 30
0.000000
 40
1.329408
 50
49.743161
 51
61.939806
  6
CONTINUOUS
  0
ARC
  8
WHITE
 10
8.107648
 20
2.231704
 30
0.000000
 40
0.499460
 50
61.144103
 51
93.435415
  6
CONTINUOUS
  0
ARC
  8
WHITE
 10
8.276787
 20
1.917644
 30
0.000000
 40
0.836649
 50
103.764705
 51
113.195949
  6
CONTINUOUS
  0
ARC
  8
WHITE
 10
8.410751
 20
1.494402
 30
0.000000
 40
1.279185
 50
111.244013
 51
118.646336
  6
CONTINUOUS
  0
ARC
  8
WHITE
 10
7.818694
 20
2.573105
 30
0.000000
 40
0.048749
 50
115.760269
 51
146.533377
  6
CONTINUOUS
  0
ARC
  8
WHITE
 10
7.934181
 20
2.572439
 30
0.000000
 40
0.158565
 50
169.994816
 51
196.517532
  6
CONTINUOUS
  0
ARC
  8
WHITE
 10
7.824736
 20
2.543692
 30
0.000000
 40
0.045602
 50
-159.010746
 51
-100.415795
  6
CONTINUOUS
  0
ARC
  8
WHITE
 10
7.841339
 20
2.772154
 30
0.000000
 40
0.274441
 50
-95.194615
 51
-74.594907
  6
CONTINUOUS
  0
ARC
  8
WHITE
 10
8.139532
 20
1.819750
 30
0.000000
 40
0.723780
 50
77.411450
 51
108.135717
  6
CONTINUOUS
  0
ARC
  8
WHITE
 10
8.156685
 20
2.084917
 30
0.000000
 40
0.463072
 50
38.134736
 51
72.325420
  6
CONTINUOUS
  0
ARC
  8
WHITE
 10
7.488304
 20
1.510168
 30
0.000000
 40
1.344285
 50
33.026389
 51
39.811765
  6
CONTINUOUS
  0
ARC
  8
WHITE
 10
7.445412
 20
0.931979
 30
0.000000
 40
1.757035
 50
43.564596
 51
48.250457
  6
CONTINUOUS
  0
ARC
  8
WHITE
 10
8.595947
 20
2.015770
 30
0.000000
 40
0.176605
 50
3.327018
 51
46.032249
  6
CONTINUOUS
  0
ARC
  8
WHITE
 10
8.624866
 20
2.032937
 30
0.000000
 40
0.147551
 50
-15.564897
 51
-2.687242
  6
CONTINUOUS
  0
ARC
  8
WHITE
 10
8.738756
 20
2.000581
 30
0.000000
 40
0.029162
 50
-68.913056
 51
-14.367601
  6
CONTINUOUS
  0
ARC
  8
WHITE
 10
8.740389
 20
2.034098
 30
0.000000
 40
0.061370
 50
-121.064130
 51
-81.699761
  6
CONTINUOUS
  0
ARC
  8
WHITE
 10
8.006077
 20
0.615306
 30
0.000000
 40
1.536320
 50
62.783347
 51
87.329620
  6
CONTINUOUS
  0
ARC
  8
WHITE
 10
8.061784
 20
1.232986
 30
0.000000
 40
0.917108
 50
89.008470
 51
103.228716
  6
CONTINUOUS
  0
ARC
  8
WHITE
 10
7.397635
 20
4.049782
 30
0.000000
 40
1.976926
 50
-83.315574
 51
-76.715256
  6
CONTINUOUS
  0
ARC
  8
WHITE
 10
7.648556
 20
1.883813
 30
0.000000
 40
0.203548
 50
95.866642
 51
147.168348
  6
CONTINUOUS
  0
ARC
  8
WHITE
 10
7.792551
 20
1.784429
 30
0.000000
 40
0.378465
 50
146.344911
 51
174.802208
  6
CONTINUOUS
  0
ARC
  8
WHITE
 10
7.517817
 20
1.803436
 30
0.000000
 40
0.103310
 50
171.494690
 51
204.240449
  6
CONTINUOUS
  0
ARC
  8
WHITE
 10
7.470315
 20
1.787450
 30
0.000000
 40
0.053660
 50
-150.492081
 51
-103.513251
  6
CONTINUOUS
  0
ARC
  8
WHITE
 10
7.489296
 20
1.944465
 30
0.000000
 40
0.211550
 50
-98.568595
 51
-71.527789
  6
CONTINUOUS
  0
ARC
  8
WHITE
 10
5.586641
 20
7.448280
 30
0.000000
 40
6.034947
 50
-70.950821
 51
-68.655633
  6
CONTINUOUS
  0
ARC
  8
WHITE
 10
7.997116
 20
0.962245
 30
0.000000
 40
0.891086
 50
76.062736
 51
103.890465
  6
CONTINUOUS
  0
ARC
  8
WHITE
 10
8.104747
 20
1.460963
 30
0.000000
 40
0.381448
 50
7.780353
 51
73.710068
  6
CONTINUOUS
  0
ARC
  8
WHITE
 10
8.423076
 20
1.514896
 30
0.000000
 40
0.059651
 50
-73.347946
 51
-2.204265
  6
CONTINUOUS
  0
ARC
  8
WHITE
 10
8.372551
 20
1.724500
 30
0.000000
 40
0.275190
 50
-96.175903
 51
-75.775872
  6
CONTINUOUS
  0
ARC
  8
WHITE
 10
8.098371
 20
-0.269185
 30
0.000000
 40
1.737393
 50
81.907530
 51
91.093863
  6
CONTINUOUS
  0
ARC
  8
WHITE
 10
8.073902
 20
1.298447
 30
0.000000
 40
0.169667
 50
92.938715
 51
117.231280
  6
CONTINUOUS
  0
ARC
  8
WHITE
 10
8.026453
 20
1.385324
 30
0.000000
 40
0.070749
 50
115.257622
 51
169.261652
  6
CONTINUOUS
  0
ARC
  8
WHITE
 10
7.990309
 20
1.393548
 30
0.000000
 40
0.033732
 50
171.547606
 51
265.648249
  6
CONTINUOUS
  0
ARC
  8
WHITE
 10
8.076329
 20
1.766344
 30
0.000000
 40
0.415972
 50
-102.295046
 51
-95.452731
  6
CONTINUOUS
  0
ARC
  8
WHITE
 10
7.763452
 20
0.370789
 30
0.000000
 40
1.018820
 50
67.255335
 51
74.436864
  6
CONTINUOUS
  0
ARC
  8
WHITE
 10
8.251122
 20
1.819649
 30
0.000000
 40
0.517827
 50
-100.432728
 51
-81.512501
  6
CONTINUOUS
  0
ARC
  8
WHITE
 10
8.299814
 20
1.431859
 30
0.000000
 40
0.127421
 50
-77.427685
 51
-65.420383
  6
CONTINUOUS
  0
ARC
  8
WHITE
 10
8.525868
 20
0.893785
 30
0.000000
 40
0.456289
 50
105.863723
 51
112.287886
  6
CONTINUOUS
  0
ARC
  8
WHITE
 10
8.592456
 20
0.573024
 30
0.000000
 40
0.783391
 50
88.796849
 51
104.135343
  6
CONTINUOUS
  0
ARC
  8
WHITE
 10
7.672742
 20
-6.341705
 30
0.000000
 40
7.754664
 50
80.011477
 51
83.066192
  6
CONTINUOUS
  0
ARC
  8
WHITE
 10
8.976201
 20
1.196990
 30
0.000000
 40
0.106855
 50
28.979656
 51
67.091502
  6
CONTINUOUS
  0
ARC
  8
WHITE
 10
8.843602
 20
1.099061
 30
0.000000
 40
0.271146
 50
26.570968
 51
33.511356
  6
CONTINUOUS
  0
ARC
  8
WHITE
 10
9.055291
 20
1.199356
 30
0.000000
 40
0.037287
 50
-58.847751
 51
34.258367
  6
CONTINUOUS
  0
ARC
  8
WHITE
 10
9.044296
 20
1.258616
 30
0.000000
 40
0.096069
 50
-92.203451
 51
-71.624856
  6
CONTINUOUS
  0
ARC
  8
WHITE
 10
9.031259
 20
1.586516
 30
0.000000
 40
0.424001
 50
-98.984792
 51
-88.737321
  6
CONTINUOUS
  0
ARC
  8
WHITE
 10
8.980957
 20
-0.765457
 30
0.000000
 40
1.933239
 50
90.471692
 51
104.523200
  6
CONTINUOUS
  0
ARC
  8
WHITE
 10
8.932423
 20
-0.055424
 30
0.000000
 40
1.240667
 50
110.587670
 51
121.592263
  6
CONTINUOUS
  0
ARC
  8
WHITE
 10
8.387247
 20
0.806809
 30
0.000000
 40
0.220981
 50
118.302569
 51
150.100573
  6
CONTINUOUS
  0
ARC
  8
WHITE
 10
8.253676
 20
0.897726
 30
0.000000
 40
0.061106
 50
161.649548
 51
189.096182
  6
CONTINUOUS
  0
ARC
  8
WHITE
 10
8.220363
 20
0.893692
 30
0.000000
 40
0.027604
 50
-168.239288
 51
-124.930727
  6
CONTINUOUS
  0
ARC
  8
WHITE
 10
8.241540
 20
0.943555
 30
0.000000
 40
0.081381
 50
-117.028204
 51
-82.150654
  6
CONTINUOUS
  0
ARC
  8
WHITE
 10
8.168960
 20
1.528308
 30
0.000000
 40
0.670616
 50
-82.830672
 51
-74.657532
  6
CONTINUOUS
  0
ARC
  8
WHITE
 10
6.829916
 20
12.199076
 30
0.000000
 40
11.418632
 50
-82.368138
 51
-79.454506
  6
CONTINUOUS
  0
ARC
  8
WHITE
 10
9.191515
 20
-0.188970
 30
0.000000
 40
1.193634
 50
80.557691
 51
103.162385
  6
CONTINUOUS
  0
ARC
  8
WHITE
 10
9.307778
 20
0.804064
 30
0.000000
 40
0.200856
 50
46.029355
 51
66.665733
  6
CONTINUOUS
  0
ARC
  8
WHITE
 10
9.383404
 20
0.884751
 30
0.000000
 40
0.090295
 50
12.864608
 51
45.018822
  6
CONTINUOUS
  0
ARC
  8
WHITE
 10
9.342770
 20
0.890600
 30
0.000000
 40
0.129449
 50
-35.190820
 51
6.322178
  6
CONTINUOUS
  0
ARC
  8
WHITE
 10
7.552351
 20
2.214187
 30
0.000000
 40
2.355959
 50
-39.630979
 51
-36.403570
  6
CONTINUOUS
  0
ARC
  8
WHITE
 10
9.416220
 20
0.692227
 30
0.000000
 40
0.052998
 50
158.719747
 51
223.542741
  6
CONTINUOUS
  0
ARC
  8
WHITE
 10
9.490188
 20
0.788528
 30
0.000000
 40
0.173980
 50
-130.237755
 51
-106.460982
  6
CONTINUOUS
  0
ARC
  8
WHITE
 10
10.558114
 20
14.679028
 30
0.000000
 40
14.438509
 50
-91.212218
 51
-82.784441
  6
CONTINUOUS
  0
ARC
  8
WHITE
 10
12.072629
 20
6.720349
 30
0.000000
 40
6.372505
 50
-87.310677
 51
-80.802869
  6
CONTINUOUS
  0
ARC
  8
WHITE
 10
12.686630
 20
1.856306
 30
0.000000
 40
1.482785
 50
-74.168099
 51
-57.123250
  6
CONTINUOUS
  0
ARC
  8
WHITE
 10
13.454812
 20
0.665905
 30
0.000000
 40
0.066052
 50
-56.221397
 51
56.490080
  6
CONTINUOUS
  0
ARC
  8
WHITE
 10
12.937314
 20
-0.206908
 30
0.000000
 40
1.080672
 50
59.162075
 51
89.001043
  6
CONTINUOUS
  0
ARC
  8
WHITE
 10
12.957638
 20
0.791773
 30
0.000000
 40
0.081839
 50
91.038560
 51
126.481726
  6
CONTINUOUS
  0
ARC
  8
WHITE
 10
12.913950
 20
0.849073
 30
0.000000
 40
0.009850
 50
120.312364
 51
252.877553
  6
CONTINUOUS
  0
ARC
  8
WHITE
 10
12.952835
 20
0.957911
 30
0.000000
 40
0.125416
 50
-109.461244
 51
-91.712391
  6
CONTINUOUS
  0
ARC
  8
WHITE
 10
13.048826
 20
3.380277
 30
0.000000
 40
2.549678
 50
-92.241878
 51
-90.054849
  6
CONTINUOUS
  0
ARC
  8
WHITE
 10
13.023075
 20
0.649391
 30
0.000000
 40
0.182703
 50
67.826141
 51
82.669937
  6
CONTINUOUS
  0
ARC
  8
WHITE
 10
14.329640
 20
4.458462
 30
0.000000
 40
3.844529
 50
-108.778743
 51
-106.419046
  6
CONTINUOUS
  0
ARC
  8
WHITE
 10
13.210523
 20
0.650832
 30
0.000000
 40
0.124187
 50
60.987221
 51
74.866646
  6
CONTINUOUS
  0
ARC
  8
WHITE
 10
13.252690
 20
0.726463
 30
0.000000
 40
0.037596
 50
16.590138
 51
61.283088
  6
CONTINUOUS
  0
ARC
  8
WHITE
 10
13.202037
 20
0.706691
 30
0.000000
 40
0.091895
 50
-19.717883
 51
19.388416
  6
CONTINUOUS
  0
ARC
  8
WHITE
 10
13.231489
 20
0.706578
 30
0.000000
 40
0.064881
 50
-56.089796
 51
-28.432607
  6
CONTINUOUS
  0
ARC
  8
WHITE
 10
13.153772
 20
0.819240
 30
0.000000
 40
0.201745
 50
-68.130665
 51
-55.622606
  6
CONTINUOUS
  0
ARC
  8
WHITE
 10
12.959325
 20
1.339021
 30
0.000000
 40
0.756665
 50
-78.881740
 51
-69.127214
  6
CONTINUOUS
  0
ARC
  8
WHITE
 10
12.386174
 20
4.427687
 30
0.000000
 40
3.898024
 50
-84.995654
 51
-79.369863
  6
CONTINUOUS
  0
ARC
  8
WHITE
 10
3.223998
 20
113.660694
 30
0.000000
 40
113.514583
 50
-85.634222
 51
-85.198202
  6
CONTINUOUS
  0
ARC
  8
WHITE
 10
10.821366
 20
76.287078
 30
0.000000
 40
75.818778
 50
-91.289481
 51
-89.211214
  6
CONTINUOUS
  0
ARC
  8
WHITE
 10
8.592510
 20
-1.498718
 30
0.000000
 40
2.053831
 50
75.257594
 51
88.616428
  6
CONTINUOUS
  0
ARC
  8
WHITE
 10
8.733238
 20
4.264135
 30
0.000000
 40
3.710739
 50
-98.789895
 51
-91.407347
  6
CONTINUOUS
  0
ARC
  8
WHITE
 10
3.473623
 20
-22.972989
 30
0.000000
 40
24.032551
 50
78.740148
 51
81.026197
  6
CONTINUOUS
  0
ARC
  8
WHITE
 10
7.280109
 20
1.173526
 30
0.000000
 40
0.412204
 50
-122.944987
 51
-98.063515
  6
CONTINUOUS
  0
ARC
  8
WHITE
 10
7.076632
 20
0.859552
 30
0.000000
 40
0.038062
 50
156.580169
 51
237.065415
  6
CONTINUOUS
  0
ARC
  8
WHITE
 10
7.094352
 20
0.821906
 30
0.000000
 40
0.074544
 50
115.681411
 51
134.930438
  6
CONTINUOUS
  0
ARC
  8
WHITE
 10
7.200841
 20
0.660485
 30
0.000000
 40
0.267436
 50
106.609328
 51
121.263789
  6
CONTINUOUS
  0
ARC
  8
WHITE
 10
7.525321
 20
-0.481493
 30
0.000000
 40
1.454599
 50
97.994118
 51
105.999309
  6
CONTINUOUS
  0
ARC
  8
WHITE
 10
13.141354
 20
-42.256370
 30
0.000000
 40
43.605259
 50
97.152559
 51
97.667946
  6
CONTINUOUS
  0
ARC
  8
WHITE
 10
7.671871
 20
1.423114
 30
0.000000
 40
0.415496
 50
-84.459308
 51
-80.431919
  6
CONTINUOUS
  0
ARC
  8
WHITE
 10
7.739545
 20
1.041160
 30
0.000000
 40
0.027798
 50
-87.134449
 51
30.886156
  6
CONTINUOUS
  0
ARC
  8
WHITE
 10
7.731198
 20
1.009013
 30
0.000000
 40
0.056493
 50
55.248288
 51
92.834720
  6
CONTINUOUS
  0
ARC
  8
WHITE
 10
7.902183
 20
-2.220325
 30
0.000000
 40
3.290353
 50
93.027465
 51
101.274936
  6
CONTINUOUS
  0
ARC
  8
WHITE
 10
7.284772
 20
-0.416460
 30
0.000000
 40
1.423221
 50
91.043116
 51
108.194155
  6
CONTINUOUS
  0
ARC
  8
WHITE
 10
6.887776
 20
0.801608
 30
0.000000
 40
0.142130
 50
109.475938
 51
160.169979
  6
CONTINUOUS
  0
ARC
  8
WHITE
 10
6.835118
 20
0.834477
 30
0.000000
 40
0.082484
 50
169.277862
 51
228.853944
  6
CONTINUOUS
  0
ARC
  8
WHITE
 10
6.984036
 20
1.002665
 30
0.000000
 40
0.307124
 50
-131.421405
 51
-110.476236
  6
CONTINUOUS
  0
ARC
  8
WHITE
 10
7.241012
 20
1.680219
 30
0.000000
 40
1.031770
 50
-110.682726
 51
-96.316766
  6
CONTINUOUS
  0
ARC
  8
WHITE
 10
4.233172
 20
-9.644499
 30
0.000000
 40
10.698170
 50
73.235620
 51
74.303395
  6
CONTINUOUS
  0
ARC
  8
WHITE
 10
12.203584
 20
17.572793
 30
0.000000
 40
17.662674
 50
-106.054594
 51
-104.134085
  6
CONTINUOUS
  0
ARC
  8
WHITE
 10
1.981305
 20
-34.630675
 30
0.000000
 40
35.569779
 50
79.750823
 51
80.437133
  6
CONTINUOUS
  0
ARC
  8
WHITE
 10
10.236049
 20
19.762503
 30
0.000000
 40
19.486375
 50
-95.671788
 51
-92.341190
  6
CONTINUOUS
  0
ARC
  8
WHITE
 10
9.237535
 20
-1.728682
 30
0.000000
 40
2.031193
 50
76.943442
 51
84.278571
  6
CONTINUOUS
  0
ARC
  8
WHITE
 10
9.908508
 20
-5.629246
 30
0.000000
 40
5.883071
 50
86.646372
 51
92.066113
  6
CONTINUOUS
  0
ARC
  8
WHITE
 10
10.099761
 20
3.529705
 30
0.000000
 40
0.136939
 50
-101.846137
 51
-71.554697
  6
CONTINUOUS
  0
ARC
  8
WHITE
 10
10.111018
 20
3.446101
 30
0.000000
 40
0.056322
 50
-55.290959
 51
-1.268233
  6
CONTINUOUS
  0
ARC
  8
WHITE
 10
13.920211
 20
3.385400
 30
0.000000
 40
3.753356
 50
175.291864
 51
179.092378
  6
CONTINUOUS
  0
ARC
  8
WHITE
 10
2.620636
 20
4.662880
 30
0.000000
 40
7.620793
 50
-7.308121
 51
3.769132
  6
CONTINUOUS
  0
ARC
  8
WHITE
 10
8.946031
 20
5.598260
 30
0.000000
 40
1.350681
 50
-18.761412
 51
3.023207
  6
CONTINUOUS
  0
ARC
  8
WHITE
 10
11.974933
 20
5.208391
 30
0.000000
 40
1.742227
 50
149.695163
 51
164.653023
  6
CONTINUOUS
  0
ARC
  8
WHITE
 10
10.379081
 20
6.096197
 30
0.000000
 40
0.092105
 50
-5.405957
 51
34.141672
  6
CONTINUOUS
  0
ARC
  8
WHITE
 10
10.426784
 20
6.132158
 30
0.000000
 40
0.032577
 50
28.874979
 51
80.281183
  6
CONTINUOUS
  0
ARC
  8
WHITE
 10
10.444671
 20
6.028631
 30
0.000000
 40
0.136202
 50
95.218196
 51
108.421422
  6
CONTINUOUS
  0
ARC
  8
WHITE
 10
10.496536
 20
5.894491
 30
0.000000
 40
0.279941
 50
109.817126
 51
133.922569
  6
CONTINUOUS
  0
ARC
  8
WHITE
 10
10.900324
 20
5.451172
 30
0.000000
 40
0.879514
 50
132.835600
 51
142.814657
  6
CONTINUOUS
  0
ARC
  8
WHITE
 10
11.148618
 20
5.245416
 30
0.000000
 40
1.201764
 50
142.154091
 51
156.222464
  6
CONTINUOUS
  0
ARC
  8
WHITE
 10
10.939091
 20
5.419990
 30
0.000000
 40
0.942647
 50
160.802833
 51
168.502976
  6
CONTINUOUS
  0
ARC
  8
WHITE
 10
9.851771
 20
5.640114
 30
0.000000
 40
0.166734
 50
-51.732668
 51
-11.148514
  6
CONTINUOUS
  0
ARC
  8
WHITE
 10
10.108242
 20
5.336226
 30
0.000000
 40
0.231073
 50
131.531094
 51
142.719699
  6
CONTINUOUS
  0
ARC
  8
WHITE
 10
10.717994
 20
4.850686
 30
0.000000
 40
1.010483
 50
141.755760
 51
146.286916
  6
CONTINUOUS
  0
ARC
  8
WHITE
 10
11.287288
 20
4.470537
 30
0.000000
 40
1.695034
 50
146.278783
 51
154.020654
  6
CONTINUOUS
  0
ARC
  8
WHITE
 10
11.063217
 20
4.516697
 30
0.000000
 40
1.474473
 50
151.818466
 51
177.490411
  6
CONTINUOUS
  0
ARC
  8
WHITE
 10
10.554342
 20
4.549571
 30
0.000000
 40
0.964704
 50
178.117638
 51
192.932504
  6
CONTINUOUS
  0
ARC
  8
WHITE
 10
7.317274
 20
3.832370
 30
0.000000
 40
2.350902
 50
6.385118
 51
12.312059
  6
CONTINUOUS
  0
ARC
  8
WHITE
 10
10.648228
 20
4.265398
 30
0.000000
 40
1.009325
 50
-170.212359
 51
-151.355371
  6
CONTINUOUS
  0
ARC
  8
WHITE
 10
11.169908
 20
4.484120
 30
0.000000
 40
1.573081
 50
-153.473032
 51
-140.163343
  6
CONTINUOUS
  0
ARC
  8
WHITE
 10
10.155786
 20
3.624853
 30
0.000000
 40
0.244127
 50
-142.548774
 51
-110.159930
  6
CONTINUOUS
  0
ARC
  8
WHITE
 10
9.190195
 20
9.008512
 30
0.000000
 40
6.688979
 50
32.858447
 51
37.779534
  6
CONTINUOUS
  0
LINE
  8
WHITE
 10
14.476989
 20
13.106346
 30
0.000000
 11
14.474657
 21
13.117330
 31
0.000000
  6
CONTINUOUS
  0
ARC
  8
WHITE
 10
14.248598
 20
13.043417
 30
0.000000
 40
0.237836
 50
18.105822
 51
23.025152
  6
CONTINUOUS
  0
ARC
  8
WHITE
 10
13.436407
 20
12.689628
 30
0.000000
 40
1.123730
 50
23.429346
 51
27.171521
  6
CONTINUOUS
  0
ARC
  8
WHITE
 10
8.058950
 20
9.892642
 30
0.000000
 40
7.185083
 50
27.432069
 51
29.897316
  6
CONTINUOUS
  0
ARC
  8
WHITE
 10
13.934345
 20
13.258257
 30
0.000000
 40
0.414147
 50
31.399169
 51
40.692393
  6
CONTINUOUS
  0
ARC
  8
WHITE
 10
14.312329
 20
13.583797
 30
0.000000
 40
0.084701
 50
-178.294996
 51
-139.046146
  6
CONTINUOUS
  0
ARC
  8
WHITE
 10
13.106353
 20
13.458693
 30
0.000000
 40
1.127993
 50
6.238900
 51
17.316865
  6
CONTINUOUS
  0
ARC
  8
WHITE
 10
6.756500
 20
11.628675
 30
0.000000
 40
7.736065
 50
16.257686
 51
18.633541
  6
CONTINUOUS
  0
ARC
  8
WHITE
 10
23.471488
 20
17.401919
 30
0.000000
 40
9.948231
 50
-163.526602
 51
-160.618031
  6
CONTINUOUS
  0
ARC
  8
WHITE
 10
13.635493
 20
14.496043
 30
0.000000
 40
0.308043
 50
15.989733
 51
40.025574
  6
CONTINUOUS
  0
ARC
  8
WHITE
 10
13.820485
 20
14.666570
 30
0.000000
 40
0.057889
 50
28.457586
 51
63.492154
  6
CONTINUOUS
  0
ARC
  8
WHITE
 10
13.852406
 20
14.670739
 30
0.000000
 40
0.048021
 50
97.278756
 51
188.458558
  6
CONTINUOUS
  0
ARC
  8
WHITE
 10
14.258772
 20
14.735321
 30
0.000000
 40
0.459486
 50
-171.029498
 51
-155.751037
  6
CONTINUOUS
  0
ARC
  8
WHITE
 10
12.625417
 20
13.976637
 30
0.000000
 40
1.341514
 50
12.579963
 51
25.142581
  6
CONTINUOUS
  0
ARC
  8
WHITE
 10
14.117115
 20
14.270060
 30
0.000000
 40
0.182394
 50
-179.610894
 51
-140.732018
  6
CONTINUOUS
  0
ARC
  8
WHITE
 10
13.910723
 20
14.131702
 30
0.000000
 40
0.069094
 50
-4.824492
 51
19.366792
  6
CONTINUOUS
  0
ARC
  8
WHITE
 10
14.404292
 20
14.132919
 30
0.000000
 40
0.424778
 50
-179.051983
 51
-169.993820
  6
CONTINUOUS
  0
ARC
  8
WHITE
 10
14.773614
 20
14.233568
 30
0.000000
 40
0.806728
 50
-167.511043
 51
-146.769199
  6
CONTINUOUS
  0
ARC
  8
WHITE
 10
14.020744
 20
13.753861
 30
0.000000
 40
0.086653
 50
-10.715700
 51
25.723066
  6
CONTINUOUS
  0
ARC
  8
WHITE
 10
14.246769
 20
13.711961
 30
0.000000
 40
0.143224
 50
169.627063
 51
191.900136
  6
CONTINUOUS
  0
ARC
  8
WHITE
 10
14.173974
 20
13.713894
 30
0.000000
 40
0.074340
 50
-154.957919
 51
-124.126625
  6
CONTINUOUS
  0
ARC
  8
WHITE
 10
14.091144
 20
13.591488
 30
0.000000
 40
0.073458
 50
24.959196
 51
55.956068
  6
CONTINUOUS
  0
ARC
  8
WHITE
 10
13.987686
 20
13.587710
 30
0.000000
 40
0.173575
 50
-5.052624
 51
11.557281
  6
CONTINUOUS
  0
ARC
  8
WHITE
 10
14.274941
 20
13.562663
 30
0.000000
 40
0.114770
 50
175.121639
 51
204.441237
  6
CONTINUOUS
  0
ARC
  8
WHITE
 10
15.275682
 20
14.027671
 30
0.000000
 40
1.218268
 50
-155.122764
 51
-145.758570
  6
CONTINUOUS
  0
ARC
  8
WHITE
 10
14.205667
 20
13.289128
 30
0.000000
 40
0.082286
 50
19.339742
 51
40.140338
  6
CONTINUOUS
  0
ARC
  8
WHITE
 10
15.083597
 20
13.435627
 30
0.000000
 40
0.809124
 50
-171.524869
 51
-141.980242
  6
CONTINUOUS
  0
ARC
  8
WHITE
 10
14.163884
 20
12.654268
 30
0.000000
 40
0.399713
 50
25.525775
 51
45.071586
  6
CONTINUOUS
  0
ARC
  8
WHITE
 10
32.902039
 20
21.645104
 30
0.000000
 40
20.383780
 50
-154.365549
 51
-153.987923
  6
CONTINUOUS
  0
ARC
  8
WHITE
 10
14.075165
 20
12.344165
 30
0.000000
 40
0.623396
 50
19.217694
 51
35.433248
  6
CONTINUOUS
  0
ARC
  8
WHITE
 10
14.582129
 20
12.521086
 30
0.000000
 40
0.086448
 50
-42.306819
 51
19.091340
  6
CONTINUOUS
  0
ARC
  8
WHITE
 10
14.859181
 20
12.206943
 30
0.000000
 40
0.333065
 50
129.782248
 51
147.359871
  6
CONTINUOUS
  0
ARC
  8
WHITE
 10
14.652180
 20
12.357239
 30
0.000000
 40
0.079109
 50
158.225301
 51
235.584774
  6
CONTINUOUS
  0
ARC
  8
WHITE
 10
14.361431
 20
12.100789
 30
0.000000
 40
0.311588
 50
27.260709
 51
37.849603
  6
CONTINUOUS
  0
ARC
  8
WHITE
 10
11.890184
 20
10.737207
 30
0.000000
 40
3.133959
 50
26.625240
 51
28.727121
  6
CONTINUOUS
  0
ARC
  8
WHITE
 10
3.729938
 20
6.658697
 30
0.000000
 40
12.256668
 50
25.049928
 51
26.573697
  6
CONTINUOUS
  0
ARC
  8
WHITE
 10
9.113059
 20
9.076631
 30
0.000000
 40
6.356736
 50
21.375790
 51
25.849935
  6
CONTINUOUS
  0
ARC
  8
WHITE
 10
14.157691
 20
11.235913
 30
0.000000
 40
0.888913
 50
6.549979
 51
10.215010
  6
CONTINUOUS
  0
ARC
  8
WHITE
 10
15.021023
 20
11.334186
 30
0.000000
 40
0.020024
 50
-67.134853
 51
8.978908
  6
CONTINUOUS
  0
ARC
  8
WHITE
 10
14.477662
 20
12.827426
 30
0.000000
 40
1.609026
 50
-72.379582
 51
-69.968840
  6
CONTINUOUS
  0
ARC
  8
WHITE
 10
15.000910
 20
11.215869
 30
0.000000
 40
0.086002
 50
114.878232
 51
158.039846
  6
CONTINUOUS
  0
ARC
  8
WHITE
 10
15.207073
 20
11.125794
 30
0.000000
 40
0.310958
 50
156.852700
 51
174.663097
  6
CONTINUOUS
  0
ARC
  8
WHITE
 10
15.822416
 20
11.082761
 30
0.000000
 40
0.927747
 50
175.551692
 51
193.354019
  6
CONTINUOUS
  0
ARC
  8
WHITE
 10
14.607326
 20
10.843440
 30
0.000000
 40
0.313429
 50
-16.324452
 51
4.582588
  6
CONTINUOUS
  0
ARC
  8
WHITE
 10
34.519315
 20
5.462125
 30
0.000000
 40
20.312980
 50
164.895341
 51
165.148450
  6
CONTINUOUS
  0
ARC
  8
WHITE
 10
14.185742
 20
10.756803
 30
0.000000
 40
0.704720
 50
-36.415259
 51
-7.185356
  6
CONTINUOUS
  0
ARC
  8
WHITE
 10
14.728288
 20
10.365687
 30
0.000000
 40
0.036674
 50
-140.479937
 51
-47.941872
  6
CONTINUOUS
  0
ARC
  8
WHITE
 10
14.598055
 20
10.244707
 30
0.000000
 40
0.141161
 50
43.765750
 51
61.256729
  6
CONTINUOUS
  0
ARC
  8
WHITE
 10
14.635032
 20
10.322913
 30
0.000000
 40
0.055054
 50
55.850140
 51
160.026044
  6
CONTINUOUS
  0
ARC
  8
WHITE
 10
14.861220
 20
10.268344
 30
0.000000
 40
0.287453
 50
165.211045
 51
174.821739
  6
CONTINUOUS
  0
ARC
  8
WHITE
 10
-10.991363
 20
17.054111
 30
0.000000
 40
26.444869
 50
-16.294947
 51
-14.810294
  6
CONTINUOUS
  0
ARC
  8
WHITE
 10
15.732224
 20
8.859871
 30
0.000000
 40
1.548489
 50
149.998291
 51
167.767870
  6
CONTINUOUS
  0
ARC
  8
WHITE
 10
14.162027
 20
9.202411
 30
0.000000
 40
0.058673
 50
-43.777871
 51
-14.264949
  6
CONTINUOUS
  0
ARC
  8
WHITE
 10
14.093982
 20
9.249989
 30
0.000000
 40
0.141295
 50
-51.411619
 51
-38.610707
  6
CONTINUOUS
  0
ARC
  8
WHITE
 10
14.217178
 20
9.099030
 30
0.000000
 40
0.053585
 50
130.876615
 51
179.163531
  6
CONTINUOUS
  0
ARC
  8
WHITE
 10
13.952804
 20
9.065725
 30
0.000000
 40
0.213533
 50
-37.777789
 51
9.185691
  6
CONTINUOUS
  0
ARC
  8
WHITE
 10
14.172591
 20
8.883930
 30
0.000000
 40
0.072122
 50
135.015437
 51
157.824840
  6
CONTINUOUS
  0
ARC
  8
WHITE
 10
14.246570
 20
8.894176
 30
0.000000
 40
0.141786
 50
173.123679
 51
191.262085
  6
CONTINUOUS
  0
ARC
  8
WHITE
 10
12.857015
 20
8.624545
 30
0.000000
 40
1.273689
 50
8.864403
 51
10.950021
  6
CONTINUOUS
  0
ARC
  8
WHITE
 10
14.047476
 20
8.804594
 30
0.000000
 40
0.069922
 50
-45.329224
 51
13.414928
  6
CONTINUOUS
  0
ARC
  8
WHITE
 10
14.667656
 20
8.340098
 30
0.000000
 40
0.705762
 50
144.006698
 51
151.932083
  6
CONTINUOUS
  0
ARC
  8
WHITE
 10
15.440634
 20
7.875613
 30
0.000000
 40
1.607042
 50
150.286217
 51
153.737556
  6
CONTINUOUS
  0
ARC
  8
WHITE
 10
14.191792
 20
8.536964
 30
0.000000
 40
0.198644
 50
165.499335
 51
175.510795
  6
CONTINUOUS
  0
ARC
  8
WHITE
 10
15.397635
 20
8.408616
 30
0.000000
 40
1.411233
 50
174.147675
 51
176.538365
  6
CONTINUOUS
  0
ARC
  8
WHITE
 10
14.801512
 20
8.430086
 30
0.000000
 40
0.815031
 50
175.514534
 51
182.054979
  6
CONTINUOUS
  0
ARC
  8
WHITE
 10
14.388867
 20
8.487487
 30
0.000000
 40
0.411093
 50
-167.835272
 51
-141.888883
  6
CONTINUOUS
  0
ARC
  8
WHITE
 10
14.140426
 20
8.288226
 30
0.000000
 40
0.092697
 50
-144.019745
 51
-97.874189
  6
CONTINUOUS
  0
ARC
  8
WHITE
 10
14.123756
 20
8.246954
 30
0.000000
 40
0.050707
 50
-85.508843
 51
-10.138236
  6
CONTINUOUS
  0
ARC
  8
WHITE
 10
13.814554
 20
8.323356
 30
0.000000
 40
0.369116
 50
-13.365842
 51
1.289274
  6
CONTINUOUS
  0
ARC
  8
WHITE
 10
14.749039
 20
8.369954
 30
0.000000
 40
0.566757
 50
167.911950
 51
183.874128
  6
CONTINUOUS
  0
ARC
  8
WHITE
 10
13.549380
 20
8.836953
 30
0.000000
 40
0.733450
 50
-28.352491
 51
-19.730726
  6
CONTINUOUS
  0
ARC
  8
WHITE
 10
14.120163
 20
8.630301
 30
0.000000
 40
0.126427
 50
-18.904529
 51
5.342322
  6
CONTINUOUS
  0
ARC
  8
WHITE
 10
14.731900
 20
8.720712
 30
0.000000
 40
0.492183
 50
169.278400
 51
189.194003
  6
CONTINUOUS
  0
ARC
  8
WHITE
 10
14.309846
 20
8.800775
 30
0.000000
 40
0.062603
 50
143.844444
 51
169.413525
  6
CONTINUOUS
  0
ARC
  8
WHITE
 10
14.562215
 20
8.612458
 30
0.000000
 40
0.377486
 50
138.995145
 51
143.365105
  6
CONTINUOUS
  0
ARC
  8
WHITE
 10
14.230743
 20
8.907112
 30
0.000000
 40
0.066170
 50
-45.230247
 51
-0.698740
  6
CONTINUOUS
  0
ARC
  8
WHITE
 10
14.446832
 20
8.893431
 30
0.000000
 40
0.150476
 50
164.436219
 51
175.092027
  6
CONTINUOUS
  0
ARC
  8
WHITE
 10
15.962287
 20
8.520377
 30
0.000000
 40
1.711109
 50
164.084439
 51
166.018169
  6
CONTINUOUS
  0
ARC
  8
WHITE
 10
21.698367
 20
6.877292
 30
0.000000
 40
7.677878
 50
162.792361
 51
164.031081
  6
CONTINUOUS
  0
ARC
  8
WHITE
 10
21.026196
 20
7.128111
 30
0.000000
 40
6.961713
 50
160.995309
 51
163.127659
  6
CONTINUOUS
  0
ARC
  8
WHITE
 10
-22.693102
 20
21.124714
 30
0.000000
 40
38.945389
 50
-17.528460
 51
-16.760675
  6
CONTINUOUS
  0
ARC
  8
WHITE
 10
14.633758
 20
9.870144
 30
0.000000
 40
0.043074
 50
73.310061
 51
146.608219
  6
CONTINUOUS
  0
ARC
  8
WHITE
 10
14.844796
 20
10.435249
 30
0.000000
 40
0.560254
 50
-110.769130
 51
-106.397025
  6
CONTINUOUS
  0
ARC
  8
WHITE
 10
14.709111
 20
9.971295
 30
0.000000
 40
0.076871
 50
-106.996175
 51
-75.056103
  6
CONTINUOUS
  0
ARC
  8
WHITE
 10
14.673882
 20
10.025921
 30
0.000000
 40
0.140161
 50
-66.872655
 51
-29.497802
  6
CONTINUOUS
  0
ARC
  8
WHITE
 10
14.326332
 20
10.242167
 30
0.000000
 40
0.549402
 50
-31.279823
 51
-19.285498
  6
CONTINUOUS
  0
ARC
  8
WHITE
 10
12.819983
 20
10.752094
 30
0.000000
 40
2.139700
 50
-18.851754
 51
-14.449992
  6
CONTINUOUS
  0
ARC
  8
WHITE
 10
18.849790
 20
8.215769
 30
0.000000
 40
4.435508
 50
149.968117
 51
153.163461
  6
CONTINUOUS
  0
ARC
  8
WHITE
 10
14.234146
 20
10.884629
 30
0.000000
 40
0.896189
 50
-30.064594
 51
-12.698158
  6
CONTINUOUS
  0
ARC
  8
WHITE
 10
11.402901
 20
11.259874
 30
0.000000
 40
3.749439
 50
-8.778807
 51
7.692759
  6
CONTINUOUS
  0
ARC
  8
WHITE
 10
14.395147
 20
11.645392
 30
0.000000
 40
0.732750
 50
9.139207
 51
24.153830
  6
CONTINUOUS
  0
ARC
  8
WHITE
 10
13.221467
 20
11.791829
 30
0.000000
 40
1.848654
 50
4.759708
 51
13.414602
  6
CONTINUOUS
  0
ARC
  8
WHITE
 10
14.568299
 20
12.121126
 30
0.000000
 40
0.462238
 50
12.441112
 51
46.475628
  6
CONTINUOUS
  0
ARC
  8
WHITE
 10
14.924615
 20
12.490874
 30
0.000000
 40
0.051376
 50
-153.342554
 51
-137.683738
  6
CONTINUOUS
  0
ARC
  8
WHITE
 10
15.128980
 20
12.599989
 30
0.000000
 40
0.283032
 50
-156.721060
 51
-152.162847
  6
CONTINUOUS
  0
ARC
  8
WHITE
 10
16.112245
 20
13.015998
 30
0.000000
 40
1.350677
 50
-159.540979
 51
-156.994741
  6
CONTINUOUS
  0
ARC
  8
WHITE
 10
13.743699
 20
12.154767
 30
0.000000
 40
1.169688
 50
19.430860
 51
24.386562
  6
CONTINUOUS
  0
ARC
  8
WHITE
 10
11.839504
 20
7.432557
 30
0.000000
 40
1.256903
 50
80.804630
 51
109.432017
  6
CONTINUOUS
  0
ARC
  8
WHITE
 10
11.431110
 20
8.541080
 30
0.000000
 40
0.077401
 50
97.246123
 51
108.264544
  6
CONTINUOUS
  0
ARC
  8
WHITE
 10
11.587278
 20
8.023114
 30
0.000000
 40
0.618375
 50
106.964210
 51
109.605382
  6
CONTINUOUS
  0
ARC
  8
WHITE
 10
12.099290
 20
6.595123
 30
0.000000
 40
2.135382
 50
109.690717
 51
111.946915
  6
CONTINUOUS
  0
ARC
  8
WHITE
 10
11.987464
 20
6.829381
 30
0.000000
 40
1.876377
 50
111.453192
 51
116.888162
  6
CONTINUOUS
  0
ARC
  8
WHITE
 10
11.248205
 20
8.351689
 30
0.000000
 40
0.186600
 50
125.868060
 51
141.655384
  6
CONTINUOUS
  0
ARC
  8
WHITE
 10
11.054068
 20
8.504158
 30
0.000000
 40
0.060257
 50
-85.383490
 51
-37.526663
  6
CONTINUOUS
  0
ARC
  8
WHITE
 10
10.939671
 20
6.632841
 30
0.000000
 40
1.815177
 50
86.233278
 51
87.726436
  6
CONTINUOUS
  0
ARC
  8
WHITE
 10
11.006841
 20
8.371601
 30
0.000000
 40
0.075144
 50
86.307459
 51
122.198814
  6
CONTINUOUS
  0
ARC
  8
WHITE
 10
11.068869
 20
8.262031
 30
0.000000
 40
0.201000
 50
120.517619
 51
170.883626
  6
CONTINUOUS
  0
ARC
  8
WHITE
 10
10.840442
 20
8.300877
 30
0.000000
 40
0.030772
 50
-39.255146
 51
-13.147685
  6
CONTINUOUS
  0
ARC
  8
WHITE
 10
10.687078
 20
8.415028
 30
0.000000
 40
0.221928
 50
-43.550269
 51
-37.020434
  6
CONTINUOUS
  0
ARC
  8
WHITE
 10
9.581042
 20
9.482933
 30
0.000000
 40
1.759367
 50
-46.599583
 51
-43.939018
  6
CONTINUOUS
  0
ARC
  8
WHITE
 10
13.585291
 20
5.222349
 30
0.000000
 40
4.087575
 50
133.147398
 51
136.721745
  6
CONTINUOUS
  0
ARC
  8
WHITE
 10
7.559292
 20
10.728829
 30
0.000000
 40
4.076307
 50
-51.662257
 51
-41.560703
  6
CONTINUOUS
  0
ARC
  8
WHITE
 10
9.248004
 20
8.670859
 30
0.000000
 40
1.415414
 50
-79.614538
 51
-53.606524
  6
CONTINUOUS
  0
ARC
  8
WHITE
 10
9.573811
 20
6.944711
 30
0.000000
 40
0.341315
 50
101.946394
 51
146.776309
  6
CONTINUOUS
  0
ARC
  8
WHITE
 10
10.078592
 20
6.599127
 30
0.000000
 40
0.953014
 50
146.023580
 51
155.073958
  6
CONTINUOUS
  0
ARC
  8
WHITE
 10
10.384944
 20
6.130611
 30
0.000000
 40
1.458587
 50
143.374734
 51
200.271194
  6
CONTINUOUS
  0
ARC
  8
WHITE
 10
11.605684
 20
6.487413
 30
0.000000
 40
2.728763
 50
-161.581896
 51
-155.402420
  6
CONTINUOUS
  0
ARC
  8
WHITE
 10
8.530830
 20
5.078147
 30
0.000000
 40
0.653655
 50
1.917037
 51
24.728688
  6
CONTINUOUS
  0
ARC
  8
WHITE
 10
10.176175
 20
5.196815
 30
0.000000
 40
0.996766
 50
-174.426897
 51
-167.801340
  6
CONTINUOUS
  0
ARC
  8
WHITE
 10
5.699440
 20
4.371322
 30
0.000000
 40
3.556036
 50
5.404002
 51
9.957055
  6
CONTINUOUS
  0
ARC
  8
WHITE
 10
-351.586350
 20
-26.334113
 30
0.000000
 40
362.158695
 50
4.691567
 51
4.916808
  6
CONTINUOUS
  0
ARC
  8
WHITE
 10
10.389358
 20
3.266224
 30
0.000000
 40
1.030669
 50
178.816861
 51
182.290542
  6
CONTINUOUS
  0
ARC
  8
WHITE
 10
9.450562
 20
3.219007
 30
0.000000
 40
0.091248
 50
176.214404
 51
195.595798
  6
CONTINUOUS
  0
ARC
  8
WHITE
 10
9.391445
 20
3.209903
 30
0.000000
 40
0.032648
 50
-151.799099
 51
-20.940250
  6
CONTINUOUS
  0
ARC
  8
WHITE
 10
9.236956
 20
3.286401
 30
0.000000
 40
0.204916
 50
-25.483600
 51
-1.824605
  6
CONTINUOUS
  0
ARC
  8
WHITE
 10
7.351421
 20
3.273294
 30
0.000000
 40
2.090357
 50
0.180423
 51
10.751496
  6
CONTINUOUS
  0
ARC
  8
WHITE
 10
79.858972
 20
8.196637
 30
0.000000
 40
70.599590
 50
-177.054463
 51
-176.318352
  6
CONTINUOUS
  0
ARC
  8
WHITE
 10
4.257500
 20
4.402192
 30
0.000000
 40
5.097879
 50
1.872400
 51
6.663302
  6
CONTINUOUS
  0
ARC
  8
WHITE
 10
44.958385
 20
15.035747
 30
0.000000
 40
37.025256
 50
-165.834849
 51
-164.263067
  6
CONTINUOUS
  0
ARC
  8
WHITE
 10
10.404851
 20
6.050638
 30
0.000000
 40
1.348069
 50
150.030457
 51
183.215966
  6
CONTINUOUS
  0
ARC
  8
WHITE
 10
9.790584
 20
6.543050
 30
0.000000
 40
0.582393
 50
111.575421
 51
161.893217
  6
CONTINUOUS
  0
ARC
  8
WHITE
 10
11.818432
 20
1.498652
 30
0.000000
 40
6.019122
 50
106.694858
 51
111.868710
  6
CONTINUOUS
  0
ARC
  8
WHITE
 10
9.883108
 20
8.071963
 30
0.000000
 40
0.833799
 50
-75.683297
 51
-31.919918
  6
CONTINUOUS
  0
ARC
  8
WHITE
 10
12.576694
 20
6.554941
 30
0.000000
 40
2.258715
 50
126.073972
 51
151.546224
  6
CONTINUOUS
  0
ARC
  8
WHITE
 10
10.989812
 20
9.051551
 30
0.000000
 40
0.718479
 50
-69.050880
 51
-61.538718
  6
CONTINUOUS
  0
ARC
  8
WHITE
 10
11.761819
 20
7.557962
 30
0.000000
 40
0.963074
 50
106.489225
 51
116.492273
  6
CONTINUOUS
  0
ARC
  8
WHITE
 10
11.902390
 20
6.833437
 30
0.000000
 40
1.699179
 50
82.150774
 51
104.099296
  6
CONTINUOUS
  0
ARC
  8
WHITE
 10
12.138173
 20
8.557027
 30
0.000000
 40
0.040503
 50
-95.286344
 51
-7.952311
  6
CONTINUOUS
  0
ARC
  8
WHITE
 10
12.101660
 20
8.569231
 30
0.000000
 40
0.078668
 50
-13.082972
 51
15.615139
  6
CONTINUOUS
  0
ARC
  8
WHITE
 10
12.046806
 20
8.529207
 30
0.000000
 40
0.144245
 50
25.104761
 51
92.561725
  6
CONTINUOUS
  0
ARC
  8
WHITE
 10
12.847238
 20
11.097051
 30
0.000000
 40
0.017935
 50
131.639381
 51
171.214821
  6
CONTINUOUS
  0
ARC
  8
WHITE
 10
11.615303
 20
11.205405
 30
0.000000
 40
1.218795
 50
-13.930185
 51
-4.971205
  6
CONTINUOUS
  0
ARC
  8
WHITE
 10
12.566679
 20
10.972102
 30
0.000000
 40
0.239247
 50
-34.945290
 51
-14.550984
  6
CONTINUOUS
  0
ARC
  8
WHITE
 10
12.695025
 20
10.883650
 30
0.000000
 40
0.083383
 50
-84.761174
 51
-35.640532
  6
CONTINUOUS
  0
ARC
  8
WHITE
 10
12.713780
 20
10.731403
 30
0.000000
 40
0.070102
 50
99.144844
 51
155.512750
  6
CONTINUOUS
  0
ARC
  8
WHITE
 10
12.822396
 20
10.671197
 30
0.000000
 40
0.194149
 50
152.628181
 51
175.207986
  6
CONTINUOUS
  0
ARC
  8
WHITE
 10
14.171766
 20
10.461406
 30
0.000000
 40
1.559308
 50
171.666045
 51
184.930024
  6
CONTINUOUS
  0
ARC
  8
WHITE
 10
9.306982
 20
8.881850
 30
0.000000
 40
3.613026
 50
17.510088
 51
23.584063
  6
CONTINUOUS
  0
ARC
  8
WHITE
 10
12.419557
 20
9.900698
 30
0.000000
 40
0.339953
 50
-0.681931
 51
11.575866
  6
CONTINUOUS
  0
ARC
  8
WHITE
 10
13.033061
 20
9.892901
 30
0.000000
 40
0.273601
 50
179.214465
 51
194.467068
  6
CONTINUOUS
  0
ARC
  8
WHITE
 10
10.617333
 20
8.831046
 30
0.000000
 40
2.369178
 50
14.351173
 51
24.793251
  6
CONTINUOUS
  0
ARC
  8
WHITE
 10
19.754140
 20
8.746658
 30
0.000000
 40
6.874448
 50
174.393350
 51
177.992121
  6
CONTINUOUS
  0
ARC
  8
WHITE
 10
14.733854
 20
9.216737
 30
0.000000
 40
1.864087
 50
-172.936684
 51
-166.198212
  6
CONTINUOUS
  0
ARC
  8
WHITE
 10
12.593902
 20
8.688421
 30
0.000000
 40
0.340124
 50
-24.122273
 51
14.230821
  6
CONTINUOUS
  0
ARC
  8
WHITE
 10
13.303615
 20
8.413649
 30
0.000000
 40
0.421741
 50
161.220724
 51
185.857085
  6
CONTINUOUS
  0
ARC
  8
WHITE
 10
12.609187
 20
8.351693
 30
0.000000
 40
0.275538
 50
-14.654209
 51
3.936997
  6
CONTINUOUS
  0
ARC
  8
WHITE
 10
12.833584
 20
8.295928
 30
0.000000
 40
0.044422
 50
-70.802749
 51
-18.291369
  6
CONTINUOUS
  0
ARC
  8
WHITE
 10
12.833399
 20
8.351709
 30
0.000000
 40
0.098847
 50
-114.836466
 51
-81.393471
  6
CONTINUOUS
  0
ARC
  8
WHITE
 10
12.810992
 20
8.314993
 30
0.000000
 40
0.056330
 50
153.749970
 51
250.166902
  6
CONTINUOUS
  0
ARC
  8
WHITE
 10
13.095171
 20
8.152547
 30
0.000000
 40
0.383571
 50
144.452841
 51
150.760518
  6
CONTINUOUS
  0
ARC
  8
WHITE
 10
10.654990
 20
8.790069
 30
0.000000
 40
2.168088
 50
-11.022423
 51
2.245513
  6
CONTINUOUS
  0
ARC
  8
WHITE
 10
10.297931
 20
8.681370
 30
0.000000
 40
2.530901
 50
4.388188
 51
13.212361
  6
CONTINUOUS
  0
ARC
  8
WHITE
 10
11.156367
 20
8.947480
 30
0.000000
 40
1.635574
 50
11.009734
 51
23.752913
  6
CONTINUOUS
  0
ARC
  8
WHITE
 10
29.704762
 20
14.942905
 30
0.000000
 40
17.866973
 50
-164.897986
 51
-162.621262
  6
CONTINUOUS
  0
ARC
  8
WHITE
 10
14.564372
 20
10.459554
 30
0.000000
 40
2.116494
 50
174.108121
 51
184.652738
  6
CONTINUOUS
  0
ARC
  8
WHITE
 10
15.351887
 20
10.432213
 30
0.000000
 40
2.903151
 50
171.291538
 51
175.166866
  6
CONTINUOUS
  0
ARC
  8
WHITE
 10
12.968479
 20
10.811785
 30
0.000000
 40
0.489960
 50
159.820709
 51
172.967748
  6
CONTINUOUS
  0
ARC
  8
WHITE
 10
11.907843
 20
11.159853
 30
0.000000
 40
0.626865
 50
-16.596517
 51
-3.379606
  6
CONTINUOUS
  0
ARC
  8
WHITE
 10
12.801181
 20
11.096799
 30
0.000000
 40
0.268832
 50
153.536119
 51
174.428659
  6
CONTINUOUS
  0
ARC
  8
WHITE
 10
12.628600
 20
11.179188
 30
0.000000
 40
0.077683
 50
86.068161
 51
151.210725
  6
CONTINUOUS
  0
ARC
  8
WHITE
 10
12.643772
 20
11.343993
 30
0.000000
 40
0.087858
 50
-96.434020
 51
-64.973341
  6
CONTINUOUS
  0
ARC
  8
WHITE
 10
12.693540
 20
11.252404
 30
0.000000
 40
0.017387
 50
67.147336
 51
136.445228
  6
CONTINUOUS
  0
ARC
  8
WHITE
 10
12.707382
 20
11.294507
 30
0.000000
 40
0.027028
 50
-105.207543
 51
-22.535295
  6
CONTINUOUS
  0
ARC
  8
WHITE
 10
12.013271
 20
11.470538
 30
0.000000
 40
0.742838
 50
-14.531655
 51
1.459609
  6
CONTINUOUS
  0
ARC
  8
WHITE
 10
13.236037
 20
11.483037
 30
0.000000
 40
0.480211
 50
167.809923
 51
179.233653
  6
CONTINUOUS
  0
ARC
  8
WHITE
 10
12.811296
 20
11.573859
 30
0.000000
 40
0.045878
 50
134.799233
 51
166.670616
  6
CONTINUOUS
  0
ARC
  8
WHITE
 10
12.789472
 20
11.589882
 30
0.000000
 40
0.019586
 50
49.884537
 51
122.429785
  6
CONTINUOUS
  0
ARC
  8
WHITE
 10
12.568228
 20
11.345387
 30
0.000000
 40
0.349312
 50
31.832825
 51
47.971599
  6
CONTINUOUS
  0
ARC
  8
WHITE
 10
12.995589
 20
11.616461
 30
0.000000
 40
0.156822
 50
-146.379008
 51
-131.317788
  6
CONTINUOUS
  0
ARC
  8
WHITE
 10
12.902966
 20
11.509446
 30
0.000000
 40
0.015333
 50
-135.393032
 51
-38.165959
  6
CONTINUOUS
  0
ARC
  8
WHITE
 10
12.668696
 20
11.709851
 30
0.000000
 40
0.323614
 50
-40.432452
 51
20.794144
  6
CONTINUOUS
  0
ARC
  8
WHITE
 10
11.268475
 20
11.188802
 30
0.000000
 40
1.817633
 50
20.479376
 51
28.536464
  6
CONTINUOUS
  0
ARC
  8
WHITE
 10
10.806203
 20
10.925040
 30
0.000000
 40
2.349775
 50
28.801825
 51
30.573749
  6
CONTINUOUS
  0
ARC
  8
WHITE
 10
13.019525
 20
12.244928
 30
0.000000
 40
0.227444
 50
-155.684966
 51
-146.757243
  6
CONTINUOUS
  0
ARC
  8
WHITE
 10
12.881419
 20
12.170369
 30
0.000000
 40
0.071749
 50
98.373951
 51
195.431793
  6
CONTINUOUS
  0
ARC
  8
WHITE
 10
12.880946
 20
12.205719
 30
0.000000
 40
0.037004
 50
61.867392
 51
105.640015
  6
CONTINUOUS
  0
ARC
  8
WHITE
 10
13.630094
 20
13.168928
 30
0.000000
 40
1.183790
 50
-128.177500
 51
-123.593901
  6
CONTINUOUS
  0
ARC
  8
WHITE
 10
12.996486
 20
12.215638
 30
0.000000
 40
0.039142
 50
-123.118484
 51
-83.681944
  6
CONTINUOUS
  0
ARC
  8
WHITE
 10
12.984789
 20
12.225562
 30
0.000000
 40
0.051384
 50
-71.852365
 51
-6.952079
  6
CONTINUOUS
  0
ARC
  8
WHITE
 10
9.725250
 20
11.775353
 30
0.000000
 40
3.340185
 50
7.638571
 51
15.292547
  6
CONTINUOUS
  0
ARC
  8
WHITE
 10
13.016385
 20
12.678438
 30
0.000000
 40
0.072667
 50
161.248895
 51
197.721308
  6
CONTINUOUS
  0
ARC
  8
WHITE
 10
12.974316
 20
12.687217
 30
0.000000
 40
0.030459
 50
109.495739
 51
151.399271
  6
CONTINUOUS
  0
ARC
  8
WHITE
 10
12.999583
 20
12.611978
 30
0.000000
 40
0.109823
 50
94.675190
 51
108.821848
  6
CONTINUOUS
  0
ARC
  8
WHITE
 10
12.977616
 20
12.785006
 30
0.000000
 40
0.064888
 50
-78.428841
 51
-16.216910
  6
CONTINUOUS
  0
ARC
  8
WHITE
 10
12.700532
 20
12.870751
 30
0.000000
 40
0.354929
 50
-17.016141
 51
4.986477
  6
CONTINUOUS
  0
ARC
  8
WHITE
 10
12.574173
 20
12.873145
 30
0.000000
 40
0.480787
 50
3.393178
 51
10.696261
  6
CONTINUOUS
  0
ARC
  8
WHITE
 10
12.933352
 20
12.944969
 30
0.000000
 40
0.114585
 50
8.739999
 51
26.534608
  6
CONTINUOUS
  0
ARC
  8
WHITE
 10
15.502605
 20
13.726224
 30
0.000000
 40
2.572508
 50
-176.986583
 51
-163.513141
  6
CONTINUOUS
  0
ARC
  8
WHITE
 10
21.727022
 20
14.409924
 30
0.000000
 40
8.831419
 50
-177.001975
 51
-174.679327
  6
CONTINUOUS
  0
ARC
  8
WHITE
 10
15.775796
 20
14.098576
 30
0.000000
 40
2.872053
 50
-179.334093
 51
-176.995265
  6
CONTINUOUS
  0
ARC
  8
WHITE
 10
13.451706
 20
14.166203
 30
0.000000
 40
0.557005
 50
-173.336958
 51
-169.552304
  6
CONTINUOUS
  0
ARC
  8
WHITE
 10
12.929760
 20
14.088286
 30
0.000000
 40
0.034001
 50
77.398049
 51
156.995418
  6
CONTINUOUS
  0
ARC
  8
WHITE
 10
12.892241
 20
14.018199
 30
0.000000
 40
0.112622
 50
50.243149
 51
66.483846
  6
CONTINUOUS
  0
ARC
  8
WHITE
 10
12.931538
 20
14.050276
 30
0.000000
 40
0.063574
 50
28.608736
 51
59.015752
  6
CONTINUOUS
  0
ARC
  8
WHITE
 10
12.830642
 20
13.992515
 30
0.000000
 40
0.179826
 50
18.515857
 51
29.372600
  6
CONTINUOUS
  0
ARC
  8
WHITE
 10
12.601748
 20
13.931620
 30
0.000000
 40
0.416477
 50
-7.264118
 51
16.459204
  6
CONTINUOUS
  0
ARC
  8
WHITE
 10
13.875373
 20
13.760817
 30
0.000000
 40
0.868563
 50
172.182376
 51
184.424233
  6
CONTINUOUS
  0
ARC
  8
WHITE
 10
5.015758
 20
12.362574
 30
0.000000
 40
8.103733
 50
6.642938
 51
9.455125
  6
CONTINUOUS
  0
ARC
  8
WHITE
 10
13.272236
 20
13.320419
 30
0.000000
 40
0.208152
 50
-174.377750
 51
-141.524992
  6
CONTINUOUS
  0
ARC
  8
WHITE
 10
12.733452
 20
12.880092
 30
0.000000
 40
0.487703
 50
25.086684
 51
39.591859
  6
CONTINUOUS
  0
ARC
  8
WHITE
 10
13.053109
 20
13.049946
 30
0.000000
 40
0.127504
 50
-12.844277
 51
16.834728
  6
CONTINUOUS
  0
ARC
  8
WHITE
 10
13.350887
 20
12.982579
 30
0.000000
 40
0.177799
 50
167.321784
 51
188.764223
  6
CONTINUOUS
  0
ARC
  8
WHITE
 10
13.455774
 20
13.062434
 30
0.000000
 40
0.300299
 50
-159.137167
 51
-142.743958
  6
CONTINUOUS
  0
ARC
  8
WHITE
 10
13.121233
 20
12.806546
 30
0.000000
 40
0.120889
 50
-2.386494
 51
37.799810
  6
CONTINUOUS
  0
ARC
  8
WHITE
 10
14.036625
 20
12.703560
 30
0.000000
 40
0.800622
 50
172.972540
 51
184.833296
  6
CONTINUOUS
  0
ARC
  8
WHITE
 10
13.966509
 20
12.689700
 30
0.000000
 40
0.729630
 50
-175.787313
 51
-170.783797
  6
CONTINUOUS
  0
ARC
  8
WHITE
 10
13.403624
 20
12.594569
 30
0.000000
 40
0.158820
 50
-172.137165
 51
-159.516595
  6
CONTINUOUS
  0
ARC
  8
WHITE
 10
12.876913
 20
12.356245
 30
0.000000
 40
0.419796
 50
7.629524
 51
25.805835
  6
CONTINUOUS
  0
ARC
  8
WHITE
 10
13.102022
 20
12.383861
 30
0.000000
 40
0.193031
 50
-11.153235
 51
8.376217
  6
CONTINUOUS
  0
ARC
  8
WHITE
 10
13.236481
 20
12.356508
 30
0.000000
 40
0.055826
 50
-63.270174
 51
-10.303910
  6
CONTINUOUS
  0
ARC
  8
WHITE
 10
13.255948
 20
12.331943
 30
0.000000
 40
0.025918
 50
-141.249072
 51
-77.424325
  6
CONTINUOUS
  0
ARC
  8
WHITE
 10
13.328559
 20
12.406646
 30
0.000000
 40
0.129938
 50
-150.905783
 51
-135.591731
  6
CONTINUOUS
  0
ARC
  8
WHITE
 10
16.455915
 20
14.018114
 30
0.000000
 40
3.647995
 50
-153.771315
 51
-152.673518
  6
CONTINUOUS
  0
ARC
  8
WHITE
 10
12.986466
 20
12.302274
 30
0.000000
 40
0.222630
 50
27.729766
 51
38.333890
  6
CONTINUOUS
  0
ARC
  8
WHITE
 10
13.135439
 20
12.421052
 30
0.000000
 40
0.032112
 50
36.957876
 51
147.021892
  6
CONTINUOUS
  0
ARC
  8
WHITE
 10
13.192081
 20
12.408048
 30
0.000000
 40
0.088966
 50
159.962032
 51
181.057116
  6
CONTINUOUS
  0
ARC
  8
WHITE
 10
13.873890
 20
12.350345
 30
0.000000
 40
0.772796
 50
175.839885
 51
192.946715
  6
CONTINUOUS
  0
ARC
  8
WHITE
 10
12.019112
 20
11.907642
 30
0.000000
 40
1.134127
 50
1.825648
 51
13.749784
  6
CONTINUOUS
  0
ARC
  8
WHITE
 10
11.488903
 20
12.018975
 30
0.000000
 40
1.665459
 50
-21.540289
 51
-2.588001
  6
CONTINUOUS
  0
ARC
  8
WHITE
 10
12.233904
 20
11.735170
 30
0.000000
 40
0.868341
 50
-40.158610
 51
-22.170253
  6
CONTINUOUS
  0
ARC
  8
WHITE
 10
12.276039
 20
11.726934
 30
0.000000
 40
0.831091
 50
-46.375272
 51
-41.598145
  6
CONTINUOUS
  0
ARC
  8
WHITE
 10
13.003306
 20
10.965193
 30
0.000000
 40
0.222080
 50
133.856998
 51
139.149019
  6
CONTINUOUS
  0
ARC
  8
WHITE
 10
9.891192
 20
11.187620
 30
0.000000
 40
0.081654
 50
126.592858
 51
139.129318
  6
CONTINUOUS
  0
LINE
  8
WHITE
 10
9.829447
 20
11.241050
 30
0.000000
 11
9.814869
 21
11.225202
 31
0.000000
  6
CONTINUOUS
  0
ARC
  8
WHITE
 10
9.772703
 20
11.261075
 30
0.000000
 40
0.055361
 50
-84.884019
 51
-40.390001
  6
CONTINUOUS
  0
ARC
  8
WHITE
 10
9.736502
 20
10.875933
 30
0.000000
 40
0.332556
 50
82.894232
 51
98.045259
  6
CONTINUOUS
  0
ARC
  8
WHITE
 10
9.696039
 20
11.155938
 30
0.000000
 40
0.049652
 50
97.033676
 51
150.461397
  6
CONTINUOUS
  0
ARC
  8
WHITE
 10
9.728957
 20
11.142521
 30
0.000000
 40
0.085028
 50
153.532758
 51
196.121694
  6
CONTINUOUS
  0
ARC
  8
WHITE
 10
9.676272
 20
11.130803
 30
0.000000
 40
0.031344
 50
-157.701883
 51
-105.509800
  6
CONTINUOUS
  0
ARC
  8
WHITE
 10
9.706230
 20
11.225000
 30
0.000000
 40
0.130173
 50
-107.129112
 51
-94.232020
  6
CONTINUOUS
  0
ARC
  8
WHITE
 10
9.730808
 20
11.377417
 30
0.000000
 40
0.284298
 50
-96.906000
 51
-61.678183
  6
CONTINUOUS
  0
ARC
  8
WHITE
 10
23.683029
 20
-13.106524
 30
0.000000
 40
27.896056
 50
119.452149
 51
119.690544
  6
CONTINUOUS
  0
ARC
  8
WHITE
 10
9.239734
 20
13.236523
 30
0.000000
 40
2.177031
 50
-70.494599
 51
-35.957066
  6
CONTINUOUS
  0
ARC
  8
WHITE
 10
10.172069
 20
12.986325
 30
0.000000
 40
1.321252
 50
-51.089884
 51
-43.110451
  6
CONTINUOUS
  0
ARC
  8
WHITE
 10
4.617974
 20
18.459848
 30
0.000000
 40
9.118791
 50
-44.368277
 51
-42.056265
  6
CONTINUOUS
  0
ARC
  8
WHITE
 10
6.656774
 20
16.716533
 30
0.000000
 40
6.437626
 50
-42.691048
 51
-35.485563
  6
CONTINUOUS
  0
ARC
  8
WHITE
 10
11.971473
 20
12.919300
 30
0.000000
 40
0.094459
 50
130.207661
 51
140.403990
  6
CONTINUOUS
  0
ARC
  8
WHITE
 10
11.309324
 20
13.714421
 30
0.000000
 40
0.940270
 50
-50.255973
 51
-48.291631
  6
CONTINUOUS
  0
ARC
  8
WHITE
 10
11.133215
 20
13.911814
 30
0.000000
 40
1.204804
 50
-48.285009
 51
-26.371694
  6
CONTINUOUS
  0
ARC
  8
WHITE
 10
11.546161
 20
13.674111
 30
0.000000
 40
0.729846
 50
-24.052211
 51
-6.911517
  6
CONTINUOUS
  0
ARC
  8
WHITE
 10
14.571039
 20
13.304435
 30
0.000000
 40
2.317539
 50
167.695798
 51
173.014643
  6
CONTINUOUS
  0
ARC
  8
WHITE
 10
51.586793
 20
0.423768
 30
0.000000
 40
41.494594
 50
159.618168
 51
161.196711
  6
CONTINUOUS
  0
ARC
  8
WHITE
 10
12.433636
 20
14.981304
 30
0.000000
 40
0.277487
 50
-22.460671
 51
40.390430
  6
CONTINUOUS
  0
ARC
  8
WHITE
 10
12.580860
 20
15.089213
 30
0.000000
 40
0.096340
 50
48.272485
 51
83.552765
  6
CONTINUOUS
  0
ARC
  8
WHITE
 10
12.614387
 20
15.375273
 30
0.000000
 40
0.191679
 50
-114.724724
 51
-96.804086
  6
CONTINUOUS
  0
ARC
  8
WHITE
 10
12.448944
 20
15.037273
 30
0.000000
 40
0.184749
 50
62.512541
 51
115.697422
  6
CONTINUOUS
  0
ARC
  8
WHITE
 10
12.520145
 20
14.859569
 30
0.000000
 40
0.375973
 50
113.731653
 51
141.804805
  6
CONTINUOUS
  0
ARC
  8
WHITE
 10
12.324138
 20
15.017890
 30
0.000000
 40
0.124074
 50
143.294888
 51
168.482204
  6
CONTINUOUS
  0
ARC
  8
WHITE
 10
12.264923
 20
15.030573
 30
0.000000
 40
0.063522
 50
169.027016
 51
261.809566
  6
CONTINUOUS
  0
ARC
  8
WHITE
 10
12.257138
 20
15.011447
 30
0.000000
 40
0.043765
 50
-91.655576
 51
-53.791295
  6
CONTINUOUS
  0
ARC
  8
WHITE
 10
11.977014
 20
15.328671
 30
0.000000
 40
0.466803
 50
-49.044312
 51
-38.729886
  6
CONTINUOUS
  0
ARC
  8
WHITE
 10
12.427663
 20
14.963326
 30
0.000000
 40
0.113369
 50
9.943135
 51
139.724055
  6
CONTINUOUS
  0
ARC
  8
WHITE
 10
12.191402
 20
14.955846
 30
0.000000
 40
0.348979
 50
-17.866121
 51
4.446501
  6
CONTINUOUS
  0
ARC
  8
WHITE
 10
4.325572
 20
17.559299
 30
0.000000
 40
8.634449
 50
-21.825019
 51
-18.295559
  6
CONTINUOUS
  0
ARC
  8
WHITE
 10
12.132216
 20
14.453531
 30
0.000000
 40
0.233502
 50
-42.670665
 51
-26.527690
  6
CONTINUOUS
  0
ARC
  8
WHITE
 10
12.376143
 20
14.227607
 30
0.000000
 40
0.098980
 50
136.875723
 51
174.247385
  6
CONTINUOUS
  0
ARC
  8
WHITE
 10
11.042479
 20
14.513095
 30
0.000000
 40
1.265549
 50
-20.198985
 51
-12.576617
  6
CONTINUOUS
  0
ARC
  8
WHITE
 10
0.509978
 20
18.091275
 30
0.000000
 40
12.388904
 50
-20.358355
 51
-18.910603
  6
CONTINUOUS
  0
ARC
  8
WHITE
 10
7.203955
 20
15.512738
 30
0.000000
 40
5.216772
 50
-24.336441
 51
-19.384154
  6
CONTINUOUS
  0
ARC
  8
WHITE
 10
12.123812
 20
13.110416
 30
0.000000
 40
0.302550
 50
123.421090
 51
153.420673
  6
CONTINUOUS
  0
ARC
  8
WHITE
 10
5.527557
 20
16.452593
 30
0.000000
 40
7.092096
 50
-28.142089
 51
-26.882742
  6
CONTINUOUS
  0
ARC
  8
WHITE
 10
11.507537
 20
13.288306
 30
0.000000
 40
0.328001
 50
-53.506489
 51
-33.444071
  6
CONTINUOUS
  0
ARC
  8
WHITE
 10
12.189810
 20
12.388406
 30
0.000000
 40
0.801329
 50
127.444281
 51
135.642238
  6
CONTINUOUS
  0
ARC
  8
WHITE
 10
12.012361
 20
12.669818
 30
0.000000
 40
0.483900
 50
144.815703
 51
148.952594
  6
CONTINUOUS
  0
ARC
  8
WHITE
 10
10.590100
 20
13.555632
 30
0.000000
 40
1.191737
 50
-35.943150
 51
-32.267998
  6
CONTINUOUS
  0
ARC
  8
WHITE
 10
10.177241
 20
13.874782
 30
0.000000
 40
1.713397
 50
-46.015543
 51
-36.479630
  6
CONTINUOUS
  0
ARC
  8
WHITE
 10
11.496369
 20
12.539144
 30
0.000000
 40
0.165137
 50
141.499757
 51
162.504917
  6
CONTINUOUS
  0
ARC
  8
WHITE
 10
11.256068
 20
12.614149
 30
0.000000
 40
0.086600
 50
-56.723579
 51
-17.028795
  6
CONTINUOUS
  0
ARC
  8
WHITE
 10
53.403473
 20
-30.291038
 30
0.000000
 40
60.058707
 50
134.505598
 51
135.617976
  6
CONTINUOUS
  0
ARC
  8
WHITE
 10
9.467113
 20
12.484271
 30
0.000000
 40
1.271055
 50
-55.374263
 51
-37.167169
  6
CONTINUOUS
  0
ARC
  8
WHITE
 10
10.254023
 20
11.254988
 30
0.000000
 40
0.194429
 50
109.430500
 51
137.609857
  6
CONTINUOUS
  0
ARC
  8
WHITE
 10
9.898650
 20
11.580253
 30
0.000000
 40
0.287326
 50
-61.678848
 51
-42.519300
  6
CONTINUOUS
  0
ARC
  8
WHITE
 10
8.581991
 20
14.811867
 30
0.000000
 40
3.775339
 50
-70.495311
 51
-67.365072
  6
CONTINUOUS
  0
ARC
  8
WHITE
 10
9.714866
 20
11.383090
 30
0.000000
 40
1.803393
 50
141.108703
 51
158.678435
  6
CONTINUOUS
  0
ARC
  8
WHITE
 10
9.509091
 20
11.442218
 30
0.000000
 40
1.590326
 50
157.967258
 51
162.325532
  6
CONTINUOUS
  0
ARC
  8
WHITE
 10
8.074633
 20
11.897104
 30
0.000000
 40
0.085497
 50
160.918287
 51
239.502506
  6
CONTINUOUS
  0
ARC
  8
WHITE
 10
8.095876
 20
12.043790
 30
0.000000
 40
0.229639
 50
-106.347139
 51
-78.074967
  6
CONTINUOUS
  0
ARC
  8
WHITE
 10
7.913463
 20
13.137152
 30
0.000000
 40
1.337939
 50
-80.107256
 51
-61.268334
  6
CONTINUOUS
  0
ARC
  8
WHITE
 10
7.969883
 20
13.003323
 30
0.000000
 40
1.193558
 50
-60.555017
 51
-51.315073
  6
CONTINUOUS
  0
ARC
  8
WHITE
 10
7.344405
 20
13.907656
 30
0.000000
 40
2.291717
 50
-53.240456
 51
-44.219900
  6
CONTINUOUS
  0
ARC
  8
WHITE
 10
8.551746
 20
12.677259
 30
0.000000
 40
0.569747
 50
-40.217226
 51
-8.458866
  6
CONTINUOUS
  0
ARC
  8
WHITE
 10
8.703876
 20
12.678018
 30
0.000000
 40
0.420021
 50
-11.615525
 51
-2.193509
  6
CONTINUOUS
  0
ARC
  8
WHITE
 10
9.076576
 20
12.665328
 30
0.000000
 40
0.047134
 50
-4.119667
 51
77.393792
  6
CONTINUOUS
  0
ARC
  8
WHITE
 10
9.103702
 20
12.793005
 30
0.000000
 40
0.083397
 50
-146.172465
 51
-101.648933
  6
CONTINUOUS
  0
ARC
  8
WHITE
 10
9.096058
 20
12.774417
 30
0.000000
 40
0.067630
 50
151.075920
 51
204.307022
  6
CONTINUOUS
  0
ARC
  8
WHITE
 10
10.499984
 20
12.027114
 30
0.000000
 40
1.658052
 50
147.737617
 51
151.937221
  6
CONTINUOUS
  0
ARC
  8
WHITE
 10
7.998283
 20
13.542864
 30
0.000000
 40
1.267656
 50
-29.836137
 51
-27.258035
  6
CONTINUOUS
  0
ARC
  8
WHITE
 10
9.056791
 20
13.001489
 30
0.000000
 40
0.078823
 50
-29.830854
 51
50.340719
  6
CONTINUOUS
  0
ARC
  8
WHITE
 10
9.227444
 20
13.242348
 30
0.000000
 40
0.216673
 50
-137.414226
 51
-123.740368
  6
CONTINUOUS
  0
ARC
  8
WHITE
 10
9.120810
 20
13.120512
 30
0.000000
 40
0.058414
 50
155.981371
 51
205.106590
  6
CONTINUOUS
  0
ARC
  8
WHITE
 10
9.313002
 20
13.089815
 30
0.000000
 40
0.251517
 50
134.113535
 51
167.491871
  6
CONTINUOUS
  0
ARC
  8
WHITE
 10
9.121139
 20
13.307279
 30
0.000000
 40
0.040525
 50
-65.529260
 51
51.139224
  6
CONTINUOUS
  0
ARC
  8
WHITE
 10
9.059113
 20
13.137504
 30
0.000000
 40
0.219504
 50
66.521180
 51
87.965143
  6
CONTINUOUS
  0
ARC
  8
WHITE
 10
9.041194
 20
12.976476
 30
0.000000
 40
0.381262
 50
86.132924
 51
132.868770
  6
CONTINUOUS
  0
ARC
  8
WHITE
 10
9.469587
 20
12.382052
 30
0.000000
 40
1.112051
 50
128.204726
 51
140.212817
  6
CONTINUOUS
  0
ARC
  8
WHITE
 10
8.856659
 20
12.920950
 30
0.000000
 40
0.297006
 50
144.435186
 51
161.297133
  6
CONTINUOUS
  0
ARC
  8
WHITE
 10
7.705776
 20
13.271978
 30
0.000000
 40
0.906402
 50
-21.226367
 51
-16.391773
  6
CONTINUOUS
  0
ARC
  8
WHITE
 10
8.208699
 20
13.068420
 30
0.000000
 40
0.363980
 50
-30.544136
 51
-20.020011
  6
CONTINUOUS
  0
ARC
  8
WHITE
 10
8.450825
 20
12.936734
 30
0.000000
 40
0.089053
 50
-74.431368
 51
-36.755974
  6
CONTINUOUS
  0
ARC
  8
WHITE
 10
8.475170
 20
12.729672
 30
0.000000
 40
0.121278
 50
90.209814
 51
138.642249
  6
CONTINUOUS
  0
ARC
  8
WHITE
 10
8.510879
 20
12.721098
 30
0.000000
 40
0.154701
 50
145.010584
 51
173.391339
  6
CONTINUOUS
  0
ARC
  8
WHITE
 10
9.223832
 20
12.580108
 30
0.000000
 40
0.881055
 50
169.616732
 51
177.112348
  6
CONTINUOUS
  0
ARC
  8
WHITE
 10
7.875021
 20
12.684441
 30
0.000000
 40
0.472691
 50
-14.272841
 51
-7.285962
  6
CONTINUOUS
  0
ARC
  8
WHITE
 10
8.210837
 20
12.588023
 30
0.000000
 40
0.123929
 50
-35.907458
 51
-9.343044
  6
CONTINUOUS
  0
ARC
  8
WHITE
 10
7.253657
 20
12.771758
 30
0.000000
 40
0.064155
 50
124.791948
 51
140.770107
  6
CONTINUOUS
  0
LINE
  8
WHITE
 10
7.217050
 20
12.824444
 30
0.000000
 11
7.232167
 21
12.835244
 31
0.000000
  6
CONTINUOUS
  0
ARC
  8
WHITE
 10
7.216511
 20
12.861133
 30
0.000000
 40
0.030255
 50
-58.837153
 51
1.517286
  6
CONTINUOUS
  0
ARC
  8
WHITE
 10
7.198296
 20
12.851838
 30
0.000000
 40
0.049499
 50
11.768941
 51
50.521836
  6
CONTINUOUS
  0
ARC
  8
WHITE
 10
7.186647
 20
12.842169
 30
0.000000
 40
0.064431
 50
47.991901
 51
81.306198
  6
CONTINUOUS
  0
ARC
  8
WHITE
 10
7.163517
 20
12.273564
 30
0.000000
 40
0.633149
 50
87.024239
 51
139.943732
  6
CONTINUOUS
  0
ARC
  8
WHITE
 10
6.783149
 20
12.641754
 30
0.000000
 40
0.111403
 50
159.361040
 51
181.828266
  6
CONTINUOUS
  0
ARC
  8
WHITE
 10
6.691424
 20
12.639136
 30
0.000000
 40
0.019644
 50
-177.268337
 51
-109.281847
  6
CONTINUOUS
  0
ARC
  8
WHITE
 10
6.697747
 20
12.700572
 30
0.000000
 40
0.080996
 50
-99.099412
 51
-69.674138
  6
CONTINUOUS
  0
ARC
  8
WHITE
 10
7.014936
 20
11.965621
 30
0.000000
 40
0.719604
 50
101.412803
 51
113.683544
  6
CONTINUOUS
  0
ARC
  8
WHITE
 10
6.883562
 20
12.613845
 30
0.000000
 40
0.058205
 50
38.830124
 51
100.912611
  6
CONTINUOUS
  0
ARC
  8
WHITE
 10
7.007065
 20
12.705425
 30
0.000000
 40
0.095622
 50
-144.825280
 51
-102.834450
  6
CONTINUOUS
  0
ARC
  8
WHITE
 10
7.637051
 20
15.220636
 30
0.000000
 40
2.688508
 50
-104.017966
 51
-102.571532
  6
CONTINUOUS
  0
ARC
  8
WHITE
 10
7.039262
 20
12.536913
 30
0.000000
 40
0.060990
 50
0.383285
 51
78.065048
  6
CONTINUOUS
  0
ARC
  8
WHITE
 10
7.157504
 20
12.542076
 30
0.000000
 40
0.057450
 50
-175.252368
 51
-98.182213
  6
CONTINUOUS
  0
ARC
  8
WHITE
 10
7.331524
 20
2.782969
 30
0.000000
 40
9.703952
 50
90.133724
 51
91.075819
  6
CONTINUOUS
  0
ARC
  8
WHITE
 10
7.280616
 20
12.285780
 30
0.000000
 40
0.203090
 50
48.792096
 51
82.001418
  6
CONTINUOUS
  0
ARC
  8
WHITE
 10
7.652402
 20
12.713179
 30
0.000000
 40
0.363387
 50
-130.913998
 51
-112.114055
  6
CONTINUOUS
  0
ARC
  8
WHITE
 10
7.587786
 20
12.681340
 30
0.000000
 40
0.313246
 50
-103.322458
 51
-74.387356
  6
CONTINUOUS
  0
ARC
  8
WHITE
 10
7.714471
 20
12.217181
 30
0.000000
 40
0.167907
 50
74.946539
 51
104.619779
  6
CONTINUOUS
  0
ARC
  8
WHITE
 10
7.733063
 20
12.329004
 30
0.000000
 40
0.056196
 50
19.911328
 51
63.566248
  6
CONTINUOUS
  0
ARC
  8
WHITE
 10
7.636580
 20
12.295602
 30
0.000000
 40
0.158295
 50
-2.375691
 51
19.385209
  6
CONTINUOUS
  0
ARC
  8
WHITE
 10
7.140350
 20
12.336850
 30
0.000000
 40
0.656133
 50
-21.661723
 51
-4.178601
  6
CONTINUOUS
  0
ARC
  8
WHITE
 10
8.102729
 20
11.948703
 30
0.000000
 40
0.381597
 50
157.512926
 51
162.406063
  6
CONTINUOUS
  0
ARC
  8
WHITE
 10
7.786999
 20
12.045658
 30
0.000000
 40
0.051418
 50
159.043705
 51
266.417402
  6
CONTINUOUS
  0
ARC
  8
WHITE
 10
7.773408
 20
12.013609
 30
0.000000
 40
0.021886
 50
-61.693095
 51
-18.088271
  6
CONTINUOUS
  0
ARC
  8
WHITE
 10
7.603806
 20
12.115450
 30
0.000000
 40
0.219217
 50
-29.706937
 51
-21.893234
  6
CONTINUOUS
  0
ARC
  8
WHITE
 10
6.729233
 20
12.462247
 30
0.000000
 40
1.160037
 50
-21.679709
 51
-17.327412
  6
CONTINUOUS
  0
ARC
  8
WHITE
 10
5.117591
 20
12.979346
 30
0.000000
 40
2.852581
 50
-17.601265
 51
-14.789631
  6
CONTINUOUS
  0
ARC
  8
WHITE
 10
20.280542
 20
9.361305
 30
0.000000
 40
12.737043
 50
164.316019
 51
166.886177
  6
CONTINUOUS
  0
ARC
  8
WHITE
 10
9.622133
 20
11.712801
 30
0.000000
 40
1.940609
 50
116.001700
 51
145.766403
  6
CONTINUOUS
  0
ARC
  8
WHITE
 10
9.277394
 20
12.535784
 30
0.000000
 40
1.051030
 50
94.683241
 51
118.780222
  6
CONTINUOUS
  0
ARC
  8
WHITE
 10
9.208276
 20
13.389258
 30
0.000000
 40
0.194765
 50
45.989278
 51
94.917510
  6
CONTINUOUS
  0
ARC
  8
WHITE
 10
9.266544
 20
13.484246
 30
0.000000
 40
0.089276
 50
3.787211
 51
30.334660
  6
CONTINUOUS
  0
ARC
  8
WHITE
 10
8.764954
 20
13.430278
 30
0.000000
 40
0.593697
 50
0.029807
 51
5.787193
  6
CONTINUOUS
  0
ARC
  8
WHITE
 10
10.149274
 20
13.410104
 30
0.000000
 40
0.790888
 50
178.515957
 51
186.700943
  6
CONTINUOUS
  0
ARC
  8
WHITE
 10
7.992968
 20
12.895839
 30
0.000000
 40
1.434300
 50
-11.562466
 51
17.109891
  6
CONTINUOUS
  0
ARC
  8
WHITE
 10
8.134893
 20
13.074952
 30
0.000000
 40
1.346685
 50
-47.473546
 51
-20.272124
  6
CONTINUOUS
  0
ARC
  8
WHITE
 10
9.388433
 20
11.584166
 30
0.000000
 40
0.605117
 50
124.561226
 51
127.715077
  6
CONTINUOUS
  0
ARC
  8
WHITE
 10
9.049752
 20
12.041676
 30
0.000000
 40
0.037947
 50
146.081979
 51
282.639069
  6
CONTINUOUS
  0
ARC
  8
WHITE
 10
9.046106
 20
12.119427
 30
0.000000
 40
0.115400
 50
-84.056515
 51
-57.237673
  6
CONTINUOUS
  0
ARC
  8
WHITE
 10
8.896383
 20
12.320633
 30
0.000000
 40
0.366018
 50
-54.572161
 51
-43.416039
  6
CONTINUOUS
  0
ARC
  8
WHITE
 10
8.292013
 20
12.873854
 30
0.000000
 40
1.185324
 50
-42.762111
 51
-34.699266
  6
CONTINUOUS
  0
ARC
  8
WHITE
 10
7.985381
 20
13.228704
 30
0.000000
 40
1.643609
 50
-38.787750
 51
-2.307576
  6
CONTINUOUS
  0
ARC
  8
WHITE
 10
8.203644
 20
13.125416
 30
0.000000
 40
1.424496
 50
1.492796
 51
12.141473
  6
CONTINUOUS
  0
ARC
  8
WHITE
 10
8.050279
 20
13.396419
 30
0.000000
 40
1.546262
 50
1.060043
 51
10.054785
  6
CONTINUOUS
  0
ARC
  8
WHITE
 10
9.385104
 20
13.632028
 30
0.000000
 40
0.190806
 50
10.372011
 51
79.029167
  6
CONTINUOUS
  0
ARC
  8
WHITE
 10
9.371519
 20
13.407098
 30
0.000000
 40
0.415258
 50
83.098691
 51
121.178144
  6
CONTINUOUS
  0
ARC
  8
WHITE
 10
8.785040
 20
14.385386
 30
0.000000
 40
0.725364
 50
-81.168236
 51
-59.192423
  6
CONTINUOUS
  0
ARC
  8
WHITE
 10
8.900950
 20
13.437324
 30
0.000000
 40
0.231343
 50
91.125021
 51
126.945867
  6
CONTINUOUS
  0
ARC
  8
WHITE
 10
8.711709
 20
13.687996
 30
0.000000
 40
0.082742
 50
-83.280880
 51
-52.657244
  6
CONTINUOUS
  0
ARC
  8
WHITE
 10
8.777906
 20
13.152149
 30
0.000000
 40
0.457179
 50
97.100997
 51
114.784021
  6
CONTINUOUS
  0
ARC
  8
WHITE
 10
8.951574
 20
12.690964
 30
0.000000
 40
0.949358
 50
112.631596
 51
123.042707
  6
CONTINUOUS
  0
ARC
  8
WHITE
 10
9.185730
 20
12.282926
 30
0.000000
 40
1.419320
 50
121.984840
 51
145.161904
  6
CONTINUOUS
  0
ARC
  8
WHITE
 10
9.019699
 20
12.508464
 30
0.000000
 40
1.157731
 50
149.633780
 51
163.893931
  6
CONTINUOUS
  0
ARC
  8
WHITE
 10
5.450008
 20
13.538582
 30
0.000000
 40
2.557622
 50
-22.564669
 51
-16.092510
  6
CONTINUOUS
  0
ARC
  8
WHITE
 10
7.711487
 20
12.605982
 30
0.000000
 40
0.111596
 50
-65.356261
 51
-25.945709
  6
CONTINUOUS
  0
ARC
  8
WHITE
 10
7.663945
 20
12.708529
 30
0.000000
 40
0.224628
 50
-87.972397
 51
-65.240900
  6
CONTINUOUS
  0
ARC
  8
WHITE
 10
7.656097
 20
12.769797
 30
0.000000
 40
0.286192
 50
-125.551075
 51
-86.836110
  6
CONTINUOUS
  0
ARC
  8
WHITE
 10
7.586211
 20
12.632965
 30
0.000000
 40
0.136138
 50
-152.368069
 51
-135.149115
  6
CONTINUOUS
  0
ARC
  8
WHITE
 10
7.205243
 20
12.422361
 30
0.000000
 40
0.299219
 50
29.526921
 51
41.252107
  6
CONTINUOUS
  0
ARC
  8
WHITE
 10
7.161722
 20
12.347263
 30
0.000000
 40
0.382465
 50
45.414882
 51
78.910612
  6
CONTINUOUS
  0
ARC
  8
WHITE
 10
7.251137
 20
12.789492
 30
0.000000
 40
0.068756
 50
-126.047749
 51
-103.329117
  6
CONTINUOUS
  0
ARC
  8
WHITE
 10
7.230457
 20
12.761380
 30
0.000000
 40
0.033859
 50
-171.389453
 51
-125.747267
  6
CONTINUOUS
  0
ARC
  8
WHITE
 10
7.332435
 20
12.780476
 30
0.000000
 40
0.137594
 50
177.953002
 51
190.115170
  6
CONTINUOUS
  0
ARC
  8
WHITE
 10
7.242629
 20
12.784383
 30
0.000000
 40
0.047711
 50
144.140593
 51
178.789701
  6
CONTINUOUS
  0
ARC
  8
WHITE
 10
5.714523
 20
12.158343
 30
0.000000
 40
0.067900
 50
-115.662898
 51
-64.446188
  6
CONTINUOUS
  0
ARC
  8
WHITE
 10
5.681398
 20
12.201942
 30
0.000000
 40
0.122027
 50
-59.237549
 51
-27.798811
  6
CONTINUOUS
  0
ARC
  8
WHITE
 10
5.208007
 20
12.426207
 30
0.000000
 40
0.645762
 50
-25.811678
 51
-8.025939
  6
CONTINUOUS
  0
ARC
  8
WHITE
 10
3.252785
 20
12.733493
 30
0.000000
 40
2.624923
 50
-8.708838
 51
0.497293
  6
CONTINUOUS
  0
ARC
  8
WHITE
 10
5.712468
 20
12.774338
 30
0.000000
 40
0.166126
 50
-6.241989
 51
14.854576
  6
CONTINUOUS
  0
ARC
  8
WHITE
 10
5.836712
 20
12.807455
 30
0.000000
 40
0.037545
 50
14.613136
 51
52.410711
  6
CONTINUOUS
  0
ARC
  8
WHITE
 10
5.829701
 20
12.776516
 30
0.000000
 40
0.067660
 50
63.761981
 51
91.729128
  6
CONTINUOUS
  0
ARC
  8
WHITE
 10
5.827751
 20
12.982123
 30
0.000000
 40
0.137978
 50
-160.844973
 51
-90.038037
  6
CONTINUOUS
  0
ARC
  8
WHITE
 10
6.262724
 20
13.146695
 30
0.000000
 40
0.603002
 50
-175.631139
 51
-159.634863
  6
CONTINUOUS
  0
ARC
  8
WHITE
 10
5.746268
 20
13.123471
 30
0.000000
 40
0.087783
 50
171.981610
 51
194.994025
  6
CONTINUOUS
  0
ARC
  8
WHITE
 10
5.624270
 20
13.147263
 30
0.000000
 40
0.036926
 50
-18.222688
 51
72.779735
  6
CONTINUOUS
  0
ARC
  8
WHITE
 10
5.633507
 20
13.192637
 30
0.000000
 40
0.010245
 50
177.124358
 51
279.520022
  6
CONTINUOUS
  0
ARC
  8
WHITE
 10
5.611866
 20
13.190064
 30
0.000000
 40
0.011818
 50
15.141831
 51
109.746560
  6
CONTINUOUS
  0
ARC
  8
WHITE
 10
5.617378
 20
12.655222
 30
0.000000
 40
0.546048
 50
90.997375
 51
94.172043
  6
CONTINUOUS
  0
ARC
  8
WHITE
 10
5.611675
 20
12.315298
 30
0.000000
 40
0.885179
 50
92.202769
 51
95.841713
  6
CONTINUOUS
  0
ARC
  8
WHITE
 10
5.524645
 20
13.220003
 30
0.000000
 40
0.024317
 50
-138.355452
 51
-97.238807
  6
CONTINUOUS
  0
ARC
  8
WHITE
 10
5.576137
 20
13.268216
 30
0.000000
 40
0.094851
 50
-152.753297
 51
-137.260906
  6
CONTINUOUS
  0
ARC
  8
WHITE
 10
5.841495
 20
13.398005
 30
0.000000
 40
0.390234
 50
-164.634027
 51
-153.648795
  6
CONTINUOUS
  0
ARC
  8
WHITE
 10
6.406596
 20
13.560679
 30
0.000000
 40
0.978265
 50
-174.603380
 51
-164.217222
  6
CONTINUOUS
  0
ARC
  8
WHITE
 10
5.198285
 20
13.462249
 30
0.000000
 40
0.234470
 50
1.570126
 51
24.977338
  6
CONTINUOUS
  0
ARC
  8
WHITE
 10
5.333276
 20
13.506515
 30
0.000000
 40
0.094924
 50
35.217571
 51
89.541743
  6
CONTINUOUS
  0
ARC
  8
WHITE
 10
5.360214
 20
13.752774
 30
0.000000
 40
0.153586
 50
-155.192194
 51
-99.814035
  6
CONTINUOUS
  0
ARC
  8
WHITE
 10
5.587151
 20
13.876995
 30
0.000000
 40
0.412075
 50
-175.362554
 51
-152.752566
  6
CONTINUOUS
  0
ARC
  8
WHITE
 10
4.996199
 20
13.782913
 30
0.000000
 40
0.190194
 50
18.632214
 51
31.027642
  6
CONTINUOUS
  0
ARC
  8
WHITE
 10
4.014617
 20
13.241788
 30
0.000000
 40
1.310935
 50
29.180400
 51
32.637915
  6
CONTINUOUS
  0
ARC
  8
WHITE
 10
4.281572
 20
13.430878
 30
0.000000
 40
0.984270
 50
31.749833
 51
41.647045
  6
CONTINUOUS
  0
ARC
  8
WHITE
 10
4.958998
 20
14.035798
 30
0.000000
 40
0.076091
 50
40.252793
 51
70.793644
  6
CONTINUOUS
  0
ARC
  8
WHITE
 10
4.981481
 20
14.087935
 30
0.000000
 40
0.019884
 50
82.634437
 51
144.928768
  6
CONTINUOUS
  0
ARC
  8
WHITE
 10
5.018925
 20
14.065484
 30
0.000000
 40
0.063507
 50
147.763161
 51
172.491037
  6
CONTINUOUS
  0
ARC
  8
WHITE
 10
5.539182
 20
14.009566
 30
0.000000
 40
0.586743
 50
173.716584
 51
181.541878
  6
CONTINUOUS
  0
ARC
  8
WHITE
 10
30.336607
 20
15.444865
 30
0.000000
 40
25.425398
 50
-176.728218
 51
-175.328842
  6
CONTINUOUS
  0
ARC
  8
WHITE
 10
6.114442
 20
13.694794
 30
0.000000
 40
1.163783
 50
-164.014844
 51
-157.522073
  6
CONTINUOUS
  0
ARC
  8
WHITE
 10
4.806843
 20
13.154103
 30
0.000000
 40
0.251195
 50
-2.338978
 51
22.405391
  6
CONTINUOUS
  0
ARC
  8
WHITE
 10
4.921784
 20
13.162921
 30
0.000000
 40
0.137375
 50
-47.400544
 51
-7.979272
  6
CONTINUOUS
  0
ARC
  8
WHITE
 10
5.097672
 20
12.974903
 30
0.000000
 40
0.120099
 50
133.652994
 51
152.102477
  6
CONTINUOUS
  0
ARC
  8
WHITE
 10
5.144944
 20
12.998366
 30
0.000000
 40
0.156867
 50
167.956597
 51
216.918539
  6
CONTINUOUS
  0
ARC
  8
WHITE
 10
5.661127
 20
13.356858
 30
0.000000
 40
0.785240
 50
-144.792721
 51
-134.765969
  6
CONTINUOUS
  0
ARC
  8
WHITE
 10
13.040459
 20
20.010566
 30
0.000000
 40
10.720223
 50
-137.726189
 51
-133.900010
  6
CONTINUOUS
  0
ARC
  8
WHITE
 10
5.317231
 20
12.075544
 30
0.000000
 40
0.358217
 50
7.173538
 51
35.999902
  6
CONTINUOUS
  0
ARC
  8
WHITE
 10
5.710307
 20
12.125651
 30
0.000000
 40
0.038044
 50
-171.878480
 51
-131.461814
  6
CONTINUOUS
  0
ARC
  8
WHITE
 10
9.251870
 20
12.692141
 30
0.000000
 40
1.811667
 50
-126.389349
 51
-125.336109
  6
CONTINUOUS
  0
ARC
  8
WHITE
 10
8.590876
 20
11.951518
 30
0.000000
 40
0.832600
 50
-117.684107
 51
-95.446068
  6
CONTINUOUS
  0
ARC
  8
WHITE
 10
8.680806
 20
12.419638
 30
0.000000
 40
1.307920
 50
-97.421944
 51
-91.130920
  6
CONTINUOUS
  0
ARC
  8
WHITE
 10
8.663188
 20
11.561402
 30
0.000000
 40
0.449505
 50
-91.044809
 51
-85.175287
  6
CONTINUOUS
  0
ARC
  8
WHITE
 10
8.700627
 20
11.155702
 30
0.000000
 40
0.042213
 50
-89.500881
 51
-60.769411
  6
CONTINUOUS
  0
ARC
  8
WHITE
 10
8.705090
 20
11.126804
 30
0.000000
 40
0.017997
 50
-26.178676
 51
34.144430
  6
CONTINUOUS
  0
ARC
  8
WHITE
 10
8.758627
 20
11.157019
 30
0.000000
 40
0.043564
 50
147.097341
 51
207.497383
  6
CONTINUOUS
  0
ARC
  8
WHITE
 10
8.583050
 20
11.312431
 30
0.000000
 40
0.191518
 50
-43.465337
 51
-29.009932
  6
CONTINUOUS
  0
ARC
  8
WHITE
 10
8.533864
 20
11.302682
 30
0.000000
 40
0.232074
 50
-20.989811
 51
2.237767
  6
CONTINUOUS
  0
ARC
  8
WHITE
 10
9.103337
 20
11.324837
 30
0.000000
 40
0.337830
 50
166.329282
 51
182.221179
  6
CONTINUOUS
  0
ARC
  8
WHITE
 10
10.090621
 20
10.969035
 30
0.000000
 40
1.385800
 50
146.421962
 51
161.677589
  6
CONTINUOUS
  0
ARC
  8
WHITE
 10
9.467508
 20
11.387628
 30
0.000000
 40
0.635165
 50
134.438992
 51
146.793367
  6
CONTINUOUS
  0
ARC
  8
WHITE
 10
9.139197
 20
11.718452
 30
0.000000
 40
0.169114
 50
117.982911
 51
133.494839
  6
CONTINUOUS
  0
ARC
  8
WHITE
 10
9.081701
 20
11.828408
 30
0.000000
 40
0.045042
 50
79.789111
 51
119.023827
  6
CONTINUOUS
  0
ARC
  8
WHITE
 10
9.032235
 20
11.623029
 30
0.000000
 40
0.256231
 50
4.274468
 51
77.043330
  6
CONTINUOUS
  0
ARC
  8
WHITE
 10
6.024524
 20
11.324629
 30
0.000000
 40
3.278639
 50
-0.210914
 51
5.557138
  6
CONTINUOUS
  0
ARC
  8
WHITE
 10
-22.872144
 20
7.812663
 30
0.000000
 40
32.365077
 50
5.926627
 51
6.207994
  6
CONTINUOUS
  0
ARC
  8
WHITE
 10
6.713700
 20
10.855284
 30
0.000000
 40
2.623361
 50
3.026875
 51
6.549581
  6
CONTINUOUS
  0
ARC
  8
WHITE
 10
10.081895
 20
10.973383
 30
0.000000
 40
0.748773
 50
178.436823
 51
196.571921
  6
CONTINUOUS
  0
ARC
  8
WHITE
 10
8.623811
 20
10.539911
 30
0.000000
 40
0.772380
 50
-1.103330
 51
16.541792
  6
CONTINUOUS
  0
ARC
  8
WHITE
 10
8.686059
 20
10.599720
 30
0.000000
 40
0.713907
 50
-35.053460
 51
-6.004684
  6
CONTINUOUS
  0
ARC
  8
WHITE
 10
8.915103
 20
10.436319
 30
0.000000
 40
0.432566
 50
-56.860437
 51
-34.760267
  6
CONTINUOUS
  0
ARC
  8
WHITE
 10
9.030200
 20
10.262906
 30
0.000000
 40
0.224443
 50
-95.346947
 51
-57.262255
  6
CONTINUOUS
  0
ARC
  8
WHITE
 10
9.145880
 20
10.835069
 30
0.000000
 40
0.807271
 50
-122.153103
 51
-99.741664
  6
CONTINUOUS
  0
ARC
  8
WHITE
 10
9.929446
 20
12.123096
 30
0.000000
 40
2.314858
 50
-130.567779
 51
-121.606661
  6
CONTINUOUS
  0
ARC
  8
WHITE
 10
3.656616
 20
5.066019
 30
0.000000
 40
7.127638
 50
48.021114
 51
49.403897
  6
CONTINUOUS
  0
ARC
  8
WHITE
 10
30.094301
 20
48.553963
 30
0.000000
 40
43.874697
 50
-120.139302
 51
-119.792457
  6
CONTINUOUS
  0
ARC
  8
WHITE
 10
8.824984
 20
11.903900
 30
0.000000
 40
1.500071
 50
-126.255254
 51
-120.455835
  6
CONTINUOUS
  0
ARC
  8
WHITE
 10
8.121757
 20
10.941112
 30
0.000000
 40
0.307820
 50
-136.612227
 51
-126.683654
  6
CONTINUOUS
  0
ARC
  8
WHITE
 10
7.953216
 20
10.801601
 30
0.000000
 40
0.090652
 50
-140.544379
 51
-127.478049
  6
CONTINUOUS
  0
ARC
  8
WHITE
 10
7.921404
 20
10.748264
 30
0.000000
 40
0.038420
 50
72.413729
 51
186.381881
  6
CONTINUOUS
  0
ARC
  8
WHITE
 10
7.802027
 20
10.386217
 30
0.000000
 40
0.419638
 50
62.327333
 51
71.811829
  6
CONTINUOUS
  0
ARC
  8
WHITE
 10
6.238827
 20
7.199444
 30
0.000000
 40
3.969025
 50
54.500202
 51
63.707610
  6
CONTINUOUS
  0
ARC
  8
WHITE
 10
8.945017
 20
10.975080
 30
0.000000
 40
0.676354
 50
-126.401574
 51
-93.062093
  6
CONTINUOUS
  0
ARC
  8
WHITE
 10
9.167872
 20
11.091289
 30
0.000000
 40
0.832887
 50
-108.116375
 51
-100.444385
  6
CONTINUOUS
  0
ARC
  8
WHITE
 10
9.051201
 20
10.480602
 30
0.000000
 40
0.211208
 50
-99.350543
 51
-78.455915
  6
CONTINUOUS
  0
ARC
  8
WHITE
 10
9.073033
 20
10.370047
 30
0.000000
 40
0.098522
 50
-78.028987
 51
-33.873203
  6
CONTINUOUS
  0
ARC
  8
WHITE
 10
8.688646
 20
10.603938
 30
0.000000
 40
0.548396
 50
-31.778172
 51
7.013613
  6
CONTINUOUS
  0
ARC
  8
WHITE
 10
26.977959
 20
12.321134
 30
0.000000
 40
17.821590
 50
-175.869655
 51
-174.686944
  6
CONTINUOUS
  0
ARC
  8
WHITE
 10
-2.294616
 20
11.101832
 30
0.000000
 40
11.497453
 50
-0.320483
 51
2.161336
  6
CONTINUOUS
  0
ARC
  8
WHITE
 10
7.594914
 20
11.468156
 30
0.000000
 40
1.601157
 50
2.408434
 51
8.028183
  6
CONTINUOUS
  0
ARC
  8
WHITE
 10
8.860616
 20
11.643525
 30
0.000000
 40
0.323382
 50
8.580606
 51
17.268042
  6
CONTINUOUS
  0
ARC
  8
WHITE
 10
9.113271
 20
11.724043
 30
0.000000
 40
0.058245
 50
15.408420
 51
43.606284
  6
CONTINUOUS
  0
ARC
  8
WHITE
 10
9.075402
 20
11.655067
 30
0.000000
 40
0.135352
 50
53.745318
 51
85.281470
  6
CONTINUOUS
  0
ARC
  8
WHITE
 10
9.074366
 20
11.699879
 30
0.000000
 40
0.090901
 50
82.305840
 51
128.276591
  6
CONTINUOUS
  0
ARC
  8
WHITE
 10
9.587469
 20
11.264775
 30
0.000000
 40
0.762061
 50
138.348499
 51
175.794117
  6
CONTINUOUS
  0
ARC
  8
WHITE
 10
14.986521
 20
10.768471
 30
0.000000
 40
6.183765
 50
174.876813
 51
180.344708
  6
CONTINUOUS
  0
ARC
  8
WHITE
 10
8.592326
 20
10.734880
 30
0.000000
 40
0.210574
 50
-11.358264
 51
-0.982874
  6
CONTINUOUS
  0
ARC
  8
WHITE
 10
8.786787
 20
10.690560
 30
0.000000
 40
0.012323
 50
-95.632629
 51
13.367079
  6
CONTINUOUS
  0
ARC
  8
WHITE
 10
8.869127
 20
10.719801
 30
0.000000
 40
0.093291
 50
166.485901
 51
206.416596
  6
CONTINUOUS
  0
ARC
  8
WHITE
 10
8.681089
 20
10.750185
 30
0.000000
 40
0.097709
 50
-5.039842
 51
66.715127
  6
CONTINUOUS
  0
ARC
  8
WHITE
 10
8.235762
 20
9.862863
 30
0.000000
 40
1.090358
 50
63.650430
 51
74.929761
  6
CONTINUOUS
  0
ARC
  8
WHITE
 10
9.240961
 20
12.431822
 30
0.000000
 40
1.679113
 50
-126.444293
 51
-115.455634
  6
CONTINUOUS
  0
ARC
  8
WHITE
 10
8.836248
 20
11.913414
 30
0.000000
 40
1.021822
 50
-134.484778
 51
-125.456833
  6
CONTINUOUS
  0
ARC
  8
WHITE
 10
8.262752
 20
11.318120
 30
0.000000
 40
0.195422
 50
-148.627514
 51
-136.825444
  6
CONTINUOUS
  0
ARC
  8
WHITE
 10
8.120514
 20
11.234534
 30
0.000000
 40
0.030581
 50
160.878272
 51
216.406214
  6
CONTINUOUS
  0
ARC
  8
WHITE
 10
8.114035
 20
11.215503
 30
0.000000
 40
0.036692
 50
57.158807
 51
127.655598
  6
CONTINUOUS
  0
ARC
  8
WHITE
 10
8.123794
 20
11.131415
 30
0.000000
 40
0.115361
 50
62.499208
 51
84.957830
  6
CONTINUOUS
  0
ARC
  8
WHITE
 10
14.365267
 20
10.829760
 30
0.000000
 40
0.069800
 50
160.620034
 51
224.733081
  6
CONTINUOUS
  0
ARC
  8
WHITE
 10
13.876137
 20
11.019194
 30
0.000000
 40
0.454771
 50
-21.445626
 51
-2.405831
  6
CONTINUOUS
  0
ARC
  8
WHITE
 10
15.019240
 20
10.921684
 30
0.000000
 40
0.693184
 50
167.652084
 51
173.504209
  6
CONTINUOUS
  0
ARC
  8
WHITE
 10
14.527251
 20
11.027383
 30
0.000000
 40
0.189983
 50
156.725395
 51
167.061899
  6
CONTINUOUS
  0
ARC
  8
WHITE
 10
14.367245
 20
11.100572
 30
0.000000
 40
0.014637
 50
39.389737
 51
172.619825
  6
CONTINUOUS
  0
ARC
  8
WHITE
 10
14.208231
 20
10.941373
 30
0.000000
 40
0.239581
 50
12.892805
 51
44.689181
  6
CONTINUOUS
  0
ARC
  8
WHITE
 10
12.946801
 20
10.781653
 30
0.000000
 40
1.510093
 50
-10.798708
 51
8.115453
  6
CONTINUOUS
  0
ARC
  8
WHITE
 10
12.445016
 20
10.903428
 30
0.000000
 40
2.025971
 50
-22.098218
 51
-11.522847
  6
CONTINUOUS
  0
ARC
  8
WHITE
 10
9.979310
 20
11.756453
 30
0.000000
 40
4.633483
 50
-27.336950
 51
-20.401096
  6
CONTINUOUS
  0
ARC
  8
WHITE
 10
9.562793
 20
12.011997
 30
0.000000
 40
5.120960
 50
-30.874418
 51
-27.736730
  6
CONTINUOUS
  0
ARC
  8
WHITE
 10
13.085569
 20
9.752260
 30
0.000000
 40
0.946994
 50
-31.352231
 51
-22.875517
  6
CONTINUOUS
  0
ARC
  8
WHITE
 10
13.851323
 20
9.273225
 30
0.000000
 40
0.045090
 50
-107.039606
 51
-17.666007
  6
CONTINUOUS
  0
ARC
  8
WHITE
 10
13.858303
 20
9.279090
 30
0.000000
 40
0.052976
 50
-150.306799
 51
-112.406354
  6
CONTINUOUS
  0
ARC
  8
WHITE
 10
13.788745
 20
9.236951
 30
0.000000
 40
0.028404
 50
34.034723
 51
104.873620
  6
CONTINUOUS
  0
ARC
  8
WHITE
 10
9.712532
 20
11.220657
 30
0.000000
 40
4.514760
 50
-28.291396
 51
-25.677296
  6
CONTINUOUS
  0
ARC
  8
WHITE
 10
13.163538
 20
9.309400
 30
0.000000
 40
0.572091
 50
-42.902048
 51
-23.545842
  6
CONTINUOUS
  0
LINE
  8
WHITE
 10
13.582605
 20
8.919951
 30
0.000000
 11
13.517314
 21
8.857108
 31
0.000000
  6
CONTINUOUS
  0
ARC
  8
WHITE
 10
13.636036
 20
8.731616
 30
0.000000
 40
0.172752
 50
133.412171
 51
162.554718
  6
CONTINUOUS
  0
ARC
  8
WHITE
 10
13.874845
 20
8.629101
 30
0.000000
 40
0.432106
 50
159.077761
 51
175.820236
  6
CONTINUOUS
  0
ARC
  8
WHITE
 10
13.412836
 20
8.656515
 30
0.000000
 40
0.031319
 50
-66.875498
 51
7.486208
  6
CONTINUOUS
  0
ARC
  8
WHITE
 10
13.314055
 20
9.013934
 30
0.000000
 40
0.401878
 50
-85.337006
 51
-73.954278
  6
CONTINUOUS
  0
ARC
  8
WHITE
 10
13.360385
 20
8.543767
 30
0.000000
 40
0.070947
 50
101.100489
 51
163.559122
  6
CONTINUOUS
  0
ARC
  8
WHITE
 10
14.278204
 20
8.274963
 30
0.000000
 40
1.027318
 50
163.668059
 51
172.026901
  6
CONTINUOUS
  0
ARC
  8
WHITE
 10
13.033080
 20
8.442425
 30
0.000000
 40
0.229100
 50
-23.825881
 51
-6.255807
  6
CONTINUOUS
  0
ARC
  8
WHITE
 10
13.199135
 20
8.361543
 30
0.000000
 40
0.045057
 50
-101.536647
 51
-15.004526
  6
CONTINUOUS
  0
ARC
  8
WHITE
 10
13.219328
 20
8.369633
 30
0.000000
 40
0.059847
 50
178.049117
 51
240.791874
  6
CONTINUOUS
  0
ARC
  8
WHITE
 10
13.276954
 20
8.383851
 30
0.000000
 40
0.118069
 50
170.427320
 51
185.921470
  6
CONTINUOUS
  0
ARC
  8
WHITE
 10
13.119811
 20
8.408186
 30
0.000000
 40
0.040988
 50
-6.584766
 51
37.262282
  6
CONTINUOUS
  0
ARC
  8
WHITE
 10
13.240696
 20
8.463736
 30
0.000000
 40
0.093461
 50
161.239443
 51
199.197908
  6
CONTINUOUS
  0
ARC
  8
WHITE
 10
12.623525
 20
8.579062
 30
0.000000
 40
0.535507
 50
-9.162062
 51
3.668256
  6
CONTINUOUS
  0
ARC
  8
WHITE
 10
13.299085
 20
8.633163
 30
0.000000
 40
0.142537
 50
142.823148
 51
188.000902
  6
CONTINUOUS
  0
ARC
  8
WHITE
 10
13.127994
 20
8.797845
 30
0.000000
 40
0.097360
 50
-53.785041
 51
-22.786219
  6
CONTINUOUS
  0
ARC
  8
WHITE
 10
13.060592
 20
8.798567
 30
0.000000
 40
0.161793
 50
-13.740062
 51
4.304713
  6
CONTINUOUS
  0
ARC
  8
WHITE
 10
13.408052
 20
8.817646
 30
0.000000
 40
0.186252
 50
151.677935
 51
182.133766
  6
CONTINUOUS
  0
ARC
  8
WHITE
 10
16.175930
 20
7.738722
 30
0.000000
 40
3.155664
 50
154.923426
 51
158.290412
  6
CONTINUOUS
  0
ARC
  8
WHITE
 10
13.568438
 20
8.971439
 30
0.000000
 40
0.271726
 50
140.208826
 51
157.326379
  6
CONTINUOUS
  0
ARC
  8
WHITE
 10
12.463481
 20
9.759903
 30
0.000000
 40
1.086647
 50
-34.441022
 51
-30.430352
  6
CONTINUOUS
  0
ARC
  8
WHITE
 10
13.466890
 20
9.181510
 30
0.000000
 40
0.072117
 50
129.045804
 51
157.139627
  6
CONTINUOUS
  0
ARC
  8
WHITE
 10
13.263375
 20
10.228487
 30
0.000000
 40
1.003498
 50
-80.936186
 51
-73.069334
  6
CONTINUOUS
  0
ARC
  8
WHITE
 10
13.427734
 20
9.449201
 30
0.000000
 40
0.221384
 50
-54.717273
 51
-39.099778
  6
CONTINUOUS
  0
ARC
  8
WHITE
 10
13.564027
 20
9.357357
 30
0.000000
 40
0.059529
 50
-53.377187
 51
0.760029
  6
CONTINUOUS
  0
ARC
  8
WHITE
 10
13.704556
 20
9.368747
 30
0.000000
 40
0.081695
 50
150.226157
 51
187.455452
  6
CONTINUOUS
  0
ARC
  8
WHITE
 10
14.825792
 20
8.881790
 30
0.000000
 40
1.303648
 50
147.374500
 51
156.130605
  6
CONTINUOUS
  0
ARC
  8
WHITE
 10
14.256166
 20
9.269886
 30
0.000000
 40
0.614979
 50
135.300178
 51
149.214672
  6
CONTINUOUS
  0
ARC
  8
WHITE
 10
14.025062
 20
9.478257
 30
0.000000
 40
0.304486
 50
122.039376
 51
132.580754
  6
CONTINUOUS
  0
ARC
  8
WHITE
 10
13.889272
 20
9.685985
 30
0.000000
 40
0.056574
 50
17.448801
 51
117.063657
  6
CONTINUOUS
  0
ARC
  8
WHITE
 10
13.965162
 20
9.714358
 30
0.000000
 40
0.024710
 50
-152.502458
 51
-67.505443
  6
CONTINUOUS
  0
ARC
  8
WHITE
 10
13.911782
 20
9.808833
 30
0.000000
 40
0.133074
 50
-61.824469
 51
-6.432658
  6
CONTINUOUS
  0
ARC
  8
WHITE
 10
14.131651
 20
9.794977
 30
0.000000
 40
0.087638
 50
138.690938
 51
180.688523
  6
CONTINUOUS
  0
ARC
  8
WHITE
 10
13.775071
 20
10.006999
 30
0.000000
 40
0.329095
 50
-27.934780
 51
-16.731411
  6
CONTINUOUS
  0
ARC
  8
WHITE
 10
14.094817
 20
9.922551
 30
0.000000
 40
0.011268
 50
-6.097150
 51
245.997286
  6
CONTINUOUS
  0
ARC
  8
WHITE
 10
14.235130
 20
9.945353
 30
0.000000
 40
0.131320
 50
166.565186
 51
190.530036
  6
CONTINUOUS
  0
ARC
  8
WHITE
 10
14.227624
 20
9.930490
 30
0.000000
 40
0.128497
 50
136.409977
 51
159.322369
  6
CONTINUOUS
  0
ARC
  8
WHITE
 10
7.847697
 20
11.903919
 30
0.000000
 40
6.563319
 50
-16.688988
 51
-13.314941
  6
CONTINUOUS
  0
ARC
  8
WHITE
 10
9.321771
 20
11.657838
 30
0.000000
 40
5.073183
 50
-14.444607
 51
-10.080394
  6
CONTINUOUS
  0
LINE
  8
WHITE
 10
14.316640
 20
10.769880
 30
0.000000
 11
14.315681
 21
10.780635
 31
0.000000
  6
CONTINUOUS
  0
ARC
  8
WHITE
 10
-5.954070
 20
-3.785945
 30
0.000000
 40
16.033017
 50
40.144834
 51
40.460212
  6
CONTINUOUS
  0
ARC
  8
WHITE
 10
6.509937
 20
6.839099
 30
0.000000
 40
0.345132
 50
-162.982414
 51
-140.204626
  6
CONTINUOUS
  0
ARC
  8
WHITE
 10
6.304955
 20
6.762722
 30
0.000000
 40
0.127442
 50
127.801501
 51
191.143976
  6
CONTINUOUS
  0
ARC
  8
WHITE
 10
5.697969
 20
7.527455
 30
0.000000
 40
0.848912
 50
-51.464341
 51
-16.386272
  6
CONTINUOUS
  0
ARC
  8
WHITE
 10
6.280371
 20
7.282744
 30
0.000000
 40
0.232087
 50
1.289539
 51
13.247665
  6
CONTINUOUS
  0
ARC
  8
WHITE
 10
4.891814
 20
7.008549
 30
0.000000
 40
1.647326
 50
11.462953
 51
14.437916
  6
CONTINUOUS
  0
ARC
  8
WHITE
 10
5.888359
 20
7.289318
 30
0.000000
 40
0.612697
 50
12.246115
 51
24.495428
  6
CONTINUOUS
  0
ARC
  8
WHITE
 10
5.851248
 20
6.755035
 30
0.000000
 40
0.987458
 50
52.971231
 51
72.849936
  6
CONTINUOUS
  0
ARC
  8
WHITE
 10
6.209480
 20
7.863872
 30
0.000000
 40
0.178371
 50
-163.119837
 51
-112.081947
  6
CONTINUOUS
  0
ARC
  8
WHITE
 10
7.464269
 20
8.295260
 30
0.000000
 40
1.505138
 50
-167.463871
 51
-161.275293
  6
CONTINUOUS
  0
ARC
  8
WHITE
 10
7.680063
 20
8.562413
 30
0.000000
 40
1.786630
 50
166.222680
 51
199.413665
  6
CONTINUOUS
  0
ARC
  8
WHITE
 10
5.562355
 20
9.076289
 30
0.000000
 40
0.392563
 50
-13.012646
 51
-4.548522
  6
CONTINUOUS
  0
ARC
  8
WHITE
 10
5.923077
 20
9.042088
 30
0.000000
 40
0.030757
 50
5.727580
 51
131.298137
  6
CONTINUOUS
  0
ARC
  8
WHITE
 10
5.967598
 20
8.996738
 30
0.000000
 40
0.094276
 50
133.436685
 51
146.311215
  6
CONTINUOUS
  0
ARC
  8
WHITE
 10
6.176233
 20
8.858746
 30
0.000000
 40
0.344417
 50
146.462265
 51
156.883474
  6
CONTINUOUS
  0
ARC
  8
WHITE
 10
7.097322
 20
8.476416
 30
0.000000
 40
1.341691
 50
157.310079
 51
165.342294
  6
CONTINUOUS
  0
ARC
  8
WHITE
 10
7.531442
 20
8.332911
 30
0.000000
 40
1.798228
 50
164.418781
 51
178.259819
  6
CONTINUOUS
  0
ARC
  8
WHITE
 10
7.248435
 20
8.453716
 30
0.000000
 40
1.515839
 50
-177.497056
 51
-159.580682
  6
CONTINUOUS
  0
ARC
  8
WHITE
 10
6.681324
 20
8.151128
 30
0.000000
 40
0.882964
 50
-165.151621
 51
-152.685529
  6
CONTINUOUS
  0
ARC
  8
WHITE
 10
6.079729
 20
7.833336
 30
0.000000
 40
0.202718
 50
-154.467099
 51
-101.439675
  6
CONTINUOUS
  0
ARC
  8
WHITE
 10
5.931192
 20
7.165236
 30
0.000000
 40
0.481747
 50
45.052684
 51
77.004745
  6
CONTINUOUS
  0
ARC
  8
WHITE
 10
6.083619
 20
7.382421
 30
0.000000
 40
0.225010
 50
-24.746409
 51
33.373127
  6
CONTINUOUS
  0
ARC
  8
WHITE
 10
5.659607
 20
7.580683
 30
0.000000
 40
0.693082
 50
-49.095901
 51
-24.958277
  6
CONTINUOUS
  0
ARC
  8
WHITE
 10
6.745123
 20
6.689497
 30
0.000000
 40
0.730737
 50
149.820491
 51
176.622911
  6
CONTINUOUS
  0
ARC
  8
WHITE
 10
6.138393
 20
6.728892
 30
0.000000
 40
0.122792
 50
178.296320
 51
237.254445
  6
CONTINUOUS
  0
ARC
  8
WHITE
 10
5.983666
 20
6.461018
 30
0.000000
 40
0.186788
 50
13.594003
 51
61.785945
  6
CONTINUOUS
  0
ARC
  8
WHITE
 10
5.696398
 20
6.393405
 30
0.000000
 40
0.481905
 50
-6.784157
 51
13.379907
  6
CONTINUOUS
  0
ARC
  8
WHITE
 10
-1.154819
 20
7.428584
 30
0.000000
 40
7.410661
 50
-10.671749
 51
-8.474521
  6
CONTINUOUS
  0
ARC
  8
WHITE
 10
6.537069
 20
6.040686
 30
0.000000
 40
0.409696
 50
177.821141
 51
186.520309
  6
CONTINUOUS
  0
ARC
  8
WHITE
 10
6.238382
 20
6.009626
 30
0.000000
 40
0.109458
 50
-171.878547
 51
-155.639981
  6
CONTINUOUS
  0
ARC
  8
WHITE
 10
6.163891
 20
5.974271
 30
0.000000
 40
0.027057
 50
-158.780272
 51
-100.544777
  6
CONTINUOUS
  0
ARC
  8
WHITE
 10
6.162342
 20
6.082329
 30
0.000000
 40
0.134700
 50
-91.447373
 51
-39.392688
  6
CONTINUOUS
  0
ARC
  8
WHITE
 10
5.961621
 20
6.253919
 30
0.000000
 40
0.398751
 50
-40.143236
 51
-17.643850
  6
CONTINUOUS
  0
ARC
  8
WHITE
 10
5.782418
 20
6.327748
 30
0.000000
 40
0.592120
 50
-19.196103
 51
14.337972
  6
CONTINUOUS
  0
ARC
  8
WHITE
 10
5.992478
 20
6.274046
 30
0.000000
 40
0.415152
 50
28.852657
 51
41.825032
  6
CONTINUOUS
  0
ARC
  8
WHITE
 10
9.549782
 20
9.503592
 30
0.000000
 40
0.016327
 50
-168.206481
 51
-79.858526
  6
CONTINUOUS
  0
LINE
  8
WHITE
 10
9.552657
 20
9.487520
 30
0.000000
 11
9.561575
 21
9.479735
 31
0.000000
  6
CONTINUOUS
  0
ARC
  8
WHITE
 10
9.425789
 20
9.625554
 30
0.000000
 40
0.199251
 50
-56.895126
 51
-47.040579
  6
CONTINUOUS
  0
ARC
  8
WHITE
 10
9.648339
 20
9.268654
 30
0.000000
 40
0.221429
 50
120.903557
 51
143.527360
  6
CONTINUOUS
  0
ARC
  8
WHITE
 10
13.419488
 20
8.349205
 30
0.000000
 40
4.086687
 50
165.096319
 51
169.053657
  6
CONTINUOUS
  0
ARC
  8
WHITE
 10
9.335784
 20
9.153964
 30
0.000000
 40
0.076941
 50
-40.509190
 51
-21.933203
  6
CONTINUOUS
  0
ARC
  8
WHITE
 10
9.576908
 20
8.970977
 30
0.000000
 40
0.225927
 50
143.933714
 51
156.777981
  6
CONTINUOUS
  0
ARC
  8
WHITE
 10
9.871400
 20
8.882472
 30
0.000000
 40
0.532595
 50
160.522451
 51
184.839813
  6
CONTINUOUS
  0
ARC
  8
WHITE
 10
9.351180
 20
8.835572
 30
0.000000
 40
0.010658
 50
169.376309
 51
277.963459
  6
CONTINUOUS
  0
ARC
  8
WHITE
 10
9.346998
 20
8.814400
 30
0.000000
 40
0.012031
 50
-36.508378
 51
61.944455
  6
CONTINUOUS
  0
ARC
  8
WHITE
 10
9.570423
 20
8.747815
 30
0.000000
 40
0.221862
 50
164.463214
 51
173.078106
  6
CONTINUOUS
  0
ARC
  8
WHITE
 10
9.385258
 20
8.774341
 30
0.000000
 40
0.035080
 50
179.653917
 51
267.616548
  6
CONTINUOUS
  0
ARC
  8
WHITE
 10
9.384273
 20
8.798749
 30
0.000000
 40
0.059460
 50
-90.456650
 51
-55.016885
  6
CONTINUOUS
  0
ARC
  8
WHITE
 10
9.030881
 20
9.331274
 30
0.000000
 40
0.698558
 50
-56.310757
 51
-53.272824
  6
CONTINUOUS
  0
ARC
  8
WHITE
 10
9.488457
 20
8.720551
 30
0.000000
 40
0.064582
 50
94.567934
 51
128.082830
  6
CONTINUOUS
  0
ARC
  8
WHITE
 10
9.480201
 20
8.765983
 30
0.000000
 40
0.019199
 50
8.697600
 51
80.669824
  6
CONTINUOUS
  0
ARC
  8
WHITE
 10
9.260764
 20
8.739016
 30
0.000000
 40
0.240280
 50
-11.644229
 51
7.141197
  6
CONTINUOUS
  0
ARC
  8
WHITE
 10
11.026961
 20
8.338623
 30
0.000000
 40
1.570786
 50
167.054414
 51
176.618789
  6
CONTINUOUS
  0
ARC
  8
WHITE
 10
10.310145
 20
8.421094
 30
0.000000
 40
0.851297
 50
179.315336
 51
184.910131
  6
CONTINUOUS
  0
ARC
  8
WHITE
 10
9.556450
 20
8.351844
 30
0.000000
 40
0.094547
 50
-177.808678
 51
-146.640625
  6
CONTINUOUS
  0
ARC
  8
WHITE
 10
9.505651
 20
8.326437
 30
0.000000
 40
0.038733
 50
-136.660169
 51
-47.577159
  6
CONTINUOUS
  0
ARC
  8
WHITE
 10
9.320180
 20
8.555213
 30
0.000000
 40
0.333185
 50
-50.574025
 51
-34.764761
  6
CONTINUOUS
  0
ARC
  8
WHITE
 10
10.353805
 20
7.869339
 30
0.000000
 40
0.907399
 50
133.124956
 51
146.873145
  6
CONTINUOUS
  0
ARC
  8
WHITE
 10
9.738143
 20
8.524563
 30
0.000000
 40
0.008438
 50
12.139747
 51
123.270186
  6
CONTINUOUS
  0
ARC
  8
WHITE
 10
9.633292
 20
8.481189
 30
0.000000
 40
0.121779
 50
5.970093
 51
21.761359
  6
CONTINUOUS
  0
ARC
  8
WHITE
 10
8.448054
 20
8.357358
 30
0.000000
 40
1.313467
 50
0.817607
 51
5.965014
  6
CONTINUOUS
  0
ARC
  8
WHITE
 10
11.404369
 20
8.362846
 30
0.000000
 40
1.643034
 50
179.537786
 51
188.107160
  6
CONTINUOUS
  0
ARC
  8
WHITE
 10
9.859745
 20
8.147525
 30
0.000000
 40
0.083613
 50
-168.696933
 51
-122.483418
  6
CONTINUOUS
  0
ARC
  8
WHITE
 10
9.837277
 20
8.135435
 30
0.000000
 40
0.062599
 50
-111.002492
 51
-68.091331
  6
CONTINUOUS
  0
ARC
  8
WHITE
 10
9.996218
 20
7.834478
 30
0.000000
 40
0.278159
 50
107.829516
 51
119.171821
  6
CONTINUOUS
  0
ARC
  8
WHITE
 10
9.912858
 20
8.076921
 30
0.000000
 40
0.022430
 50
20.895162
 51
94.624628
  6
CONTINUOUS
  0
ARC
  8
WHITE
 10
9.816761
 20
8.037242
 30
0.000000
 40
0.126390
 50
3.652261
 51
22.162592
  6
CONTINUOUS
  0
ARC
  8
WHITE
 10
27.220765
 20
8.955563
 30
0.000000
 40
17.301832
 50
-176.984209
 51
-176.668899
  6
CONTINUOUS
  0
ARC
  8
WHITE
 10
10.050315
 20
7.973910
 30
0.000000
 40
0.104859
 50
-166.945012
 51
-154.713104
  6
CONTINUOUS
  0
ARC
  8
WHITE
 10
10.357862
 20
8.109938
 30
0.000000
 40
0.441121
 50
-155.800997
 51
-151.236319
  6
CONTINUOUS
  0
ARC
  8
WHITE
 10
10.372705
 20
8.082031
 30
0.000000
 40
0.441836
 50
-155.338384
 51
-145.475272
  6
CONTINUOUS
  0
ARC
  8
WHITE
 10
10.042824
 20
7.860246
 30
0.000000
 40
0.044556
 50
-140.015484
 51
-55.711638
  6
CONTINUOUS
  0
ARC
  8
WHITE
 10
9.965114
 20
7.903914
 30
0.000000
 40
0.130565
 50
-38.053925
 51
-22.359045
  6
CONTINUOUS
  0
ARC
  8
WHITE
 10
10.022641
 20
7.904907
 30
0.000000
 40
0.081015
 50
-38.706166
 51
25.366282
  6
CONTINUOUS
  0
ARC
  8
WHITE
 10
9.841095
 20
7.786156
 30
0.000000
 40
0.297401
 50
31.064191
 51
47.780021
  6
CONTINUOUS
  0
ARC
  8
WHITE
 10
10.137955
 20
8.119452
 30
0.000000
 40
0.148969
 50
-160.196684
 51
-130.634329
  6
CONTINUOUS
  0
ARC
  8
WHITE
 10
10.397530
 20
8.130243
 30
0.000000
 40
0.404401
 50
179.632516
 51
188.712972
  6
CONTINUOUS
  0
ARC
  8
WHITE
 10
9.799899
 20
8.134657
 30
0.000000
 40
0.193246
 50
-0.539701
 51
17.906946
  6
CONTINUOUS
  0
ARC
  8
WHITE
 10
9.888370
 20
8.155789
 30
0.000000
 40
0.102809
 50
21.863625
 51
63.077434
  6
CONTINUOUS
  0
ARC
  8
WHITE
 10
10.048439
 20
8.447906
 30
0.000000
 40
0.230363
 50
-138.851376
 51
-119.523609
  6
CONTINUOUS
  0
ARC
  8
WHITE
 10
10.014175
 20
8.387080
 30
0.000000
 40
0.166173
 50
159.790396
 51
213.103610
  6
CONTINUOUS
  0
ARC
  8
WHITE
 10
7.431246
 20
9.116621
 30
0.000000
 40
2.518340
 50
-15.479673
 51
-8.097383
  6
CONTINUOUS
  0
ARC
  8
WHITE
 10
9.778406
 20
8.749497
 30
0.000000
 40
0.146597
 50
4.852511
 51
24.537227
  6
CONTINUOUS
  0
ARC
  8
WHITE
 10
9.878068
 20
8.794783
 30
0.000000
 40
0.037129
 50
24.833169
 51
71.335284
  6
CONTINUOUS
  0
ARC
  8
WHITE
 10
9.881274
 20
8.767839
 30
0.000000
 40
0.062724
 50
82.048777
 51
122.492960
  6
CONTINUOUS
  0
ARC
  8
WHITE
 10
10.865633
 20
7.370529
 30
0.000000
 40
1.771879
 50
125.068939
 51
130.248975
  6
CONTINUOUS
  0
ARC
  8
WHITE
 10
9.612855
 20
8.844175
 30
0.000000
 40
0.162356
 50
-82.478058
 51
-48.326065
  6
CONTINUOUS
  0
ARC
  8
WHITE
 10
9.635409
 20
8.729283
 30
0.000000
 40
0.046085
 50
-116.767082
 51
-91.617303
  6
CONTINUOUS
  0
ARC
  8
WHITE
 10
9.624123
 20
8.705231
 30
0.000000
 40
0.019542
 50
-162.463309
 51
-118.982782
  6
CONTINUOUS
  0
ARC
  8
WHITE
 10
9.654738
 20
8.708821
 30
0.000000
 40
0.050153
 50
157.669267
 51
190.893897
  6
CONTINUOUS
  0
ARC
  8
WHITE
 10
10.221168
 20
8.451885
 30
0.000000
 40
0.672102
 50
145.622110
 51
155.755000
  6
CONTINUOUS
  0
ARC
  8
WHITE
 10
9.199715
 20
9.181420
 30
0.000000
 40
0.583416
 50
-36.867861
 51
-9.119041
  6
CONTINUOUS
  0
ARC
  8
WHITE
 10
9.892528
 20
9.084166
 30
0.000000
 40
0.116869
 50
147.959190
 51
177.650706
  6
CONTINUOUS
  0
ARC
  8
WHITE
 10
9.762521
 20
9.170599
 30
0.000000
 40
0.039424
 50
-38.295204
 51
93.424136
  6
CONTINUOUS
  0
ARC
  8
WHITE
 10
9.765928
 20
9.128964
 30
0.000000
 40
0.081194
 50
94.069261
 51
117.614011
  6
CONTINUOUS
  0
ARC
  8
WHITE
 10
9.925350
 20
8.868502
 30
0.000000
 40
0.386427
 50
120.660158
 51
133.429726
  6
CONTINUOUS
  0
ARC
  8
WHITE
 10
9.816042
 20
8.973370
 30
0.000000
 40
0.235238
 50
131.654233
 51
142.448194
  6
CONTINUOUS
  0
ARC
  8
WHITE
 10
9.600004
 20
9.138763
 30
0.000000
 40
0.036845
 50
-77.326956
 51
-36.701908
  6
CONTINUOUS
  0
ARC
  8
WHITE
 10
9.584407
 20
9.194785
 30
0.000000
 40
0.094969
 50
-92.973606
 51
-75.561081
  6
CONTINUOUS
  0
ARC
  8
WHITE
 10
9.575787
 20
9.134946
 30
0.000000
 40
0.035197
 50
-167.727309
 51
-83.976628
  6
CONTINUOUS
  0
ARC
  8
WHITE
 10
9.618750
 20
9.119569
 30
0.000000
 40
0.077757
 50
152.796660
 51
174.172119
  6
CONTINUOUS
  0
ARC
  8
WHITE
 10
9.728005
 20
9.083708
 30
0.000000
 40
0.192171
 50
139.652305
 51
158.186659
  6
CONTINUOUS
  0
ARC
  8
WHITE
 10
9.300429
 20
9.373479
 30
0.000000
 40
0.326142
 50
-30.464320
 51
-23.350188
  6
CONTINUOUS
  0
ARC
  8
WHITE
 10
12.092640
 20
8.085984
 30
0.000000
 40
2.748717
 50
153.124384
 51
155.078850
  6
CONTINUOUS
  0
ARC
  8
WHITE
 10
12.395215
 20
7.912763
 30
0.000000
 40
3.096967
 50
146.268123
 51
152.796351
  6
CONTINUOUS
  0
ARC
  8
WHITE
 10
9.009408
 20
10.040906
 30
0.000000
 40
0.907327
 50
-26.749218
 51
-4.831559
  6
CONTINUOUS
  0
ARC
  8
WHITE
 10
8.356734
 20
10.168758
 30
0.000000
 40
1.570121
 50
-7.475371
 51
3.459431
  6
CONTINUOUS
  0
ARC
  8
WHITE
 10
9.859507
 20
10.260384
 30
0.000000
 40
0.064562
 50
2.768053
 51
26.980376
  6
CONTINUOUS
  0
ARC
  8
WHITE
 10
9.856914
 20
10.235150
 30
0.000000
 40
0.081169
 50
42.201986
 51
71.653008
  6
CONTINUOUS
  0
ARC
  8
WHITE
 10
9.877427
 20
10.289169
 30
0.000000
 40
0.023569
 50
77.660409
 51
142.336755
  6
CONTINUOUS
  0
ARC
  8
WHITE
 10
9.979625
 20
10.227293
 30
0.000000
 40
0.142913
 50
147.742249
 51
173.303521
  6
CONTINUOUS
  0
ARC
  8
WHITE
 10
-45.120510
 20
15.806052
 30
0.000000
 40
55.238938
 50
-6.026558
 51
-5.778994
  6
CONTINUOUS
  0
ARC
  8
WHITE
 10
9.360578
 20
10.121513
 30
0.000000
 40
0.466938
 50
-23.402648
 51
-14.253532
  6
CONTINUOUS
  0
ARC
  8
WHITE
 10
8.048775
 20
10.650140
 30
0.000000
 40
1.881134
 50
-26.294319
 51
-22.309280
  6
CONTINUOUS
  0
ARC
  8
WHITE
 10
8.781064
 20
10.259708
 30
0.000000
 40
1.051973
 50
-39.719967
 51
-24.897528
  6
CONTINUOUS
  0
ARC
  8
WHITE
 10
9.777952
 20
9.376596
 30
0.000000
 40
0.282326
 50
131.679129
 51
148.476280
  6
CONTINUOUS
  0
ARC
  8
WHITE
 10
9.583932
 20
9.505180
 30
0.000000
 40
0.050374
 50
157.803686
 51
185.610770
  6
CONTINUOUS
  0
ARC
  8
WHITE
 10
8.636869
 20
6.162100
 30
0.000000
 40
0.060129
 50
-104.268993
 51
-25.347911
  6
CONTINUOUS
  0
ARC
  8
WHITE
 10
8.374417
 20
6.297288
 30
0.000000
 40
0.355325
 50
-26.930523
 51
-7.512387
  6
CONTINUOUS
  0
ARC
  8
WHITE
 10
5.269095
 20
6.702477
 30
0.000000
 40
3.486969
 50
-7.442055
 51
-2.710977
  6
CONTINUOUS
  0
ARC
  8
WHITE
 10
8.246872
 20
6.583220
 30
0.000000
 40
0.507350
 50
-5.164466
 51
7.430516
  6
CONTINUOUS
  0
ARC
  8
WHITE
 10
8.714002
 20
6.647218
 30
0.000000
 40
0.035996
 50
2.570571
 51
49.709329
  6
CONTINUOUS
  0
ARC
  8
WHITE
 10
8.739297
 20
6.647756
 30
0.000000
 40
0.026994
 50
94.287924
 51
144.366504
  6
CONTINUOUS
  0
ARC
  8
WHITE
 10
8.918573
 20
6.483260
 30
0.000000
 40
0.270125
 50
138.150153
 51
147.990005
  6
CONTINUOUS
  0
ARC
  8
WHITE
 10
9.609522
 20
6.054650
 30
0.000000
 40
1.083215
 50
148.138486
 51
155.279764
  6
CONTINUOUS
  0
ARC
  8
WHITE
 10
8.617262
 20
6.511037
 30
0.000000
 40
0.008979
 50
-133.158377
 51
-22.248604
  6
CONTINUOUS
  0
ARC
  8
WHITE
 10
8.667641
 20
6.581564
 30
0.000000
 40
0.095580
 50
-144.546090
 51
-126.252751
  6
CONTINUOUS
  0
ARC
  8
WHITE
 10
8.914048
 20
6.765363
 30
0.000000
 40
0.402967
 50
-155.008669
 51
-143.580387
  6
CONTINUOUS
  0
ARC
  8
WHITE
 10
10.348126
 20
7.214625
 30
0.000000
 40
1.902979
 50
-167.607557
 51
-161.001315
  6
CONTINUOUS
  0
ARC
  8
WHITE
 10
-3.158654
 20
3.940672
 30
0.000000
 40
11.995440
 50
13.820892
 51
17.191590
  6
CONTINUOUS
  0
ARC
  8
WHITE
 10
7.529938
 20
6.903898
 30
0.000000
 40
0.966080
 50
37.062318
 51
73.633555
  6
CONTINUOUS
  0
ARC
  8
WHITE
 10
7.747541
 20
7.736018
 30
0.000000
 40
0.109420
 50
60.055346
 51
93.695071
  6
CONTINUOUS
  0
ARC
  8
WHITE
 10
7.742917
 20
7.798675
 30
0.000000
 40
0.046599
 50
92.986380
 51
170.641085
  6
CONTINUOUS
  0
ARC
  8
WHITE
 10
7.830506
 20
7.805657
 30
0.000000
 40
0.133569
 50
179.744399
 51
210.193105
  6
CONTINUOUS
  0
ARC
  8
WHITE
 10
8.262100
 20
8.037414
 30
0.000000
 40
0.623390
 50
-151.345629
 51
-141.514930
  6
CONTINUOUS
  0
ARC
  8
WHITE
 10
10.389177
 20
9.777641
 30
0.000000
 40
3.371584
 50
-140.860737
 51
-135.943039
  6
CONTINUOUS
  0
ARC
  8
WHITE
 10
6.424319
 20
5.815430
 30
0.000000
 40
2.234799
 50
32.769983
 51
46.374820
  6
CONTINUOUS
  0
ARC
  8
WHITE
 10
-6.037590
 20
1.657146
 30
0.000000
 40
15.312737
 50
16.973283
 51
20.521076
  6
CONTINUOUS
  0
ARC
  8
WHITE
 10
8.658135
 20
6.141051
 30
0.000000
 40
0.051845
 50
-164.651495
 51
-134.110125
  6
CONTINUOUS
  0
ARC
  8
WHITE
 10
7.576632
 20
8.228240
 30
0.000000
 40
0.090462
 50
-104.816676
 51
-71.371509
  6
CONTINUOUS
  0
ARC
  8
WHITE
 10
7.507956
 20
8.448385
 30
0.000000
 40
0.321054
 50
-72.307225
 51
-59.061231
  6
CONTINUOUS
  0
ARC
  8
WHITE
 10
7.059453
 20
9.165681
 30
0.000000
 40
1.166984
 50
-58.280006
 51
-48.500461
  6
CONTINUOUS
  0
ARC
  8
WHITE
 10
6.059466
 20
10.326199
 30
0.000000
 40
2.698846
 50
-48.925573
 51
-40.900890
  6
CONTINUOUS
  0
ARC
  8
WHITE
 10
7.373296
 20
9.206368
 30
0.000000
 40
0.972682
 50
-41.714794
 51
-20.354432
  6
CONTINUOUS
  0
ARC
  8
WHITE
 10
8.168971
 20
8.907058
 30
0.000000
 40
0.122644
 50
-18.549023
 51
33.533332
  6
CONTINUOUS
  0
ARC
  8
WHITE
 10
8.328450
 20
9.024219
 30
0.000000
 40
0.075621
 50
134.341145
 51
220.797251
  6
CONTINUOUS
  0
ARC
  8
WHITE
 10
8.042990
 20
9.262729
 30
0.000000
 40
0.296848
 50
-38.409843
 51
-22.723978
  6
CONTINUOUS
  0
ARC
  8
WHITE
 10
6.810125
 20
9.830667
 30
0.000000
 40
1.654089
 50
-24.373248
 51
-19.841020
  6
CONTINUOUS
  0
ARC
  8
WHITE
 10
6.687475
 20
9.897384
 30
0.000000
 40
1.792227
 50
-20.516469
 51
-12.299962
  6
CONTINUOUS
  0
ARC
  8
WHITE
 10
8.331554
 20
9.542396
 30
0.000000
 40
0.110316
 50
-14.065201
 51
10.549810
  6
CONTINUOUS
  0
ARC
  8
WHITE
 10
8.803995
 20
9.761901
 30
0.000000
 40
0.414984
 50
174.625132
 51
208.703468
  6
CONTINUOUS
  0
ARC
  8
WHITE
 10
5.945332
 20
10.096931
 30
0.000000
 40
2.463371
 50
-6.905064
 51
-0.218981
  6
CONTINUOUS
  0
ARC
  8
WHITE
 10
8.201770
 20
10.090506
 30
0.000000
 40
0.206937
 50
-0.827842
 51
14.897532
  6
CONTINUOUS
  0
ARC
  8
WHITE
 10
8.347736
 20
10.134290
 30
0.000000
 40
0.054830
 50
9.890224
 51
36.467857
  6
CONTINUOUS
  0
ARC
  8
WHITE
 10
8.384666
 20
10.156476
 30
0.000000
 40
0.012631
 50
55.448783
 51
157.631082
  6
CONTINUOUS
  0
ARC
  8
WHITE
 10
8.950867
 20
9.756047
 30
0.000000
 40
0.705807
 50
144.960172
 51
175.938425
  6
CONTINUOUS
  0
ARC
  8
WHITE
 10
8.393005
 20
9.859551
 30
0.000000
 40
0.155660
 50
-159.892652
 51
-141.378337
  6
CONTINUOUS
  0
ARC
  8
WHITE
 10
8.177080
 20
9.686837
 30
0.000000
 40
0.120844
 50
14.958991
 51
38.699317
  6
CONTINUOUS
  0
ARC
  8
WHITE
 10
8.216091
 20
9.700419
 30
0.000000
 40
0.079708
 50
-33.416000
 51
12.764674
  6
CONTINUOUS
  0
ARC
  8
WHITE
 10
8.760636
 20
9.359193
 30
0.000000
 40
0.562941
 50
148.117911
 51
164.518974
  6
CONTINUOUS
  0
ARC
  8
WHITE
 10
8.369074
 20
9.463203
 30
0.000000
 40
0.157881
 50
162.965903
 51
217.597852
  6
CONTINUOUS
  0
ARC
  8
WHITE
 10
8.142305
 20
9.295194
 30
0.000000
 40
0.124406
 50
-22.208861
 51
35.184001
  6
CONTINUOUS
  0
ARC
  8
WHITE
 10
7.706930
 20
9.451520
 30
0.000000
 40
0.586905
 50
-36.992615
 51
-20.272006
  6
CONTINUOUS
  0
ARC
  8
WHITE
 10
5.692063
 20
10.985760
 30
0.000000
 40
3.119404
 50
-43.773793
 51
-37.232270
  6
CONTINUOUS
  0
ARC
  8
WHITE
 10
7.972053
 20
8.804344
 30
0.000000
 40
0.036120
 50
139.681413
 51
184.660852
  6
CONTINUOUS
  0
ARC
  8
WHITE
 10
8.024777
 20
8.809874
 30
0.000000
 40
0.089128
 50
-174.550037
 51
-153.473005
  6
CONTINUOUS
  0
ARC
  8
WHITE
 10
8.211093
 20
8.905476
 30
0.000000
 40
0.298536
 50
-153.026769
 51
-138.981034
  6
CONTINUOUS
  0
ARC
  8
WHITE
 10
7.959824
 20
8.693360
 30
0.000000
 40
0.030648
 50
-23.758545
 51
31.875425
  6
CONTINUOUS
  0
ARC
  8
WHITE
 10
7.821196
 20
8.745557
 30
0.000000
 40
0.178739
 50
-36.970564
 51
-21.168376
  6
CONTINUOUS
  0
ARC
  8
WHITE
 10
7.103698
 20
9.302560
 30
0.000000
 40
1.087048
 50
-45.998817
 51
-37.682553
  6
CONTINUOUS
  0
ARC
  8
WHITE
 10
-12.710088
 20
30.176631
 30
0.000000
 40
29.867436
 50
-47.257873
 51
-46.474757
  6
CONTINUOUS
  0
ARC
  8
WHITE
 10
7.633837
 20
8.159538
 30
0.000000
 40
0.109703
 50
131.646349
 51
165.316986
  6
CONTINUOUS
  0
ARC
  8
WHITE
 10
7.567564
 20
8.178993
 30
0.000000
 40
0.040713
 50
168.162823
 51
249.789259
  6
CONTINUOUS
  0
ARC
  8
WHITE
 10
3.602034
 20
11.199157
 30
0.000000
 40
0.191859
 50
-95.329928
 51
-45.904834
  6
CONTINUOUS
  0
ARC
  8
WHITE
 10
2.648088
 20
12.318511
 30
0.000000
 40
1.662216
 50
-49.139628
 51
-43.784733
  6
CONTINUOUS
  0
ARC
  8
WHITE
 10
4.784740
 20
9.979397
 30
0.000000
 40
1.513555
 50
106.187246
 51
128.230307
  6
CONTINUOUS
  0
ARC
  8
WHITE
 10
4.325997
 20
11.796030
 30
0.000000
 40
0.364942
 50
-84.212860
 51
-75.638027
  6
CONTINUOUS
  0
ARC
  8
WHITE
 10
4.412907
 20
11.480472
 30
0.000000
 40
0.038149
 50
-84.566282
 51
-6.607226
  6
CONTINUOUS
  0
ARC
  8
WHITE
 10
4.396359
 20
11.443907
 30
0.000000
 40
0.063241
 50
30.581994
 51
76.987478
  6
CONTINUOUS
  0
ARC
  8
WHITE
 10
4.161397
 20
10.661560
 30
0.000000
 40
0.879987
 50
73.549440
 51
86.475633
  6
CONTINUOUS
  0
ARC
  8
WHITE
 10
6.756368
 20
40.906569
 30
0.000000
 40
29.476403
 50
-95.282865
 51
-94.945052
  6
CONTINUOUS
  0
ARC
  8
WHITE
 10
4.102094
 20
11.872725
 30
0.000000
 40
0.322918
 50
-114.102753
 51
-100.654107
  6
CONTINUOUS
  0
ARC
  8
WHITE
 10
4.518216
 20
12.972323
 30
0.000000
 40
1.498180
 50
-122.359432
 51
-111.455149
  6
CONTINUOUS
  0
ARC
  8
WHITE
 10
3.652324
 20
11.631986
 30
0.000000
 40
0.098468
 50
49.444289
 51
80.394782
  6
CONTINUOUS
  0
ARC
  8
WHITE
 10
3.677594
 20
11.674105
 30
0.000000
 40
0.055675
 50
99.135805
 51
150.740880
  6
CONTINUOUS
  0
ARC
  8
WHITE
 10
3.848475
 20
11.577781
 30
0.000000
 40
0.251834
 50
150.623711
 51
171.991131
  6
CONTINUOUS
  0
ARC
  8
WHITE
 10
2.781259
 20
11.732274
 30
0.000000
 40
0.826509
 50
-19.707189
 51
-8.306598
  6
CONTINUOUS
  0
ARC
  8
WHITE
 10
4.670789
 20
11.011473
 30
0.000000
 40
1.196129
 50
158.308948
 51
170.124098
  6
CONTINUOUS
  0
ARC
  8
WHITE
 10
3.775656
 20
11.183906
 30
0.000000
 40
0.285155
 50
173.410942
 51
198.177479
  6
CONTINUOUS
  0
ARC
  8
WHITE
 10
3.618132
 20
11.118969
 30
0.000000
 40
0.115915
 50
-168.040468
 51
-107.015258
  6
CONTINUOUS
  0
ARC
  8
WHITE
 10
12.752276
 20
1.249956
 30
0.000000
 40
0.093650
 50
-145.221859
 51
-101.109478
  6
CONTINUOUS
  0
ARC
  8
WHITE
 10
12.745341
 20
1.489379
 30
0.000000
 40
0.331504
 50
-91.920544
 51
-85.258204
  6
CONTINUOUS
  0
ARC
  8
WHITE
 10
13.235949
 20
-5.527299
 30
0.000000
 40
6.702334
 50
89.882742
 51
93.962919
  6
CONTINUOUS
  0
ARC
  8
WHITE
 10
13.650913
 20
6.468717
 30
0.000000
 40
5.308881
 50
-94.334572
 51
-89.183599
  6
CONTINUOUS
  0
ARC
  8
WHITE
 10
13.650731
 20
6.097728
 30
0.000000
 40
4.937935
 50
-89.120153
 51
-78.044328
  6
CONTINUOUS
  0
ARC
  8
WHITE
 10
16.120352
 20
-3.079278
 30
0.000000
 40
4.580640
 50
104.999445
 51
108.410929
  6
CONTINUOUS
  0
ARC
  8
WHITE
 10
15.008830
 20
1.133809
 30
0.000000
 40
0.224053
 50
91.278460
 51
109.283523
  6
CONTINUOUS
  0
ARC
  8
WHITE
 10
15.001462
 20
1.440261
 30
0.000000
 40
0.082489
 50
-88.354262
 51
-37.995889
  6
CONTINUOUS
  0
ARC
  8
WHITE
 10
15.018169
 20
1.410559
 30
0.000000
 40
0.052698
 50
-23.577464
 51
57.813152
  6
CONTINUOUS
  0
ARC
  8
WHITE
 10
14.929842
 20
1.177766
 30
0.000000
 40
0.300824
 50
67.236282
 51
81.952858
  6
CONTINUOUS
  0
ARC
  8
WHITE
 10
13.508373
 20
-3.553577
 30
0.000000
 40
5.237840
 50
73.774142
 51
82.807048
  6
CONTINUOUS
  0
ARC
  8
WHITE
 10
14.093664
 20
1.333133
 30
0.000000
 40
0.317837
 50
77.176156
 51
96.384224
  6
CONTINUOUS
  0
ARC
  8
WHITE
 10
14.064298
 20
1.594225
 30
0.000000
 40
0.055098
 50
96.226488
 51
152.506697
  6
CONTINUOUS
  0
ARC
  8
WHITE
 10
14.034254
 20
1.634908
 30
0.000000
 40
0.024231
 50
-141.006132
 51
-96.160684
  6
CONTINUOUS
  0
ARC
  8
WHITE
 10
14.201116
 20
2.204733
 30
0.000000
 40
0.617619
 50
-105.925067
 51
-101.338565
  6
CONTINUOUS
  0
ARC
  8
WHITE
 10
14.908518
 20
5.761310
 30
0.000000
 40
4.243865
 50
-101.262291
 51
-99.159023
  6
CONTINUOUS
  0
ARC
  8
WHITE
 10
10.267935
 20
-21.823388
 30
0.000000
 40
23.728570
 50
79.723494
 51
80.380699
  6
CONTINUOUS
  0
ARC
  8
WHITE
 10
14.489627
 20
1.424493
 30
0.000000
 40
0.100695
 50
-53.072808
 51
83.467688
  6
CONTINUOUS
  0
ARC
  8
WHITE
 10
14.406801
 20
1.612594
 30
0.000000
 40
0.304443
 50
-82.227858
 51
-61.915551
  6
CONTINUOUS
  0
ARC
  8
WHITE
 10
14.173139
 20
2.825609
 30
0.000000
 40
1.539393
 50
-88.666419
 51
-79.715659
  6
CONTINUOUS
  0
ARC
  8
WHITE
 10
12.309182
 20
28.436309
 30
0.000000
 40
27.216063
 50
-89.144869
 51
-85.997284
  6
CONTINUOUS
  0
ARC
  8
WHITE
 10
12.729367
 20
1.135583
 30
0.000000
 40
0.088805
 50
99.073278
 51
119.042101
  6
CONTINUOUS
  0
ARC
  8
WHITE
 10
12.690284
 20
1.198687
 30
0.000000
 40
0.015083
 50
105.487853
 51
188.191498
  6
CONTINUOUS
  0
ARC
  8
WHITE
 10
13.894409
 20
1.745120
 30
0.000000
 40
0.118285
 50
-82.948296
 51
-51.368368
  6
CONTINUOUS
  0
ARC
  8
WHITE
 10
13.964419
 20
1.668259
 30
0.000000
 40
0.016007
 50
-76.132090
 51
41.506692
  6
CONTINUOUS
  0
ARC
  8
WHITE
 10
13.728637
 20
0.742982
 30
0.000000
 40
0.968127
 50
75.171515
 51
82.272721
  6
CONTINUOUS
  0
ARC
  8
WHITE
 10
12.447649
 20
-7.548620
 30
0.000000
 40
9.357951
 50
81.326824
 51
83.488894
  6
CONTINUOUS
  0
ARC
  8
WHITE
 10
10.719496
 20
-42.064956
 30
0.000000
 40
43.902624
 50
86.357322
 51
86.648912
  6
CONTINUOUS
  0
ARC
  8
WHITE
 10
13.304946
 20
2.366473
 30
0.000000
 40
0.604178
 50
-113.346593
 51
-91.817121
  6
CONTINUOUS
  0
ARC
  8
WHITE
 10
13.095902
 20
1.874686
 30
0.000000
 40
0.069877
 50
169.340128
 51
244.223168
  6
CONTINUOUS
  0
ARC
  8
WHITE
 10
12.757173
 20
1.941231
 30
0.000000
 40
0.275329
 50
-11.229878
 51
40.205085
  6
CONTINUOUS
  0
ARC
  8
WHITE
 10
12.573687
 20
1.797917
 30
0.000000
 40
0.508057
 50
39.191142
 51
67.892689
  6
CONTINUOUS
  0
ARC
  8
WHITE
 10
12.705440
 20
2.071993
 30
0.000000
 40
0.205419
 50
73.177423
 51
82.937154
  6
CONTINUOUS
  0
ARC
  8
WHITE
 10
13.141073
 20
5.153397
 30
0.000000
 40
2.906659
 50
-99.191697
 51
-98.116392
  6
CONTINUOUS
  0
ARC
  8
WHITE
 10
12.710675
 20
2.568778
 30
0.000000
 40
0.286729
 50
-118.478686
 51
-96.791242
  6
CONTINUOUS
  0
ARC
  8
WHITE
 10
12.591894
 20
2.346265
 30
0.000000
 40
0.034543
 50
162.895201
 51
238.711360
  6
CONTINUOUS
  0
ARC
  8
WHITE
 10
12.693372
 20
2.320702
 30
0.000000
 40
0.139156
 50
144.772496
 51
165.125087
  6
CONTINUOUS
  0
ARC
  8
WHITE
 10
12.092142
 20
2.796204
 30
0.000000
 40
0.627631
 50
-39.029576
 51
-33.468006
  6
CONTINUOUS
  0
ARC
  8
WHITE
 10
12.405334
 20
2.587126
 30
0.000000
 40
0.251073
 50
-33.081152
 51
18.706155
  6
CONTINUOUS
  0
ARC
  8
WHITE
 10
12.384256
 20
2.600171
 30
0.000000
 40
0.267538
 50
14.608801
 51
94.050165
  6
CONTINUOUS
  0
ARC
  8
WHITE
 10
12.381783
 20
2.766495
 30
0.000000
 40
0.101879
 50
99.276726
 51
116.824058
  6
CONTINUOUS
  0
ARC
  8
WHITE
 10
12.337501
 20
2.845230
 30
0.000000
 40
0.012298
 50
97.903763
 51
193.382406
  6
CONTINUOUS
  0
ARC
  8
WHITE
 10
12.363036
 20
2.877572
 30
0.000000
 40
0.051424
 50
-136.820801
 51
-109.734813
  6
CONTINUOUS
  0
ARC
  8
WHITE
 10
12.185611
 20
2.356420
 30
0.000000
 40
0.499110
 50
66.466421
 51
71.295182
  6
CONTINUOUS
  0
ARC
  8
WHITE
 10
12.271244
 20
2.526446
 30
0.000000
 40
0.309216
 50
41.526151
 51
68.434905
  6
CONTINUOUS
  0
ARC
  8
WHITE
 10
12.388966
 20
2.639216
 30
0.000000
 40
0.146461
 50
-1.042289
 51
39.029324
  6
CONTINUOUS
  0
ARC
  8
WHITE
 10
12.155365
 20
2.688418
 30
0.000000
 40
0.383560
 50
-39.619515
 51
-7.771525
  6
CONTINUOUS
  0
ARC
  8
WHITE
 10
13.526792
 20
1.523146
 30
0.000000
 40
1.416111
 50
139.447270
 51
148.309087
  6
CONTINUOUS
  0
ARC
  8
WHITE
 10
12.339275
 20
2.266139
 30
0.000000
 40
0.017469
 50
176.908652
 51
251.809068
  6
CONTINUOUS
  0
ARC
  8
WHITE
 10
12.449526
 20
2.505490
 30
0.000000
 40
0.280885
 50
-114.326043
 51
-107.441408
  6
CONTINUOUS
  0
ARC
  8
WHITE
 10
12.411810
 20
2.383424
 30
0.000000
 40
0.153128
 50
-107.667750
 51
-84.058380
  6
CONTINUOUS
  0
ARC
  8
WHITE
 10
12.393833
 20
1.789278
 30
0.000000
 40
0.443135
 50
67.742834
 51
85.621904
  6
CONTINUOUS
  0
ARC
  8
WHITE
 10
12.165548
 20
1.173847
 30
0.000000
 40
1.099395
 50
60.697723
 51
68.880446
  6
CONTINUOUS
  0
ARC
  8
WHITE
 10
12.377324
 20
1.467859
 30
0.000000
 40
0.740478
 50
54.202570
 51
63.855109
  6
CONTINUOUS
  0
ARC
  8
WHITE
 10
12.720975
 20
1.937892
 30
0.000000
 40
0.158277
 50
11.164185
 51
55.578147
  6
CONTINUOUS
  0
ARC
  8
WHITE
 10
12.751772
 20
1.948388
 30
0.000000
 40
0.126105
 50
-24.606057
 51
9.194451
  6
CONTINUOUS
  0
ARC
  8
WHITE
 10
12.333213
 20
2.133939
 30
0.000000
 40
0.583940
 50
-30.895911
 51
-24.058857
  6
CONTINUOUS
  0
ARC
  8
WHITE
 10
12.917529
 20
1.780651
 30
0.000000
 40
0.098917
 50
147.295203
 51
182.645271
  6
CONTINUOUS
  0
ARC
  8
WHITE
 10
12.884186
 20
1.785657
 30
0.000000
 40
0.066165
 50
-171.682510
 51
-118.065234
  6
CONTINUOUS
  0
ARC
  8
WHITE
 10
12.947383
 20
1.941589
 30
0.000000
 40
0.234155
 50
-113.755451
 51
-91.943879
  6
CONTINUOUS
  0
ARC
  8
WHITE
 10
13.163854
 20
11.341360
 30
0.000000
 40
9.636405
 50
-91.334431
 51
-89.063140
  6
CONTINUOUS
  0
ARC
  8
WHITE
 10
13.309658
 20
0.375352
 30
0.000000
 40
1.330943
 50
81.081984
 51
89.493881
  6
CONTINUOUS
  0
ARC
  8
WHITE
 10
13.512992
 20
1.651781
 30
0.000000
 40
0.038541
 50
45.759069
 51
85.550263
  6
CONTINUOUS
  0
ARC
  8
WHITE
 10
13.560522
 20
1.699821
 30
0.000000
 40
0.029041
 50
-135.295865
 51
-98.719092
  6
CONTINUOUS
  0
ARC
  8
WHITE
 10
13.668067
 20
2.092567
 30
0.000000
 40
0.436066
 50
-104.875594
 51
-99.451655
  6
CONTINUOUS
  0
ARC
  8
WHITE
 10
13.978695
 20
3.989067
 30
0.000000
 40
2.357835
 50
-99.329587
 51
-96.340142
  6
CONTINUOUS
  0
ARC
  8
WHITE
 10
14.205037
 20
5.799372
 30
0.000000
 40
4.182138
 50
-96.683256
 51
-94.060094
  6
CONTINUOUS
  0
ARC
  8
WHITE
 10
6.515821
 20
8.371185
 30
0.000000
 40
0.023047
 50
-105.481377
 51
-40.347417
  6
CONTINUOUS
  0
ARC
  8
WHITE
 10
6.483529
 20
8.389366
 30
0.000000
 40
0.059845
 50
-33.581880
 51
-3.069464
  6
CONTINUOUS
  0
ARC
  8
WHITE
 10
6.140544
 20
8.400997
 30
0.000000
 40
0.403017
 50
-2.109596
 51
12.169437
  6
CONTINUOUS
  0
ARC
  8
WHITE
 10
4.707394
 20
8.108625
 30
0.000000
 40
1.865667
 50
11.668512
 51
16.892956
  6
CONTINUOUS
  0
ARC
  8
WHITE
 10
-7.343321
 20
5.340260
 30
0.000000
 40
14.226416
 50
13.456134
 51
18.803471
  6
CONTINUOUS
  0
ARC
  8
WHITE
 10
19.992822
 20
10.586542
 30
0.000000
 40
13.884727
 50
-179.436625
 51
-177.272238
  6
CONTINUOUS
  0
ARC
  8
WHITE
 10
5.926651
 20
10.456724
 30
0.000000
 40
0.182238
 50
-2.108488
 51
17.640196
  6
CONTINUOUS
  0
ARC
  8
WHITE
 10
6.074571
 20
10.502916
 30
0.000000
 40
0.027287
 50
19.331734
 51
71.764003
  6
CONTINUOUS
  0
ARC
  8
WHITE
 10
6.066956
 20
10.471062
 30
0.000000
 40
0.059987
 50
74.377787
 51
165.585915
  6
CONTINUOUS
  0
ARC
  8
WHITE
 10
6.535902
 20
10.379483
 30
0.000000
 40
0.537699
 50
168.574875
 51
181.795545
  6
CONTINUOUS
  0
ARC
  8
WHITE
 10
63.442720
 20
10.560744
 30
0.000000
 40
57.444595
 50
-179.802404
 51
-179.278630
  6
CONTINUOUS
  0
ARC
  8
WHITE
 10
7.747990
 20
9.827377
 30
0.000000
 40
1.745341
 50
179.667042
 51
197.590898
  6
CONTINUOUS
  0
ARC
  8
WHITE
 10
6.849583
 20
9.771477
 30
0.000000
 40
0.898943
 50
-148.359489
 51
-136.408397
  6
CONTINUOUS
  0
ARC
  8
WHITE
 10
12.215751
 20
14.680991
 30
0.000000
 40
8.171961
 50
-137.419591
 51
-136.431335
  6
CONTINUOUS
  0
ARC
  8
WHITE
 10
5.976915
 20
8.821893
 30
0.000000
 40
0.390466
 50
13.897907
 51
35.508445
  6
CONTINUOUS
  0
ARC
  8
WHITE
 10
10.785466
 20
9.758569
 30
0.000000
 40
4.508999
 50
-169.226042
 51
-162.073892
  6
CONTINUOUS
  0
ARC
  8
WHITE
 10
6.543153
 20
8.386574
 30
0.000000
 40
0.050348
 50
-161.673356
 51
-131.686279
  6
CONTINUOUS
  0
ARC
  8
WHITE
 10
9.042135
 20
11.262418
 30
0.000000
 40
4.898943
 50
-68.065956
 51
-66.887943
  6
CONTINUOUS
  0
ARC
  8
WHITE
 10
10.917295
 20
7.175547
 30
0.000000
 40
0.421599
 50
-83.486455
 51
-46.438519
  6
CONTINUOUS
  0
ARC
  8
WHITE
 10
11.123343
 20
6.954580
 30
0.000000
 40
0.119522
 50
-45.016600
 51
-17.079649
  6
CONTINUOUS
  0
ARC
  8
WHITE
 10
11.368721
 20
6.884012
 30
0.000000
 40
0.135838
 50
145.869680
 51
164.866017
  6
CONTINUOUS
  0
ARC
  8
WHITE
 10
18.781692
 20
-2.502734
 30
0.000000
 40
12.090472
 50
126.049010
 51
128.493449
  6
CONTINUOUS
  0
ARC
  8
WHITE
 10
11.724901
 20
7.092337
 30
0.000000
 40
0.189398
 50
80.475614
 51
107.887592
  6
CONTINUOUS
  0
ARC
  8
WHITE
 10
11.822556
 20
7.683836
 30
0.000000
 40
0.410108
 50
-99.305750
 51
-81.290972
  6
CONTINUOUS
  0
ARC
  8
WHITE
 10
11.686811
 20
7.731542
 30
0.000000
 40
0.494397
 50
-66.411260
 51
-35.176993
  6
CONTINUOUS
  0
ARC
  8
WHITE
 10
14.597087
 20
5.495732
 30
0.000000
 40
3.176039
 50
138.404407
 51
142.100177
  6
CONTINUOUS
  0
ARC
  8
WHITE
 10
12.307041
 20
7.525648
 30
0.000000
 40
0.115854
 50
112.702930
 51
137.306987
  6
CONTINUOUS
  0
ARC
  8
WHITE
 10
12.269439
 20
7.611505
 30
0.000000
 40
0.022191
 50
51.864343
 51
108.693146
  6
CONTINUOUS
  0
ARC
  8
WHITE
 10
12.244189
 20
7.590134
 30
0.000000
 40
0.054998
 50
12.793565
 51
44.905593
  6
CONTINUOUS
  0
ARC
  8
WHITE
 10
12.166938
 20
7.587907
 30
0.000000
 40
0.131674
 50
-34.444431
 51
6.280976
  6
CONTINUOUS
  0
ARC
  8
WHITE
 10
11.691789
 20
7.882203
 30
0.000000
 40
0.690464
 50
-53.807792
 51
-32.282343
  6
CONTINUOUS
  0
ARC
  8
WHITE
 10
12.374560
 20
6.861466
 30
0.000000
 40
0.538973
 50
120.685923
 51
138.621625
  6
CONTINUOUS
  0
ARC
  8
WHITE
 10
11.548301
 20
7.575928
 30
0.000000
 40
0.553391
 50
-58.123030
 51
-40.335010
  6
CONTINUOUS
  0
ARC
  8
WHITE
 10
11.046388
 20
8.478160
 30
0.000000
 40
1.585407
 50
-70.792229
 51
-59.939326
  6
CONTINUOUS
  0
ARC
  8
WHITE
 10
11.052456
 20
8.515367
 30
0.000000
 40
1.618647
 50
-74.294919
 51
-71.428371
  6
CONTINUOUS
  0
ARC
  8
WHITE
 10
11.537220
 20
6.766141
 30
0.000000
 40
0.196614
 50
103.716079
 51
115.414866
  6
CONTINUOUS
  0
ARC
  8
WHITE
 10
14.084457
 20
3.246215
 30
0.000000
 40
4.538393
 50
125.440467
 51
127.943190
  6
CONTINUOUS
  0
ARC
  8
WHITE
 10
10.988594
 20
7.216433
 30
0.000000
 40
0.496188
 50
-74.481087
 51
-52.027369
  6
CONTINUOUS
  0
ARC
  8
WHITE
 10
11.386636
 20
5.889210
 30
0.000000
 40
0.889600
 50
107.349854
 51
120.984440
  6
CONTINUOUS
  0
ARC
  8
WHITE
 10
10.787095
 20
6.885893
 30
0.000000
 40
0.273511
 50
-100.892842
 51
-58.828467
  6
CONTINUOUS
  0
ARC
  8
WHITE
 10
10.740045
 20
6.655886
 30
0.000000
 40
0.038854
 50
138.858138
 51
263.146957
  6
CONTINUOUS
  0
ARC
  8
WHITE
 10
10.748390
 20
6.620066
 30
0.000000
 40
0.071986
 50
91.415241
 51
121.493014
  6
CONTINUOUS
  0
ARC
  8
WHITE
 10
10.155740
 20
9.852422
 30
0.000000
 40
3.215152
 50
-79.410143
 51
-77.126352
  6
CONTINUOUS
  0
ARC
  8
WHITE
 10
8.976533
 20
14.851733
 30
0.000000
 40
0.020059
 50
179.194590
 51
372.249518
  6
CONTINUOUS
  0
ARC
  8
WHITE
 10
8.848345
 20
14.843803
 30
0.000000
 40
0.108442
 50
4.342842
 51
39.707766
  6
CONTINUOUS
  0
ARC
  8
WHITE
 10
8.936017
 20
14.889527
 30
0.000000
 40
0.023936
 50
100.217922
 51
163.624896
  6
CONTINUOUS
  0
ARC
  8
WHITE
 10
9.716119
 20
14.544332
 30
0.000000
 40
0.876801
 50
156.334624
 51
163.295124
  6
CONTINUOUS
  0
ARC
  8
WHITE
 10
7.935904
 20
15.123948
 30
0.000000
 40
0.995839
 50
-25.142648
 51
-19.205370
  6
CONTINUOUS
  0
ARC
  8
WHITE
 10
8.573241
 20
14.805064
 30
0.000000
 40
0.283965
 50
-41.721302
 51
-21.531975
  6
CONTINUOUS
  0
ARC
  8
WHITE
 10
11.294539
 20
12.177383
 30
0.000000
 40
3.499156
 50
135.818023
 51
137.402193
  6
CONTINUOUS
  0
ARC
  8
WHITE
 10
8.969585
 20
14.424285
 30
0.000000
 40
0.278727
 50
154.158254
 51
164.249221
  6
CONTINUOUS
  0
ARC
  8
WHITE
 10
8.685629
 20
14.512663
 30
0.000000
 40
0.020200
 50
179.495978
 51
320.984134
  6
CONTINUOUS
  0
ARC
  8
WHITE
 10
8.529283
 20
14.439493
 30
0.000000
 40
0.154647
 50
28.313115
 51
45.399133
  6
CONTINUOUS
  0
ARC
  8
WHITE
 10
8.611344
 20
14.535008
 30
0.000000
 40
0.030277
 50
28.821502
 51
113.798859
  6
CONTINUOUS
  0
ARC
  8
WHITE
 10
8.714107
 20
14.406233
 30
0.000000
 40
0.194180
 50
126.308669
 51
152.261540
  6
CONTINUOUS
  0
ARC
  8
WHITE
 10
10.269783
 20
13.470406
 30
0.000000
 40
2.009351
 50
149.288559
 51
154.154577
  6
CONTINUOUS
  0
ARC
  8
WHITE
 10
6.447460
 20
15.423208
 30
0.000000
 40
2.283771
 50
-32.147376
 51
-28.132784
  6
CONTINUOUS
  0
ARC
  8
WHITE
 10
8.006208
 20
14.425663
 30
0.000000
 40
0.433481
 50
-40.045152
 51
-30.138469
  6
CONTINUOUS
  0
ARC
  8
WHITE
 10
8.431031
 20
14.043148
 30
0.000000
 40
0.139217
 50
131.902018
 51
161.658748
  6
CONTINUOUS
  0
ARC
  8
WHITE
 10
8.327615
 20
14.083666
 30
0.000000
 40
0.028916
 50
173.466486
 51
315.430725
  6
CONTINUOUS
  0
ARC
  8
WHITE
 10
8.265524
 20
14.186687
 30
0.000000
 40
0.148472
 50
-56.155203
 51
-29.874712
  6
CONTINUOUS
  0
ARC
  8
WHITE
 10
8.593429
 20
13.979058
 30
0.000000
 40
0.239864
 50
130.395167
 51
146.131181
  6
CONTINUOUS
  0
ARC
  8
WHITE
 10
8.472101
 20
14.100713
 30
0.000000
 40
0.069913
 50
66.695837
 51
119.208734
  6
CONTINUOUS
  0
ARC
  8
WHITE
 10
8.491878
 20
14.126571
 30
0.000000
 40
0.039153
 50
32.935961
 51
78.387041
  6
CONTINUOUS
  0
ARC
  8
WHITE
 10
8.552541
 20
14.168186
 30
0.000000
 40
0.034441
 50
-143.828261
 51
-41.079603
  6
CONTINUOUS
  0
ARC
  8
WHITE
 10
8.226008
 20
14.497202
 30
0.000000
 40
0.497904
 50
-44.931071
 51
-31.337943
  6
CONTINUOUS
  0
ARC
  8
WHITE
 10
10.470758
 20
13.171669
 30
0.000000
 40
2.109055
 50
143.598018
 51
149.621173
  6
CONTINUOUS
  0
ARC
  8
WHITE
 10
9.412643
 20
13.968603
 30
0.000000
 40
0.784584
 50
137.500435
 51
144.583638
  6
CONTINUOUS
  0
ARC
  8
WHITE
 10
8.873415
 20
14.475434
 30
0.000000
 40
0.045591
 50
92.048478
 51
149.377977
  6
CONTINUOUS
  0
ARC
  8
WHITE
 10
8.846087
 20
14.371605
 30
0.000000
 40
0.151584
 50
47.010199
 51
80.239380
  6
CONTINUOUS
  0
ARC
  8
WHITE
 10
8.973076
 20
14.500849
 30
0.000000
 40
0.029926
 50
-142.145864
 51
-64.367796
  6
CONTINUOUS
  0
ARC
  8
WHITE
 10
8.814057
 20
14.553911
 30
0.000000
 40
0.189681
 50
-24.960162
 51
-0.925775
  6
CONTINUOUS
  0
ARC
  8
WHITE
 10
9.258351
 20
14.506756
 30
0.000000
 40
0.258427
 50
153.574040
 51
170.176684
  6
CONTINUOUS
  0
ARC
  8
WHITE
 10
-14.258224
 20
24.708537
 30
0.000000
 40
25.375996
 50
-23.421521
 51
-23.103995
  6
CONTINUOUS
  0
ARC
  8
WHITE
 10
8.757629
 20
14.904708
 30
0.000000
 40
0.359386
 50
-25.327769
 51
-5.726684
  6
CONTINUOUS
  0
ARC
  8
WHITE
 10
8.549366
 20
14.916674
 30
0.000000
 40
0.567874
 50
-4.831216
 51
6.033305
  6
CONTINUOUS
  0
ARC
  8
WHITE
 10
9.707058
 20
15.014078
 30
0.000000
 40
0.594163
 50
174.554121
 51
183.639523
  6
CONTINUOUS
  0
ARC
  8
WHITE
 10
6.748651
 20
15.436936
 30
0.000000
 40
2.395128
 50
-8.801163
 51
-6.830728
  6
CONTINUOUS
  0
ARC
  8
WHITE
 10
9.006080
 20
15.172653
 30
0.000000
 40
0.122442
 50
-9.678669
 51
7.510620
  6
CONTINUOUS
  0
ARC
  8
WHITE
 10
9.102527
 20
15.183028
 30
0.000000
 40
0.025571
 50
12.717464
 51
172.642562
  6
CONTINUOUS
  0
ARC
  8
WHITE
 10
9.819685
 20
15.066048
 30
0.000000
 40
0.752193
 50
170.800538
 51
179.848193
  6
CONTINUOUS
  0
ARC
  8
WHITE
 10
8.333262
 20
15.197088
 30
0.000000
 40
0.745487
 50
-27.229268
 51
-9.968363
  6
CONTINUOUS
  0
ARC
  8
WHITE
 10
5.009884
 20
7.556436
 30
0.000000
 40
0.174703
 50
-84.235486
 51
-59.805437
  6
CONTINUOUS
  0
ARC
  8
WHITE
 10
4.754226
 20
7.904009
 30
0.000000
 40
0.605461
 50
-55.432714
 51
-48.618764
  6
CONTINUOUS
  0
ARC
  8
WHITE
 10
5.210696
 20
7.227589
 30
0.000000
 40
0.229130
 50
86.801348
 51
104.203103
  6
CONTINUOUS
  0
ARC
  8
WHITE
 10
5.085061
 20
3.579268
 30
0.000000
 40
3.879564
 50
83.956283
 51
87.955304
  6
CONTINUOUS
  0
ARC
  8
WHITE
 10
5.499732
 20
7.538004
 30
0.000000
 40
0.100925
 50
-93.523030
 51
-59.814302
  6
CONTINUOUS
  0
LINE
  8
WHITE
 10
5.550477
 20
7.450764
 30
0.000000
 11
5.600531
 21
7.478629
 31
0.000000
  6
CONTINUOUS
  0
ARC
  8
WHITE
 10
5.622918
 20
7.412896
 30
0.000000
 40
0.069441
 50
62.895071
 51
108.806824
  6
CONTINUOUS
  0
ARC
  8
WHITE
 10
6.410751
 20
9.212771
 30
0.000000
 40
1.895438
 50
-113.512870
 51
-110.259630
  6
CONTINUOUS
  0
ARC
  8
WHITE
 10
5.781362
 20
7.579153
 30
0.000000
 40
0.147046
 50
-100.561840
 51
-80.885449
  6
CONTINUOUS
  0
ARC
  8
WHITE
 10
5.844214
 20
6.737401
 30
0.000000
 40
0.697685
 50
85.214292
 51
93.250378
  6
CONTINUOUS
  0
ARC
  8
WHITE
 10
5.887301
 20
7.256700
 30
0.000000
 40
0.176602
 50
55.375429
 51
85.088425
  6
CONTINUOUS
  0
ARC
  8
WHITE
 10
5.940329
 20
7.349552
 30
0.000000
 40
0.070655
 50
13.085083
 51
47.957881
  6
CONTINUOUS
  0
ARC
  8
WHITE
 10
5.982867
 20
7.363531
 30
0.000000
 40
0.026360
 50
-85.940283
 51
4.389680
  6
CONTINUOUS
  0
LINE
  8
WHITE
 10
5.984733
 20
7.337237
 30
0.000000
 11
5.905410
 21
7.324598
 31
0.000000
  6
CONTINUOUS
  0
ARC
  8
WHITE
 10
5.982009
 20
7.132802
 30
0.000000
 40
0.206526
 50
111.770681
 51
132.765967
  6
CONTINUOUS
  0
ARC
  8
WHITE
 10
5.778560
 20
7.383263
 30
0.000000
 40
0.117330
 50
-126.622694
 51
-57.398427
  6
CONTINUOUS
  0
ARC
  8
WHITE
 10
5.575248
 20
7.109577
 30
0.000000
 40
0.223609
 50
53.400715
 51
69.306109
  6
CONTINUOUS
  0
ARC
  8
WHITE
 10
5.631699
 20
7.264791
 30
0.000000
 40
0.058496
 50
67.307881
 51
181.163683
  6
CONTINUOUS
  0
ARC
  8
WHITE
 10
5.544017
 20
7.267736
 30
0.000000
 40
0.029489
 50
-107.389407
 51
-8.056325
  6
CONTINUOUS
  0
ARC
  8
WHITE
 10
5.556691
 20
7.710676
 30
0.000000
 40
0.471571
 50
-104.211798
 51
-92.611551
  6
CONTINUOUS
  0
ARC
  8
WHITE
 10
5.278998
 20
6.773550
 30
0.000000
 40
0.506562
 50
71.358728
 51
90.231115
  6
CONTINUOUS
  0
LINE
  8
WHITE
 10
5.276955
 20
7.280108
 30
0.000000
 11
5.157105
 21
7.244893
 31
0.000000
  6
CONTINUOUS
  0
ARC
  8
WHITE
 10
5.098868
 20
7.454284
 30
0.000000
 40
0.217339
 50
-123.837138
 51
-74.457479
  6
CONTINUOUS
  0
ARC
  8
WHITE
 10
5.220054
 20
7.528216
 30
0.000000
 40
0.351302
 50
-141.216114
 51
-133.586984
  6
CONTINUOUS
  0
ARC
  8
WHITE
 10
4.991620
 20
7.332252
 30
0.000000
 40
0.051404
 50
129.375220
 51
207.942053
  6
CONTINUOUS
  0
ARC
  8
WHITE
 10
4.989469
 20
7.326819
 30
0.000000
 40
0.054479
 50
87.090342
 51
123.993320
  6
CONTINUOUS
  0
ARC
  8
WHITE
 10
4.997594
 20
7.692248
 30
0.000000
 40
0.311066
 50
-90.987198
 51
-84.495686
  6
CONTINUOUS
  0
ARC
  8
WHITE
 10
5.277235
 20
9.707755
 30
0.000000
 40
0.039944
 50
-161.761335
 51
-92.649678
  6
CONTINUOUS
  0
LINE
  8
WHITE
 10
5.275388
 20
9.667854
 30
0.000000
 11
5.281662
 21
9.676533
 31
0.000000
  6
CONTINUOUS
  0
ARC
  8
WHITE
 10
4.902892
 20
9.887165
 30
0.000000
 40
0.433396
 50
-29.078206
 51
-25.742092
  6
CONTINUOUS
  0
ARC
  8
WHITE
 10
-1.203753
 20
12.650869
 30
0.000000
 40
7.136198
 50
-24.434756
 51
-19.651906
  6
CONTINUOUS
  0
ARC
  8
WHITE
 10
2.160579
 20
11.388482
 30
0.000000
 40
3.543746
 50
-18.723560
 51
-15.111450
  6
CONTINUOUS
  0
ARC
  8
WHITE
 10
4.919324
 20
10.663896
 30
0.000000
 40
0.691779
 50
-16.740613
 51
-8.655820
  6
CONTINUOUS
  0
ARC
  8
WHITE
 10
5.537525
 20
10.564608
 30
0.000000
 40
0.065876
 50
-4.199263
 51
35.622629
  6
CONTINUOUS
  0
ARC
  8
WHITE
 10
5.573324
 20
10.594838
 30
0.000000
 40
0.019526
 50
24.633292
 51
155.905397
  6
CONTINUOUS
  0
ARC
  8
WHITE
 10
5.754193
 20
10.483136
 30
0.000000
 40
0.231950
 50
148.939408
 51
170.098195
  6
CONTINUOUS
  0
ARC
  8
WHITE
 10
5.122849
 20
10.656811
 30
0.000000
 40
0.424484
 50
-49.657284
 51
-18.371671
  6
CONTINUOUS
  0
ARC
  8
WHITE
 10
5.214799
 20
10.544177
 30
0.000000
 40
0.279125
 50
-55.858406
 51
-49.076044
  6
CONTINUOUS
  0
ARC
  8
WHITE
 10
5.355973
 20
10.348713
 30
0.000000
 40
0.038779
 50
-161.471656
 51
-66.469593
  6
CONTINUOUS
  0
ARC
  8
WHITE
 10
4.998924
 20
10.140721
 30
0.000000
 40
0.375320
 50
31.422084
 51
49.714310
  6
CONTINUOUS
  0
ARC
  8
WHITE
 10
5.195136
 20
10.346739
 30
0.000000
 40
0.092766
 50
59.938056
 51
76.167958
  6
CONTINUOUS
  0
ARC
  8
WHITE
 10
5.220775
 20
10.414134
 30
0.000000
 40
0.022944
 50
98.675086
 51
161.778928
  6
CONTINUOUS
  0
ARC
  8
WHITE
 10
5.357210
 20
10.333170
 30
0.000000
 40
0.181120
 50
150.880801
 51
182.045279
  6
CONTINUOUS
  0
ARC
  8
WHITE
 10
6.008603
 20
10.397900
 30
0.000000
 40
0.835437
 50
-175.111454
 51
-163.272478
  6
CONTINUOUS
  0
ARC
  8
WHITE
 10
4.004838
 20
9.809927
 30
0.000000
 40
1.252843
 50
10.183051
 51
16.104071
  6
CONTINUOUS
  0
ARC
  8
WHITE
 10
4.576508
 20
9.924895
 30
0.000000
 40
0.669961
 50
-7.448040
 51
9.149095
  6
CONTINUOUS
  0
LINE
  8
WHITE
 10
5.240816
 20
9.838050
 30
0.000000
 11
5.227831
 21
9.741917
 31
0.000000
  6
CONTINUOUS
  0
ARC
  8
WHITE
 10
5.330141
 20
9.742318
 30
0.000000
 40
0.102311
 50
-179.775431
 51
-152.612002
  6
CONTINUOUS
  0
ARC
  8
WHITE
 10
5.872736
 20
6.005933
 30
0.000000
 40
0.034758
 50
-27.062178
 51
50.134817
  6
CONTINUOUS
  0
ARC
  8
WHITE
 10
5.837581
 20
5.950373
 30
0.000000
 40
0.100309
 50
55.070108
 51
88.517351
  6
CONTINUOUS
  0
ARC
  8
WHITE
 10
5.871198
 20
6.999809
 30
0.000000
 40
0.949666
 50
-124.240167
 51
-91.871942
  6
CONTINUOUS
  0
ARC
  8
WHITE
 10
5.301843
 20
6.166433
 30
0.000000
 40
0.059655
 50
54.061402
 51
118.365288
  6
CONTINUOUS
  0
ARC
  8
WHITE
 10
5.364766
 20
6.026979
 30
0.000000
 40
0.212538
 50
115.429601
 51
135.254549
  6
CONTINUOUS
  0
ARC
  8
WHITE
 10
5.188067
 20
6.204969
 30
0.000000
 40
0.038311
 50
-117.109997
 51
-47.778488
  6
CONTINUOUS
  0
ARC
  8
WHITE
 10
5.259121
 20
6.349688
 30
0.000000
 40
0.199529
 50
-134.622748
 51
-116.334381
  6
CONTINUOUS
  0
ARC
  8
WHITE
 10
2.858047
 20
3.991017
 30
0.000000
 40
3.166279
 50
44.433649
 51
47.097754
  6
CONTINUOUS
  0
ARC
  8
WHITE
 10
4.975179
 20
6.261651
 30
0.000000
 40
0.061975
 50
51.818351
 51
80.076037
  6
CONTINUOUS
  0
ARC
  8
WHITE
 10
4.981406
 20
6.298659
 30
0.000000
 40
0.024450
 50
79.503835
 51
148.893639
  6
CONTINUOUS
  0
ARC
  8
WHITE
 10
5.039750
 20
6.273851
 30
0.000000
 40
0.087674
 50
154.720756
 51
195.446497
  6
CONTINUOUS
  0
ARC
  8
WHITE
 10
5.382471
 20
6.384007
 30
0.000000
 40
0.447603
 50
-162.646202
 51
-106.873706
  6
CONTINUOUS
  0
ARC
  8
WHITE
 10
5.269888
 20
6.013786
 30
0.000000
 40
0.060643
 50
-106.614386
 51
-63.769746
  6
CONTINUOUS
  0
ARC
  8
WHITE
 10
5.034601
 20
6.503635
 30
0.000000
 40
0.604066
 50
-64.286203
 51
-59.393121
  6
CONTINUOUS
  0
ARC
  8
WHITE
 10
5.392591
 20
5.907308
 30
0.000000
 40
0.091561
 50
87.249201
 51
123.422969
  6
CONTINUOUS
  0
ARC
  8
WHITE
 10
5.655074
 20
7.370227
 30
0.000000
 40
1.395537
 50
-100.657557
 51
-90.099841
  6
CONTINUOUS
  0
ARC
  8
WHITE
 10
5.632442
 20
5.822575
 30
0.000000
 40
0.153452
 50
52.250497
 51
82.435735
  6
CONTINUOUS
  0
ARC
  8
WHITE
 10
5.790886
 20
6.059678
 30
0.000000
 40
0.132524
 50
-119.123696
 51
-31.659604
  6
CONTINUOUS
  0
ARC
  8
WHITE
 10
9.834755
 20
2.174382
 30
0.000000
 40
0.171011
 50
-120.080651
 51
-83.556150
  6
CONTINUOUS
  0
ARC
  8
WHITE
 10
9.850538
 20
2.507076
 30
0.000000
 40
0.502636
 50
-89.611349
 51
-66.326116
  6
CONTINUOUS
  0
ARC
  8
WHITE
 10
9.918164
 20
2.383359
 30
0.000000
 40
0.362384
 50
-68.264708
 51
-39.997521
  6
CONTINUOUS
  0
ARC
  8
WHITE
 10
10.125658
 20
2.224917
 30
0.000000
 40
0.102294
 50
-46.728492
 51
-2.905512
  6
CONTINUOUS
  0
ARC
  8
WHITE
 10
10.166314
 20
2.215842
 30
0.000000
 40
0.061629
 50
3.618702
 51
37.619114
  6
CONTINUOUS
  0
ARC
  8
WHITE
 10
10.195981
 20
2.229536
 30
0.000000
 40
0.030644
 50
51.327734
 51
117.585199
  6
CONTINUOUS
  0
ARC
  8
WHITE
 10
9.826181
 20
3.010724
 30
0.000000
 40
0.833675
 50
-83.660951
 51
-64.750792
  6
CONTINUOUS
  0
ARC
  8
WHITE
 10
9.889772
 20
2.617474
 30
0.000000
 40
0.436257
 50
-140.475263
 51
-86.260015
  6
CONTINUOUS
  0
ARC
  8
WHITE
 10
9.818289
 20
2.571499
 30
0.000000
 40
0.352004
 50
-172.391763
 51
-138.842490
  6
CONTINUOUS
  0
ARC
  8
WHITE
 10
9.137959
 20
2.541298
 30
0.000000
 40
0.331831
 50
-2.833553
 51
14.970950
  6
CONTINUOUS
  0
ARC
  8
WHITE
 10
9.426310
 20
2.617580
 30
0.000000
 40
0.033571
 50
16.330888
 51
104.784794
  6
CONTINUOUS
  0
ARC
  8
WHITE
 10
9.420808
 20
2.609027
 30
0.000000
 40
0.041126
 50
94.273642
 51
165.844967
  6
CONTINUOUS
  0
ARC
  8
WHITE
 10
10.034335
 20
2.614254
 30
0.000000
 40
0.653423
 50
179.576434
 51
244.111942
  6
CONTINUOUS
  0
ARC
  8
WHITE
 10
6.461329
 20
11.892345
 30
0.000000
 40
0.104052
 50
-129.440731
 51
-108.884049
  6
CONTINUOUS
  0
ARC
  8
WHITE
 10
6.172881
 20
11.430509
 30
0.000000
 40
0.441546
 50
59.764150
 51
98.027676
  6
CONTINUOUS
  0
ARC
  8
WHITE
 10
6.270372
 20
10.888737
 30
0.000000
 40
0.991844
 50
99.233706
 51
106.686892
  6
CONTINUOUS
  0
ARC
  8
WHITE
 10
6.015695
 20
11.632101
 30
0.000000
 40
0.208894
 50
98.290913
 51
114.859855
  6
CONTINUOUS
  0
ARC
  8
WHITE
 10
5.957107
 20
11.799011
 30
0.000000
 40
0.036966
 50
142.256937
 51
231.848997
  6
CONTINUOUS
  0
ARC
  8
WHITE
 10
5.985947
 20
11.842797
 30
0.000000
 40
0.089321
 50
-125.347612
 51
-89.055536
  6
CONTINUOUS
  0
ARC
  8
WHITE
 10
5.940460
 20
13.029206
 30
0.000000
 40
1.276583
 50
-87.891896
 51
-82.961422
  6
CONTINUOUS
  0
ARC
  8
WHITE
 10
6.145087
 20
11.016216
 30
0.000000
 40
0.747584
 50
85.791966
 51
93.696490
  6
CONTINUOUS
  0
ARC
  8
WHITE
 10
6.187796
 20
11.612599
 30
0.000000
 40
0.149679
 50
48.404265
 51
85.345209
  6
CONTINUOUS
  0
ARC
  8
WHITE
 10
6.400951
 20
11.833110
 30
0.000000
 40
0.157276
 50
-136.343079
 51
-70.139303
  6
CONTINUOUS
  0
ARC
  8
WHITE
 10
6.330756
 20
12.090805
 30
0.000000
 40
0.424039
 50
-73.049376
 51
-62.335938
  6
CONTINUOUS
  0
ARC
  8
WHITE
 10
6.691117
 20
11.389416
 30
0.000000
 40
0.364540
 50
93.268206
 51
116.645619
  6
CONTINUOUS
  0
ARC
  8
WHITE
 10
6.725423
 20
11.175665
 30
0.000000
 40
0.580318
 50
69.751566
 51
95.447186
  6
CONTINUOUS
  0
ARC
  8
WHITE
 10
6.970833
 20
11.782786
 30
0.000000
 40
0.076897
 50
-125.419534
 51
-52.753968
  6
CONTINUOUS
  0
ARC
  8
WHITE
 10
7.008193
 20
11.745361
 30
0.000000
 40
0.025499
 50
-68.897091
 51
26.261045
  6
CONTINUOUS
  0
ARC
  8
WHITE
 10
6.766259
 20
11.479091
 30
0.000000
 40
0.383608
 50
46.346763
 51
70.202749
  6
CONTINUOUS
  0
ARC
  8
WHITE
 10
6.725785
 20
11.168324
 30
0.000000
 40
0.692979
 50
75.765372
 51
115.481508
  6
CONTINUOUS
  0
ARC
  8
WHITE
 10
7.649936
 20
10.973314
 30
0.000000
 40
0.128086
 50
176.439424
 51
251.465140
  6
CONTINUOUS
  0
ARC
  8
WHITE
 10
7.620397
 20
10.966274
 30
0.000000
 40
0.114947
 50
-95.580129
 51
-64.322031
  6
CONTINUOUS
  0
ARC
  8
WHITE
 10
7.603566
 20
11.027855
 30
0.000000
 40
0.178112
 50
-68.028800
 51
-46.340441
  6
CONTINUOUS
  0
ARC
  8
WHITE
 10
7.705566
 20
10.926564
 30
0.000000
 40
0.034631
 50
-52.746504
 51
55.544262
  6
CONTINUOUS
  0
ARC
  8
WHITE
 10
7.626840
 20
10.253862
 30
0.000000
 40
0.708116
 50
82.018921
 51
87.928020
  6
CONTINUOUS
  0
ARC
  8
WHITE
 10
7.665382
 20
11.008430
 30
0.000000
 40
0.048667
 50
166.813997
 51
254.580096
  6
CONTINUOUS
  0
ARC
  8
WHITE
 10
7.339556
 20
11.084844
 30
0.000000
 40
0.286001
 50
-13.200861
 51
22.995877
  6
CONTINUOUS
  0
ARC
  8
WHITE
 10
7.699405
 20
11.235330
 30
0.000000
 40
0.104063
 50
135.238884
 51
201.865420
  6
CONTINUOUS
  0
ARC
  8
WHITE
 10
7.557604
 20
11.350473
 30
0.000000
 40
0.079779
 50
-31.653544
 51
-17.935316
  6
CONTINUOUS
  0
ARC
  8
WHITE
 10
6.878452
 20
11.598008
 30
0.000000
 40
0.802588
 50
-19.817877
 51
-17.106026
  6
CONTINUOUS
  0
ARC
  8
WHITE
 10
4.490032
 20
12.328653
 30
0.000000
 40
3.300265
 50
-17.032952
 51
-15.162681
  6
CONTINUOUS
  0
ARC
  8
WHITE
 10
5.645572
 20
12.044908
 30
0.000000
 40
2.110927
 50
-15.932918
 51
-11.474554
  6
CONTINUOUS
  0
ARC
  8
WHITE
 10
7.617819
 20
11.627236
 30
0.000000
 40
0.096516
 50
-1.342013
 51
87.979432
  6
CONTINUOUS
  0
ARC
  8
WHITE
 10
7.553925
 20
11.373995
 30
0.000000
 40
0.356113
 50
79.106933
 51
104.432536
  6
CONTINUOUS
  0
ARC
  8
WHITE
 10
7.476689
 20
11.680335
 30
0.000000
 40
0.040220
 50
106.646227
 51
153.508936
  6
CONTINUOUS
  0
ARC
  8
WHITE
 10
7.455986
 20
11.692360
 30
0.000000
 40
0.016398
 50
158.854442
 51
217.354114
  6
CONTINUOUS
  0
ARC
  8
WHITE
 10
7.471358
 20
11.708385
 30
0.000000
 40
0.038492
 50
-137.561137
 51
-108.052037
  6
CONTINUOUS
  0
ARC
  8
WHITE
 10
7.526456
 20
11.895589
 30
0.000000
 40
0.233623
 50
-106.672359
 51
-91.918421
  6
CONTINUOUS
  0
ARC
  8
WHITE
 10
7.366782
 20
30.541500
 30
0.000000
 40
18.880014
 50
-89.539162
 51
-89.205219
  6
CONTINUOUS
  0
ARC
  8
WHITE
 10
7.616828
 20
11.636021
 30
0.000000
 40
0.029740
 50
-19.116942
 51
66.538386
  6
CONTINUOUS
  0
ARC
  8
WHITE
 10
7.434323
 20
11.686392
 30
0.000000
 40
0.219015
 50
-33.553858
 51
-15.929786
  6
CONTINUOUS
  0
ARC
  8
WHITE
 10
6.092128
 20
12.582616
 30
0.000000
 40
1.832925
 50
-37.446947
 51
-33.710916
  6
CONTINUOUS
  0
ARC
  8
WHITE
 10
7.692346
 20
11.406198
 30
0.000000
 40
0.157706
 50
156.869551
 51
184.415464
  6
CONTINUOUS
  0
ARC
  8
WHITE
 10
7.298983
 20
11.376538
 30
0.000000
 40
0.236774
 50
-14.282100
 51
4.243095
  6
CONTINUOUS
  0
ARC
  8
WHITE
 10
7.280868
 20
11.417445
 30
0.000000
 40
0.266750
 50
-37.470117
 51
-21.859217
  6
CONTINUOUS
  0
ARC
  8
WHITE
 10
7.544453
 20
11.217507
 30
0.000000
 40
0.064103
 50
144.019448
 51
201.627464
  6
CONTINUOUS
  0
ARC
  8
WHITE
 10
7.620131
 20
11.249545
 30
0.000000
 40
0.146274
 50
-157.632249
 51
-147.557235
  6
CONTINUOUS
  0
ARC
  8
WHITE
 10
7.369741
 20
11.094580
 30
0.000000
 40
0.148212
 50
17.821178
 51
31.072536
  6
CONTINUOUS
  0
ARC
  8
WHITE
 10
7.026500
 20
11.025843
 30
0.000000
 40
0.497599
 50
-5.139396
 51
13.255564
  6
CONTINUOUS
  0
ARC
  8
WHITE
 10
5.530998
 20
11.389273
 30
0.000000
 40
0.110063
 50
145.864094
 51
201.626201
  6
CONTINUOUS
  0
ARC
  8
WHITE
 10
5.311358
 20
11.334975
 30
0.000000
 40
0.118126
 50
-19.414349
 51
6.676804
  6
CONTINUOUS
  0
ARC
  8
WHITE
 10
6.268318
 20
11.116535
 30
0.000000
 40
0.864327
 50
168.035793
 51
171.612351
  6
CONTINUOUS
  0
ARC
  8
WHITE
 10
5.594885
 20
11.222563
 30
0.000000
 40
0.182752
 50
173.700956
 51
207.519222
  6
CONTINUOUS
  0
ARC
  8
WHITE
 10
5.377446
 20
11.097576
 30
0.000000
 40
0.068625
 50
10.620365
 51
36.217807
  6
CONTINUOUS
  0
ARC
  8
WHITE
 10
5.405518
 20
11.119622
 30
0.000000
 40
0.040483
 50
-127.532572
 51
-13.424170
  6
CONTINUOUS
  0
ARC
  8
WHITE
 10
5.455784
 20
11.167838
 30
0.000000
 40
0.109843
 50
-157.474339
 51
-133.011365
  6
CONTINUOUS
  0
ARC
  8
WHITE
 10
5.586438
 20
11.239739
 30
0.000000
 40
0.258592
 50
-165.742596
 51
-153.846537
  6
CONTINUOUS
  0
ARC
  8
WHITE
 10
4.126310
 20
11.039573
 30
0.000000
 40
1.217177
 50
6.438037
 51
13.172653
  6
CONTINUOUS
  0
ARC
  8
WHITE
 10
5.486126
 20
11.372958
 30
0.000000
 40
0.183426
 50
172.231069
 51
197.778632
  6
CONTINUOUS
  0
ARC
  8
WHITE
 10
5.961939
 20
11.304797
 30
0.000000
 40
0.664094
 50
153.130493
 51
171.953622
  6
CONTINUOUS
  0
ARC
  8
WHITE
 10
5.626374
 20
11.493430
 30
0.000000
 40
0.279995
 50
96.934465
 51
156.530573
  6
CONTINUOUS
  0
ARC
  8
WHITE
 10
5.607513
 20
11.743167
 30
0.000000
 40
0.031924
 50
-20.039448
 51
117.911736
  6
CONTINUOUS
  0
ARC
  8
WHITE
 10
5.493456
 20
11.847463
 30
0.000000
 40
0.184470
 50
-64.292000
 51
-38.658981
  6
CONTINUOUS
  0
ARC
  8
WHITE
 10
5.605394
 20
11.607394
 30
0.000000
 40
0.080460
 50
113.371425
 51
176.243274
  6
CONTINUOUS
  0
ARC
  8
WHITE
 10
5.137913
 20
11.575360
 30
0.000000
 40
0.388986
 50
-1.202951
 51
5.503428
  6
CONTINUOUS
  0
ARC
  8
WHITE
 10
5.457650
 20
11.575281
 30
0.000000
 40
0.069635
 50
-45.400147
 51
-6.669334
  6
CONTINUOUS
  0
ARC
  8
WHITE
 10
6.122928
 20
10.908430
 30
0.000000
 40
0.872324
 50
134.958886
 51
141.536032
  6
CONTINUOUS
  0
ARC
  8
WHITE
 10
7.187228
 20
10.297257
 30
0.000000
 40
0.204402
 50
137.015953
 51
155.869558
  6
CONTINUOUS
  0
ARC
  8
WHITE
 10
10.935050
 20
8.404298
 30
0.000000
 40
4.402936
 50
153.326235
 51
156.409016
  6
CONTINUOUS
  0
ARC
  8
WHITE
 10
10.636568
 20
8.523847
 30
0.000000
 40
4.081568
 50
156.270097
 51
157.932868
  6
CONTINUOUS
  0
ARC
  8
WHITE
 10
7.142558
 20
9.914520
 30
0.000000
 40
0.321935
 50
153.679721
 51
174.779445
  6
CONTINUOUS
  0
ARC
  8
WHITE
 10
6.854932
 20
9.933976
 30
0.000000
 40
0.034410
 50
163.388873
 51
330.995932
  6
CONTINUOUS
  0
ARC
  8
WHITE
 10
6.608264
 20
10.083260
 30
0.000000
 40
0.322712
 50
-30.950199
 51
-14.313407
  6
CONTINUOUS
  0
ARC
  8
WHITE
 10
7.844024
 20
9.685140
 30
0.000000
 40
0.976416
 50
155.817529
 51
160.972243
  6
CONTINUOUS
  0
ARC
  8
WHITE
 10
7.104675
 20
10.042022
 30
0.000000
 40
0.157399
 50
104.041217
 51
164.107441
  6
CONTINUOUS
  0
ARC
  8
WHITE
 10
7.153769
 20
9.545662
 30
0.000000
 40
0.654899
 50
62.988813
 51
97.658929
  6
CONTINUOUS
  0
ARC
  8
WHITE
 10
7.745478
 20
10.664494
 30
0.000000
 40
0.610918
 50
-118.796266
 51
-114.370879
  6
CONTINUOUS
  0
ARC
  8
WHITE
 10
7.497718
 20
10.130847
 30
0.000000
 40
0.023241
 50
-100.737680
 51
7.221106
  6
CONTINUOUS
  0
ARC
  8
WHITE
 10
7.429479
 20
10.136255
 30
0.000000
 40
0.091331
 50
-1.560094
 51
50.578008
  6
CONTINUOUS
  0
ARC
  8
WHITE
 10
7.357683
 20
9.985851
 30
0.000000
 40
0.256257
 50
59.569299
 51
92.042413
  6
CONTINUOUS
  0
ARC
  8
WHITE
 10
7.391272
 20
11.701948
 30
0.000000
 40
1.460627
 50
-100.229040
 51
-91.676083
  6
CONTINUOUS
  0
ARC
  8
WHITE
 10
7.167772
 20
10.368272
 30
0.000000
 40
0.109766
 50
-165.914188
 51
-109.081122
  6
CONTINUOUS
  0
ARC
  8
WHITE
 10
7.219807
 20
10.349180
 30
0.000000
 40
0.158684
 50
163.139204
 51
182.753229
  6
CONTINUOUS
  0
ARC
  8
WHITE
 10
7.022895
 20
10.394054
 30
0.000000
 40
0.045064
 50
1.464699
 51
70.821664
  6
CONTINUOUS
  0
ARC
  8
WHITE
 10
6.750245
 20
8.802723
 30
0.000000
 40
0.060622
 50
-130.895385
 51
-99.960626
  6
CONTINUOUS
  0
ARC
  8
WHITE
 10
6.733376
 20
8.756613
 30
0.000000
 40
0.015022
 50
-64.854232
 51
-8.808081
  6
CONTINUOUS
  0
ARC
  8
WHITE
 10
6.519244
 20
8.829359
 30
0.000000
 40
0.240961
 50
-18.146351
 51
-10.264166
  6
CONTINUOUS
  0
ARC
  8
WHITE
 10
5.403569
 20
9.028008
 30
0.000000
 40
1.374182
 50
-10.125380
 51
-5.893038
  6
CONTINUOUS
  0
ARC
  8
WHITE
 10
4.812994
 20
9.112902
 30
0.000000
 40
1.970497
 50
-6.585375
 51
-1.832749
  6
CONTINUOUS
  0
ARC
  8
WHITE
 10
6.449383
 20
9.006680
 30
0.000000
 40
0.335890
 50
7.389738
 51
22.437232
  6
CONTINUOUS
  0
ARC
  8
WHITE
 10
7.177519
 20
9.300395
 30
0.000000
 40
0.449273
 50
-169.556261
 51
-158.382585
  6
CONTINUOUS
  0
ARC
  8
WHITE
 10
-2.318608
 20
9.053142
 30
0.000000
 40
9.055815
 50
1.049153
 51
3.021109
  6
CONTINUOUS
  0
ARC
  8
WHITE
 10
6.391147
 20
9.489213
 30
0.000000
 40
0.336010
 50
7.044008
 51
27.843365
  6
CONTINUOUS
  0
ARC
  8
WHITE
 10
6.634803
 20
9.618618
 30
0.000000
 40
0.060126
 50
27.250171
 51
84.754906
  6
CONTINUOUS
  0
ARC
  8
WHITE
 10
6.641336
 20
9.641770
 30
0.000000
 40
0.036737
 50
91.616767
 51
155.590087
  6
CONTINUOUS
  0
ARC
  8
WHITE
 10
6.745739
 20
9.592657
 30
0.000000
 40
0.152113
 50
154.996036
 51
175.801143
  6
CONTINUOUS
  0
ARC
  8
WHITE
 10
7.139191
 20
9.561124
 30
0.000000
 40
0.546823
 50
175.524475
 51
188.975213
  6
CONTINUOUS
  0
ARC
  8
WHITE
 10
7.720063
 20
9.719150
 30
0.000000
 40
1.147106
 50
-167.752859
 51
-155.990389
  6
CONTINUOUS
  0
ARC
  8
WHITE
 10
6.168482
 20
9.026644
 30
0.000000
 40
0.552002
 50
-0.162925
 51
24.141002
  6
CONTINUOUS
  0
ARC
  8
WHITE
 10
6.402090
 20
9.066722
 30
0.000000
 40
0.321105
 50
-25.100239
 51
-7.452316
  6
CONTINUOUS
  0
ARC
  8
WHITE
 10
7.052468
 20
8.762493
 30
0.000000
 40
0.396911
 50
154.956446
 51
169.311493
  6
CONTINUOUS
  0
ARC
  8
WHITE
 10
6.721429
 20
8.826846
 30
0.000000
 40
0.059708
 50
171.076309
 51
233.750950
  6
CONTINUOUS
  0
ARC
  8
WHITE
 10
7.037571
 20
9.148100
 30
0.000000
 40
0.509878
 50
-133.572881
 51
-129.892995
  6
CONTINUOUS
  0
ARC
  8
WHITE
 10
7.412209
 20
10.850844
 30
0.000000
 40
0.165348
 50
-101.973912
 51
-54.135358
  6
CONTINUOUS
  0
ARC
  8
WHITE
 10
7.492405
 20
10.736478
 30
0.000000
 40
0.025760
 50
-49.653874
 51
46.066663
  6
CONTINUOUS
  0
ARC
  8
WHITE
 10
7.382583
 20
10.578095
 30
0.000000
 40
0.218201
 50
54.181684
 51
86.291802
  6
CONTINUOUS
  0
ARC
  8
WHITE
 10
7.471799
 20
11.047548
 30
0.000000
 40
0.262674
 50
-125.353173
 51
-106.613880
  6
CONTINUOUS
  0
ARC
  8
WHITE
 10
7.919491
 20
11.739415
 30
0.000000
 40
1.086573
 50
-130.400287
 51
-123.497442
  6
CONTINUOUS
  0
ARC
  8
WHITE
 10
7.549103
 20
11.349284
 30
0.000000
 40
0.550193
 50
-150.769296
 51
-127.356968
  6
CONTINUOUS
  0
ARC
  8
WHITE
 10
7.393560
 20
11.171198
 30
0.000000
 40
0.336993
 50
-174.259835
 51
-164.406303
  6
CONTINUOUS
  0
ARC
  8
WHITE
 10
6.927409
 20
11.136245
 30
0.000000
 40
0.130854
 50
0.546407
 51
14.566765
  6
CONTINUOUS
  0
ARC
  8
WHITE
 10
7.032038
 20
11.164489
 30
0.000000
 40
0.022508
 50
11.966637
 51
143.265922
  6
CONTINUOUS
  0
ARC
  8
WHITE
 10
7.070489
 20
11.138795
 30
0.000000
 40
0.068732
 50
145.271938
 51
169.527110
  6
CONTINUOUS
  0
ARC
  8
WHITE
 10
7.294576
 20
11.089377
 30
0.000000
 40
0.298173
 50
168.016129
 51
182.757910
  6
CONTINUOUS
  0
ARC
  8
WHITE
 10
7.430260
 20
11.121987
 30
0.000000
 40
0.436047
 50
-173.817966
 51
-96.895993
  6
CONTINUOUS
  0
ARC
  8
WHITE
 10
6.710700
 20
9.419354
 30
0.000000
 40
0.257869
 50
-35.486769
 51
9.364150
  6
CONTINUOUS
  0
LINE
  8
WHITE
 10
6.920670
 20
9.269657
 30
0.000000
 11
6.900496
 21
9.248062
 31
0.000000
  6
CONTINUOUS
  0
ARC
  8
WHITE
 10
6.949538
 20
9.215007
 30
0.000000
 40
0.059142
 50
146.019281
 51
182.405791
  6
CONTINUOUS
  0
ARC
  8
WHITE
 10
6.996086
 20
9.191010
 30
0.000000
 40
0.107805
 50
168.488274
 51
185.236185
  6
CONTINUOUS
  0
ARC
  8
WHITE
 10
6.914544
 20
9.195674
 30
0.000000
 40
0.029609
 50
-150.672450
 51
-44.160027
  6
CONTINUOUS
  0
ARC
  8
WHITE
 10
6.883733
 20
9.238055
 30
0.000000
 40
0.081728
 50
-50.439355
 51
-25.841257
  6
CONTINUOUS
  0
ARC
  8
WHITE
 10
6.534397
 20
9.376732
 30
0.000000
 40
0.457403
 50
-22.399671
 51
-9.473111
  6
CONTINUOUS
  0
ARC
  8
WHITE
 10
8.582995
 20
9.067575
 30
0.000000
 40
1.614462
 50
162.893644
 51
171.670669
  6
CONTINUOUS
  0
ARC
  8
WHITE
 10
7.154245
 20
9.505335
 30
0.000000
 40
0.120168
 50
115.514682
 51
162.002986
  6
CONTINUOUS
  0
ARC
  8
WHITE
 10
6.882974
 20
10.176300
 30
0.000000
 40
0.603829
 50
-68.682885
 51
-35.737335
  6
CONTINUOUS
  0
ARC
  8
WHITE
 10
7.431764
 20
9.793218
 30
0.000000
 40
0.066071
 50
121.184722
 51
152.602371
  6
CONTINUOUS
  0
ARC
  8
WHITE
 10
7.353263
 20
9.892873
 30
0.000000
 40
0.061821
 50
-44.240789
 51
-10.712450
  6
CONTINUOUS
  0
ARC
  8
WHITE
 10
7.249735
 20
9.923569
 30
0.000000
 40
0.169602
 50
-14.403119
 51
-4.374868
  6
CONTINUOUS
  0
ARC
  8
WHITE
 10
7.393432
 20
9.912285
 30
0.000000
 40
0.025465
 50
-3.723094
 51
97.501612
  6
CONTINUOUS
  0
ARC
  8
WHITE
 10
7.406783
 20
9.891006
 30
0.000000
 40
0.049423
 50
109.718651
 51
133.838289
  6
CONTINUOUS
  0
ARC
  8
WHITE
 10
7.553185
 20
9.726589
 30
0.000000
 40
0.269546
 50
132.077986
 51
144.273158
  6
CONTINUOUS
  0
ARC
  8
WHITE
 10
6.975676
 20
10.122323
 30
0.000000
 40
0.430655
 50
-51.061197
 51
-33.603099
  6
CONTINUOUS
  0
ARC
  8
WHITE
 10
7.034419
 20
10.255403
 30
0.000000
 40
0.513791
 50
-80.215867
 51
-65.640435
  6
CONTINUOUS
  0
ARC
  8
WHITE
 10
7.231813
 20
9.127008
 30
0.000000
 40
0.631742
 50
100.035113
 51
112.168694
  6
CONTINUOUS
  0
ARC
  8
WHITE
 10
7.018419
 20
9.650704
 30
0.000000
 40
0.066238
 50
112.159606
 51
164.528088
  6
CONTINUOUS
  0
ARC
  8
WHITE
 10
8.002261
 20
9.617961
 30
0.000000
 40
1.048892
 50
177.245121
 51
188.589121
  6
CONTINUOUS
  0
ARC
  8
WHITE
 10
6.332240
 20
7.182761
 30
0.000000
 40
0.470459
 50
-33.847705
 51
-16.281412
  6
CONTINUOUS
  0
ARC
  8
WHITE
 10
4.831718
 20
7.862318
 30
0.000000
 40
2.114049
 50
-22.571629
 51
-16.007046
  6
CONTINUOUS
  0
ARC
  8
WHITE
 10
6.537101
 20
7.395947
 30
0.000000
 40
0.346881
 50
-19.640021
 51
-4.639877
  6
CONTINUOUS
  0
ARC
  8
WHITE
 10
6.793196
 20
7.369232
 30
0.000000
 40
0.089658
 50
-0.859576
 51
24.499772
  6
CONTINUOUS
  0
ARC
  8
WHITE
 10
6.847395
 20
7.389745
 30
0.000000
 40
0.032061
 50
31.324245
 51
97.904457
  6
CONTINUOUS
  0
ARC
  8
WHITE
 10
6.879953
 20
7.333401
 30
0.000000
 40
0.095542
 50
112.763010
 51
154.392807
  6
CONTINUOUS
  0
ARC
  8
WHITE
 10
7.691019
 20
6.917933
 30
0.000000
 40
1.006797
 50
153.020138
 51
166.932286
  6
CONTINUOUS
  0
ARC
  8
WHITE
 10
13.286828
 20
5.328210
 30
0.000000
 40
6.823020
 50
164.552371
 51
165.578692
  6
CONTINUOUS
  0
ARC
  8
WHITE
 10
6.944962
 20
6.914560
 30
0.000000
 40
0.289129
 50
157.010318
 51
169.097232
  6
CONTINUOUS
  0
ARC
  8
WHITE
 10
6.699587
 20
6.954653
 30
0.000000
 40
0.041206
 50
159.257738
 51
304.567008
  6
CONTINUOUS
  0
ARC
  8
WHITE
 10
10.427166
 20
2.530455
 30
0.000000
 40
0.044943
 50
-76.892672
 51
-36.243690
  6
CONTINUOUS
  0
ARC
  8
WHITE
 10
10.380676
 20
2.562096
 30
0.000000
 40
0.101164
 50
-35.129528
 51
-12.647949
  6
CONTINUOUS
  0
ARC
  8
WHITE
 10
10.095373
 20
2.613188
 30
0.000000
 40
0.390935
 50
-10.798362
 51
6.480670
  6
CONTINUOUS
  0
ARC
  8
WHITE
 10
9.061906
 20
2.488376
 30
0.000000
 40
1.431904
 50
6.775536
 51
20.662811
  6
CONTINUOUS
  0
ARC
  8
WHITE
 10
10.184336
 20
2.917223
 30
0.000000
 40
0.230409
 50
19.371731
 51
42.583538
  6
CONTINUOUS
  0
ARC
  8
WHITE
 10
10.285009
 20
3.016426
 30
0.000000
 40
0.089293
 50
39.424650
 51
94.566460
  6
CONTINUOUS
  0
ARC
  8
WHITE
 10
10.278840
 20
3.074931
 30
0.000000
 40
0.030518
 50
91.765108
 51
203.684869
  6
CONTINUOUS
  0
ARC
  8
WHITE
 10
5.968785
 20
-0.113949
 30
0.000000
 40
5.331732
 50
34.383192
 51
36.569347
  6
CONTINUOUS
  0
ARC
  8
WHITE
 10
9.707888
 20
2.642055
 30
0.000000
 40
0.708526
 50
-3.402375
 51
21.090506
  6
CONTINUOUS
  0
ARC
  8
WHITE
 10
11.067516
 20
2.580143
 30
0.000000
 40
0.652653
 50
178.256015
 51
183.738820
  6
CONTINUOUS
  0
ARC
  8
WHITE
 10
10.591140
 20
2.548819
 30
0.000000
 40
0.175248
 50
-176.324478
 51
-165.136829
  6
CONTINUOUS
  0
ARC
  8
WHITE
 10
10.440385
 20
2.505107
 30
0.000000
 40
0.018672
 50
-176.187853
 51
-99.330132
  6
CONTINUOUS
  0
ARC
  8
WHITE
 10
10.771998
 20
6.495964
 30
0.000000
 40
0.225804
 50
-105.801026
 51
-67.987367
  6
CONTINUOUS
  0
LINE
  8
WHITE
 10
10.856632
 20
6.286621
 30
0.000000
 11
11.103110
 21
6.371732
 31
0.000000
  6
CONTINUOUS
  0
ARC
  8
WHITE
 10
11.258096
 20
5.897333
 30
0.000000
 40
0.499074
 50
96.864955
 51
108.092198
  6
CONTINUOUS
  0
ARC
  8
WHITE
 10
11.184195
 20
6.467303
 30
0.000000
 40
0.075824
 50
-79.170107
 51
-46.972986
  6
CONTINUOUS
  0
ARC
  8
WHITE
 10
11.199830
 20
6.429284
 30
0.000000
 40
0.040081
 50
-25.745316
 51
88.354052
  6
CONTINUOUS
  0
ARC
  8
WHITE
 10
11.237842
 20
6.026948
 30
0.000000
 40
0.443933
 50
94.762875
 51
112.879943
  6
CONTINUOUS
  0
ARC
  8
WHITE
 10
10.436744
 20
7.899237
 30
0.000000
 40
1.592547
 50
-74.333812
 51
-66.755957
  6
CONTINUOUS
  0
ARC
  8
WHITE
 10
10.664784
 20
7.031167
 30
0.000000
 40
0.695304
 50
-81.777138
 51
-73.110983
  6
CONTINUOUS
  0
ARC
  8
WHITE
 10
10.758662
 20
6.281358
 30
0.000000
 40
0.061903
 50
84.840180
 51
133.554258
  6
CONTINUOUS
  0
ARC
  8
WHITE
 10
10.742115
 20
6.299121
 30
0.000000
 40
0.037630
 50
133.931046
 51
212.879244
  6
CONTINUOUS
  0
ARC
  8
WHITE
 10
8.482420
 20
12.230921
 30
0.000000
 40
0.750318
 50
-94.634899
 51
-88.129422
  6
CONTINUOUS
  0
ARC
  8
WHITE
 10
8.522961
 20
11.673352
 30
0.000000
 40
0.193018
 50
-94.769577
 51
-71.113399
  6
CONTINUOUS
  0
ARC
  8
WHITE
 10
8.571920
 20
11.511921
 30
0.000000
 40
0.025140
 50
-57.466545
 51
28.044749
  6
CONTINUOUS
  0
ARC
  8
WHITE
 10
8.556446
 20
11.496804
 30
0.000000
 40
0.046304
 50
35.573286
 51
80.288326
  6
CONTINUOUS
  0
ARC
  8
WHITE
 10
8.415455
 20
10.762883
 30
0.000000
 40
0.793636
 50
79.193424
 51
89.325201
  6
CONTINUOUS
  0
ARC
  8
WHITE
 10
8.509377
 20
12.465629
 30
0.000000
 40
0.913091
 50
-103.020703
 51
-95.314647
  6
CONTINUOUS
  0
ARC
  8
WHITE
 10
6.469709
 20
2.060934
 30
0.000000
 40
9.690206
 50
79.090536
 51
80.362961
  6
CONTINUOUS
  0
ARC
  8
WHITE
 10
8.135555
 20
12.205195
 30
0.000000
 40
0.592412
 50
-102.003986
 51
-94.225112
  6
CONTINUOUS
  0
ARC
  8
WHITE
 10
7.937717
 20
11.458466
 30
0.000000
 40
0.183164
 50
65.955885
 51
76.997220
  6
CONTINUOUS
  0
ARC
  8
WHITE
 10
7.971211
 20
11.627351
 30
0.000000
 40
0.012305
 50
51.154668
 51
206.058577
  6
CONTINUOUS
  0
ARC
  8
WHITE
 10
8.015957
 20
11.635853
 30
0.000000
 40
0.057507
 50
-166.004908
 51
-104.125032
  6
CONTINUOUS
  0
ARC
  8
WHITE
 10
8.106027
 20
11.889153
 30
0.000000
 40
0.326130
 50
-108.615145
 51
-89.531519
  6
CONTINUOUS
  0
ARC
  8
WHITE
 10
8.052414
 20
10.773005
 30
0.000000
 40
0.792031
 50
74.140105
 51
85.925283
  6
CONTINUOUS
  0
ARC
  8
WHITE
 10
8.457726
 20
11.840612
 30
0.000000
 40
0.359357
 50
-121.705505
 51
-95.739261
  6
CONTINUOUS
  0
ARC
  8
WHITE
 10
7.122742
 20
10.094754
 30
0.000000
 40
0.245979
 50
-99.010211
 51
-55.028151
  6
CONTINUOUS
  0
ARC
  8
WHITE
 10
7.229359
 20
9.947441
 30
0.000000
 40
0.064223
 50
-57.642688
 51
5.339560
  6
CONTINUOUS
  0
ARC
  8
WHITE
 10
7.255305
 20
9.948570
 30
0.000000
 40
0.038306
 50
7.269989
 51
100.604902
  6
CONTINUOUS
  0
LINE
  8
WHITE
 10
7.248255
 20
9.986222
 30
0.000000
 11
7.140467
 21
9.976752
 31
0.000000
  6
CONTINUOUS
  0
ARC
  8
WHITE
 10
7.138955
 20
10.397443
 30
0.000000
 40
0.420694
 50
-95.331303
 51
-89.794075
  6
CONTINUOUS
  0
ARC
  8
WHITE
 10
7.120204
 20
10.044466
 30
0.000000
 40
0.068964
 50
-136.613943
 51
-107.151621
  6
CONTINUOUS
  0
ARC
  8
WHITE
 10
7.043404
 20
9.982780
 30
0.000000
 40
0.030279
 50
28.213301
 51
146.212664
  6
CONTINUOUS
  0
ARC
  8
WHITE
 10
7.132721
 20
9.952393
 30
0.000000
 40
0.123840
 50
157.583148
 51
200.614625
  6
CONTINUOUS
  0
ARC
  8
WHITE
 10
7.094716
 20
9.932591
 30
0.000000
 40
0.081460
 50
-163.012403
 51
-97.403700
  6
CONTINUOUS
  0
ARC
  8
WHITE
 10
2.995235
 20
11.267468
 30
0.000000
 40
0.081899
 50
-56.967062
 51
-27.712797
  6
CONTINUOUS
  0
ARC
  8
WHITE
 10
2.143332
 20
11.797913
 30
0.000000
 40
1.085245
 50
-31.592450
 51
-23.263425
  6
CONTINUOUS
  0
ARC
  8
WHITE
 10
3.076527
 20
11.445953
 30
0.000000
 40
0.099754
 50
-50.225653
 51
-16.332372
  6
CONTINUOUS
  0
ARC
  8
WHITE
 10
3.127568
 20
11.445180
 30
0.000000
 40
0.052356
 50
-31.401215
 51
24.855475
  6
CONTINUOUS
  0
ARC
  8
WHITE
 10
3.158318
 20
11.457326
 30
0.000000
 40
0.019441
 50
30.476466
 51
165.626270
  6
CONTINUOUS
  0
ARC
  8
WHITE
 10
3.449172
 20
11.258485
 30
0.000000
 40
0.370656
 50
146.668840
 51
158.918601
  6
CONTINUOUS
  0
ARC
  8
WHITE
 10
2.788845
 20
11.542934
 30
0.000000
 40
0.348907
 50
-45.166947
 51
-25.667126
  6
CONTINUOUS
  0
ARC
  8
WHITE
 10
3.082965
 20
11.240822
 30
0.000000
 40
0.072842
 50
131.352088
 51
178.034540
  6
CONTINUOUS
  0
ARC
  8
WHITE
 10
3.048573
 20
11.236784
 30
0.000000
 40
0.038959
 50
170.341734
 51
257.106709
  6
CONTINUOUS
  0
ARC
  8
WHITE
 10
13.085519
 20
2.401877
 30
0.000000
 40
0.203730
 50
18.167279
 51
52.613180
  6
CONTINUOUS
  0
ARC
  8
WHITE
 10
13.102229
 20
2.446724
 30
0.000000
 40
0.158566
 50
47.564552
 51
64.198837
  6
CONTINUOUS
  0
ARC
  8
WHITE
 10
13.154264
 20
2.568400
 30
0.000000
 40
0.027071
 50
51.149324
 51
136.877299
  6
CONTINUOUS
  0
ARC
  8
WHITE
 10
13.164148
 20
2.553559
 30
0.000000
 40
0.044616
 50
131.636010
 51
222.146765
  6
CONTINUOUS
  0
ARC
  8
WHITE
 10
13.166259
 20
2.566335
 30
0.000000
 40
0.055344
 50
-129.483736
 51
-75.361490
  6
CONTINUOUS
  0
ARC
  8
WHITE
 10
13.179370
 20
2.468851
 30
0.000000
 40
0.043945
 50
37.266570
 51
88.857862
  6
CONTINUOUS
  0
ARC
  8
WHITE
 10
13.570838
 20
2.647066
 30
0.000000
 40
0.387393
 50
-156.961741
 51
-148.179750
  6
CONTINUOUS
  0
ARC
  8
WHITE
 10
13.257448
 20
2.458962
 30
0.000000
 40
0.022581
 50
-134.333147
 51
16.559128
  6
CONTINUOUS
  0
ARC
  8
WHITE
 10
8.874170
 20
15.334138
 30
0.000000
 40
0.299244
 50
-16.197625
 51
-3.811730
  6
CONTINUOUS
  0
ARC
  8
WHITE
 10
9.138049
 20
15.322442
 30
0.000000
 40
0.035658
 50
-13.290219
 51
62.904140
  6
CONTINUOUS
  0
ARC
  8
WHITE
 10
9.163254
 20
15.318983
 30
0.000000
 40
0.036327
 50
104.284534
 51
178.652287
  6
CONTINUOUS
  0
ARC
  8
WHITE
 10
9.315599
 20
15.346412
 30
0.000000
 40
0.190524
 50
-171.982147
 51
-162.350431
  6
CONTINUOUS
  0
ARC
  8
WHITE
 10
9.354344
 20
15.306975
 30
0.000000
 40
0.221061
 50
-175.244056
 51
-164.305849
  6
CONTINUOUS
  0
ARC
  8
WHITE
 10
9.150507
 20
15.254792
 30
0.000000
 40
0.011776
 50
-139.713101
 51
-20.523171
  6
CONTINUOUS
  0
ENDSEC
  0
EOF
