  0
SECTION
  2
HEADER
  9
$ACADVER
  1
AC1009
  9
$LIMMIN
 10
0.000000
 20
0.000000
  9
$LIMMAX
 10
14.433498
 20
14.472352
  0
ENDSEC
  0
SECTION
  2
TABLES
  0
TABLE
  2
LTYPE
 70
     4
  0
LTYPE
  2
CONTINUOUS
 70
     0
  3
Solid line
 72
     65
 73
     0
 40
0.000000
  0
LTYPE
  2
HIDDEN
 70
     0
  3
 _ _ _ _ _ _ _ _ _ _ _
 72
     65
 73
     2
 40
0.375000
 49
0.250000
 49
-0.125000
  0
LTYPE
  2
DASHED
 70
     0
  3
 ___ ___ ___ ___ ___ ___ ___ 
 72
     65
 73
     2
 40
0.750000
 49
0.500000
 49
-0.250000
  0
LTYPE
  2
CENTER
 70
     0
  3
___ _ ___ _ ___ _ ___
 72
     65
 73
     4
 40
2.000000
 49
1.250000
 49
-0.250000
 49
0.250000
 49
-0.250000
  0
LTYPE
  2
BORDER
 70
     0
  3
___ ___ . ___ ___ . ___ ___
 72
     65
 73
     6
 40
1.750000
 49
0.500000
 49
-0.250000
 49
0.500000
 49
-0.250000
 49
0.000000
 49
-0.250000
  0
LTYPE
  2
DOT
 70
     0
  3
.................
 72
     65
 73
     2
 40
0.250000
 49
0.000000
 49
-0.250000
  0
LTYPE
  2
DASHDOT
 70
     0
  3
__ . __ . __ . __
 72
     65
 73
     4
 40
1.000000
 49
0.500000
 49
-0.250000
 49
0.000000
 49
-0.250000
  0
LTYPE
  2
DIVIDE
 70
     0
  3
___ .. ___ .. ___ .. ___
 72
     65
 73
     6
 40
1.250000
 49
0.500000
 49
-0.250000
 49
0.000000
 49
-0.250000
 49
0.000000
 49
-0.250000
  0
ENDTAB
  0
TABLE
  2
LAYER
 70
     8
  0
LAYER
  2
BLACK
 70
     0
 62
     1
  6
CONTINUOUS
  0
LAYER
  2
WHITE
 70
     0
 62
     7
  6
CONTINUOUS
  0
LAYER
  2
RED
 70
     0
 62
     1
  6
CONTINUOUS
  0
LAYER
  2
YELLOW
 70
     0
 62
     2
  6
CONTINUOUS
  0
LAYER
  2
GREEN
 70
     0
 62
     3
  6
CONTINUOUS
  0
LAYER
  2
CYAN
 70
     0
 62
     4
  6
CONTINUOUS
  0
LAYER
  2
BLUE
 70
     0
 62
     5
  6
CONTINUOUS
  0
LAYER
  2
MAGENTA
 70
     0
 62
     6
  6
CONTINUOUS
  0
ENDTAB
  0
TABLE
  2
APPID
 70
     1
  0
APPID
  2
TC_BEND_DATA
 70
     0
  0
ENDTAB
  0
ENDSEC
  0
SECTION
  2
BLOCKS
  0
ENDSEC
  0
SECTION
  2
ENTITIES
  0
LINE
  8
WHITE
 10
14.433498
 20
14.472352
 30
0.000000
 11
0.000000
 21
14.472352
 31
0.000000
  6
CONTINUOUS
  0
LINE
  8
WHITE
 10
0.000000
 20
14.472352
 30
0.000000
 11
0.000000
 21
0.000000
 31
0.000000
  6
CONTINUOUS
  0
LINE
  8
WHITE
 10
0.000000
 20
0.000000
 30
0.000000
 11
14.433498
 21
0.000000
 31
0.000000
  6
CONTINUOUS
  0
LINE
  8
WHITE
 10
14.433498
 20
0.000000
 30
0.000000
 11
14.433498
 21
14.472352
 31
0.000000
  6
CONTINUOUS
  0
ARC
  8
WHITE
 10
10.955961
 20
6.173956
 30
0.000000
 40
2.024229
 50
151.901083
 51
160.438984
  6
CONTINUOUS
  0
ARC
  8
WHITE
 10
7.719723
 20
7.139253
 30
0.000000
 40
1.359596
 50
-24.119996
 51
-12.210649
  6
CONTINUOUS
  0
ARC
  8
WHITE
 10
17.658270
 20
2.002041
 30
0.000000
 40
9.830586
 50
152.221341
 51
155.312567
  6
CONTINUOUS
  0
ARC
  8
WHITE
 10
8.093202
 20
6.366973
 30
0.000000
 40
0.683943
 50
-41.692488
 51
-22.253569
  6
CONTINUOUS
  0
ARC
  8
WHITE
 10
13.331087
 20
1.068712
 30
0.000000
 40
6.767876
 50
134.304500
 51
136.144628
  6
CONTINUOUS
  0
ARC
  8
WHITE
 10
8.575520
 20
5.654204
 30
0.000000
 40
0.162089
 50
140.286906
 51
212.226414
  6
CONTINUOUS
  0
ARC
  8
WHITE
 10
6.986301
 20
4.731959
 30
0.000000
 40
1.675461
 50
16.853810
 51
29.924125
  6
CONTINUOUS
  0
ARC
  8
WHITE
 10
11.566206
 20
5.857407
 30
0.000000
 40
3.044371
 50
-167.870678
 51
-161.578808
  6
CONTINUOUS
  0
ARC
  8
WHITE
 10
4.038817
 20
2.542165
 30
0.000000
 40
5.201740
 50
23.673313
 51
26.897204
  6
CONTINUOUS
  0
ARC
  8
WHITE
 10
7.596945
 20
4.129468
 30
0.000000
 40
1.305935
 50
0.098474
 51
22.573447
  6
CONTINUOUS
  0
ARC
  8
WHITE
 10
7.869381
 20
4.187976
 30
0.000000
 40
1.035026
 50
-24.379152
 51
-3.116085
  6
CONTINUOUS
  0
ARC
  8
WHITE
 10
15.984131
 20
0.384590
 30
0.000000
 40
7.926928
 50
154.791748
 51
158.956747
  6
CONTINUOUS
  0
ARC
  8
WHITE
 10
15.297464
 20
0.984932
 30
0.000000
 40
7.077446
 50
161.497494
 51
166.164084
  6
CONTINUOUS
  0
ARC
  8
WHITE
 10
8.705629
 20
3.132711
 30
0.000000
 40
0.534610
 50
-121.616100
 51
-101.359636
  6
CONTINUOUS
  0
ARC
  8
WHITE
 10
8.764084
 20
3.948081
 30
0.000000
 40
1.349479
 50
-96.969844
 51
-89.447462
  6
CONTINUOUS
  0
ARC
  8
WHITE
 10
8.803251
 20
1.934500
 30
0.000000
 40
0.664680
 50
77.942961
 51
92.254972
  6
CONTINUOUS
  0
ARC
  8
WHITE
 10
9.305796
 20
4.094654
 30
0.000000
 40
1.553317
 50
-103.541322
 51
-97.792199
  6
CONTINUOUS
  0
ARC
  8
WHITE
 10
9.072396
 20
3.084286
 30
0.000000
 40
0.529099
 50
-87.530152
 51
-55.949056
  6
CONTINUOUS
  0
ARC
  8
WHITE
 10
9.984579
 20
1.611365
 30
0.000000
 40
1.204010
 50
108.603990
 51
120.767874
  6
CONTINUOUS
  0
ARC
  8
WHITE
 10
8.949353
 20
5.246202
 30
0.000000
 40
2.577343
 50
-75.366769
 51
-65.418859
  6
CONTINUOUS
  0
ARC
  8
WHITE
 10
10.807805
 20
1.311572
 30
0.000000
 40
1.774585
 50
105.464567
 51
116.302040
  6
CONTINUOUS
  0
ARC
  8
WHITE
 10
10.492755
 20
2.374635
 30
0.000000
 40
0.666310
 50
60.420688
 51
103.728549
  6
CONTINUOUS
  0
ARC
  8
WHITE
 10
11.067038
 20
3.417144
 30
0.000000
 40
0.524033
 50
-117.920143
 51
-90.408541
  6
CONTINUOUS
  0
ARC
  8
WHITE
 10
11.048492
 20
3.410766
 30
0.000000
 40
0.517854
 50
-88.361228
 51
-74.448918
  6
CONTINUOUS
  0
ARC
  8
WHITE
 10
11.276886
 20
2.649641
 30
0.000000
 40
0.277100
 50
82.970756
 51
108.856578
  6
CONTINUOUS
  0
LINE
  8
WHITE
 10
11.310796
 20
2.924659
 30
0.000000
 11
11.322007
 21
2.911478
 31
0.000000
  6
CONTINUOUS
  0
ARC
  8
WHITE
 10
10.943183
 20
2.870807
 30
0.000000
 40
0.381002
 50
-5.289936
 51
6.127965
  6
CONTINUOUS
  0
ARC
  8
WHITE
 10
11.483343
 20
2.867378
 30
0.000000
 40
0.163876
 50
-168.847071
 51
-117.771455
  6
CONTINUOUS
  0
ARC
  8
WHITE
 10
11.851343
 20
3.385965
 30
0.000000
 40
0.798625
 50
-123.807409
 51
-104.030169
  6
CONTINUOUS
  0
ARC
  8
WHITE
 10
12.128469
 20
6.088476
 30
0.000000
 40
3.509029
 50
-97.709517
 51
-89.836020
  6
CONTINUOUS
  0
ARC
  8
WHITE
 10
12.135391
 20
1.360164
 30
0.000000
 40
1.219302
 50
55.841684
 51
89.853358
  6
CONTINUOUS
  0
ARC
  8
WHITE
 10
13.515754
 20
3.497421
 30
0.000000
 40
1.325564
 50
-121.659407
 51
-106.020475
  6
CONTINUOUS
  0
ARC
  8
WHITE
 10
13.467780
 20
3.003025
 30
0.000000
 40
0.841989
 50
-112.179300
 51
-87.563050
  6
CONTINUOUS
  0
LINE
  8
WHITE
 10
13.503581
 20
2.161797
 30
0.000000
 11
13.503581
 21
9.236356
 31
0.000000
  6
CONTINUOUS
  0
ARC
  8
WHITE
 10
13.229045
 20
7.636642
 30
0.000000
 40
1.623101
 50
80.262019
 51
92.373896
  6
CONTINUOUS
  0
ARC
  8
WHITE
 10
13.072861
 20
15.935256
 30
0.000000
 40
6.677498
 50
-94.386594
 51
-89.236703
  6
CONTINUOUS
  0
ARC
  8
WHITE
 10
12.421915
 20
8.259594
 30
0.000000
 40
1.027337
 50
82.155707
 51
107.238523
  6
CONTINUOUS
  0
ARC
  8
WHITE
 10
11.870530
 20
9.889106
 30
0.000000
 40
0.693758
 50
-97.042369
 51
-69.149228
  6
CONTINUOUS
  0
ARC
  8
WHITE
 10
11.774194
 20
8.159859
 30
0.000000
 40
1.040784
 50
89.379047
 51
103.310822
  6
CONTINUOUS
  0
ARC
  8
WHITE
 10
11.359326
 20
9.909781
 30
0.000000
 40
0.757644
 50
-105.322304
 51
-76.626231
  6
CONTINUOUS
  0
ARC
  8
WHITE
 10
10.510913
 20
7.275588
 30
0.000000
 40
2.010823
 50
71.194361
 51
82.018750
  6
CONTINUOUS
  0
ARC
  8
WHITE
 10
14.556707
 20
11.799168
 30
0.000000
 40
4.538660
 50
-146.087537
 51
-140.578847
  6
CONTINUOUS
  0
ARC
  8
WHITE
 10
27.894112
 20
19.118813
 30
0.000000
 40
19.692132
 50
-148.797587
 51
-148.202694
  6
CONTINUOUS
  0
ARC
  8
WHITE
 10
11.688082
 20
9.154413
 30
0.000000
 40
0.671633
 50
-142.194847
 51
-125.292910
  6
CONTINUOUS
  0
ARC
  8
WHITE
 10
6.415657
 20
1.616583
 30
0.000000
 40
8.527147
 50
52.474619
 51
55.054006
  6
CONTINUOUS
  0
ARC
  8
WHITE
 10
11.103087
 20
7.690008
 30
0.000000
 40
0.855431
 50
29.583738
 51
53.688556
  6
CONTINUOUS
  0
ARC
  8
WHITE
 10
11.415489
 20
7.937917
 30
0.000000
 40
0.465427
 50
1.264956
 51
22.008145
  6
CONTINUOUS
  0
ARC
  8
WHITE
 10
13.605855
 20
7.925659
 30
0.000000
 40
1.725200
 50
179.251636
 51
190.103930
  6
CONTINUOUS
  0
ARC
  8
WHITE
 10
11.585596
 20
7.532043
 30
0.000000
 40
0.334421
 50
-36.706171
 51
15.782350
  6
CONTINUOUS
  0
ARC
  8
WHITE
 10
11.683193
 20
7.454672
 30
0.000000
 40
0.209964
 50
-74.873077
 51
-35.697930
  6
CONTINUOUS
  0
ARC
  8
WHITE
 10
11.600718
 20
8.451068
 30
0.000000
 40
1.206916
 50
-96.659055
 51
-83.469425
  6
CONTINUOUS
  0
ARC
  8
WHITE
 10
11.679494
 20
13.533311
 30
0.000000
 40
6.284825
 50
-94.369120
 51
-91.994475
  6
CONTINUOUS
  0
ARC
  8
WHITE
 10
11.268567
 20
7.499525
 30
0.000000
 40
0.242465
 50
-163.690789
 51
-106.252952
  6
CONTINUOUS
  0
ARC
  8
WHITE
 10
10.783464
 20
7.346904
 30
0.000000
 40
0.266175
 50
18.516659
 51
67.850088
  6
CONTINUOUS
  0
ARC
  8
WHITE
 10
10.584568
 20
7.212382
 30
0.000000
 40
0.484513
 50
51.856411
 51
77.182368
  6
CONTINUOUS
  0
ARC
  8
WHITE
 10
10.717377
 20
7.484611
 30
0.000000
 40
0.201806
 50
97.208019
 51
154.314438
  6
CONTINUOUS
  0
ARC
  8
WHITE
 10
10.818360
 20
7.439322
 30
0.000000
 40
0.312453
 50
154.856470
 51
189.412072
  6
CONTINUOUS
  0
ARC
  8
WHITE
 10
10.264632
 20
7.332041
 30
0.000000
 40
0.251828
 50
-27.402150
 51
12.891517
  6
CONTINUOUS
  0
ARC
  8
WHITE
 10
9.323669
 20
8.000241
 30
0.000000
 40
1.403907
 50
-40.728557
 51
-33.952967
  6
CONTINUOUS
  0
ARC
  8
WHITE
 10
10.658987
 20
6.861769
 30
0.000000
 40
0.350938
 50
140.662367
 51
166.089517
  6
CONTINUOUS
  0
ARC
  8
WHITE
 10
11.969506
 20
6.658479
 30
0.000000
 40
1.676035
 50
170.117402
 51
175.106408
  6
CONTINUOUS
  0
ARC
  8
WHITE
 10
8.592832
 20
7.078445
 30
0.000000
 40
1.729079
 50
-18.273957
 51
-9.218252
  6
CONTINUOUS
  0
ARC
  8
WHITE
 10
10.128286
 20
6.533153
 30
0.000000
 40
0.106470
 50
-61.962982
 51
1.679712
  6
CONTINUOUS
  0
ARC
  8
WHITE
 10
10.152906
 20
6.522506
 30
0.000000
 40
0.087121
 50
-146.796552
 51
-73.032050
  6
CONTINUOUS
  0
LINE
  8
WHITE
 10
10.080009
 20
6.474797
 30
0.000000
 11
9.985941
 21
6.661849
 31
0.000000
  6
CONTINUOUS
  0
ARC
  8
WHITE
 10
10.179224
 20
6.658206
 30
0.000000
 40
0.193317
 50
151.635282
 51
178.920039
  6
CONTINUOUS
  0
ARC
  8
WHITE
 10
9.648191
 20
6.888172
 30
0.000000
 40
0.386453
 50
-20.941651
 51
30.334415
  6
CONTINUOUS
  0
ARC
  8
WHITE
 10
5.911484
 20
4.612363
 30
0.000000
 40
4.761588
 50
31.261283
 51
34.377263
  6
CONTINUOUS
  0
ARC
  8
WHITE
 10
6.706290
 20
5.401854
 30
0.000000
 40
3.665442
 50
31.205317
 51
34.241166
  6
CONTINUOUS
  0
ARC
  8
WHITE
 10
9.658072
 20
7.437635
 30
0.000000
 40
0.082771
 50
18.805215
 51
119.743171
  6
CONTINUOUS
  0
ARC
  8
WHITE
 10
9.747825
 20
7.249229
 30
0.000000
 40
0.291297
 50
116.684759
 51
138.168617
  6
CONTINUOUS
  0
ARC
  8
WHITE
 10
9.289978
 20
7.655660
 30
0.000000
 40
0.320924
 50
-70.698215
 51
-41.381277
  6
CONTINUOUS
  0
LINE
  8
WHITE
 10
9.396057
 20
7.352775
 30
0.000000
 11
9.248089
 21
7.282225
 31
0.000000
  6
CONTINUOUS
  0
LINE
  8
WHITE
 10
9.248089
 20
7.282225
 30
0.000000
 11
9.170316
 21
7.127358
 31
0.000000
  6
CONTINUOUS
  0
ARC
  8
WHITE
 10
1.823958
 20
13.802577
 30
0.000000
 40
2.546335
 50
-108.765368
 51
-97.548477
  6
CONTINUOUS
  0
ARC
  8
WHITE
 10
1.138130
 20
8.305632
 30
0.000000
 40
2.993366
 50
78.786887
 51
83.259713
  6
CONTINUOUS
  0
ARC
  8
WHITE
 10
1.613499
 20
10.521518
 30
0.000000
 40
0.728201
 50
63.756443
 51
81.572982
  6
CONTINUOUS
  0
ARC
  8
WHITE
 10
6.203286
 20
19.190608
 30
0.000000
 40
9.081269
 50
-118.031356
 51
-112.497574
  6
CONTINUOUS
  0
ARC
  8
WHITE
 10
3.019878
 20
11.655277
 30
0.000000
 40
0.903147
 50
-108.829188
 51
-84.506469
  6
CONTINUOUS
  0
ARC
  8
WHITE
 10
3.074342
 20
9.703070
 30
0.000000
 40
1.053694
 50
68.712340
 51
88.259837
  6
CONTINUOUS
  0
ARC
  8
WHITE
 10
3.959214
 20
12.192986
 30
0.000000
 40
1.589574
 50
-108.422023
 51
-96.267776
  6
CONTINUOUS
  0
ARC
  8
WHITE
 10
3.342509
 20
6.590737
 30
0.000000
 40
4.046516
 50
79.234696
 51
83.712520
  6
CONTINUOUS
  0
ARC
  8
WHITE
 10
3.934461
 20
9.739108
 30
0.000000
 40
0.843011
 50
58.645677
 51
78.790273
  6
CONTINUOUS
  0
ARC
  8
WHITE
 10
5.367822
 20
12.103340
 30
0.000000
 40
1.921791
 50
-121.171351
 51
-112.887774
  6
CONTINUOUS
  0
ARC
  8
WHITE
 10
4.152219
 20
9.065381
 30
0.000000
 40
1.351173
 50
58.678995
 51
69.727309
  6
CONTINUOUS
  0
ARC
  8
WHITE
 10
5.331721
 20
10.906919
 30
0.000000
 40
0.836652
 50
-124.769160
 51
-108.032803
  6
CONTINUOUS
  0
ARC
  8
WHITE
 10
1.760939
 20
-0.820035
 30
0.000000
 40
11.422058
 50
70.847662
 51
73.145243
  6
CONTINUOUS
  0
ARC
  8
WHITE
 10
6.034091
 20
11.226557
 30
0.000000
 40
1.362306
 50
-112.703225
 51
-95.854428
  6
CONTINUOUS
  0
ARC
  8
WHITE
 10
6.031143
 20
7.302604
 30
0.000000
 40
2.572350
 50
85.225147
 51
93.030838
  6
CONTINUOUS
  0
ARC
  8
WHITE
 10
6.114062
 20
8.454916
 30
0.000000
 40
1.417198
 50
59.866320
 51
84.687905
  6
CONTINUOUS
  0
ARC
  8
WHITE
 10
6.977260
 20
9.964298
 30
0.000000
 40
0.321738
 50
-118.139340
 51
-77.286525
  6
CONTINUOUS
  0
ARC
  8
WHITE
 10
0.157151
 20
30.257679
 30
0.000000
 40
21.728844
 50
-71.510421
 51
-70.449150
  6
CONTINUOUS
  0
ARC
  8
WHITE
 10
7.739207
 20
8.694567
 30
0.000000
 40
1.130563
 50
75.330347
 51
105.948260
  6
CONTINUOUS
  0
LINE
  8
WHITE
 10
8.025517
 20
9.788275
 30
0.000000
 11
8.324002
 21
9.743139
 31
0.000000
  6
CONTINUOUS
  0
ARC
  8
WHITE
 10
8.925074
 20
11.382624
 30
0.000000
 40
1.746195
 50
-110.134073
 51
-100.227817
  6
CONTINUOUS
  0
ARC
  8
WHITE
 10
8.613991
 20
9.684665
 30
0.000000
 40
0.020514
 50
-87.137145
 51
62.834395
  6
CONTINUOUS
  0
ARC
  8
WHITE
 10
9.875298
 20
11.564722
 30
0.000000
 40
2.243585
 50
-145.513075
 51
-123.918228
  6
CONTINUOUS
  0
ARC
  8
WHITE
 10
11.499128
 20
12.708735
 30
0.000000
 40
4.229862
 50
-149.488551
 51
-145.194521
  6
CONTINUOUS
  0
ARC
  8
WHITE
 10
8.960108
 20
11.208706
 30
0.000000
 40
1.280849
 50
-174.461655
 51
-149.633015
  6
CONTINUOUS
  0
ARC
  8
WHITE
 10
10.066920
 20
11.326342
 30
0.000000
 40
2.393870
 50
175.819858
 51
185.784072
  6
CONTINUOUS
  0
ARC
  8
WHITE
 10
9.005586
 20
11.411318
 30
0.000000
 40
1.329186
 50
149.239160
 51
176.138281
  6
CONTINUOUS
  0
ARC
  8
WHITE
 10
8.078934
 20
11.984594
 30
0.000000
 40
0.240427
 50
116.621007
 51
153.695148
  6
CONTINUOUS
  0
ARC
  8
WHITE
 10
8.011185
 20
12.126659
 30
0.000000
 40
0.083122
 50
39.395115
 51
118.751750
  6
CONTINUOUS
  0
ARC
  8
WHITE
 10
7.930172
 20
12.119198
 30
0.000000
 40
0.157236
 50
-41.483868
 51
22.517240
  6
CONTINUOUS
  0
ARC
  8
WHITE
 10
8.364145
 20
11.824689
 30
0.000000
 40
0.369060
 50
148.950134
 51
176.031015
  6
CONTINUOUS
  0
LINE
  8
WHITE
 10
7.995970
 20
11.850234
 30
0.000000
 11
8.006869
 21
11.844842
 31
0.000000
  6
CONTINUOUS
  0
ARC
  8
WHITE
 10
7.802734
 20
12.394819
 30
0.000000
 40
0.586640
 50
-69.636588
 51
-62.540441
  6
CONTINUOUS
  0
ARC
  8
WHITE
 10
8.105318
 20
11.834412
 30
0.000000
 40
0.051161
 50
48.283502
 51
128.819898
  6
CONTINUOUS
  0
ARC
  8
WHITE
 10
7.838155
 20
11.753894
 30
0.000000
 40
0.323755
 50
6.307949
 51
21.509450
  6
CONTINUOUS
  0
ARC
  8
WHITE
 10
8.306962
 20
11.806183
 30
0.000000
 40
0.147960
 50
-173.512807
 51
-148.592887
  6
CONTINUOUS
  0
ARC
  8
WHITE
 10
8.066560
 20
11.640575
 30
0.000000
 40
0.144417
 50
-0.672461
 51
37.794572
  6
CONTINUOUS
  0
ARC
  8
WHITE
 10
9.193486
 20
11.687921
 30
0.000000
 40
0.983742
 50
-177.142528
 51
-171.522249
  6
CONTINUOUS
  0
LINE
  8
WHITE
 10
8.220494
 20
11.542893
 30
0.000000
 11
8.229752
 21
11.537220
 31
0.000000
  6
CONTINUOUS
  0
ARC
  8
WHITE
 10
8.075215
 20
11.707236
 30
0.000000
 40
0.229755
 50
-47.730526
 51
-12.719856
  6
CONTINUOUS
  0
ARC
  8
WHITE
 10
8.401563
 20
11.607815
 30
0.000000
 40
0.113296
 50
101.410911
 51
154.467792
  6
CONTINUOUS
  0
ARC
  8
WHITE
 10
8.366327
 20
11.662318
 30
0.000000
 40
0.057988
 50
-0.258813
 51
77.226179
  6
CONTINUOUS
  0
ARC
  8
WHITE
 10
8.066255
 20
11.636512
 30
0.000000
 40
0.358970
 50
-14.833397
 51
4.080549
  6
CONTINUOUS
  0
ARC
  8
WHITE
 10
8.701361
 20
11.438826
 30
0.000000
 40
0.306907
 50
159.837353
 51
181.837684
  6
CONTINUOUS
  0
LINE
  8
WHITE
 10
8.394612
 20
11.428984
 30
0.000000
 11
8.405875
 21
11.424358
 31
0.000000
  6
CONTINUOUS
  0
ARC
  8
WHITE
 10
8.455852
 20
11.310565
 30
0.000000
 40
0.124284
 50
60.904679
 51
113.710640
  6
CONTINUOUS
  0
ARC
  8
WHITE
 10
8.468058
 20
11.343202
 30
0.000000
 40
0.089981
 50
3.040910
 51
57.588971
  6
CONTINUOUS
  0
ARC
  8
WHITE
 10
7.029851
 20
11.652304
 30
0.000000
 40
1.558071
 50
-15.984221
 51
-11.263634
  6
CONTINUOUS
  0
ARC
  8
WHITE
 10
8.644247
 20
11.212985
 30
0.000000
 40
0.117014
 50
174.965775
 51
237.080097
  6
CONTINUOUS
  0
ARC
  8
WHITE
 10
8.460366
 20
11.177515
 30
0.000000
 40
0.135673
 50
-27.551391
 51
0.047967
  6
CONTINUOUS
  0
ARC
  8
WHITE
 10
8.846092
 20
11.154800
 30
0.000000
 40
0.251093
 50
148.368846
 51
174.783641
  6
CONTINUOUS
  0
ARC
  8
WHITE
 10
9.658197
 20
10.860043
 30
0.000000
 40
1.110997
 50
148.505376
 51
157.428447
  6
CONTINUOUS
  0
ARC
  8
WHITE
 10
8.798665
 20
11.372007
 30
0.000000
 40
0.111328
 50
97.281936
 51
142.063875
  6
CONTINUOUS
  0
ARC
  8
WHITE
 10
8.804840
 20
11.430116
 30
0.000000
 40
0.056115
 50
23.482853
 51
111.192281
  6
CONTINUOUS
  0
ARC
  8
WHITE
 10
8.611781
 20
11.448724
 30
0.000000
 40
0.244555
 50
-21.566821
 51
0.879338
  6
CONTINUOUS
  0
ARC
  8
WHITE
 10
10.560545
 20
10.749743
 30
0.000000
 40
1.825914
 50
160.513878
 51
165.782861
  6
CONTINUOUS
  0
ARC
  8
WHITE
 10
9.390939
 20
11.125217
 30
0.000000
 40
0.604802
 50
173.070757
 51
196.923212
  6
CONTINUOUS
  0
LINE
  8
WHITE
 10
8.812328
 20
10.949165
 30
0.000000
 11
8.820988
 21
10.823759
 31
0.000000
  6
CONTINUOUS
  0
ARC
  8
WHITE
 10
8.896489
 20
10.844820
 30
0.000000
 40
0.078383
 50
-164.413369
 51
-73.732227
  6
CONTINUOUS
  0
LINE
  8
WHITE
 10
8.918446
 20
10.769575
 30
0.000000
 11
8.935122
 21
10.787233
 31
0.000000
  6
CONTINUOUS
  0
ARC
  8
WHITE
 10
8.547829
 20
10.856730
 30
0.000000
 40
0.393479
 50
-10.173055
 51
6.253455
  6
CONTINUOUS
  0
ARC
  8
WHITE
 10
9.708226
 20
10.859197
 30
0.000000
 40
0.770319
 50
161.261032
 51
176.994203
  6
CONTINUOUS
  0
ARC
  8
WHITE
 10
8.341359
 20
11.308158
 30
0.000000
 40
0.668471
 50
-17.542895
 51
-1.659728
  6
CONTINUOUS
  0
ARC
  8
WHITE
 10
9.265792
 20
11.296478
 30
0.000000
 40
0.256358
 50
163.595487
 51
181.716961
  6
CONTINUOUS
  0
ARC
  8
WHITE
 10
9.097863
 20
11.325997
 30
0.000000
 40
0.089004
 50
54.078105
 51
151.197756
  6
CONTINUOUS
  0
ARC
  8
WHITE
 10
9.110437
 20
11.341678
 30
0.000000
 40
0.068936
 50
-0.734994
 51
54.894404
  6
CONTINUOUS
  0
ARC
  8
WHITE
 10
10.598140
 20
11.118744
 30
0.000000
 40
1.436045
 50
171.104886
 51
181.047157
  6
CONTINUOUS
  0
ARC
  8
WHITE
 10
7.915647
 20
11.182292
 30
0.000000
 40
1.249918
 50
-12.688579
 51
-4.119610
  6
CONTINUOUS
  0
ARC
  8
WHITE
 10
9.774311
 20
10.732725
 30
0.000000
 40
0.662797
 50
164.688687
 51
188.961535
  6
CONTINUOUS
  0
ARC
  8
WHITE
 10
9.285411
 20
10.614494
 30
0.000000
 40
0.166482
 50
174.835519
 51
222.898117
  6
CONTINUOUS
  0
ARC
  8
WHITE
 10
9.243321
 20
10.600145
 30
0.000000
 40
0.127181
 50
-128.902111
 51
-97.247656
  6
CONTINUOUS
  0
ARC
  8
WHITE
 10
9.244084
 20
10.527850
 30
0.000000
 40
0.056431
 50
-107.329228
 51
-35.815226
  6
CONTINUOUS
  0
ARC
  8
WHITE
 10
8.927915
 20
10.580855
 30
0.000000
 40
0.372013
 50
-13.370520
 51
8.029763
  6
CONTINUOUS
  0
ARC
  8
WHITE
 10
10.145380
 20
10.682882
 30
0.000000
 40
0.850574
 50
166.948972
 51
183.374155
  6
CONTINUOUS
  0
ARC
  8
WHITE
 10
8.495872
 20
10.934261
 30
0.000000
 40
0.823045
 50
-4.132003
 51
8.612524
  6
CONTINUOUS
  0
ARC
  8
WHITE
 10
34.480147
 20
13.434458
 30
0.000000
 40
25.282495
 50
-175.227740
 51
-174.605345
  6
CONTINUOUS
  0
ARC
  8
WHITE
 10
9.657677
 20
11.382276
 30
0.000000
 40
0.375881
 50
146.155458
 51
187.829550
  6
CONTINUOUS
  0
LINE
  8
WHITE
 10
9.345489
 20
11.591620
 30
0.000000
 11
9.357100
 21
11.595277
 31
0.000000
  6
CONTINUOUS
  0
ARC
  8
WHITE
 10
9.115427
 20
11.415360
 30
0.000000
 40
0.301290
 50
14.016495
 51
36.666424
  6
CONTINUOUS
  0
ARC
  8
WHITE
 10
9.658470
 20
11.566166
 30
0.000000
 40
0.262526
 50
-162.753744
 51
-136.725416
  6
CONTINUOUS
  0
LINE
  8
WHITE
 10
9.467331
 20
11.386206
 30
0.000000
 11
9.473884
 21
11.393689
 31
0.000000
  6
CONTINUOUS
  0
ARC
  8
WHITE
 10
7.666999
 20
11.476554
 30
0.000000
 40
1.808784
 50
-2.625781
 51
4.820127
  6
CONTINUOUS
  0
ARC
  8
WHITE
 10
9.753499
 20
11.619831
 30
0.000000
 40
0.284247
 50
142.701921
 51
178.243774
  6
CONTINUOUS
  0
LINE
  8
WHITE
 10
9.527382
 20
11.792074
 30
0.000000
 11
9.626049
 21
12.037529
 31
0.000000
  6
CONTINUOUS
  0
ARC
  8
WHITE
 10
10.412546
 20
11.634377
 30
0.000000
 40
0.883804
 50
144.273964
 51
152.860703
  6
CONTINUOUS
  0
ARC
  8
WHITE
 10
9.883758
 20
12.018875
 30
0.000000
 40
0.230037
 50
112.444480
 51
145.115203
  6
CONTINUOUS
  0
LINE
  8
WHITE
 10
9.795933
 20
12.231486
 30
0.000000
 11
9.815104
 21
12.218407
 31
0.000000
  6
CONTINUOUS
  0
ARC
  8
WHITE
 10
9.569866
 20
12.120343
 30
0.000000
 40
0.264118
 50
-20.020734
 51
21.795157
  6
CONTINUOUS
  0
ARC
  8
WHITE
 10
10.028066
 20
11.932120
 30
0.000000
 40
0.231695
 50
155.032484
 51
202.779428
  6
CONTINUOUS
  0
LINE
  8
WHITE
 10
9.814442
 20
11.842411
 30
0.000000
 11
9.832927
 21
11.830731
 31
0.000000
  6
CONTINUOUS
  0
ARC
  8
WHITE
 10
9.802782
 20
11.961241
 30
0.000000
 40
0.133947
 50
-76.994236
 51
-38.963163
  6
CONTINUOUS
  0
ARC
  8
WHITE
 10
9.940831
 20
11.844318
 30
0.000000
 40
0.047096
 50
41.742609
 51
136.035589
  6
CONTINUOUS
  0
ARC
  8
WHITE
 10
9.887910
 20
11.778129
 30
0.000000
 40
0.131416
 50
-11.111579
 51
47.924728
  6
CONTINUOUS
  0
ARC
  8
WHITE
 10
10.330595
 20
11.675349
 30
0.000000
 40
0.323153
 50
166.132263
 51
202.369575
  6
CONTINUOUS
  0
ARC
  8
WHITE
 10
9.857960
 20
11.443274
 30
0.000000
 40
0.205199
 50
3.584673
 51
32.115227
  6
CONTINUOUS
  0
ARC
  8
WHITE
 10
10.604524
 20
11.318185
 30
0.000000
 40
0.559046
 50
165.717383
 51
176.183058
  6
CONTINUOUS
  0
LINE
  8
WHITE
 10
10.046718
 20
11.355400
 30
0.000000
 11
10.056255
 21
11.342033
 31
0.000000
  6
CONTINUOUS
  0
ARC
  8
WHITE
 10
10.081641
 20
11.390075
 30
0.000000
 40
0.054337
 50
-117.853475
 51
-34.748576
  6
CONTINUOUS
  0
ARC
  8
WHITE
 10
8.889679
 20
11.837931
 30
0.000000
 40
1.326075
 50
-21.166879
 51
-17.984581
  6
CONTINUOUS
  0
ARC
  8
WHITE
 10
10.223078
 20
11.415285
 30
0.000000
 40
0.073315
 50
115.436687
 51
169.623014
  6
CONTINUOUS
  0
ARC
  8
WHITE
 10
10.147835
 20
11.585279
 30
0.000000
 40
0.112632
 50
-67.141094
 51
-1.334730
  6
CONTINUOUS
  0
ARC
  8
WHITE
 10
10.576859
 20
11.562546
 30
0.000000
 40
0.317061
 50
155.933031
 51
176.363690
  6
CONTINUOUS
  0
ARC
  8
WHITE
 10
10.197323
 20
11.755186
 30
0.000000
 40
0.110085
 50
-35.126240
 51
16.706996
  6
CONTINUOUS
  0
ARC
  8
WHITE
 10
11.917492
 20
11.865919
 30
0.000000
 40
1.616667
 50
158.184921
 51
182.803992
  6
CONTINUOUS
  0
LINE
  8
WHITE
 10
10.416598
 20
12.466692
 30
0.000000
 11
10.387709
 21
12.479159
 31
0.000000
  6
CONTINUOUS
  0
LINE
  8
WHITE
 10
10.387709
 20
12.479159
 30
0.000000
 11
10.305127
 21
12.482600
 31
0.000000
  6
CONTINUOUS
  0
LINE
  8
WHITE
 10
10.305127
 20
12.482600
 30
0.000000
 11
10.168990
 21
12.459308
 31
0.000000
  6
CONTINUOUS
  0
LINE
  8
WHITE
 10
10.168990
 20
12.459308
 30
0.000000
 11
10.108302
 21
12.458188
 31
0.000000
  6
CONTINUOUS
  0
LINE
  8
WHITE
 10
10.108302
 20
12.458188
 30
0.000000
 11
10.089775
 21
12.461833
 31
0.000000
  6
CONTINUOUS
  0
LINE
  8
WHITE
 10
10.089775
 20
12.461833
 30
0.000000
 11
10.035705
 21
12.483173
 31
0.000000
  6
CONTINUOUS
  0
LINE
  8
WHITE
 10
10.035705
 20
12.483173
 30
0.000000
 11
9.945317
 21
12.536704
 31
0.000000
  6
CONTINUOUS
  0
LINE
  8
WHITE
 10
9.945317
 20
12.536704
 30
0.000000
 11
9.921629
 21
12.550043
 31
0.000000
  6
CONTINUOUS
  0
LINE
  8
WHITE
 10
9.921629
 20
12.550043
 30
0.000000
 11
9.848608
 21
12.580024
 31
0.000000
  6
CONTINUOUS
  0
LINE
  8
WHITE
 10
9.848608
 20
12.580024
 30
0.000000
 11
9.827081
 21
12.584746
 31
0.000000
  6
CONTINUOUS
  0
LINE
  8
WHITE
 10
9.827081
 20
12.584746
 30
0.000000
 11
9.760527
 21
12.589795
 31
0.000000
  6
CONTINUOUS
  0
LINE
  8
WHITE
 10
9.760527
 20
12.589795
 30
0.000000
 11
9.642017
 21
12.582952
 31
0.000000
  6
CONTINUOUS
  0
LINE
  8
WHITE
 10
9.642017
 20
12.582952
 30
0.000000
 11
9.510313
 21
12.575557
 31
0.000000
  6
CONTINUOUS
  0
LINE
  8
WHITE
 10
9.510313
 20
12.575557
 30
0.000000
 11
9.418395
 21
12.559197
 31
0.000000
  6
CONTINUOUS
  0
LINE
  8
WHITE
 10
9.418395
 20
12.559197
 30
0.000000
 11
9.355113
 21
12.532686
 31
0.000000
  6
CONTINUOUS
  0
LINE
  8
WHITE
 10
9.355113
 20
12.532686
 30
0.000000
 11
9.337209
 21
12.521678
 31
0.000000
  6
CONTINUOUS
  0
LINE
  8
WHITE
 10
9.337209
 20
12.521678
 30
0.000000
 11
9.284792
 21
12.485789
 31
0.000000
  6
CONTINUOUS
  0
LINE
  8
WHITE
 10
9.284792
 20
12.485789
 30
0.000000
 11
9.232567
 21
12.460146
 31
0.000000
  6
CONTINUOUS
  0
LINE
  8
WHITE
 10
9.232567
 20
12.460146
 30
0.000000
 11
9.180851
 21
12.455552
 31
0.000000
  6
CONTINUOUS
  0
LINE
  8
WHITE
 10
9.180851
 20
12.455552
 30
0.000000
 11
9.013366
 21
12.488420
 31
0.000000
  6
CONTINUOUS
  0
LINE
  8
WHITE
 10
9.013366
 20
12.488420
 30
0.000000
 11
8.947261
 21
12.487615
 31
0.000000
  6
CONTINUOUS
  0
LINE
  8
WHITE
 10
8.947261
 20
12.487615
 30
0.000000
 11
8.752876
 21
12.454870
 31
0.000000
  6
CONTINUOUS
  0
LINE
  8
WHITE
 10
8.752876
 20
12.454870
 30
0.000000
 11
8.706514
 21
12.454738
 31
0.000000
  6
CONTINUOUS
  0
LINE
  8
WHITE
 10
8.706514
 20
12.454738
 30
0.000000
 11
8.566422
 21
12.470195
 31
0.000000
  6
CONTINUOUS
  0
LINE
  8
WHITE
 10
8.566422
 20
12.470195
 30
0.000000
 11
8.503795
 21
12.475214
 31
0.000000
  6
CONTINUOUS
  0
LINE
  8
WHITE
 10
8.503795
 20
12.475214
 30
0.000000
 11
8.316022
 21
12.478364
 31
0.000000
  6
CONTINUOUS
  0
LINE
  8
WHITE
 10
8.316022
 20
12.478364
 30
0.000000
 11
8.035857
 21
12.478652
 31
0.000000
  6
CONTINUOUS
  0
LINE
  8
WHITE
 10
8.035857
 20
12.478652
 30
0.000000
 11
7.698865
 21
12.468616
 31
0.000000
  6
CONTINUOUS
  0
LINE
  8
WHITE
 10
7.698865
 20
12.468616
 30
0.000000
 11
7.441220
 21
12.481572
 31
0.000000
  6
CONTINUOUS
  0
LINE
  8
WHITE
 10
7.441220
 20
12.481572
 30
0.000000
 11
7.230515
 21
12.488252
 31
0.000000
  6
CONTINUOUS
  0
LINE
  8
WHITE
 10
7.230515
 20
12.488252
 30
0.000000
 11
7.057868
 21
12.510770
 31
0.000000
  6
CONTINUOUS
  0
LINE
  8
WHITE
 10
7.057868
 20
12.510770
 30
0.000000
 11
7.017046
 21
12.512925
 31
0.000000
  6
CONTINUOUS
  0
LINE
  8
WHITE
 10
7.017046
 20
12.512925
 30
0.000000
 11
6.894281
 21
12.506115
 31
0.000000
  6
CONTINUOUS
  0
LINE
  8
WHITE
 10
6.894281
 20
12.506115
 30
0.000000
 11
6.776453
 21
12.482730
 31
0.000000
  6
CONTINUOUS
  0
LINE
  8
WHITE
 10
6.776453
 20
12.482730
 30
0.000000
 11
6.669969
 21
12.450621
 31
0.000000
  6
CONTINUOUS
  0
LINE
  8
WHITE
 10
6.669969
 20
12.450621
 30
0.000000
 11
6.533259
 21
12.413073
 31
0.000000
  6
CONTINUOUS
  0
LINE
  8
WHITE
 10
6.533259
 20
12.413073
 30
0.000000
 11
6.471913
 21
12.403726
 31
0.000000
  6
CONTINUOUS
  0
LINE
  8
WHITE
 10
6.471913
 20
12.403726
 30
0.000000
 11
6.284089
 21
12.395518
 31
0.000000
  6
CONTINUOUS
  0
LINE
  8
WHITE
 10
6.284089
 20
12.395518
 30
0.000000
 11
6.063608
 21
12.397845
 31
0.000000
  6
CONTINUOUS
  0
LINE
  8
WHITE
 10
6.063608
 20
12.397845
 30
0.000000
 11
5.920586
 21
12.414586
 31
0.000000
  6
CONTINUOUS
  0
LINE
  8
WHITE
 10
5.920586
 20
12.414586
 30
0.000000
 11
5.815507
 21
12.441789
 31
0.000000
  6
CONTINUOUS
  0
LINE
  8
WHITE
 10
5.815507
 20
12.441789
 30
0.000000
 11
5.726696
 21
12.472553
 31
0.000000
  6
CONTINUOUS
  0
LINE
  8
WHITE
 10
5.726696
 20
12.472553
 30
0.000000
 11
5.663336
 21
12.486061
 31
0.000000
  6
CONTINUOUS
  0
LINE
  8
WHITE
 10
5.663336
 20
12.486061
 30
0.000000
 11
5.618578
 21
12.483687
 31
0.000000
  6
CONTINUOUS
  0
LINE
  8
WHITE
 10
5.618578
 20
12.483687
 30
0.000000
 11
5.586305
 21
12.472645
 31
0.000000
  6
CONTINUOUS
  0
LINE
  8
WHITE
 10
5.586305
 20
12.472645
 30
0.000000
 11
5.493095
 21
12.413727
 31
0.000000
  6
CONTINUOUS
  0
LINE
  8
WHITE
 10
5.493095
 20
12.413727
 30
0.000000
 11
5.434044
 21
12.381893
 31
0.000000
  6
CONTINUOUS
  0
LINE
  8
WHITE
 10
5.434044
 20
12.381893
 30
0.000000
 11
5.388201
 21
12.371404
 31
0.000000
  6
CONTINUOUS
  0
LINE
  8
WHITE
 10
5.388201
 20
12.371404
 30
0.000000
 11
5.326431
 21
12.372427
 31
0.000000
  6
CONTINUOUS
  0
LINE
  8
WHITE
 10
5.326431
 20
12.372427
 30
0.000000
 11
5.180027
 21
12.404986
 31
0.000000
  6
CONTINUOUS
  0
LINE
  8
WHITE
 10
5.180027
 20
12.404986
 30
0.000000
 11
5.137678
 21
12.414792
 31
0.000000
  6
CONTINUOUS
  0
LINE
  8
WHITE
 10
5.137678
 20
12.414792
 30
0.000000
 11
5.012805
 21
12.436971
 31
0.000000
  6
CONTINUOUS
  0
LINE
  8
WHITE
 10
5.012805
 20
12.436971
 30
0.000000
 11
4.802033
 21
12.459401
 31
0.000000
  6
CONTINUOUS
  0
LINE
  8
WHITE
 10
4.802033
 20
12.459401
 30
0.000000
 11
4.714635
 21
12.466744
 31
0.000000
  6
CONTINUOUS
  0
LINE
  8
WHITE
 10
4.714635
 20
12.466744
 30
0.000000
 11
4.448988
 21
12.491037
 31
0.000000
  6
CONTINUOUS
  0
LINE
  8
WHITE
 10
4.448988
 20
12.491037
 30
0.000000
 11
4.192479
 21
12.513630
 31
0.000000
  6
CONTINUOUS
  0
LINE
  8
WHITE
 10
4.192479
 20
12.513630
 30
0.000000
 11
4.075090
 21
12.510750
 31
0.000000
  6
CONTINUOUS
  0
LINE
  8
WHITE
 10
4.075090
 20
12.510750
 30
0.000000
 11
3.961784
 21
12.491454
 31
0.000000
  6
CONTINUOUS
  0
LINE
  8
WHITE
 10
3.961784
 20
12.491454
 30
0.000000
 11
3.813425
 21
12.446645
 31
0.000000
  6
CONTINUOUS
  0
LINE
  8
WHITE
 10
3.813425
 20
12.446645
 30
0.000000
 11
3.743382
 21
12.436020
 31
0.000000
  6
CONTINUOUS
  0
LINE
  8
WHITE
 10
3.743382
 20
12.436020
 30
0.000000
 11
3.468628
 21
12.470493
 31
0.000000
  6
CONTINUOUS
  0
LINE
  8
WHITE
 10
3.468628
 20
12.470493
 30
0.000000
 11
3.413041
 21
12.462718
 31
0.000000
  6
CONTINUOUS
  0
LINE
  8
WHITE
 10
3.413041
 20
12.462718
 30
0.000000
 11
3.361625
 21
12.440922
 31
0.000000
  6
CONTINUOUS
  0
LINE
  8
WHITE
 10
3.361625
 20
12.440922
 30
0.000000
 11
3.297639
 21
12.401216
 31
0.000000
  6
CONTINUOUS
  0
LINE
  8
WHITE
 10
3.297639
 20
12.401216
 30
0.000000
 11
3.212941
 21
12.354260
 31
0.000000
  6
CONTINUOUS
  0
LINE
  8
WHITE
 10
3.212941
 20
12.354260
 30
0.000000
 11
3.156123
 21
12.339367
 31
0.000000
  6
CONTINUOUS
  0
LINE
  8
WHITE
 10
3.156123
 20
12.339367
 30
0.000000
 11
3.079374
 21
12.334875
 31
0.000000
  6
CONTINUOUS
  0
LINE
  8
WHITE
 10
3.079374
 20
12.334875
 30
0.000000
 11
2.897943
 21
12.340668
 31
0.000000
  6
CONTINUOUS
  0
LINE
  8
WHITE
 10
2.897943
 20
12.340668
 30
0.000000
 11
2.872859
 21
12.338846
 31
0.000000
  6
CONTINUOUS
  0
LINE
  8
WHITE
 10
2.872859
 20
12.338846
 30
0.000000
 11
2.798562
 21
12.328576
 31
0.000000
  6
CONTINUOUS
  0
LINE
  8
WHITE
 10
2.798562
 20
12.328576
 30
0.000000
 11
2.673187
 21
12.312220
 31
0.000000
  6
CONTINUOUS
  0
LINE
  8
WHITE
 10
2.673187
 20
12.312220
 30
0.000000
 11
2.603142
 21
12.314214
 31
0.000000
  6
CONTINUOUS
  0
LINE
  8
WHITE
 10
2.603142
 20
12.314214
 30
0.000000
 11
2.513091
 21
12.328844
 31
0.000000
  6
CONTINUOUS
  0
LINE
  8
WHITE
 10
2.513091
 20
12.328844
 30
0.000000
 11
2.307210
 21
12.386690
 31
0.000000
  6
CONTINUOUS
  0
LINE
  8
WHITE
 10
2.307210
 20
12.386690
 30
0.000000
 11
2.144496
 21
12.425877
 31
0.000000
  6
CONTINUOUS
  0
LINE
  8
WHITE
 10
2.144496
 20
12.425877
 30
0.000000
 11
2.025161
 21
12.438067
 31
0.000000
  6
CONTINUOUS
  0
LINE
  8
WHITE
 10
2.025161
 20
12.438067
 30
0.000000
 11
1.956655
 21
12.436445
 31
0.000000
  6
CONTINUOUS
  0
LINE
  8
WHITE
 10
1.956655
 20
12.436445
 30
0.000000
 11
1.750221
 21
12.410760
 31
0.000000
  6
CONTINUOUS
  0
LINE
  8
WHITE
 10
1.750221
 20
12.410760
 30
0.000000
 11
1.584897
 21
12.391939
 31
0.000000
  6
CONTINUOUS
  0
LINE
  8
WHITE
 10
1.584897
 20
12.391939
 30
0.000000
 11
1.372266
 21
12.380999
 31
0.000000
  6
CONTINUOUS
  0
LINE
  8
WHITE
 10
1.372266
 20
12.380999
 30
0.000000
 11
1.280497
 21
12.381130
 31
0.000000
  6
CONTINUOUS
  0
LINE
  8
WHITE
 10
1.280497
 20
12.381130
 30
0.000000
 11
1.004819
 21
12.392280
 31
0.000000
  6
CONTINUOUS
  0
LINE
  8
WHITE
 10
1.004819
 20
12.392280
 30
0.000000
 11
1.004819
 21
11.391596
 31
0.000000
  6
CONTINUOUS
  0
ARC
  8
WHITE
 10
7.281656
 20
5.002497
 30
0.000000
 40
3.551045
 50
-152.222262
 51
-146.993721
  6
CONTINUOUS
  0
ARC
  8
WHITE
 10
5.089145
 20
3.874172
 30
0.000000
 40
1.085601
 50
175.869018
 51
209.018366
  6
CONTINUOUS
  0
ARC
  8
WHITE
 10
5.050338
 20
3.950210
 30
0.000000
 40
1.043976
 50
147.555911
 51
179.881156
  6
CONTINUOUS
  0
ARC
  8
WHITE
 10
2.790696
 20
5.321149
 30
0.000000
 40
1.599403
 50
-30.463119
 51
-10.693173
  6
CONTINUOUS
  0
ARC
  8
WHITE
 10
0.287197
 20
6.012511
 30
0.000000
 40
4.193217
 50
-13.629911
 51
-6.559706
  6
CONTINUOUS
  0
ARC
  8
WHITE
 10
6.044848
 20
5.233453
 30
0.000000
 40
1.619913
 50
152.176379
 51
169.326404
  6
CONTINUOUS
  0
ARC
  8
WHITE
 10
5.055396
 20
5.800230
 30
0.000000
 40
0.481924
 50
143.373463
 51
156.868526
  6
CONTINUOUS
  0
ARC
  8
WHITE
 10
4.825252
 20
5.951669
 30
0.000000
 40
0.207476
 50
77.340410
 51
139.015170
  6
CONTINUOUS
  0
ARC
  8
WHITE
 10
4.683118
 20
4.340926
 30
0.000000
 40
1.822854
 50
70.468403
 51
84.092784
  6
CONTINUOUS
  0
ARC
  8
WHITE
 10
1.676032
 20
-2.874430
 30
0.000000
 40
9.637601
 50
65.544254
 51
67.960204
  6
CONTINUOUS
  0
ARC
  8
WHITE
 10
6.163565
 20
7.418804
 30
0.000000
 40
1.599686
 50
-108.125417
 51
-94.487615
  6
CONTINUOUS
  0
ARC
  8
WHITE
 10
6.609788
 20
8.589579
 30
0.000000
 40
2.823966
 50
-101.673556
 51
-94.431253
  6
CONTINUOUS
  0
ARC
  8
WHITE
 10
6.389943
 20
-3.789262
 30
0.000000
 40
9.563317
 50
88.986745
 51
89.990075
  6
CONTINUOUS
  0
ARC
  8
WHITE
 10
6.571239
 20
5.534508
 30
0.000000
 40
0.238363
 50
14.673922
 51
92.929137
  6
CONTINUOUS
  0
ARC
  8
WHITE
 10
17.527748
 20
8.417074
 30
0.000000
 40
11.090993
 50
-165.258567
 51
-162.115691
  6
CONTINUOUS
  0
ARC
  8
WHITE
 10
5.368992
 20
4.415798
 30
0.000000
 40
1.710613
 50
2.525232
 51
20.364408
  6
CONTINUOUS
  0
ARC
  8
WHITE
 10
8.893616
 20
4.565354
 30
0.000000
 40
1.817187
 50
-177.660227
 51
-170.316957
  6
CONTINUOUS
  0
ARC
  8
WHITE
 10
9.315654
 20
4.844750
 30
0.000000
 40
2.289352
 50
-165.193863
 51
-159.733752
  6
CONTINUOUS
  0
ARC
  8
WHITE
 10
6.786262
 20
3.926238
 30
0.000000
 40
0.401872
 50
3.604202
 51
18.200125
  6
CONTINUOUS
  0
ARC
  8
WHITE
 10
7.089688
 20
3.938049
 30
0.000000
 40
0.098573
 50
-49.916105
 51
7.843415
  6
CONTINUOUS
  0
ARC
  8
WHITE
 10
6.888897
 20
4.262191
 30
0.000000
 40
0.479044
 50
-79.444078
 51
-56.520011
  6
CONTINUOUS
  0
ARC
  8
WHITE
 10
9.839337
 20
-4.912499
 30
0.000000
 40
9.162437
 50
108.206137
 51
110.458127
  6
CONTINUOUS
  0
ARC
  8
WHITE
 10
7.558035
 20
-0.006024
 30
0.000000
 40
3.791669
 50
104.060587
 51
108.822066
  6
CONTINUOUS
  0
ARC
  8
WHITE
 10
6.682456
 20
2.773371
 30
0.000000
 40
0.881039
 50
113.245999
 51
131.154991
  6
CONTINUOUS
  0
ARC
  8
WHITE
 10
4.535865
 20
5.265689
 30
0.000000
 40
2.408294
 50
-60.897386
 51
-49.414885
  6
CONTINUOUS
  0
ARC
  8
WHITE
 10
4.440290
 20
5.039089
 30
0.000000
 40
2.265086
 50
-60.567355
 51
-55.991172
  6
CONTINUOUS
  0
ARC
  8
WHITE
 10
5.308678
 20
3.621111
 30
0.000000
 40
0.606324
 50
-96.071192
 51
-66.200348
  6
CONTINUOUS
  0
ARC
  8
WHITE
 10
5.009214
 20
0.448673
 30
0.000000
 40
2.580269
 50
84.767003
 51
95.317822
  6
CONTINUOUS
  0
ARC
  8
WHITE
 10
4.601480
 20
4.393239
 30
0.000000
 40
1.385697
 50
-92.826827
 51
-83.011658
  6
CONTINUOUS
  0
ARC
  8
WHITE
 10
4.689714
 20
4.095336
 30
0.000000
 40
1.097336
 50
-110.595278
 51
-98.203239
  6
CONTINUOUS
  0
ARC
  8
WHITE
 10
10.514028
 20
12.818876
 30
0.000000
 40
0.089073
 50
-110.088731
 51
-59.943635
  6
CONTINUOUS
  0
ARC
  8
WHITE
 10
13.536994
 20
18.289317
 30
0.000000
 40
6.338154
 50
-120.196714
 51
-118.801348
  6
CONTINUOUS
  0
ARC
  8
WHITE
 10
10.341932
 20
12.482119
 30
0.000000
 40
0.329187
 50
88.753939
 51
115.170268
  6
CONTINUOUS
  0
ARC
  8
WHITE
 10
10.124137
 20
12.974490
 30
0.000000
 40
0.209424
 50
-109.333632
 51
-68.195652
  6
CONTINUOUS
  0
ARC
  8
WHITE
 10
9.964826
 20
12.433571
 30
0.000000
 40
0.354901
 50
75.313567
 51
99.170855
  6
CONTINUOUS
  0
ARC
  8
WHITE
 10
9.301863
 20
18.794667
 30
0.000000
 40
6.041243
 50
-86.996213
 51
-84.239147
  6
CONTINUOUS
  0
ARC
  8
WHITE
 10
9.595064
 20
13.980819
 30
0.000000
 40
1.219319
 50
-102.135088
 51
-88.901651
  6
CONTINUOUS
  0
ARC
  8
WHITE
 10
9.198710
 20
12.166661
 30
0.000000
 40
0.637650
 50
77.314164
 51
101.826827
  6
CONTINUOUS
  0
ARC
  8
WHITE
 10
8.440035
 20
17.207259
 30
0.000000
 40
4.460907
 50
-88.696727
 51
-81.907280
  6
CONTINUOUS
  0
ARC
  8
WHITE
 10
8.371619
 20
15.849241
 30
0.000000
 40
3.106383
 50
-96.002143
 51
-86.865143
  6
CONTINUOUS
  0
ARC
  8
WHITE
 10
7.465951
 20
8.514492
 30
0.000000
 40
4.284945
 50
82.209261
 51
88.419443
  6
CONTINUOUS
  0
ARC
  8
WHITE
 10
7.206436
 20
25.126716
 30
0.000000
 40
12.334693
 50
-92.291868
 51
-88.245256
  6
CONTINUOUS
  0
ARC
  8
WHITE
 10
6.803069
 20
19.088537
 30
0.000000
 40
6.287290
 50
-92.555415
 51
-90.819257
  6
CONTINUOUS
  0
ARC
  8
WHITE
 10
6.515855
 20
13.232604
 30
0.000000
 40
0.425161
 50
-138.898536
 51
-89.071277
  6
CONTINUOUS
  0
ARC
  8
WHITE
 10
5.070046
 20
11.951228
 30
0.000000
 40
1.506769
 50
41.676024
 51
48.241714
  6
CONTINUOUS
  0
ARC
  8
WHITE
 10
5.922319
 20
12.840131
 30
0.000000
 40
0.279525
 50
57.248989
 51
91.455685
  6
CONTINUOUS
  0
ARC
  8
WHITE
 10
6.011230
 20
14.757458
 30
0.000000
 40
1.640705
 50
-104.687738
 51
-93.354791
  6
CONTINUOUS
  0
ARC
  8
WHITE
 10
5.565581
 20
12.967836
 30
0.000000
 40
0.204691
 50
81.672295
 51
124.453221
  6
CONTINUOUS
  0
ARC
  8
WHITE
 10
4.081805
 20
16.156224
 30
0.000000
 40
3.315020
 50
-68.175381
 51
-65.627962
  6
CONTINUOUS
  0
ARC
  8
WHITE
 10
5.143942
 20
14.135427
 30
0.000000
 40
1.070255
 50
-88.484246
 51
-80.845359
  6
CONTINUOUS
  0
ARC
  8
WHITE
 10
5.208730
 20
12.200734
 30
0.000000
 40
0.865581
 50
92.415313
 51
101.558045
  6
CONTINUOUS
  0
ARC
  8
WHITE
 10
5.122201
 20
12.762927
 30
0.000000
 40
0.298754
 50
106.910269
 51
158.370849
  6
CONTINUOUS
  0
ARC
  8
WHITE
 10
4.715417
 20
12.935760
 30
0.000000
 40
0.143495
 50
-76.134665
 51
-25.914958
  6
CONTINUOUS
  0
ARC
  8
WHITE
 10
4.680343
 20
13.211627
 30
0.000000
 40
0.420952
 50
-113.607906
 51
-80.502263
  6
CONTINUOUS
  0
ARC
  8
WHITE
 10
4.362760
 20
12.497794
 30
0.000000
 40
0.360359
 50
65.576252
 51
101.851643
  6
CONTINUOUS
  0
ARC
  8
WHITE
 10
3.902860
 20
14.145418
 30
0.000000
 40
1.351221
 50
-91.572776
 51
-73.406067
  6
CONTINUOUS
  0
ARC
  8
WHITE
 10
3.667463
 20
15.209134
 30
0.000000
 40
2.422559
 50
-89.734621
 51
-85.304517
  6
CONTINUOUS
  0
ARC
  8
WHITE
 10
3.677954
 20
13.112047
 30
0.000000
 40
0.325447
 50
-120.708838
 51
-89.871667
  6
CONTINUOUS
  0
ARC
  8
WHITE
 10
3.271236
 20
12.453056
 30
0.000000
 40
0.449030
 50
57.612326
 51
78.561142
  6
CONTINUOUS
  0
ARC
  8
WHITE
 10
3.318689
 20
12.628344
 30
0.000000
 40
0.268071
 50
81.072811
 51
147.090282
  6
CONTINUOUS
  0
ARC
  8
WHITE
 10
2.776446
 20
12.996125
 30
0.000000
 40
0.387238
 50
-54.950935
 51
-35.004180
  6
CONTINUOUS
  0
ARC
  8
WHITE
 10
2.879805
 20
13.021479
 30
0.000000
 40
0.362469
 50
-110.656802
 51
-70.830313
  6
CONTINUOUS
  0
ARC
  8
WHITE
 10
1.968157
 20
10.282349
 30
0.000000
 40
2.524705
 50
71.914010
 51
81.968460
  6
CONTINUOUS
  0
ARC
  8
WHITE
 10
2.165492
 20
11.110882
 30
0.000000
 40
1.678618
 50
84.687760
 51
96.034119
  6
CONTINUOUS
  0
ARC
  8
WHITE
 10
-1.893113
 20
57.430667
 30
0.000000
 40
44.818917
 50
-85.349476
 51
-85.030897
  6
CONTINUOUS
  0
ARC
  8
WHITE
 10
1.686675
 20
13.362110
 30
0.000000
 40
0.605222
 50
-102.577829
 51
-84.877856
  6
CONTINUOUS
  0
ARC
  8
WHITE
 10
0.773729
 20
10.245298
 30
0.000000
 40
2.644134
 50
72.816843
 51
78.884660
  6
CONTINUOUS
  0
ARC
  8
WHITE
 10
1.266222
 20
11.459330
 30
0.000000
 40
1.380608
 50
89.283864
 51
100.914237
  6
CONTINUOUS
  0
LINE
  8
WHITE
 10
1.004819
 20
12.814966
 30
0.000000
 11
1.004819
 21
13.416820
 31
0.000000
  6
CONTINUOUS
  0
LINE
  8
WHITE
 10
1.004819
 20
13.416820
 30
0.000000
 11
11.461073
 21
13.416820
 31
0.000000
  6
CONTINUOUS
  0
ARC
  8
WHITE
 10
11.917492
 20
11.865919
 30
0.000000
 40
1.616667
 50
106.398781
 51
147.195773
  6
CONTINUOUS
  0
ARC
  8
WHITE
 10
1.698219
 20
7.612539
 30
0.000000
 40
0.153598
 50
-40.383179
 51
-12.949041
  6
CONTINUOUS
  0
ARC
  8
WHITE
 10
2.199200
 20
7.264642
 30
0.000000
 40
0.457312
 50
147.102901
 51
165.389195
  6
CONTINUOUS
  0
ARC
  8
WHITE
 10
4.405423
 20
6.184940
 30
0.000000
 40
2.905861
 50
155.716069
 51
158.502877
  6
CONTINUOUS
  0
ARC
  8
WHITE
 10
1.924578
 20
7.155596
 30
0.000000
 40
0.241965
 50
157.085931
 51
189.575827
  6
CONTINUOUS
  0
ARC
  8
WHITE
 10
1.049257
 20
6.991364
 30
0.000000
 40
0.648685
 50
-12.414221
 51
11.018474
  6
CONTINUOUS
  0
ARC
  8
WHITE
 10
5.736463
 20
6.139223
 30
0.000000
 40
4.115861
 50
170.028603
 51
173.490868
  6
CONTINUOUS
  0
ARC
  8
WHITE
 10
2.222223
 20
6.535879
 30
0.000000
 40
0.579324
 50
173.067456
 51
196.117471
  6
CONTINUOUS
  0
ARC
  8
WHITE
 10
1.451461
 20
6.353825
 30
0.000000
 40
0.215257
 50
-23.350876
 51
5.659784
  6
CONTINUOUS
  0
ARC
  8
WHITE
 10
1.914905
 20
6.202529
 30
0.000000
 40
0.273883
 50
166.060727
 51
210.218517
  6
CONTINUOUS
  0
ARC
  8
WHITE
 10
0.632604
 20
5.823361
 30
0.000000
 40
1.073121
 50
2.438393
 51
12.995792
  6
CONTINUOUS
  0
ARC
  8
WHITE
 10
2.320608
 20
6.169421
 30
0.000000
 40
0.685214
 50
-153.997575
 51
-138.485824
  6
CONTINUOUS
  0
ARC
  8
WHITE
 10
1.718116
 20
5.654310
 30
0.000000
 40
0.108206
 50
-12.105069
 51
34.281109
  6
CONTINUOUS
  0
ARC
  8
WHITE
 10
2.315185
 20
5.523983
 30
0.000000
 40
0.502922
 50
167.641858
 51
186.883155
  6
CONTINUOUS
  0
ARC
  8
WHITE
 10
1.440719
 20
5.373856
 30
0.000000
 40
0.385779
 50
-33.639544
 51
13.468820
  6
CONTINUOUS
  0
ARC
  8
WHITE
 10
2.733740
 20
4.492215
 30
0.000000
 40
1.179244
 50
145.499910
 51
158.969536
  6
CONTINUOUS
  0
ARC
  8
WHITE
 10
0.797120
 20
5.260633
 30
0.000000
 40
0.904409
 50
-37.805772
 51
-22.440187
  6
CONTINUOUS
  0
LINE
  8
WHITE
 10
1.511687
 20
4.706242
 30
0.000000
 11
1.370612
 21
4.547914
 31
0.000000
  6
CONTINUOUS
  0
ARC
  8
WHITE
 10
1.625542
 20
4.368714
 30
0.000000
 40
0.311612
 50
144.895196
 51
179.039729
  6
CONTINUOUS
  0
ARC
  8
WHITE
 10
-1.422143
 20
4.450249
 30
0.000000
 40
2.737181
 50
-8.399770
 51
-1.597617
  6
CONTINUOUS
  0
ARC
  8
WHITE
 10
0.361485
 20
4.360482
 30
0.000000
 40
0.974822
 50
-25.701948
 51
-18.547234
  6
CONTINUOUS
  0
ARC
  8
WHITE
 10
1.891868
 20
3.665561
 30
0.000000
 40
0.706527
 50
157.344202
 51
174.617627
  6
CONTINUOUS
  0
ARC
  8
WHITE
 10
-0.019113
 20
3.893174
 30
0.000000
 40
1.218300
 50
-22.658830
 51
-7.610012
  6
CONTINUOUS
  0
ARC
  8
WHITE
 10
1.404961
 20
3.271388
 30
0.000000
 40
0.336340
 50
153.047954
 51
180.290284
  6
CONTINUOUS
  0
ARC
  8
WHITE
 10
0.375897
 20
3.260652
 30
0.000000
 40
0.692788
 50
-5.851465
 51
0.746989
  6
CONTINUOUS
  0
ARC
  8
WHITE
 10
1.013597
 20
3.201603
 30
0.000000
 40
0.052764
 50
-99.577568
 51
-12.678356
  6
CONTINUOUS
  0
LINE
  8
WHITE
 10
1.004819
 20
3.149575
 30
0.000000
 11
1.004819
 21
9.242052
 31
0.000000
  6
CONTINUOUS
  0
ARC
  8
WHITE
 10
1.646595
 20
12.408772
 30
0.000000
 40
3.231098
 50
-101.456567
 51
-95.399979
  6
CONTINUOUS
  0
ARC
  8
WHITE
 10
1.387638
 20
11.248831
 30
0.000000
 40
2.057311
 50
-91.256537
 51
-82.343606
  6
CONTINUOUS
  0
ARC
  8
WHITE
 10
2.375612
 20
3.966476
 30
0.000000
 40
5.291757
 50
91.251639
 51
97.753010
  6
CONTINUOUS
  0
ARC
  8
WHITE
 10
2.682417
 20
-11.845750
 30
0.000000
 40
21.106947
 50
88.294077
 51
91.146689
  6
CONTINUOUS
  0
ARC
  8
WHITE
 10
2.711948
 20
0.899937
 30
0.000000
 40
8.373345
 50
83.202517
 51
85.899033
  6
CONTINUOUS
  0
ARC
  8
WHITE
 10
3.868139
 20
10.491607
 30
0.000000
 40
1.287813
 50
-97.366545
 51
-82.031435
  6
CONTINUOUS
  0
ARC
  8
WHITE
 10
4.872944
 20
4.527262
 30
0.000000
 40
4.761212
 50
96.365661
 51
99.993890
  6
CONTINUOUS
  0
ARC
  8
WHITE
 10
4.316631
 20
7.891591
 30
0.000000
 40
1.367824
 50
77.771870
 51
88.809380
  6
CONTINUOUS
  0
ARC
  8
WHITE
 10
4.784236
 20
9.944452
 30
0.000000
 40
0.737837
 50
-103.951591
 51
-86.000781
  6
CONTINUOUS
  0
LINE
  8
WHITE
 10
4.835695
 20
9.208412
 30
0.000000
 11
5.235722
 21
9.265451
 31
0.000000
  6
CONTINUOUS
  0
ARC
  8
WHITE
 10
5.712680
 20
3.341491
 30
0.000000
 40
5.943130
 50
82.910495
 51
94.603149
  6
CONTINUOUS
  0
ARC
  8
WHITE
 10
6.126250
 20
9.182342
 30
0.000000
 40
0.324940
 50
-5.285184
 51
10.074523
  6
CONTINUOUS
  0
ARC
  8
WHITE
 10
6.359436
 20
9.175299
 30
0.000000
 40
0.093226
 50
-66.545887
 51
-14.212506
  6
CONTINUOUS
  0
ARC
  8
WHITE
 10
6.155928
 20
9.692051
 30
0.000000
 40
0.648560
 50
-83.125054
 51
-68.222939
  6
CONTINUOUS
  0
ARC
  8
WHITE
 10
7.029233
 20
5.937101
 30
0.000000
 40
3.211191
 50
104.346205
 51
110.182173
  6
CONTINUOUS
  0
ARC
  8
WHITE
 10
5.564081
 20
10.174229
 30
0.000000
 40
1.274215
 50
-87.501352
 51
-73.716824
  6
CONTINUOUS
  0
ARC
  8
WHITE
 10
5.648803
 20
-16.329826
 30
0.000000
 40
25.231068
 50
90.066243
 51
91.372914
  6
CONTINUOUS
  0
ARC
  8
WHITE
 10
5.050771
 20
9.925489
 30
0.000000
 40
1.031510
 50
-104.342594
 51
-90.360710
  6
CONTINUOUS
  0
ARC
  8
WHITE
 10
4.443612
 20
7.404148
 30
0.000000
 40
1.562073
 50
76.990801
 51
85.642318
  6
CONTINUOUS
  0
ARC
  8
WHITE
 10
4.616479
 20
11.079005
 30
0.000000
 40
2.117993
 50
-103.439181
 51
-91.465754
  6
CONTINUOUS
  0
ARC
  8
WHITE
 10
3.891276
 20
8.044804
 30
0.000000
 40
1.001670
 50
76.551811
 51
98.682564
  6
CONTINUOUS
  0
ARC
  8
WHITE
 10
4.035908
 20
7.606173
 30
0.000000
 40
1.459129
 50
101.698062
 51
114.991656
  6
CONTINUOUS
  0
ARC
  8
WHITE
 10
4.679972
 20
5.779719
 30
0.000000
 40
3.391887
 50
111.816164
 51
121.833106
  6
CONTINUOUS
  0
ARC
  8
WHITE
 10
1.598179
 20
10.983430
 30
0.000000
 40
2.657615
 50
-70.476565
 51
-60.893558
  6
CONTINUOUS
  0
ARC
  8
WHITE
 10
2.862171
 20
7.361895
 30
0.000000
 40
1.178269
 50
108.600883
 51
124.815081
  6
CONTINUOUS
  0
ARC
  8
WHITE
 10
2.546690
 20
7.808016
 30
0.000000
 40
0.631902
 50
124.424661
 51
147.122075
  6
CONTINUOUS
  0
ARC
  8
WHITE
 10
-9.171591
 20
15.373477
 30
0.000000
 40
13.316371
 50
-34.459615
 51
-32.845289
  6
CONTINUOUS
  0
ARC
  8
WHITE
 10
2.462316
 20
7.370159
 30
0.000000
 40
0.804720
 50
144.388283
 51
157.735577
  6
CONTINUOUS
  0
ARC
  8
WHITE
 10
1.766282
 20
7.655174
 30
0.000000
 40
0.052592
 50
157.791746
 51
208.684237
  6
CONTINUOUS
  0
ARC
  8
WHITE
 10
1.793951
 20
7.721813
 30
0.000000
 40
0.117855
 50
-128.774216
 51
-94.553369
  6
CONTINUOUS
  0
ARC
  8
WHITE
 10
1.775691
 20
7.493237
 30
0.000000
 40
0.111449
 50
49.608159
 51
85.417813
  6
CONTINUOUS
  0
ARC
  8
WHITE
 10
-3.024176
 20
4.721878
 30
0.000000
 40
4.834784
 50
-18.552096
 51
-14.299248
  6
CONTINUOUS
  0
ARC
  8
WHITE
 10
2.196062
 20
3.447958
 30
0.000000
 40
0.541155
 50
138.253031
 51
171.520729
  6
CONTINUOUS
  0
ARC
  8
WHITE
 10
1.384396
 20
4.218224
 30
0.000000
 40
0.578314
 50
-45.142086
 51
-17.879176
  6
CONTINUOUS
  0
ARC
  8
WHITE
 10
2.441429
 20
3.899743
 30
0.000000
 40
0.525885
 50
138.294244
 51
164.455217
  6
CONTINUOUS
  0
ARC
  8
WHITE
 10
0.221012
 20
6.608523
 30
0.000000
 40
2.984177
 50
-52.229567
 51
-44.156141
  6
CONTINUOUS
  0
ARC
  8
WHITE
 10
1.600746
 20
5.105023
 30
0.000000
 40
0.954199
 50
-37.080845
 51
-18.138845
  6
CONTINUOUS
  0
ARC
  8
WHITE
 10
3.693697
 20
4.407272
 30
0.000000
 40
1.252019
 50
139.674578
 51
161.335014
  6
CONTINUOUS
  0
ARC
  8
WHITE
 10
-5.241828
 20
12.131429
 30
0.000000
 40
10.559312
 50
-40.902354
 51
-39.618289
  6
CONTINUOUS
  0
ARC
  8
WHITE
 10
2.561528
 20
5.696948
 30
0.000000
 40
0.445658
 50
-42.115971
 51
-26.899245
  6
CONTINUOUS
  0
ARC
  8
WHITE
 10
3.262118
 20
5.387574
 30
0.000000
 40
0.321729
 50
139.581022
 51
160.433403
  6
CONTINUOUS
  0
ARC
  8
WHITE
 10
2.991505
 20
5.480101
 30
0.000000
 40
0.118878
 50
34.572547
 51
77.528147
  6
CONTINUOUS
  0
ARC
  8
WHITE
 10
0.815268
 20
3.587642
 30
0.000000
 40
3.002150
 50
34.091853
 51
40.755877
  6
CONTINUOUS
  0
ARC
  8
WHITE
 10
2.936707
 20
4.987405
 30
0.000000
 40
0.461675
 50
-0.159002
 51
37.806662
  6
CONTINUOUS
  0
ARC
  8
WHITE
 10
0.539573
 20
4.936649
 30
0.000000
 40
2.859235
 50
-9.719255
 51
0.991455
  6
CONTINUOUS
  0
ARC
  8
WHITE
 10
2.200229
 20
4.710920
 30
0.000000
 40
1.185719
 50
-31.891488
 51
-12.516442
  6
CONTINUOUS
  0
ARC
  8
WHITE
 10
3.480909
 20
3.900114
 30
0.000000
 40
0.330212
 50
146.057759
 51
172.064641
  6
CONTINUOUS
  0
ARC
  8
WHITE
 10
3.357362
 20
3.979812
 30
0.000000
 40
0.206342
 50
-170.484646
 51
-134.178006
  6
CONTINUOUS
  0
ARC
  8
WHITE
 10
-0.090060
 20
0.959511
 30
0.000000
 40
4.377687
 50
34.979682
 51
41.005139
  6
CONTINUOUS
  0
ARC
  8
WHITE
 10
5.176615
 20
4.363207
 30
0.000000
 40
1.902892
 50
-151.976933
 51
-145.049418
  6
CONTINUOUS
  0
LINE
  8
WHITE
 10
3.616917
 20
3.273098
 30
0.000000
 11
3.692383
 21
3.186134
 31
0.000000
  6
CONTINUOUS
  0
ARC
  8
WHITE
 10
3.596345
 20
3.109937
 30
0.000000
 40
0.122594
 50
-15.295300
 51
38.429126
  6
CONTINUOUS
  0
LINE
  8
WHITE
 10
3.714597
 20
3.077597
 30
0.000000
 11
3.697180
 21
3.063542
 31
0.000000
  6
CONTINUOUS
  0
ARC
  8
WHITE
 10
4.113514
 20
5.921873
 30
0.000000
 40
2.888493
 50
-101.000004
 51
-98.287219
  6
CONTINUOUS
  0
ARC
  8
WHITE
 10
3.331181
 20
5.622096
 30
0.000000
 40
2.546163
 50
-96.368913
 51
-84.790575
  6
CONTINUOUS
  0
ARC
  8
WHITE
 10
3.055258
 20
4.539289
 30
0.000000
 40
1.447657
 50
-97.891828
 51
-90.258149
  6
CONTINUOUS
  0
ARC
  8
WHITE
 10
2.922289
 20
3.508477
 30
0.000000
 40
0.408469
 50
-122.940470
 51
-99.269886
  6
CONTINUOUS
  0
ARC
  8
WHITE
 10
2.426105
 20
2.766217
 30
0.000000
 40
0.484440
 50
55.545691
 51
90.417698
  6
CONTINUOUS
  0
ARC
  8
WHITE
 10
2.416591
 20
3.036854
 30
0.000000
 40
0.213874
 50
88.396974
 51
118.102355
  6
CONTINUOUS
  0
ARC
  8
WHITE
 10
1.981846
 20
3.887712
 30
0.000000
 40
0.741661
 50
-78.194557
 51
-63.234494
  6
CONTINUOUS
  0
ARC
  8
WHITE
 10
2.063527
 20
4.174031
 30
0.000000
 40
1.014714
 50
-94.242116
 51
-86.041250
  6
CONTINUOUS
  0
ARC
  8
WHITE
 10
1.912412
 20
2.309483
 30
0.000000
 40
0.855999
 50
84.902527
 51
99.517829
  6
CONTINUOUS
  0
ARC
  8
WHITE
 10
1.705778
 20
3.456157
 30
0.000000
 40
0.309383
 50
-118.244380
 51
-77.854890
  6
CONTINUOUS
  0
ARC
  8
WHITE
 10
10.735878
 20
11.402361
 30
0.000000
 40
0.150080
 50
-10.125666
 51
54.742687
  6
CONTINUOUS
  0
ARC
  8
WHITE
 10
10.452601
 20
11.445614
 30
0.000000
 40
0.436608
 50
-26.018630
 51
-9.177778
  6
CONTINUOUS
  0
ARC
  8
WHITE
 10
11.147245
 20
11.105606
 30
0.000000
 40
0.336785
 50
153.839396
 51
186.639082
  6
CONTINUOUS
  0
ARC
  8
WHITE
 10
11.274849
 20
11.088876
 30
0.000000
 40
0.462664
 50
-177.248699
 51
-153.451119
  6
CONTINUOUS
  0
LINE
  8
WHITE
 10
10.860972
 20
10.882084
 30
0.000000
 11
10.873613
 21
10.877436
 31
0.000000
  6
CONTINUOUS
  0
ARC
  8
WHITE
 10
10.799223
 20
11.002501
 30
0.000000
 40
0.145516
 50
-59.255374
 51
-23.677894
  6
CONTINUOUS
  0
ARC
  8
WHITE
 10
10.316823
 20
11.247991
 30
0.000000
 40
0.686599
 50
-26.273635
 51
-12.023534
  6
CONTINUOUS
  0
ARC
  8
WHITE
 10
11.564866
 20
10.974485
 30
0.000000
 40
0.591088
 50
152.762056
 51
167.247356
  6
CONTINUOUS
  0
ARC
  8
WHITE
 10
11.293705
 20
11.109842
 30
0.000000
 40
0.288069
 50
126.114912
 51
152.014293
  6
CONTINUOUS
  0
ARC
  8
WHITE
 10
11.162329
 20
11.249280
 30
0.000000
 40
0.100874
 50
-16.303945
 51
112.383205
  6
CONTINUOUS
  0
ARC
  8
WHITE
 10
10.386558
 20
11.534218
 30
0.000000
 40
0.927114
 50
-30.349493
 51
-19.747996
  6
CONTINUOUS
  0
ARC
  8
WHITE
 10
11.992300
 20
10.770770
 30
0.000000
 40
0.857990
 50
159.889638
 51
177.087316
  6
CONTINUOUS
  0
ARC
  8
WHITE
 10
11.317933
 20
10.772089
 30
0.000000
 40
0.187348
 50
166.957793
 51
206.088871
  6
CONTINUOUS
  0
ARC
  8
WHITE
 10
11.225446
 20
10.740512
 30
0.000000
 40
0.091233
 50
-146.154595
 51
-66.061172
  6
CONTINUOUS
  0
ARC
  8
WHITE
 10
11.126477
 20
10.785836
 30
0.000000
 40
0.187239
 50
-43.424701
 51
-10.175572
  6
CONTINUOUS
  0
ARC
  8
WHITE
 10
35.510442
 20
5.588235
 30
0.000000
 40
24.744622
 50
167.511536
 51
167.953063
  6
CONTINUOUS
  0
ARC
  8
WHITE
 10
11.802975
 20
10.837440
 30
0.000000
 40
0.462984
 50
131.877819
 51
167.317521
  6
CONTINUOUS
  0
ARC
  8
WHITE
 10
11.117101
 20
11.572739
 30
0.000000
 40
0.542712
 50
-46.027498
 51
-30.949839
  6
CONTINUOUS
  0
ARC
  8
WHITE
 10
11.278468
 20
11.415703
 30
0.000000
 40
0.327662
 50
-21.873481
 51
-9.432434
  6
CONTINUOUS
  0
ARC
  8
WHITE
 10
11.543532
 20
11.375132
 30
0.000000
 40
0.059630
 50
-12.717991
 51
55.849300
  6
CONTINUOUS
  0
ARC
  8
WHITE
 10
11.592787
 20
11.913304
 30
0.000000
 40
0.489079
 50
-104.205541
 51
-91.848978
  6
CONTINUOUS
  0
ARC
  8
WHITE
 10
11.502338
 20
11.539420
 30
0.000000
 40
0.104511
 50
-163.749312
 51
-106.436069
  6
CONTINUOUS
  0
LINE
  8
WHITE
 10
11.402002
 20
11.510174
 30
0.000000
 11
11.414586
 21
11.526235
 31
0.000000
  6
CONTINUOUS
  0
ARC
  8
WHITE
 10
11.711930
 20
10.262740
 30
0.000000
 40
1.298012
 50
92.206981
 51
103.242716
  6
CONTINUOUS
  0
ARC
  8
WHITE
 10
11.440813
 20
12.832242
 30
0.000000
 40
1.291525
 50
-80.141383
 51
-70.421332
  6
CONTINUOUS
  0
ARC
  8
WHITE
 10
11.985361
 20
11.350586
 30
0.000000
 40
0.287421
 50
74.684730
 51
112.881657
  6
CONTINUOUS
  0
ARC
  8
WHITE
 10
12.146405
 20
11.900639
 30
0.000000
 40
0.285811
 50
-107.328207
 51
-90.493351
  6
CONTINUOUS
  0
ARC
  8
WHITE
 10
12.158097
 20
11.663256
 30
0.000000
 40
0.050443
 50
-106.294301
 51
-18.477616
  6
CONTINUOUS
  0
ARC
  8
WHITE
 10
12.460383
 20
11.613552
 30
0.000000
 40
0.256668
 50
139.712454
 51
172.451633
  6
CONTINUOUS
  0
ARC
  8
WHITE
 10
12.403489
 20
11.580955
 30
0.000000
 40
0.242321
 50
94.494181
 51
124.972432
  6
CONTINUOUS
  0
ARC
  8
WHITE
 10
12.297295
 20
12.165060
 30
0.000000
 40
0.353456
 50
-75.716261
 51
-57.424336
  6
CONTINUOUS
  0
ARC
  8
WHITE
 10
12.568484
 20
11.749255
 30
0.000000
 40
0.143023
 50
84.946924
 51
124.439400
  6
CONTINUOUS
  0
ARC
  8
WHITE
 10
12.630859
 20
12.692609
 30
0.000000
 40
0.802432
 50
-93.556542
 51
-87.377469
  6
CONTINUOUS
  0
ARC
  8
WHITE
 10
12.668136
 20
11.802756
 30
0.000000
 40
0.088263
 50
41.511034
 51
90.364097
  6
CONTINUOUS
  0
ARC
  8
WHITE
 10
13.307887
 20
12.254181
 30
0.000000
 40
0.695323
 50
-145.590750
 51
-134.702983
  6
CONTINUOUS
  0
ARC
  8
WHITE
 10
12.872865
 20
11.871693
 30
0.000000
 40
0.124128
 50
-115.833911
 51
-70.214774
  6
CONTINUOUS
  0
ARC
  8
WHITE
 10
12.672657
 20
12.378250
 30
0.000000
 40
0.668765
 50
-68.764772
 51
-55.999137
  6
CONTINUOUS
  0
ARC
  8
WHITE
 10
13.088102
 20
11.628738
 30
0.000000
 40
0.199444
 50
59.460724
 51
102.000257
  6
CONTINUOUS
  0
ARC
  8
WHITE
 10
13.316936
 20
12.058324
 30
0.000000
 40
0.287609
 50
-116.313324
 51
-97.178921
  6
CONTINUOUS
  0
ARC
  8
WHITE
 10
11.917492
 20
11.865919
 30
0.000000
 40
1.366667
 50
-3.899801
 51
25.528685
  6
CONTINUOUS
  0
ARC
  8
WHITE
 10
14.266192
 20
34.133787
 30
0.000000
 40
21.707564
 50
-94.605928
 51
-92.945490
  6
CONTINUOUS
  0
ARC
  8
WHITE
 10
12.448579
 20
11.559181
 30
0.000000
 40
0.940098
 50
85.457696
 51
99.829365
  6
CONTINUOUS
  0
ARC
  8
WHITE
 10
12.110168
 20
12.995676
 30
0.000000
 40
0.540331
 50
-92.660753
 51
-70.774670
  6
CONTINUOUS
  0
ARC
  8
WHITE
 10
12.143433
 20
13.477438
 30
0.000000
 40
1.023176
 50
-103.380499
 51
-93.269146
  6
CONTINUOUS
  0
ARC
  8
WHITE
 10
11.323572
 20
9.574843
 30
0.000000
 40
2.965090
 50
78.658943
 51
81.710276
  6
CONTINUOUS
  0
ARC
  8
WHITE
 10
11.712325
 20
12.214361
 30
0.000000
 40
0.297129
 50
82.506526
 51
109.193653
  6
CONTINUOUS
  0
ARC
  8
WHITE
 10
12.346479
 20
11.135911
 30
0.000000
 40
1.543581
 50
118.301915
 51
122.788479
  6
CONTINUOUS
  0
ARC
  8
WHITE
 10
11.367771
 20
12.641610
 30
0.000000
 40
0.252341
 50
-103.554641
 51
-55.535452
  6
CONTINUOUS
  0
ARC
  8
WHITE
 10
10.414405
 20
10.041756
 30
0.000000
 40
2.518632
 50
69.203870
 51
76.425763
  6
CONTINUOUS
  0
ARC
  8
WHITE
 10
10.886054
 20
11.877426
 30
0.000000
 40
0.624152
 50
78.963291
 51
108.125915
  6
CONTINUOUS
  0
ARC
  8
WHITE
 10
11.917492
 20
11.865919
 30
0.000000
 40
1.366667
 50
153.739535
 51
204.064171
  6
CONTINUOUS
  0
ARC
  8
WHITE
 10
11.362296
 20
11.063470
 30
0.000000
 40
0.734803
 50
149.809193
 51
160.508651
  6
CONTINUOUS
  0
ARC
  8
WHITE
 10
10.883795
 20
11.365937
 30
0.000000
 40
0.170379
 50
111.081306
 51
156.824663
  6
CONTINUOUS
  0
LINE
  8
WHITE
 10
0.717069
 20
13.907896
 30
0.000000
 11
0.717069
 21
14.077220
 31
0.000000
  6
CONTINUOUS
  0
LINE
  8
WHITE
 10
0.717069
 20
14.077220
 30
0.000000
 11
13.720746
 21
14.077220
 31
0.000000
  6
CONTINUOUS
  0
LINE
  8
WHITE
 10
13.720746
 20
14.077220
 30
0.000000
 11
13.720746
 21
13.907896
 31
0.000000
  6
CONTINUOUS
  0
LINE
  8
WHITE
 10
13.720746
 20
13.907896
 30
0.000000
 11
0.717069
 21
13.907896
 31
0.000000
  6
CONTINUOUS
  0
LINE
  8
WHITE
 10
14.068241
 20
13.765454
 30
0.000000
 11
13.899183
 21
13.765454
 31
0.000000
  6
CONTINUOUS
  0
LINE
  8
WHITE
 10
13.899183
 20
13.765454
 30
0.000000
 11
13.899183
 21
0.750686
 31
0.000000
  6
CONTINUOUS
  0
LINE
  8
WHITE
 10
13.899183
 20
0.750686
 30
0.000000
 11
14.068241
 21
0.750686
 31
0.000000
  6
CONTINUOUS
  0
LINE
  8
WHITE
 10
14.068241
 20
0.750686
 30
0.000000
 11
14.068241
 21
13.765454
 31
0.000000
  6
CONTINUOUS
  0
LINE
  8
WHITE
 10
0.531358
 20
13.727940
 30
0.000000
 11
0.363058
 21
13.727940
 31
0.000000
  6
CONTINUOUS
  0
LINE
  8
WHITE
 10
0.363058
 20
13.727940
 30
0.000000
 11
0.363058
 21
0.750686
 31
0.000000
  6
CONTINUOUS
  0
LINE
  8
WHITE
 10
0.363058
 20
0.750686
 30
0.000000
 11
0.531358
 21
0.750686
 31
0.000000
  6
CONTINUOUS
  0
LINE
  8
WHITE
 10
0.531358
 20
0.750686
 30
0.000000
 11
0.531358
 21
13.727940
 31
0.000000
  6
CONTINUOUS
  0
LINE
  8
WHITE
 10
13.683487
 20
0.398103
 30
0.000000
 11
0.717069
 21
0.398103
 31
0.000000
  6
CONTINUOUS
  0
LINE
  8
WHITE
 10
0.717069
 20
0.398103
 30
0.000000
 11
0.717069
 21
0.564415
 31
0.000000
  6
CONTINUOUS
  0
LINE
  8
WHITE
 10
0.717069
 20
0.564415
 30
0.000000
 11
13.683487
 21
0.564415
 31
0.000000
  6
CONTINUOUS
  0
LINE
  8
WHITE
 10
13.683487
 20
0.564415
 30
0.000000
 11
13.683487
 21
0.398103
 31
0.000000
  6
CONTINUOUS
  0
ARC
  8
WHITE
 10
12.030158
 20
10.102182
 30
0.000000
 40
0.133858
 50
-3.751977
 51
39.984944
  6
CONTINUOUS
  0
ARC
  8
WHITE
 10
11.787821
 20
10.109620
 30
0.000000
 40
0.376257
 50
-29.938697
 51
-2.467227
  6
CONTINUOUS
  0
ARC
  8
WHITE
 10
11.018302
 20
10.512441
 30
0.000000
 40
1.244620
 50
-34.568494
 51
-28.328290
  6
CONTINUOUS
  0
ARC
  8
WHITE
 10
12.226180
 20
9.658911
 30
0.000000
 40
0.234943
 50
141.160120
 51
190.605860
  6
CONTINUOUS
  0
ARC
  8
WHITE
 10
12.243483
 20
9.659107
 30
0.000000
 40
0.252004
 50
-170.074533
 51
-146.959093
  6
CONTINUOUS
  0
ARC
  8
WHITE
 10
12.180530
 20
9.596880
 30
0.000000
 40
0.166263
 50
-153.118539
 51
-135.702864
  6
CONTINUOUS
  0
ARC
  8
WHITE
 10
12.093788
 20
9.504242
 30
0.000000
 40
0.039896
 50
-143.952825
 51
-70.451439
  6
CONTINUOUS
  0
ARC
  8
WHITE
 10
11.863126
 20
9.788545
 30
0.000000
 40
0.403931
 50
-52.836564
 51
-31.882246
  6
CONTINUOUS
  0
ARC
  8
WHITE
 10
-12.381209
 20
26.896565
 30
0.000000
 40
30.076010
 50
-35.164064
 51
-34.740109
  6
CONTINUOUS
  0
ARC
  8
WHITE
 10
12.607856
 20
9.554386
 30
0.000000
 40
0.341330
 50
124.781194
 51
143.461435
  6
CONTINUOUS
  0
ARC
  8
WHITE
 10
12.504106
 20
9.726275
 30
0.000000
 40
0.141552
 50
85.180471
 51
129.985290
  6
CONTINUOUS
  0
LINE
  8
WHITE
 10
12.515999
 20
9.867327
 30
0.000000
 11
12.527631
 21
9.853130
 31
0.000000
  6
CONTINUOUS
  0
ARC
  8
WHITE
 10
12.206128
 20
9.828321
 30
0.000000
 40
0.322459
 50
-32.997154
 51
4.412542
  6
CONTINUOUS
  0
ARC
  8
WHITE
 10
15.007465
 20
8.006608
 30
0.000000
 40
3.019116
 50
146.959856
 51
148.963221
  6
CONTINUOUS
  0
ARC
  8
WHITE
 10
12.541763
 20
9.472701
 30
0.000000
 40
0.151267
 50
143.239841
 51
182.999386
  6
CONTINUOUS
  0
LINE
  8
WHITE
 10
12.390703
 20
9.464786
 30
0.000000
 11
12.406108
 21
9.449170
 31
0.000000
  6
CONTINUOUS
  0
ARC
  8
WHITE
 10
12.467636
 20
9.716685
 30
0.000000
 40
0.274500
 50
-102.952767
 51
-73.923688
  6
CONTINUOUS
  0
LINE
  8
WHITE
 10
12.543650
 20
9.452920
 30
0.000000
 11
12.662261
 21
9.481081
 31
0.000000
  6
CONTINUOUS
  0
ARC
  8
WHITE
 10
12.692017
 20
9.289789
 30
0.000000
 40
0.193592
 50
67.308837
 51
98.841673
  6
CONTINUOUS
  0
ARC
  8
WHITE
 10
13.084083
 20
10.128555
 30
0.000000
 40
0.732490
 50
-115.676916
 51
-86.393655
  6
CONTINUOUS
  0
ARC
  8
WHITE
 10
11.800873
 20
-19.942354
 30
0.000000
 40
29.369966
 50
86.676445
 51
87.405908
  6
CONTINUOUS
  0
LINE
  8
WHITE
 10
13.503581
 20
9.378214
 30
0.000000
 11
13.503581
 21
11.401753
 31
0.000000
  6
CONTINUOUS
  0
LINE
  8
WHITE
 10
13.503581
 20
11.401753
 30
0.000000
 11
13.466092
 21
11.401753
 31
0.000000
  6
CONTINUOUS
  0
ARC
  8
WHITE
 10
11.917492
 20
11.865919
 30
0.000000
 40
1.616667
 50
-91.057898
 51
-16.685195
  6
CONTINUOUS
  0
ARC
  8
WHITE
 10
11.148649
 20
10.710033
 30
0.000000
 40
0.870735
 50
-48.949274
 51
-31.929159
  6
CONTINUOUS
  0
ARC
  8
WHITE
 10
12.483698
 20
9.176157
 30
0.000000
 40
1.162768
 50
131.024128
 51
153.289668
  6
CONTINUOUS
  0
ARC
  8
WHITE
 10
11.625511
 20
9.633459
 30
0.000000
 40
0.191964
 50
160.100653
 51
261.290525
  6
CONTINUOUS
  0
ARC
  8
WHITE
 10
11.630097
 20
9.608966
 30
0.000000
 40
0.168649
 50
-101.510839
 51
-15.417407
  6
CONTINUOUS
  0
ARC
  8
WHITE
 10
10.630533
 20
9.789122
 30
0.000000
 40
1.183722
 50
-10.956922
 51
-1.739227
  6
CONTINUOUS
  0
ARC
  8
WHITE
 10
12.091677
 20
9.752731
 30
0.000000
 40
0.277967
 50
150.470389
 51
179.904366
  6
CONTINUOUS
  0
ARC
  8
WHITE
 10
12.188634
 20
9.639390
 30
0.000000
 40
0.421271
 50
128.981021
 51
143.540163
  6
CONTINUOUS
  0
ARC
  8
WHITE
 10
11.798690
 20
10.158020
 30
0.000000
 40
0.228362
 50
-56.831298
 51
-16.471192
  6
CONTINUOUS
  0
ARC
  8
WHITE
 10
12.145549
 20
10.055480
 30
0.000000
 40
0.133336
 50
95.520602
 51
163.534694
  6
CONTINUOUS
  0
ARC
  8
WHITE
 10
10.953303
 20
12.962072
 30
0.000000
 40
0.242070
 50
-111.559046
 51
-79.017330
  6
CONTINUOUS
  0
ARC
  8
WHITE
 10
11.202674
 20
12.353607
 30
0.000000
 40
0.422879
 50
83.774895
 51
118.727458
  6
CONTINUOUS
  0
ARC
  8
WHITE
 10
10.912734
 20
9.928848
 30
0.000000
 40
2.864892
 50
78.750650
 51
83.268863
  6
CONTINUOUS
  0
ARC
  8
WHITE
 10
11.887228
 20
17.314234
 30
0.000000
 40
4.594373
 50
-95.190145
 51
-90.260343
  6
CONTINUOUS
  0
ARC
  8
WHITE
 10
11.672420
 20
10.518666
 30
0.000000
 40
2.209768
 50
77.279436
 51
84.965182
  6
CONTINUOUS
  0
ARC
  8
WHITE
 10
12.266425
 20
13.044058
 30
0.000000
 40
0.385145
 50
-106.195353
 51
-73.083932
  6
CONTINUOUS
  0
ARC
  8
WHITE
 10
12.549744
 20
12.247194
 30
0.000000
 40
0.461346
 50
91.178456
 51
111.789886
  6
CONTINUOUS
  0
ARC
  8
WHITE
 10
12.759102
 20
13.060045
 30
0.000000
 40
0.414147
 50
-121.899247
 51
-87.312377
  6
CONTINUOUS
  0
LINE
  8
WHITE
 10
12.778522
 20
12.646353
 30
0.000000
 11
12.903627
 21
12.646353
 31
0.000000
  6
CONTINUOUS
  0
ARC
  8
WHITE
 10
12.927951
 20
12.899189
 30
0.000000
 40
0.254004
 50
-95.495330
 51
-67.237361
  6
CONTINUOUS
  0
ARC
  8
WHITE
 10
11.917492
 20
11.865919
 30
0.000000
 40
1.366667
 50
35.779706
 51
140.406918
  6
CONTINUOUS
  0
ARC
  8
WHITE
 10
12.206147
 20
11.328851
 30
0.000000
 40
0.109066
 50
81.838495
 51
117.832908
  6
CONTINUOUS
  0
ARC
  8
WHITE
 10
12.210243
 20
9.938949
 30
0.000000
 40
1.497907
 50
79.620414
 51
89.564419
  6
CONTINUOUS
  0
ARC
  8
WHITE
 10
12.638691
 20
12.163328
 30
0.000000
 40
0.767543
 50
-101.922971
 51
-87.392777
  6
CONTINUOUS
  0
ARC
  8
WHITE
 10
12.634881
 20
11.655236
 30
0.000000
 40
0.261539
 50
-81.485249
 51
-49.485710
  6
CONTINUOUS
  0
ARC
  8
WHITE
 10
12.946702
 20
11.317584
 30
0.000000
 40
0.198520
 50
104.296834
 51
135.632056
  6
CONTINUOUS
  0
ARC
  8
WHITE
 10
12.910746
 20
11.373774
 30
0.000000
 40
0.136808
 50
61.164994
 51
95.481331
  6
CONTINUOUS
  0
ARC
  8
WHITE
 10
13.132850
 20
11.792075
 30
0.000000
 40
0.336824
 50
-117.614262
 51
-96.652011
  6
CONTINUOUS
  0
ARC
  8
WHITE
 10
12.962990
 20
10.198601
 30
0.000000
 40
1.265699
 50
78.482609
 51
84.066360
  6
CONTINUOUS
  0
ARC
  8
WHITE
 10
11.917492
 20
11.865919
 30
0.000000
 40
1.366667
 50
-85.679263
 51
-18.210928
  6
CONTINUOUS
  0
LINE
  8
WHITE
 10
12.020456
 20
10.503136
 30
0.000000
 11
12.024115
 21
10.529520
 31
0.000000
  6
CONTINUOUS
  0
LINE
  8
WHITE
 10
12.024115
 20
10.529520
 30
0.000000
 11
12.026268
 21
10.538010
 31
0.000000
  6
CONTINUOUS
  0
LINE
  8
WHITE
 10
12.026268
 20
10.538010
 30
0.000000
 11
12.041029
 21
10.570095
 31
0.000000
  6
CONTINUOUS
  0
LINE
  8
WHITE
 10
12.041029
 20
10.570095
 30
0.000000
 11
12.051279
 21
10.588289
 31
0.000000
  6
CONTINUOUS
  0
LINE
  8
WHITE
 10
12.051279
 20
10.588289
 30
0.000000
 11
12.054478
 21
10.594429
 31
0.000000
  6
CONTINUOUS
  0
LINE
  8
WHITE
 10
12.054478
 20
10.594429
 30
0.000000
 11
12.075534
 21
10.658365
 31
0.000000
  6
CONTINUOUS
  0
LINE
  8
WHITE
 10
12.075534
 20
10.658365
 30
0.000000
 11
12.087731
 21
10.727644
 31
0.000000
  6
CONTINUOUS
  0
LINE
  8
WHITE
 10
12.087731
 20
10.727644
 30
0.000000
 11
12.092307
 21
10.750721
 31
0.000000
  6
CONTINUOUS
  0
LINE
  8
WHITE
 10
12.092307
 20
10.750721
 30
0.000000
 11
12.123872
 21
10.867743
 31
0.000000
  6
CONTINUOUS
  0
LINE
  8
WHITE
 10
12.123872
 20
10.867743
 30
0.000000
 11
12.130135
 21
10.907013
 31
0.000000
  6
CONTINUOUS
  0
LINE
  8
WHITE
 10
12.130135
 20
10.907013
 30
0.000000
 11
12.130135
 21
10.987360
 31
0.000000
  6
CONTINUOUS
  0
LINE
  8
WHITE
 10
12.130135
 20
10.987360
 30
0.000000
 11
12.134641
 21
11.087256
 31
0.000000
  6
CONTINUOUS
  0
LINE
  8
WHITE
 10
12.134641
 20
11.087256
 30
0.000000
 11
12.139858
 21
11.120075
 31
0.000000
  6
CONTINUOUS
  0
LINE
  8
WHITE
 10
12.139858
 20
11.120075
 30
0.000000
 11
12.165166
 21
11.214168
 31
0.000000
  6
CONTINUOUS
  0
LINE
  8
WHITE
 10
12.165166
 20
11.214168
 30
0.000000
 11
12.174780
 21
11.245061
 31
0.000000
  6
CONTINUOUS
  0
LINE
  8
WHITE
 10
12.174780
 20
11.245061
 30
0.000000
 11
12.182028
 21
11.271752
 31
0.000000
  6
CONTINUOUS
  0
LINE
  8
WHITE
 10
12.182028
 20
11.271752
 30
0.000000
 11
12.184441
 21
11.287663
 31
0.000000
  6
CONTINUOUS
  0
LINE
  8
WHITE
 10
12.184441
 20
11.287663
 30
0.000000
 11
12.184789
 21
11.300375
 31
0.000000
  6
CONTINUOUS
  0
LINE
  8
WHITE
 10
12.184789
 20
11.300375
 30
0.000000
 11
12.183897
 21
11.310616
 31
0.000000
  6
CONTINUOUS
  0
LINE
  8
WHITE
 10
12.183897
 20
11.310616
 30
0.000000
 11
12.166299
 21
11.366200
 31
0.000000
  6
CONTINUOUS
  0
LINE
  8
WHITE
 10
12.166299
 20
11.366200
 30
0.000000
 11
12.155502
 21
11.395723
 31
0.000000
  6
CONTINUOUS
  0
LINE
  8
WHITE
 10
12.155502
 20
11.395723
 30
0.000000
 11
12.152343
 21
11.414385
 31
0.000000
  6
CONTINUOUS
  0
LINE
  8
WHITE
 10
12.152343
 20
11.414385
 30
0.000000
 11
12.155225
 21
11.425299
 31
0.000000
  6
CONTINUOUS
  0
ARC
  8
WHITE
 10
8.148334
 20
4.099116
 30
0.000000
 40
0.029424
 50
32.153241
 51
147.846760
  6
CONTINUOUS
  0
ARC
  8
WHITE
 10
7.190637
 20
5.121035
 30
0.000000
 40
1.372096
 50
-66.416823
 51
-47.170019
  6
CONTINUOUS
  0
LINE
  8
WHITE
 10
7.739586
 20
3.863536
 30
0.000000
 11
7.723269
 21
2.736087
 31
0.000000
  6
CONTINUOUS
  0
ARC
  8
WHITE
 10
7.803512
 20
2.731309
 30
0.000000
 40
0.080386
 50
176.593052
 51
354.887276
  6
CONTINUOUS
  0
ARC
  8
WHITE
 10
2.174220
 20
5.084850
 30
0.000000
 40
6.178162
 50
-22.464104
 51
-10.616385
  6
CONTINUOUS
  0
ARC
  8
WHITE
 10
7.750769
 20
3.830305
 30
0.000000
 40
0.509322
 50
13.202570
 51
33.953920
  6
CONTINUOUS
  0
ARC
  8
WHITE
 10
2.140243
 20
2.404698
 30
0.000000
 40
0.283549
 50
-105.337305
 51
-84.867228
  6
CONTINUOUS
  0
ARC
  8
WHITE
 10
2.039194
 20
2.863738
 30
0.000000
 40
0.752151
 50
-80.324211
 51
-57.128435
  6
CONTINUOUS
  0
LINE
  8
WHITE
 10
2.447430
 20
2.232014
 30
0.000000
 11
2.472491
 21
2.206953
 31
0.000000
  6
CONTINUOUS
  0
LINE
  8
WHITE
 10
2.472491
 20
2.206953
 30
0.000000
 11
2.472491
 21
2.172871
 31
0.000000
  6
CONTINUOUS
  0
LINE
  8
WHITE
 10
2.472491
 20
2.172871
 30
0.000000
 11
2.370891
 21
2.078529
 31
0.000000
  6
CONTINUOUS
  0
LINE
  8
WHITE
 10
2.370891
 20
2.078529
 30
0.000000
 11
2.370891
 21
2.033104
 31
0.000000
  6
CONTINUOUS
  0
LINE
  8
WHITE
 10
2.370891
 20
2.033104
 30
0.000000
 11
2.416046
 21
2.015042
 31
0.000000
  6
CONTINUOUS
  0
LINE
  8
WHITE
 10
2.416046
 20
2.015042
 30
0.000000
 11
2.595821
 21
2.015042
 31
0.000000
  6
CONTINUOUS
  0
LINE
  8
WHITE
 10
2.595821
 20
2.015042
 30
0.000000
 11
2.707396
 21
1.956598
 31
0.000000
  6
CONTINUOUS
  0
LINE
  8
WHITE
 10
2.707396
 20
1.956598
 30
0.000000
 11
2.755366
 21
1.944606
 31
0.000000
  6
CONTINUOUS
  0
LINE
  8
WHITE
 10
2.755366
 20
1.944606
 30
0.000000
 11
3.009998
 21
1.946574
 31
0.000000
  6
CONTINUOUS
  0
ARC
  8
WHITE
 10
3.136788
 20
2.128083
 30
0.000000
 40
0.221408
 50
-124.935487
 51
-102.932863
  6
CONTINUOUS
  0
ARC
  8
WHITE
 10
3.106856
 20
1.967522
 30
0.000000
 40
0.058612
 50
-109.557916
 51
-47.672662
  6
CONTINUOUS
  0
ARC
  8
WHITE
 10
3.310014
 20
1.780535
 30
0.000000
 40
0.217788
 50
113.957853
 51
138.729851
  6
CONTINUOUS
  0
ARC
  8
WHITE
 10
3.083570
 20
2.216226
 30
0.000000
 40
0.273966
 50
-59.752132
 51
-39.998970
  6
CONTINUOUS
  0
LINE
  8
WHITE
 10
3.293443
 20
2.040128
 30
0.000000
 11
3.334586
 21
2.050413
 31
0.000000
  6
CONTINUOUS
  0
LINE
  8
WHITE
 10
3.334586
 20
2.050413
 30
0.000000
 11
3.353024
 21
2.031975
 31
0.000000
  6
CONTINUOUS
  0
ARC
  8
WHITE
 10
3.608697
 20
1.953331
 30
0.000000
 40
0.267495
 50
162.902269
 51
180.509261
  6
CONTINUOUS
  0
LINE
  8
WHITE
 10
3.341213
 20
1.950953
 30
0.000000
 11
3.546542
 21
1.943873
 31
0.000000
  6
CONTINUOUS
  0
ARC
  8
WHITE
 10
3.710963
 20
2.172876
 30
0.000000
 40
0.281916
 50
-125.677706
 51
-111.021242
  6
CONTINUOUS
  0
ARC
  8
WHITE
 10
3.517567
 20
1.706399
 30
0.000000
 40
0.223280
 50
38.031946
 51
65.591360
  6
CONTINUOUS
  0
ARC
  8
WHITE
 10
4.409545
 20
2.772062
 30
0.000000
 40
1.172254
 50
-127.653203
 51
-122.366295
  6
CONTINUOUS
  0
LINE
  8
WHITE
 10
3.782002
 20
1.781926
 30
0.000000
 11
3.782002
 21
1.761042
 31
0.000000
  6
CONTINUOUS
  0
LINE
  8
WHITE
 10
3.782002
 20
1.761042
 30
0.000000
 11
3.759424
 21
1.738464
 31
0.000000
  6
CONTINUOUS
  0
ARC
  8
WHITE
 10
3.743398
 20
1.845018
 30
0.000000
 40
0.107753
 50
-127.062552
 51
-81.446607
  6
CONTINUOUS
  0
ARC
  8
WHITE
 10
5.117837
 20
4.906100
 30
0.000000
 40
3.460612
 50
-118.813365
 51
-114.578048
  6
CONTINUOUS
  0
LINE
  8
WHITE
 10
3.449967
 20
1.873931
 30
0.000000
 11
3.410456
 21
1.873931
 31
0.000000
  6
CONTINUOUS
  0
LINE
  8
WHITE
 10
3.410456
 20
1.873931
 30
0.000000
 11
3.371843
 21
1.846349
 31
0.000000
  6
CONTINUOUS
  0
LINE
  8
WHITE
 10
3.371843
 20
1.846349
 30
0.000000
 11
3.308622
 21
1.840603
 31
0.000000
  6
CONTINUOUS
  0
ARC
  8
WHITE
 10
3.230593
 20
1.912562
 30
0.000000
 40
0.106145
 50
-93.183724
 51
-42.682276
  6
CONTINUOUS
  0
ARC
  8
WHITE
 10
3.201959
 20
4.343860
 30
0.000000
 40
2.537381
 50
-93.154747
 51
-89.486547
  6
CONTINUOUS
  0
ARC
  8
WHITE
 10
3.047422
 20
2.210418
 30
0.000000
 40
0.400370
 50
-105.191482
 51
-87.867453
  6
CONTINUOUS
  0
ARC
  8
WHITE
 10
2.879497
 20
1.755344
 30
0.000000
 40
0.093215
 50
47.471513
 51
104.205467
  6
CONTINUOUS
  0
LINE
  8
WHITE
 10
2.856622
 20
1.845708
 30
0.000000
 11
2.787997
 21
1.845708
 31
0.000000
  6
CONTINUOUS
  0
ARC
  8
WHITE
 10
2.782446
 20
1.946946
 30
0.000000
 40
0.101390
 50
-115.685111
 51
-86.861414
  6
CONTINUOUS
  0
ARC
  8
WHITE
 10
2.680649
 20
1.807659
 30
0.000000
 40
0.075119
 50
39.632605
 51
99.178121
  6
CONTINUOUS
  0
ARC
  8
WHITE
 10
2.694008
 20
2.042909
 30
0.000000
 40
0.163074
 50
-125.852842
 51
-98.939990
  6
CONTINUOUS
  0
ARC
  8
WHITE
 10
2.578818
 20
3.045726
 30
0.000000
 40
1.135162
 50
-100.092167
 51
-89.006789
  6
CONTINUOUS
  0
LINE
  8
WHITE
 10
2.379901
 20
1.928128
 30
0.000000
 11
2.281303
 21
1.977426
 31
0.000000
  6
CONTINUOUS
  0
ARC
  8
WHITE
 10
2.348693
 20
2.123242
 30
0.000000
 40
0.160635
 50
-153.851440
 51
-114.804238
  6
CONTINUOUS
  0
LINE
  8
WHITE
 10
2.204498
 20
2.052450
 30
0.000000
 11
2.016329
 21
2.057984
 31
0.000000
  6
CONTINUOUS
  0
LINE
  8
WHITE
 10
2.016329
 20
2.057984
 30
0.000000
 11
1.989486
 21
2.071406
 31
0.000000
  6
CONTINUOUS
  0
LINE
  8
WHITE
 10
1.989486
 20
2.071406
 30
0.000000
 11
1.893445
 21
2.161797
 31
0.000000
  6
CONTINUOUS
  0
ARC
  8
WHITE
 10
1.876477
 20
2.237811
 30
0.000000
 40
0.077885
 50
-129.630697
 51
-77.416567
  6
CONTINUOUS
  0
LINE
  8
WHITE
 10
1.826800
 20
2.177827
 30
0.000000
 11
1.845157
 21
2.257378
 31
0.000000
  6
CONTINUOUS
  0
LINE
  8
WHITE
 10
1.845157
 20
2.257378
 30
0.000000
 11
1.834559
 21
2.294474
 31
0.000000
  6
CONTINUOUS
  0
LINE
  8
WHITE
 10
1.834559
 20
2.294474
 30
0.000000
 11
1.798121
 21
2.304885
 31
0.000000
  6
CONTINUOUS
  0
ARC
  8
WHITE
 10
1.672692
 20
2.452392
 30
0.000000
 40
0.193625
 50
-76.065421
 51
-49.624873
  6
CONTINUOUS
  0
ARC
  8
WHITE
 10
1.717060
 20
2.368381
 30
0.000000
 40
0.103940
 50
-138.060168
 51
-88.754058
  6
CONTINUOUS
  0
LINE
  8
WHITE
 10
1.639744
 20
2.298912
 30
0.000000
 11
1.605712
 21
2.293240
 31
0.000000
  6
CONTINUOUS
  0
LINE
  8
WHITE
 10
1.605712
 20
2.293240
 30
0.000000
 11
1.536034
 21
2.235175
 31
0.000000
  6
CONTINUOUS
  0
LINE
  8
WHITE
 10
1.536034
 20
2.235175
 30
0.000000
 11
1.483536
 21
2.235175
 31
0.000000
  6
CONTINUOUS
  0
LINE
  8
WHITE
 10
1.483536
 20
2.235175
 30
0.000000
 11
1.462985
 21
2.251616
 31
0.000000
  6
CONTINUOUS
  0
LINE
  8
WHITE
 10
1.462985
 20
2.251616
 30
0.000000
 11
1.380034
 21
2.410605
 31
0.000000
  6
CONTINUOUS
  0
LINE
  8
WHITE
 10
1.380034
 20
2.410605
 30
0.000000
 11
1.386563
 21
2.560770
 31
0.000000
  6
CONTINUOUS
  0
LINE
  8
WHITE
 10
1.386563
 20
2.560770
 30
0.000000
 11
1.418686
 21
2.625015
 31
0.000000
  6
CONTINUOUS
  0
LINE
  8
WHITE
 10
1.418686
 20
2.625015
 30
0.000000
 11
1.430209
 21
2.792098
 31
0.000000
  6
CONTINUOUS
  0
LINE
  8
WHITE
 10
1.430209
 20
2.792098
 30
0.000000
 11
1.469508
 21
2.824847
 31
0.000000
  6
CONTINUOUS
  0
LINE
  8
WHITE
 10
1.469508
 20
2.824847
 30
0.000000
 11
1.502912
 21
2.813713
 31
0.000000
  6
CONTINUOUS
  0
ARC
  8
WHITE
 10
1.325206
 20
2.881674
 30
0.000000
 40
0.190258
 50
-48.672056
 51
-20.928742
  6
CONTINUOUS
  0
LINE
  8
WHITE
 10
1.450846
 20
2.738801
 30
0.000000
 11
1.450846
 21
2.650953
 31
0.000000
  6
CONTINUOUS
  0
ARC
  8
WHITE
 10
1.621582
 20
2.614764
 30
0.000000
 40
0.174529
 50
168.032763
 51
196.691430
  6
CONTINUOUS
  0
LINE
  8
WHITE
 10
1.454407
 20
2.564636
 30
0.000000
 11
1.473424
 21
2.545620
 31
0.000000
  6
CONTINUOUS
  0
LINE
  8
WHITE
 10
1.473424
 20
2.545620
 30
0.000000
 11
1.501646
 21
2.545620
 31
0.000000
  6
CONTINUOUS
  0
ARC
  8
WHITE
 10
1.372687
 20
2.663253
 30
0.000000
 40
0.174551
 50
-42.370268
 51
-17.204611
  6
CONTINUOUS
  0
LINE
  8
WHITE
 10
1.539428
 20
2.611623
 30
0.000000
 11
1.594377
 21
2.666573
 31
0.000000
  6
CONTINUOUS
  0
LINE
  8
WHITE
 10
1.594377
 20
2.666573
 30
0.000000
 11
1.625824
 21
2.656090
 31
0.000000
  6
CONTINUOUS
  0
LINE
  8
WHITE
 10
1.625824
 20
2.656090
 30
0.000000
 11
1.625824
 21
2.609419
 31
0.000000
  6
CONTINUOUS
  0
ARC
  8
WHITE
 10
1.811831
 20
2.475354
 30
0.000000
 40
0.229286
 50
144.217911
 51
163.271712
  6
CONTINUOUS
  0
ARC
  8
WHITE
 10
1.500585
 20
2.531161
 30
0.000000
 40
0.092228
 50
-41.762213
 51
6.342694
  6
CONTINUOUS
  0
LINE
  8
WHITE
 10
1.569380
 20
2.469734
 30
0.000000
 11
1.569380
 21
2.444020
 31
0.000000
  6
CONTINUOUS
  0
ARC
  8
WHITE
 10
1.635798
 20
2.504193
 30
0.000000
 40
0.089623
 50
-137.824344
 51
-60.669232
  6
CONTINUOUS
  0
ARC
  8
WHITE
 10
2.507488
 20
1.436636
 30
0.000000
 40
1.290035
 50
113.779378
 51
129.917106
  6
CONTINUOUS
  0
LINE
  8
WHITE
 10
1.987325
 20
2.617154
 30
0.000000
 11
2.083075
 21
2.606515
 31
0.000000
  6
CONTINUOUS
  0
LINE
  8
WHITE
 10
2.083075
 20
2.606515
 30
0.000000
 11
2.090866
 21
2.567559
 31
0.000000
  6
CONTINUOUS
  0
ARC
  8
WHITE
 10
1.885696
 20
2.877436
 30
0.000000
 40
0.371643
 50
-84.128558
 51
-56.491360
  6
CONTINUOUS
  0
ARC
  8
WHITE
 10
1.425132
 20
3.034881
 30
0.000000
 40
0.725574
 50
-53.640521
 51
-46.594712
  6
CONTINUOUS
  0
ARC
  8
WHITE
 10
1.872478
 20
2.344481
 30
0.000000
 40
0.107468
 50
99.204340
 51
147.046252
  6
CONTINUOUS
  0
LINE
  8
WHITE
 10
1.782300
 20
2.402940
 30
0.000000
 11
1.787468
 21
2.377105
 31
0.000000
  6
CONTINUOUS
  0
LINE
  8
WHITE
 10
1.787468
 20
2.377105
 30
0.000000
 11
1.818292
 21
2.364774
 31
0.000000
  6
CONTINUOUS
  0
LINE
  8
WHITE
 10
1.818292
 20
2.364774
 30
0.000000
 11
1.957586
 21
2.375918
 31
0.000000
  6
CONTINUOUS
  0
LINE
  8
WHITE
 10
1.957586
 20
2.375918
 30
0.000000
 11
2.076822
 21
2.438375
 31
0.000000
  6
CONTINUOUS
  0
LINE
  8
WHITE
 10
2.076822
 20
2.438375
 30
0.000000
 11
2.343476
 21
2.438375
 31
0.000000
  6
CONTINUOUS
  0
LINE
  8
WHITE
 10
2.343476
 20
2.438375
 30
0.000000
 11
2.380244
 21
2.419991
 31
0.000000
  6
CONTINUOUS
  0
LINE
  8
WHITE
 10
2.380244
 20
2.419991
 30
0.000000
 11
2.390555
 21
2.389058
 31
0.000000
  6
CONTINUOUS
  0
LINE
  8
WHITE
 10
2.390555
 20
2.389058
 30
0.000000
 11
2.366000
 21
2.370642
 31
0.000000
  6
CONTINUOUS
  0
LINE
  8
WHITE
 10
2.366000
 20
2.370642
 30
0.000000
 11
2.139904
 21
2.370642
 31
0.000000
  6
CONTINUOUS
  0
LINE
  8
WHITE
 10
2.139904
 20
2.370642
 30
0.000000
 11
2.075681
 21
2.359939
 31
0.000000
  6
CONTINUOUS
  0
ARC
  8
WHITE
 10
1.708860
 20
2.596926
 30
0.000000
 40
0.436715
 50
-43.545924
 51
-32.864788
  6
CONTINUOUS
  0
ARC
  8
WHITE
 10
2.108851
 20
2.191943
 30
0.000000
 40
0.133430
 50
128.712833
 51
163.300932
  6
CONTINUOUS
  0
ARC
  8
WHITE
 10
2.324829
 20
2.437244
 30
0.000000
 40
0.401271
 50
-148.951445
 51
-130.308834
  6
CONTINUOUS
  0
ARC
  8
WHITE
 10
11.917492
 20
11.865919
 30
0.000000
 40
1.616667
 50
27.165165
 51
73.601219
  6
CONTINUOUS
  0
LINE
  8
WHITE
 10
12.373911
 20
13.416820
 30
0.000000
 11
13.503581
 21
13.416820
 31
0.000000
  6
CONTINUOUS
  0
LINE
  8
WHITE
 10
13.503581
 20
13.416820
 30
0.000000
 11
13.503581
 21
12.604020
 31
0.000000
  6
CONTINUOUS
  0
LINE
  8
WHITE
 10
13.503581
 20
12.604020
 30
0.000000
 11
13.355831
 21
12.604020
 31
0.000000
  6
CONTINUOUS
  0
LINE
  8
WHITE
 10
10.971592
 20
2.647220
 30
0.000000
 11
11.122461
 21
2.541052
 31
0.000000
  6
CONTINUOUS
  0
ARC
  8
WHITE
 10
9.314593
 20
0.690956
 30
0.000000
 40
2.586743
 50
43.625921
 51
45.661403
  6
CONTINUOUS
  0
ARC
  8
WHITE
 10
11.082581
 20
2.326493
 30
0.000000
 40
0.182111
 50
25.975647
 51
55.001279
  6
CONTINUOUS
  0
LINE
  8
WHITE
 10
11.246296
 20
2.406256
 30
0.000000
 11
11.224291
 21
2.378750
 31
0.000000
  6
CONTINUOUS
  0
ARC
  8
WHITE
 10
11.097318
 20
3.493407
 30
0.000000
 40
1.121866
 50
-91.876621
 51
-83.501342
  6
CONTINUOUS
  0
ARC
  8
WHITE
 10
10.754801
 20
44.217367
 30
0.000000
 40
41.846341
 50
-90.368362
 51
-89.581326
  6
CONTINUOUS
  0
ARC
  8
WHITE
 10
10.283859
 20
1.823961
 30
0.000000
 40
0.583947
 50
69.771500
 51
83.814378
  6
CONTINUOUS
  0
ARC
  8
WHITE
 10
10.367864
 20
2.747308
 30
0.000000
 40
0.343448
 50
-111.429385
 51
-93.519733
  6
CONTINUOUS
  0
ARC
  8
WHITE
 10
10.123516
 20
2.055252
 30
0.000000
 40
0.390865
 50
72.295074
 51
95.938151
  6
CONTINUOUS
  0
ARC
  8
WHITE
 10
10.062861
 20
2.543411
 30
0.000000
 40
0.101428
 50
-124.342416
 51
-78.501701
  6
CONTINUOUS
  0
ARC
  8
WHITE
 10
10.050544
 20
2.605200
 30
0.000000
 40
0.152305
 50
-137.481390
 51
-107.146708
  6
CONTINUOUS
  0
LINE
  8
WHITE
 10
9.938287
 20
2.502268
 30
0.000000
 11
9.943603
 21
2.566066
 31
0.000000
  6
CONTINUOUS
  0
LINE
  8
WHITE
 10
9.943603
 20
2.566066
 30
0.000000
 11
9.977925
 21
2.600388
 31
0.000000
  6
CONTINUOUS
  0
LINE
  8
WHITE
 10
9.977925
 20
2.600388
 30
0.000000
 11
10.356783
 21
2.788331
 31
0.000000
  6
CONTINUOUS
  0
LINE
  8
WHITE
 10
10.356783
 20
2.788331
 30
0.000000
 11
10.658487
 21
2.788331
 31
0.000000
  6
CONTINUOUS
  0
ARC
  8
WHITE
 10
11.691554
 20
3.891961
 30
0.000000
 40
1.511696
 50
-133.108498
 51
-129.776072
  6
CONTINUOUS
  0
ARC
  8
WHITE
 10
10.678895
 20
2.390703
 30
0.000000
 40
0.342478
 50
60.350696
 51
82.366625
  6
CONTINUOUS
  0
ARC
  8
WHITE
 10
10.980079
 20
2.878013
 30
0.000000
 40
0.230949
 50
-124.787348
 51
-92.105931
  6
CONTINUOUS
  0
ARC
  8
WHITE
 10
9.114965
 20
1.429186
 30
0.000000
 40
0.117385
 50
-17.995606
 51
16.912437
  6
CONTINUOUS
  0
ARC
  8
WHITE
 10
9.188459
 20
1.515571
 30
0.000000
 40
0.128446
 50
-118.546858
 51
-72.722467
  6
CONTINUOUS
  0
ARC
  8
WHITE
 10
9.167471
 20
1.589815
 30
0.000000
 40
0.191386
 50
-133.329482
 51
-102.184571
  6
CONTINUOUS
  0
LINE
  8
WHITE
 10
9.036144
 20
1.450597
 30
0.000000
 11
9.003113
 21
1.450597
 31
0.000000
  6
CONTINUOUS
  0
ARC
  8
WHITE
 10
8.839546
 20
1.600595
 30
0.000000
 40
0.221931
 50
-81.385601
 51
-42.522175
  6
CONTINUOUS
  0
LINE
  8
WHITE
 10
8.872788
 20
1.381168
 30
0.000000
 11
8.301533
 21
1.388073
 31
0.000000
  6
CONTINUOUS
  0
ARC
  8
WHITE
 10
8.432114
 20
2.909374
 30
0.000000
 40
1.526895
 50
-108.106953
 51
-94.905970
  6
CONTINUOUS
  0
LINE
  8
WHITE
 10
7.957568
 20
1.458094
 30
0.000000
 11
7.936401
 21
1.465149
 31
0.000000
  6
CONTINUOUS
  0
LINE
  8
WHITE
 10
7.936401
 20
1.465149
 30
0.000000
 11
7.901458
 21
1.490108
 31
0.000000
  6
CONTINUOUS
  0
LINE
  8
WHITE
 10
7.901458
 20
1.490108
 30
0.000000
 11
7.484757
 21
1.490108
 31
0.000000
  6
CONTINUOUS
  0
LINE
  8
WHITE
 10
7.484757
 20
1.490108
 30
0.000000
 11
7.484757
 21
1.519357
 31
0.000000
  6
CONTINUOUS
  0
LINE
  8
WHITE
 10
7.484757
 20
1.519357
 30
0.000000
 11
7.543432
 21
1.554562
 31
0.000000
  6
CONTINUOUS
  0
LINE
  8
WHITE
 10
7.543432
 20
1.554562
 30
0.000000
 11
7.721610
 21
1.560310
 31
0.000000
  6
CONTINUOUS
  0
LINE
  8
WHITE
 10
7.721610
 20
1.560310
 30
0.000000
 11
7.760336
 21
1.587971
 31
0.000000
  6
CONTINUOUS
  0
LINE
  8
WHITE
 10
7.760336
 20
1.587971
 30
0.000000
 11
7.823624
 21
1.593245
 31
0.000000
  6
CONTINUOUS
  0
LINE
  8
WHITE
 10
7.823624
 20
1.593245
 30
0.000000
 11
7.907286
 21
1.527511
 31
0.000000
  6
CONTINUOUS
  0
LINE
  8
WHITE
 10
7.907286
 20
1.527511
 30
0.000000
 11
7.975134
 21
1.516203
 31
0.000000
  6
CONTINUOUS
  0
LINE
  8
WHITE
 10
7.975134
 20
1.516203
 30
0.000000
 11
8.014626
 21
1.487995
 31
0.000000
  6
CONTINUOUS
  0
ARC
  8
WHITE
 10
8.238076
 20
2.111234
 30
0.000000
 40
0.662086
 50
-109.724290
 51
-92.933175
  6
CONTINUOUS
  0
LINE
  8
WHITE
 10
8.204197
 20
1.450016
 30
0.000000
 11
8.735742
 21
1.450703
 31
0.000000
  6
CONTINUOUS
  0
LINE
  8
WHITE
 10
8.735742
 20
1.450703
 30
0.000000
 11
8.818992
 21
1.475190
 31
0.000000
  6
CONTINUOUS
  0
LINE
  8
WHITE
 10
8.818992
 20
1.475190
 30
0.000000
 11
8.841456
 21
1.486421
 31
0.000000
  6
CONTINUOUS
  0
LINE
  8
WHITE
 10
8.841456
 20
1.486421
 30
0.000000
 11
8.857943
 21
1.508403
 31
0.000000
  6
CONTINUOUS
  0
ARC
  8
WHITE
 10
8.983951
 20
1.739217
 30
0.000000
 40
0.262970
 50
-138.847126
 51
-118.631555
  6
CONTINUOUS
  0
ARC
  8
WHITE
 10
9.596428
 20
2.002032
 30
0.000000
 40
0.920251
 50
-157.481308
 51
-151.729134
  6
CONTINUOUS
  0
LINE
  8
WHITE
 10
8.746342
 20
1.649590
 30
0.000000
 11
8.777335
 21
1.665086
 31
0.000000
  6
CONTINUOUS
  0
LINE
  8
WHITE
 10
8.777335
 20
1.665086
 30
0.000000
 11
8.820695
 21
1.658892
 31
0.000000
  6
CONTINUOUS
  0
ARC
  8
WHITE
 10
9.292738
 20
2.150954
 30
0.000000
 40
0.681872
 50
-133.810505
 51
-114.612090
  6
CONTINUOUS
  0
ARC
  8
WHITE
 10
9.004009
 20
1.576304
 30
0.000000
 40
0.045522
 50
-84.013028
 51
-31.976204
  6
CONTINUOUS
  0
LINE
  8
WHITE
 10
9.042624
 20
1.552197
 30
0.000000
 11
9.042624
 21
1.573521
 31
0.000000
  6
CONTINUOUS
  0
LINE
  8
WHITE
 10
9.042624
 20
1.573521
 30
0.000000
 11
9.004405
 21
1.643590
 31
0.000000
  6
CONTINUOUS
  0
LINE
  8
WHITE
 10
9.004405
 20
1.643590
 30
0.000000
 11
9.035017
 21
1.655834
 31
0.000000
  6
CONTINUOUS
  0
ARC
  8
WHITE
 10
9.259278
 20
2.003164
 30
0.000000
 40
0.413439
 50
-122.849229
 51
-107.074593
  6
CONTINUOUS
  0
LINE
  8
WHITE
 10
9.137886
 20
1.607949
 30
0.000000
 11
9.154931
 21
1.624994
 31
0.000000
  6
CONTINUOUS
  0
LINE
  8
WHITE
 10
9.154931
 20
1.624994
 30
0.000000
 11
9.167903
 21
1.832533
 31
0.000000
  6
CONTINUOUS
  0
LINE
  8
WHITE
 10
9.167903
 20
1.832533
 30
0.000000
 11
9.228891
 21
1.794415
 31
0.000000
  6
CONTINUOUS
  0
LINE
  8
WHITE
 10
9.228891
 20
1.794415
 30
0.000000
 11
9.228891
 21
1.650412
 31
0.000000
  6
CONTINUOUS
  0
ARC
  8
WHITE
 10
9.317771
 20
1.692523
 30
0.000000
 40
0.098352
 50
-154.648656
 51
-72.921423
  6
CONTINUOUS
  0
ARC
  8
WHITE
 10
9.298191
 20
1.719634
 30
0.000000
 40
0.130462
 50
-68.193071
 51
-37.220331
  6
CONTINUOUS
  0
LINE
  8
WHITE
 10
9.402080
 20
1.640720
 30
0.000000
 11
9.452032
 21
1.690671
 31
0.000000
  6
CONTINUOUS
  0
LINE
  8
WHITE
 10
9.452032
 20
1.690671
 30
0.000000
 11
9.551497
 21
1.701723
 31
0.000000
  6
CONTINUOUS
  0
LINE
  8
WHITE
 10
9.551497
 20
1.701723
 30
0.000000
 11
9.565299
 21
1.674118
 31
0.000000
  6
CONTINUOUS
  0
LINE
  8
WHITE
 10
9.565299
 20
1.674118
 30
0.000000
 11
9.455421
 21
1.564239
 31
0.000000
  6
CONTINUOUS
  0
LINE
  8
WHITE
 10
9.455421
 20
1.564239
 30
0.000000
 11
9.446832
 21
1.529880
 31
0.000000
  6
CONTINUOUS
  0
ARC
  8
WHITE
 10
9.496085
 20
1.659445
 30
0.000000
 40
0.138611
 50
-110.813894
 51
-45.592701
  6
CONTINUOUS
  0
ARC
  8
WHITE
 10
9.889437
 20
1.239916
 30
0.000000
 40
0.436524
 50
101.594686
 51
132.758166
  6
CONTINUOUS
  0
ARC
  8
WHITE
 10
9.885778
 20
1.560818
 30
0.000000
 40
0.135856
 50
77.219445
 51
128.233245
  6
CONTINUOUS
  0
LINE
  8
WHITE
 10
9.915831
 20
1.693308
 30
0.000000
 11
10.036046
 21
1.693308
 31
0.000000
  6
CONTINUOUS
  0
LINE
  8
WHITE
 10
10.036046
 20
1.693308
 30
0.000000
 11
10.036046
 21
1.653797
 31
0.000000
  6
CONTINUOUS
  0
LINE
  8
WHITE
 10
10.036046
 20
1.653797
 30
0.000000
 11
10.021371
 21
1.639123
 31
0.000000
  6
CONTINUOUS
  0
LINE
  8
WHITE
 10
10.021371
 20
1.639123
 30
0.000000
 11
9.998147
 21
1.633316
 31
0.000000
  6
CONTINUOUS
  0
LINE
  8
WHITE
 10
9.998147
 20
1.633316
 30
0.000000
 11
9.885323
 21
1.627675
 31
0.000000
  6
CONTINUOUS
  0
LINE
  8
WHITE
 10
9.885323
 20
1.627675
 30
0.000000
 11
9.691735
 21
1.527759
 31
0.000000
  6
CONTINUOUS
  0
ARC
  8
WHITE
 10
9.783461
 20
1.511250
 30
0.000000
 40
0.093199
 50
169.796728
 51
210.205585
  6
CONTINUOUS
  0
ARC
  8
WHITE
 10
9.958331
 20
1.723517
 30
0.000000
 40
0.363866
 50
-134.583482
 51
-124.269245
  6
CONTINUOUS
  0
LINE
  8
WHITE
 10
9.753444
 20
1.422818
 30
0.000000
 11
9.891351
 21
1.409026
 31
0.000000
  6
CONTINUOUS
  0
LINE
  8
WHITE
 10
9.891351
 20
1.409026
 30
0.000000
 11
9.917513
 21
1.382864
 31
0.000000
  6
CONTINUOUS
  0
LINE
  8
WHITE
 10
9.917513
 20
1.382864
 30
0.000000
 11
9.917513
 21
1.356298
 31
0.000000
  6
CONTINUOUS
  0
ARC
  8
WHITE
 10
9.961293
 20
0.414078
 30
0.000000
 40
0.943236
 50
92.660321
 51
103.408279
  6
CONTINUOUS
  0
ARC
  8
WHITE
 10
9.645434
 20
1.576135
 30
0.000000
 40
0.263116
 50
-97.264010
 51
-68.335905
  6
CONTINUOUS
  0
ARC
  8
WHITE
 10
9.710836
 20
1.752911
 30
0.000000
 40
0.448762
 50
-115.353443
 51
-102.701463
  6
CONTINUOUS
  0
ARC
  8
WHITE
 10
9.328791
 20
0.980488
 30
0.000000
 40
0.413110
 50
62.635829
 51
83.389708
  6
CONTINUOUS
  0
ARC
  8
WHITE
 10
24.726430
 20
23.515170
 30
0.000000
 40
26.927876
 50
-125.071761
 51
-124.753316
  6
CONTINUOUS
  0
LINE
  8
WHITE
 10
9.253620
 20
1.476507
 30
0.000000
 11
9.227273
 21
1.463335
 31
0.000000
  6
CONTINUOUS
  0
ARC
  8
WHITE
 10
6.349903
 20
3.864354
 30
0.000000
 40
0.979420
 50
-109.663205
 51
-85.515146
  6
CONTINUOUS
  0
ARC
  8
WHITE
 10
6.491832
 20
2.335367
 30
0.000000
 40
0.556416
 50
67.246067
 51
96.744079
  6
CONTINUOUS
  0
ARC
  8
WHITE
 10
7.092733
 20
3.998352
 30
0.000000
 40
1.212834
 50
-108.542627
 51
-88.844192
  6
CONTINUOUS
  0
ARC
  8
WHITE
 10
7.136527
 20
2.870090
 30
0.000000
 40
0.086512
 50
-102.910784
 51
-32.714315
  6
CONTINUOUS
  0
ARC
  8
WHITE
 10
7.079614
 20
2.875359
 30
0.000000
 40
0.139748
 50
-21.856254
 51
74.016057
  6
CONTINUOUS
  0
LINE
  8
WHITE
 10
7.118096
 20
3.009704
 30
0.000000
 11
6.879316
 21
3.042648
 31
0.000000
  6
CONTINUOUS
  0
ARC
  8
WHITE
 10
7.076896
 20
3.764726
 30
0.000000
 40
0.748622
 50
-136.793710
 51
-105.303090
  6
CONTINUOUS
  0
ARC
  8
WHITE
 10
6.447762
 20
3.039619
 30
0.000000
 40
0.228379
 50
68.562997
 51
119.682637
  6
CONTINUOUS
  0
ARC
  8
WHITE
 10
6.828922
 20
2.243642
 30
0.000000
 40
1.110448
 50
116.429260
 51
134.736375
  6
CONTINUOUS
  0
ARC
  8
WHITE
 10
6.124243
 20
2.960249
 30
0.000000
 40
0.105488
 50
136.806087
 51
189.936076
  6
CONTINUOUS
  0
ARC
  8
WHITE
 10
2.463563
 20
2.940524
 30
0.000000
 40
0.219939
 50
-113.468157
 51
-90.615013
  6
CONTINUOUS
  0
ARC
  8
WHITE
 10
2.265054
 20
2.495606
 30
0.000000
 40
0.267275
 50
65.480436
 51
98.259412
  6
CONTINUOUS
  0
ARC
  8
WHITE
 10
2.197862
 20
2.601767
 30
0.000000
 40
0.160939
 50
79.692642
 51
120.522888
  6
CONTINUOUS
  0
ARC
  8
WHITE
 10
2.054675
 20
2.850168
 30
0.000000
 40
0.125794
 50
-99.885994
 51
-60.758740
  6
CONTINUOUS
  0
LINE
  8
WHITE
 10
2.033078
 20
2.726242
 30
0.000000
 11
1.903494
 21
2.726242
 31
0.000000
  6
CONTINUOUS
  0
ARC
  8
WHITE
 10
1.871097
 20
3.095535
 30
0.000000
 40
0.370712
 50
-104.978420
 51
-84.986586
  6
CONTINUOUS
  0
LINE
  8
WHITE
 10
1.775285
 20
2.737419
 30
0.000000
 11
1.782093
 21
2.785072
 31
0.000000
  6
CONTINUOUS
  0
LINE
  8
WHITE
 10
1.782093
 20
2.785072
 30
0.000000
 11
1.970127
 21
2.791555
 31
0.000000
  6
CONTINUOUS
  0
LINE
  8
WHITE
 10
1.970127
 20
2.791555
 30
0.000000
 11
1.989803
 21
2.794365
 31
0.000000
  6
CONTINUOUS
  0
LINE
  8
WHITE
 10
1.989803
 20
2.794365
 30
0.000000
 11
2.039900
 21
2.822197
 31
0.000000
  6
CONTINUOUS
  0
LINE
  8
WHITE
 10
2.039900
 20
2.822197
 30
0.000000
 11
2.425551
 21
2.822197
 31
0.000000
  6
CONTINUOUS
  0
LINE
  8
WHITE
 10
2.425551
 20
2.822197
 30
0.000000
 11
2.497535
 21
2.784492
 31
0.000000
  6
CONTINUOUS
  0
LINE
  8
WHITE
 10
2.497535
 20
2.784492
 30
0.000000
 11
2.676444
 21
2.720597
 31
0.000000
  6
CONTINUOUS
  0
LINE
  8
WHITE
 10
2.676444
 20
2.720597
 30
0.000000
 11
2.751734
 21
2.720597
 31
0.000000
  6
CONTINUOUS
  0
ARC
  8
WHITE
 10
3.097864
 20
3.230646
 30
0.000000
 40
0.616406
 50
-124.161664
 51
-109.390354
  6
CONTINUOUS
  0
ARC
  8
WHITE
 10
3.170494
 20
3.164811
 30
0.000000
 40
0.585434
 50
-118.269972
 51
-91.108082
  6
CONTINUOUS
  0
ARC
  8
WHITE
 10
3.316157
 20
2.944320
 30
0.000000
 40
0.397175
 50
-113.281700
 51
-83.398606
  6
CONTINUOUS
  0
LINE
  8
WHITE
 10
3.361816
 20
2.549779
 30
0.000000
 11
3.674707
 21
2.544621
 31
0.000000
  6
CONTINUOUS
  0
ARC
  8
WHITE
 10
3.699105
 20
2.836753
 30
0.000000
 40
0.293148
 50
-94.774131
 51
-64.357285
  6
CONTINUOUS
  0
ARC
  8
WHITE
 10
3.876232
 20
2.407457
 30
0.000000
 40
0.172505
 50
81.334368
 51
106.940519
  6
CONTINUOUS
  0
ARC
  8
WHITE
 10
4.028165
 20
2.807803
 30
0.000000
 40
0.262058
 50
-118.724048
 51
-101.779735
  6
CONTINUOUS
  0
LINE
  8
WHITE
 10
3.974666
 20
2.551264
 30
0.000000
 11
3.999530
 21
2.569912
 31
0.000000
  6
CONTINUOUS
  0
LINE
  8
WHITE
 10
3.999530
 20
2.569912
 30
0.000000
 11
3.999530
 21
2.628371
 31
0.000000
  6
CONTINUOUS
  0
LINE
  8
WHITE
 10
3.999530
 20
2.628371
 30
0.000000
 11
3.931824
 21
2.726852
 31
0.000000
  6
CONTINUOUS
  0
LINE
  8
WHITE
 10
3.931824
 20
2.726852
 30
0.000000
 11
3.942869
 21
2.754464
 31
0.000000
  6
CONTINUOUS
  0
LINE
  8
WHITE
 10
3.942869
 20
2.754464
 30
0.000000
 11
3.975705
 21
2.754464
 31
0.000000
  6
CONTINUOUS
  0
LINE
  8
WHITE
 10
3.975705
 20
2.754464
 30
0.000000
 11
4.018331
 21
2.717167
 31
0.000000
  6
CONTINUOUS
  0
ARC
  8
WHITE
 10
4.247119
 20
2.784072
 30
0.000000
 40
0.238370
 50
-163.699485
 51
-128.648872
  6
CONTINUOUS
  0
LINE
  8
WHITE
 10
4.098246
 20
2.597908
 30
0.000000
 11
4.104138
 21
2.562553
 31
0.000000
  6
CONTINUOUS
  0
LINE
  8
WHITE
 10
4.104138
 20
2.562553
 30
0.000000
 11
4.132964
 21
2.527961
 31
0.000000
  6
CONTINUOUS
  0
ARC
  8
WHITE
 10
4.396546
 20
2.536951
 30
0.000000
 40
0.263735
 50
-178.046613
 51
-145.162646
  6
CONTINUOUS
  0
ARC
  8
WHITE
 10
4.313521
 20
2.460555
 30
0.000000
 40
0.152715
 50
-150.903668
 51
-129.652814
  6
CONTINUOUS
  0
ARC
  8
WHITE
 10
-8.059394
 20
-4.333459
 30
0.000000
 40
13.973609
 50
26.909093
 51
28.541089
  6
CONTINUOUS
  0
ARC
  8
WHITE
 10
4.441457
 20
2.062894
 30
0.000000
 40
0.082675
 50
-119.113108
 51
-40.321318
  6
CONTINUOUS
  0
LINE
  8
WHITE
 10
4.504491
 20
2.009397
 30
0.000000
 11
4.546119
 21
2.009397
 31
0.000000
  6
CONTINUOUS
  0
ARC
  8
WHITE
 10
4.744718
 20
2.110969
 30
0.000000
 40
0.223066
 50
-152.912976
 51
-121.348753
  6
CONTINUOUS
  0
LINE
  8
WHITE
 10
4.628669
 20
1.920467
 30
0.000000
 11
4.628669
 21
1.898020
 31
0.000000
  6
CONTINUOUS
  0
ARC
  8
WHITE
 10
4.685737
 20
1.769953
 30
0.000000
 40
0.140207
 50
114.018544
 51
159.679718
  6
CONTINUOUS
  0
LINE
  8
WHITE
 10
4.554256
 20
1.818642
 30
0.000000
 11
4.428909
 21
1.854455
 31
0.000000
  6
CONTINUOUS
  0
LINE
  8
WHITE
 10
4.428909
 20
1.854455
 30
0.000000
 11
4.397749
 21
1.873931
 31
0.000000
  6
CONTINUOUS
  0
LINE
  8
WHITE
 10
4.397749
 20
1.873931
 30
0.000000
 11
4.337658
 21
1.873931
 31
0.000000
  6
CONTINUOUS
  0
ARC
  8
WHITE
 10
3.438024
 20
3.000142
 30
0.000000
 40
1.441420
 50
-55.574477
 51
-51.381623
  6
CONTINUOUS
  0
LINE
  8
WHITE
 10
4.252909
 20
1.811169
 30
0.000000
 11
4.223176
 21
1.816125
 31
0.000000
  6
CONTINUOUS
  0
LINE
  8
WHITE
 10
4.223176
 20
1.816125
 30
0.000000
 11
4.210256
 21
1.835506
 31
0.000000
  6
CONTINUOUS
  0
LINE
  8
WHITE
 10
4.210256
 20
1.835506
 30
0.000000
 11
4.215448
 21
1.861466
 31
0.000000
  6
CONTINUOUS
  0
ARC
  8
WHITE
 10
4.487151
 20
1.649916
 30
0.000000
 40
0.344349
 50
113.766367
 51
142.095429
  6
CONTINUOUS
  0
LINE
  8
WHITE
 10
4.348376
 20
1.965063
 30
0.000000
 11
4.284724
 21
2.035787
 31
0.000000
  6
CONTINUOUS
  0
LINE
  8
WHITE
 10
4.284724
 20
2.035787
 30
0.000000
 11
4.278261
 21
2.068100
 31
0.000000
  6
CONTINUOUS
  0
LINE
  8
WHITE
 10
4.278261
 20
2.068100
 30
0.000000
 11
4.180726
 21
2.122286
 31
0.000000
  6
CONTINUOUS
  0
LINE
  8
WHITE
 10
4.180726
 20
2.122286
 30
0.000000
 11
4.137462
 21
2.122286
 31
0.000000
  6
CONTINUOUS
  0
LINE
  8
WHITE
 10
4.137462
 20
2.122286
 30
0.000000
 11
4.058580
 21
2.174740
 31
0.000000
  6
CONTINUOUS
  0
LINE
  8
WHITE
 10
4.058580
 20
2.174740
 30
0.000000
 11
4.199691
 21
2.202139
 31
0.000000
  6
CONTINUOUS
  0
LINE
  8
WHITE
 10
4.199691
 20
2.202139
 30
0.000000
 11
4.199691
 21
2.228248
 31
0.000000
  6
CONTINUOUS
  0
ARC
  8
WHITE
 10
3.977863
 20
2.136962
 30
0.000000
 40
0.239877
 50
22.367856
 51
64.076796
  6
CONTINUOUS
  0
ARC
  8
WHITE
 10
4.714291
 20
3.060415
 30
0.000000
 40
0.948540
 50
-142.286413
 51
-131.745736
  6
CONTINUOUS
  0
LINE
  8
WHITE
 10
3.963921
 20
2.480179
 30
0.000000
 11
3.164764
 21
2.477199
 31
0.000000
  6
CONTINUOUS
  0
ARC
  8
WHITE
 10
3.176726
 20
2.877604
 30
0.000000
 40
0.400583
 50
-100.274696
 51
-91.711172
  6
CONTINUOUS
  0
ARC
  8
WHITE
 10
3.021483
 20
2.396565
 30
0.000000
 40
0.120703
 50
46.036572
 51
96.104351
  6
CONTINUOUS
  0
ARC
  8
WHITE
 10
12.820536
 20
24.756408
 30
0.000000
 40
24.308085
 50
-114.174461
 51
-113.806377
  6
CONTINUOUS
  0
ARC
  8
WHITE
 10
2.857560
 20
2.727075
 30
0.000000
 40
0.147239
 50
-116.878017
 51
-86.723205
  6
CONTINUOUS
  0
LINE
  8
WHITE
 10
2.790994
 20
2.595741
 30
0.000000
 11
2.735367
 21
2.651368
 31
0.000000
  6
CONTINUOUS
  0
ARC
  8
WHITE
 10
2.771050
 20
4.131726
 30
0.000000
 40
1.480788
 50
-96.250124
 51
-91.380780
  6
CONTINUOUS
  0
ARC
  8
WHITE
 10
2.495507
 20
2.501705
 30
0.000000
 40
0.195055
 50
54.115957
 51
91.305660
  6
CONTINUOUS
  0
LINE
  8
WHITE
 10
2.491062
 20
2.696709
 30
0.000000
 11
2.461202
 21
2.720597
 31
0.000000
  6
CONTINUOUS
  0
ARC
  8
WHITE
 10
6.536785
 20
46.980552
 30
0.000000
 40
45.067189
 50
-90.321741
 51
-89.892734
  6
CONTINUOUS
  0
ARC
  8
WHITE
 10
6.280321
 20
2.002173
 30
0.000000
 40
0.088165
 50
-128.923283
 51
-87.794145
  6
CONTINUOUS
  0
ARC
  8
WHITE
 10
6.177071
 20
1.875695
 30
0.000000
 40
0.075109
 50
50.417702
 51
95.678125
  6
CONTINUOUS
  0
ARC
  8
WHITE
 10
8.404364
 20
9.171582
 30
0.000000
 40
7.559032
 50
-108.028295
 51
-107.195700
  6
CONTINUOUS
  0
LINE
  8
WHITE
 10
6.064945
 20
1.983670
 30
0.000000
 11
5.675631
 21
1.983405
 31
0.000000
  6
CONTINUOUS
  0
ARC
  8
WHITE
 10
5.624026
 20
6.294347
 30
0.000000
 40
4.311251
 50
-91.895117
 51
-89.314159
  6
CONTINUOUS
  0
ARC
  8
WHITE
 10
5.589524
 20
2.335732
 30
0.000000
 40
0.366571
 50
-137.571860
 51
-107.146471
  6
CONTINUOUS
  0
ARC
  8
WHITE
 10
5.310009
 20
2.245716
 30
0.000000
 40
0.157551
 50
-112.969004
 51
-86.747128
  6
CONTINUOUS
  0
ARC
  8
WHITE
 10
5.188985
 20
2.030701
 30
0.000000
 40
0.091864
 50
49.597407
 51
94.470943
  6
CONTINUOUS
  0
ARC
  8
WHITE
 10
5.088155
 20
2.206150
 30
0.000000
 40
0.125726
 50
-98.633561
 51
-41.838972
  6
CONTINUOUS
  0
LINE
  8
WHITE
 10
5.069282
 20
2.081849
 30
0.000000
 11
4.945149
 21
2.077416
 31
0.000000
  6
CONTINUOUS
  0
LINE
  8
WHITE
 10
4.945149
 20
2.077416
 30
0.000000
 11
4.886898
 21
2.139828
 31
0.000000
  6
CONTINUOUS
  0
ARC
  8
WHITE
 10
4.959425
 20
2.233065
 30
0.000000
 40
0.118124
 50
-163.934135
 51
-127.878395
  6
CONTINUOUS
  0
ARC
  8
WHITE
 10
4.754093
 20
2.174317
 30
0.000000
 40
0.095447
 50
15.843924
 51
54.857479
  6
CONTINUOUS
  0
ARC
  8
WHITE
 10
5.268357
 20
2.615302
 30
0.000000
 40
0.585407
 50
-152.769193
 51
-141.685824
  6
CONTINUOUS
  0
ARC
  8
WHITE
 10
4.874420
 20
2.497088
 30
0.000000
 40
0.196013
 50
-155.318292
 51
-130.227174
  6
CONTINUOUS
  0
ARC
  8
WHITE
 10
4.316012
 20
2.196267
 30
0.000000
 40
0.438837
 50
29.932471
 51
46.714985
  6
CONTINUOUS
  0
ARC
  8
WHITE
 10
5.337499
 20
2.940733
 30
0.000000
 40
0.836607
 50
-158.241479
 51
-149.467996
  6
CONTINUOUS
  0
LINE
  8
WHITE
 10
4.560496
 20
2.630606
 30
0.000000
 11
4.498846
 21
2.675442
 31
0.000000
  6
CONTINUOUS
  0
LINE
  8
WHITE
 10
4.498846
 20
2.675442
 30
0.000000
 11
4.498846
 21
2.698020
 31
0.000000
  6
CONTINUOUS
  0
LINE
  8
WHITE
 10
4.498846
 20
2.698020
 30
0.000000
 11
4.522827
 21
2.722000
 31
0.000000
  6
CONTINUOUS
  0
LINE
  8
WHITE
 10
4.522827
 20
2.722000
 30
0.000000
 11
4.587037
 21
2.716649
 31
0.000000
  6
CONTINUOUS
  0
ARC
  8
WHITE
 10
4.651578
 20
2.771126
 30
0.000000
 40
0.084459
 50
-139.833495
 51
-35.873237
  6
CONTINUOUS
  0
ARC
  8
WHITE
 10
5.186538
 20
2.042516
 30
0.000000
 40
0.823920
 50
113.905320
 51
124.487247
  6
CONTINUOUS
  0
LINE
  8
WHITE
 10
4.852664
 20
2.795757
 30
0.000000
 11
4.877024
 21
2.771397
 31
0.000000
  6
CONTINUOUS
  0
LINE
  8
WHITE
 10
4.877024
 20
2.771397
 30
0.000000
 11
4.877024
 21
2.743175
 31
0.000000
  6
CONTINUOUS
  0
LINE
  8
WHITE
 10
4.877024
 20
2.743175
 30
0.000000
 11
4.784294
 21
2.650446
 31
0.000000
  6
CONTINUOUS
  0
LINE
  8
WHITE
 10
4.784294
 20
2.650446
 30
0.000000
 11
4.793844
 21
2.621795
 31
0.000000
  6
CONTINUOUS
  0
ARC
  8
WHITE
 10
4.836237
 20
2.768399
 30
0.000000
 40
0.152611
 50
-106.128066
 51
-49.812689
  6
CONTINUOUS
  0
LINE
  8
WHITE
 10
4.934715
 20
2.651814
 30
0.000000
 11
5.119676
 21
2.640934
 31
0.000000
  6
CONTINUOUS
  0
LINE
  8
WHITE
 10
5.119676
 20
2.640934
 30
0.000000
 11
5.126164
 21
2.608493
 31
0.000000
  6
CONTINUOUS
  0
LINE
  8
WHITE
 10
5.126164
 20
2.608493
 30
0.000000
 11
5.104857
 21
2.587185
 31
0.000000
  6
CONTINUOUS
  0
LINE
  8
WHITE
 10
5.104857
 20
2.587185
 30
0.000000
 11
4.931573
 21
2.578081
 31
0.000000
  6
CONTINUOUS
  0
ARC
  8
WHITE
 10
4.941406
 20
2.446715
 30
0.000000
 40
0.131733
 50
94.280933
 51
189.539641
  6
CONTINUOUS
  0
LINE
  8
WHITE
 10
4.811494
 20
2.424883
 30
0.000000
 11
4.828623
 21
2.407755
 31
0.000000
  6
CONTINUOUS
  0
LINE
  8
WHITE
 10
4.828623
 20
2.407755
 30
0.000000
 11
4.926353
 21
2.364997
 31
0.000000
  6
CONTINUOUS
  0
LINE
  8
WHITE
 10
4.926353
 20
2.364997
 30
0.000000
 11
5.109269
 21
2.364997
 31
0.000000
  6
CONTINUOUS
  0
LINE
  8
WHITE
 10
5.109269
 20
2.364997
 30
0.000000
 11
5.151015
 21
2.329215
 31
0.000000
  6
CONTINUOUS
  0
LINE
  8
WHITE
 10
5.151015
 20
2.329215
 30
0.000000
 11
5.162472
 21
2.294846
 31
0.000000
  6
CONTINUOUS
  0
LINE
  8
WHITE
 10
5.162472
 20
2.294846
 30
0.000000
 11
5.136669
 21
2.269042
 31
0.000000
  6
CONTINUOUS
  0
ARC
  8
WHITE
 10
5.121174
 20
2.419779
 30
0.000000
 40
0.151531
 50
-130.258048
 51
-84.131202
  6
CONTINUOUS
  0
LINE
  8
WHITE
 10
5.023250
 20
2.304139
 30
0.000000
 11
4.964081
 21
2.298222
 31
0.000000
  6
CONTINUOUS
  0
LINE
  8
WHITE
 10
4.964081
 20
2.298222
 30
0.000000
 11
4.952801
 21
2.258741
 31
0.000000
  6
CONTINUOUS
  0
ARC
  8
WHITE
 10
5.067062
 20
2.334289
 30
0.000000
 40
0.136978
 50
-146.527856
 51
-100.716948
  6
CONTINUOUS
  0
ARC
  8
WHITE
 10
5.298499
 20
5.336289
 30
0.000000
 40
3.147093
 50
-94.682483
 51
-90.952319
  6
CONTINUOUS
  0
ARC
  8
WHITE
 10
5.263169
 20
2.022922
 30
0.000000
 40
0.167571
 50
65.176014
 51
95.814350
  6
CONTINUOUS
  0
ARC
  8
WHITE
 10
5.263070
 20
1.912697
 30
0.000000
 40
0.271609
 50
39.437907
 51
74.966447
  6
CONTINUOUS
  0
ARC
  8
WHITE
 10
5.610378
 20
2.332325
 30
0.000000
 40
0.282792
 50
-119.102224
 51
-89.367315
  6
CONTINUOUS
  0
LINE
  8
WHITE
 10
5.613501
 20
2.049550
 30
0.000000
 11
6.064785
 21
2.053800
 31
0.000000
  6
CONTINUOUS
  0
ARC
  8
WHITE
 10
6.084182
 20
1.919645
 30
0.000000
 40
0.135550
 50
67.901565
 51
98.227194
  6
CONTINUOUS
  0
LINE
  8
WHITE
 10
6.135176
 20
2.045237
 30
0.000000
 11
6.191940
 21
2.016855
 31
0.000000
  6
CONTINUOUS
  0
ARC
  8
WHITE
 10
6.193711
 20
1.836580
 30
0.000000
 40
0.180284
 50
73.302884
 51
90.562818
  6
CONTINUOUS
  0
ARC
  8
WHITE
 10
6.329880
 20
2.128682
 30
0.000000
 40
0.146218
 50
-125.241794
 51
-87.215234
  6
CONTINUOUS
  0
LINE
  8
WHITE
 10
6.336984
 20
1.982637
 30
0.000000
 11
6.482629
 21
1.976588
 31
0.000000
  6
CONTINUOUS
  0
ARC
  8
WHITE
 10
6.511491
 20
1.793310
 30
0.000000
 40
0.185537
 50
53.766424
 51
98.949177
  6
CONTINUOUS
  0
LINE
  8
WHITE
 10
6.621157
 20
1.942966
 30
0.000000
 11
6.621157
 21
1.913442
 31
0.000000
  6
CONTINUOUS
  0
ARC
  8
WHITE
 10
1.460430
 20
14.539075
 30
0.000000
 40
10.762482
 50
-21.752312
 51
-18.473097
  6
CONTINUOUS
  0
ARC
  8
WHITE
 10
12.483632
 20
10.890004
 30
0.000000
 40
0.849559
 50
148.095217
 51
163.669428
  6
CONTINUOUS
  0
ARC
  8
WHITE
 10
11.905638
 20
11.268482
 30
0.000000
 40
0.159641
 50
117.448063
 51
153.784202
  6
CONTINUOUS
  0
ARC
  8
WHITE
 10
12.184522
 20
9.869249
 30
0.000000
 40
1.580702
 50
99.451900
 51
102.884286
  6
CONTINUOUS
  0
ARC
  8
WHITE
 10
12.013336
 20
11.240384
 30
0.000000
 40
0.207841
 50
90.825422
 51
115.170013
  6
CONTINUOUS
  0
ARC
  8
WHITE
 10
11.972309
 20
11.389404
 30
0.000000
 40
0.070028
 50
-10.212068
 51
57.104075
  6
CONTINUOUS
  0
ARC
  8
WHITE
 10
11.831179
 20
11.397454
 30
0.000000
 40
0.211042
 50
-26.754089
 51
-5.564986
  6
CONTINUOUS
  0
ARC
  8
WHITE
 10
11.746592
 20
11.320609
 30
0.000000
 40
0.273640
 50
-34.417790
 51
-3.804767
  6
CONTINUOUS
  0
ARC
  8
WHITE
 10
12.944898
 20
10.675280
 30
0.000000
 40
1.089331
 50
153.229067
 51
166.672766
  6
CONTINUOUS
  0
ARC
  8
WHITE
 10
12.320004
 20
10.675061
 30
0.000000
 40
0.502470
 50
149.988318
 51
171.889333
  6
CONTINUOUS
  0
ARC
  8
WHITE
 10
10.878373
 20
10.951721
 30
0.000000
 40
0.966350
 50
-29.331883
 51
-12.294353
  6
CONTINUOUS
  0
ARC
  8
WHITE
 10
11.669564
 20
10.509994
 30
0.000000
 40
0.060256
 50
-100.634542
 51
-31.693976
  6
CONTINUOUS
  0
ARC
  8
WHITE
 10
11.463406
 20
9.924103
 30
0.000000
 40
0.561624
 50
69.679302
 51
80.693701
  6
CONTINUOUS
  0
ARC
  8
WHITE
 10
11.552961
 20
10.620116
 30
0.000000
 40
0.141786
 50
-132.833493
 51
-89.488320
  6
CONTINUOUS
  0
LINE
  8
WHITE
 10
11.456565
 20
10.516139
 30
0.000000
 11
11.456565
 21
10.550554
 31
0.000000
  6
CONTINUOUS
  0
LINE
  8
WHITE
 10
8.756165
 20
2.008704
 30
0.000000
 11
8.545720
 21
2.012513
 31
0.000000
  6
CONTINUOUS
  0
ARC
  8
WHITE
 10
8.649103
 20
8.996787
 30
0.000000
 40
6.985039
 50
-91.602937
 51
-90.848043
  6
CONTINUOUS
  0
ARC
  8
WHITE
 10
8.318376
 20
1.777706
 30
0.000000
 40
0.272724
 50
60.248810
 51
96.617665
  6
CONTINUOUS
  0
ARC
  8
WHITE
 10
8.316512
 20
1.867064
 30
0.000000
 40
0.183939
 50
99.249542
 51
122.457578
  6
CONTINUOUS
  0
ARC
  8
WHITE
 10
8.166390
 20
2.179760
 30
0.000000
 40
0.165667
 50
-96.134745
 51
-71.922661
  6
CONTINUOUS
  0
LINE
  8
WHITE
 10
8.148685
 20
2.015042
 30
0.000000
 11
7.617556
 21
2.015042
 31
0.000000
  6
CONTINUOUS
  0
ARC
  8
WHITE
 10
7.635462
 20
2.430578
 30
0.000000
 40
0.415922
 50
-128.875518
 51
-92.467519
  6
CONTINUOUS
  0
ARC
  8
WHITE
 10
6.583511
 20
1.198037
 30
0.000000
 40
1.204717
 50
48.965918
 51
61.598833
  6
CONTINUOUS
  0
ARC
  8
WHITE
 10
7.134111
 20
2.474855
 30
0.000000
 40
0.218256
 50
-123.443394
 51
-84.105552
  6
CONTINUOUS
  0
ARC
  8
WHITE
 10
7.004659
 20
2.625680
 30
0.000000
 40
0.333070
 50
-111.035891
 51
-88.422722
  6
CONTINUOUS
  0
ARC
  8
WHITE
 10
6.588878
 20
1.466110
 30
0.000000
 40
0.898908
 50
70.759236
 51
85.423911
  6
CONTINUOUS
  0
ARC
  8
WHITE
 10
6.531256
 20
-0.249033
 30
0.000000
 40
2.614387
 50
87.164292
 51
90.945450
  6
CONTINUOUS
  0
ARC
  8
WHITE
 10
6.458217
 20
2.222479
 30
0.000000
 40
0.145621
 50
78.151159
 51
129.402082
  6
CONTINUOUS
  0
ARC
  8
WHITE
 10
6.221104
 20
4.732377
 30
0.000000
 40
2.401736
 50
-91.157832
 51
-86.546451
  6
CONTINUOUS
  0
LINE
  8
WHITE
 10
6.172573
 20
2.331131
 30
0.000000
 11
6.075511
 21
2.331131
 31
0.000000
  6
CONTINUOUS
  0
ARC
  8
WHITE
 10
6.063085
 20
2.429037
 30
0.000000
 40
0.098692
 50
-139.542344
 51
-82.766690
  6
CONTINUOUS
  0
LINE
  8
WHITE
 10
5.987992
 20
2.364997
 30
0.000000
 11
5.820587
 21
2.364997
 31
0.000000
  6
CONTINUOUS
  0
LINE
  8
WHITE
 10
5.820587
 20
2.364997
 30
0.000000
 11
5.804936
 21
2.323264
 31
0.000000
  6
CONTINUOUS
  0
LINE
  8
WHITE
 10
5.804936
 20
2.323264
 30
0.000000
 11
5.824649
 21
2.303551
 31
0.000000
  6
CONTINUOUS
  0
LINE
  8
WHITE
 10
5.824649
 20
2.303551
 30
0.000000
 11
5.950878
 21
2.297814
 31
0.000000
  6
CONTINUOUS
  0
LINE
  8
WHITE
 10
5.950878
 20
2.297814
 30
0.000000
 11
5.992866
 21
2.276819
 31
0.000000
  6
CONTINUOUS
  0
LINE
  8
WHITE
 10
5.992866
 20
2.276819
 30
0.000000
 11
6.023976
 21
2.269042
 31
0.000000
  6
CONTINUOUS
  0
LINE
  8
WHITE
 10
6.023976
 20
2.269042
 30
0.000000
 11
6.436431
 21
2.269042
 31
0.000000
  6
CONTINUOUS
  0
LINE
  8
WHITE
 10
6.436431
 20
2.269042
 30
0.000000
 11
6.496481
 21
2.299066
 31
0.000000
  6
CONTINUOUS
  0
LINE
  8
WHITE
 10
6.496481
 20
2.299066
 30
0.000000
 11
6.624756
 21
2.303818
 31
0.000000
  6
CONTINUOUS
  0
ARC
  8
WHITE
 10
6.601602
 20
1.584547
 30
0.000000
 40
0.719644
 50
70.489039
 51
88.156210
  6
CONTINUOUS
  0
LINE
  8
WHITE
 10
6.841954
 20
2.262867
 30
0.000000
 11
6.874847
 21
2.236552
 31
0.000000
  6
CONTINUOUS
  0
LINE
  8
WHITE
 10
6.874847
 20
2.236552
 30
0.000000
 11
7.051465
 21
2.225514
 31
0.000000
  6
CONTINUOUS
  0
LINE
  8
WHITE
 10
7.051465
 20
2.225514
 30
0.000000
 11
7.096754
 21
2.200810
 31
0.000000
  6
CONTINUOUS
  0
LINE
  8
WHITE
 10
7.096754
 20
2.200810
 30
0.000000
 11
7.164637
 21
2.187233
 31
0.000000
  6
CONTINUOUS
  0
ARC
  8
WHITE
 10
7.328947
 20
2.328192
 30
0.000000
 40
0.216488
 50
-139.374186
 51
-110.120104
  6
CONTINUOUS
  0
ARC
  8
WHITE
 10
7.178319
 20
1.963294
 30
0.000000
 40
0.178666
 50
38.290256
 51
64.769596
  6
CONTINUOUS
  0
ARC
  8
WHITE
 10
7.419359
 20
2.135520
 30
0.000000
 40
0.118095
 50
-148.606889
 51
-87.455722
  6
CONTINUOUS
  0
ARC
  8
WHITE
 10
7.161129
 20
1.502046
 30
0.000000
 40
0.578924
 50
50.645827
 51
62.928220
  6
CONTINUOUS
  0
LINE
  8
WHITE
 10
7.528232
 20
1.949694
 30
0.000000
 11
8.236735
 21
1.946473
 31
0.000000
  6
CONTINUOUS
  0
LINE
  8
WHITE
 10
8.236735
 20
1.946473
 30
0.000000
 11
8.302793
 21
1.976499
 31
0.000000
  6
CONTINUOUS
  0
LINE
  8
WHITE
 10
8.302793
 20
1.976499
 30
0.000000
 11
8.343443
 21
1.981580
 31
0.000000
  6
CONTINUOUS
  0
LINE
  8
WHITE
 10
8.343443
 20
1.981580
 30
0.000000
 11
8.410326
 21
1.948138
 31
0.000000
  6
CONTINUOUS
  0
LINE
  8
WHITE
 10
8.410326
 20
1.948138
 30
0.000000
 11
8.721837
 21
1.943391
 31
0.000000
  6
CONTINUOUS
  0
LINE
  8
WHITE
 10
8.721837
 20
1.943391
 30
0.000000
 11
8.770218
 21
1.959518
 31
0.000000
  6
CONTINUOUS
  0
LINE
  8
WHITE
 10
8.770218
 20
1.959518
 30
0.000000
 11
8.756165
 21
2.008704
 31
0.000000
  6
CONTINUOUS
  0
ARC
  8
WHITE
 10
5.504646
 20
1.806717
 30
0.000000
 40
0.162266
 50
168.721989
 51
213.506907
  6
CONTINUOUS
  0
LINE
  8
WHITE
 10
5.345513
 20
1.838452
 30
0.000000
 11
5.397638
 21
1.829765
 31
0.000000
  6
CONTINUOUS
  0
ARC
  8
WHITE
 10
5.792564
 20
1.954935
 30
0.000000
 40
0.414287
 50
-162.414172
 51
-131.050613
  6
CONTINUOUS
  0
LINE
  8
WHITE
 10
5.520491
 20
1.642508
 30
0.000000
 11
5.539188
 21
1.642508
 31
0.000000
  6
CONTINUOUS
  0
ARC
  8
WHITE
 10
6.267566
 20
0.583003
 30
0.000000
 40
1.285724
 50
112.681877
 51
124.507358
  6
CONTINUOUS
  0
LINE
  8
WHITE
 10
5.771773
 20
1.769289
 30
0.000000
 11
5.797069
 21
1.750318
 31
0.000000
  6
CONTINUOUS
  0
LINE
  8
WHITE
 10
5.797069
 20
1.750318
 30
0.000000
 11
5.797069
 21
1.716104
 31
0.000000
  6
CONTINUOUS
  0
LINE
  8
WHITE
 10
5.797069
 20
1.716104
 30
0.000000
 11
5.727222
 21
1.652078
 31
0.000000
  6
CONTINUOUS
  0
ARC
  8
WHITE
 10
5.607177
 20
1.871817
 30
0.000000
 40
0.250392
 50
-82.805627
 51
-61.351822
  6
CONTINUOUS
  0
LINE
  8
WHITE
 10
5.638535
 20
1.623396
 30
0.000000
 11
5.648073
 21
1.594243
 31
0.000000
  6
CONTINUOUS
  0
ARC
  8
WHITE
 10
5.713952
 20
1.977333
 30
0.000000
 40
0.388714
 50
-99.757530
 51
-83.584331
  6
CONTINUOUS
  0
ARC
  8
WHITE
 10
5.767631
 20
1.726797
 30
0.000000
 40
0.136129
 50
-94.315744
 51
-48.036629
  6
CONTINUOUS
  0
LINE
  8
WHITE
 10
5.858654
 20
1.625575
 30
0.000000
 11
5.971611
 21
1.625575
 31
0.000000
  6
CONTINUOUS
  0
LINE
  8
WHITE
 10
5.971611
 20
1.625575
 30
0.000000
 11
6.041950
 21
1.660744
 31
0.000000
  6
CONTINUOUS
  0
LINE
  8
WHITE
 10
6.041950
 20
1.660744
 30
0.000000
 11
6.104188
 21
1.655558
 31
0.000000
  6
CONTINUOUS
  0
LINE
  8
WHITE
 10
6.104188
 20
1.655558
 30
0.000000
 11
6.117273
 21
1.609758
 31
0.000000
  6
CONTINUOUS
  0
LINE
  8
WHITE
 10
6.117273
 20
1.609758
 30
0.000000
 11
6.034351
 21
1.568297
 31
0.000000
  6
CONTINUOUS
  0
LINE
  8
WHITE
 10
6.034351
 20
1.568297
 30
0.000000
 11
5.887380
 21
1.556540
 31
0.000000
  6
CONTINUOUS
  0
LINE
  8
WHITE
 10
5.887380
 20
1.556540
 30
0.000000
 11
5.887380
 21
1.530426
 31
0.000000
  6
CONTINUOUS
  0
LINE
  8
WHITE
 10
5.887380
 20
1.530426
 30
0.000000
 11
5.941258
 21
1.503486
 31
0.000000
  6
CONTINUOUS
  0
LINE
  8
WHITE
 10
5.941258
 20
1.503486
 30
0.000000
 11
5.941258
 21
1.446474
 31
0.000000
  6
CONTINUOUS
  0
LINE
  8
WHITE
 10
5.941258
 20
1.446474
 30
0.000000
 11
5.911324
 21
1.422527
 31
0.000000
  6
CONTINUOUS
  0
ARC
  8
WHITE
 10
6.012189
 20
1.813577
 30
0.000000
 40
0.403849
 50
-133.529674
 51
-104.463228
  6
CONTINUOUS
  0
LINE
  8
WHITE
 10
5.734045
 20
1.520779
 30
0.000000
 11
5.674022
 21
1.510776
 31
0.000000
  6
CONTINUOUS
  0
LINE
  8
WHITE
 10
5.674022
 20
1.510776
 30
0.000000
 11
5.621609
 21
1.464915
 31
0.000000
  6
CONTINUOUS
  0
ARC
  8
WHITE
 10
5.585936
 20
1.505998
 30
0.000000
 40
0.054409
 50
-122.697712
 51
-49.031695
  6
CONTINUOUS
  0
ARC
  8
WHITE
 10
5.263856
 20
1.240552
 30
0.000000
 40
0.365946
 50
36.887761
 51
70.733905
  6
CONTINUOUS
  0
LINE
  8
WHITE
 10
5.384602
 20
1.586003
 30
0.000000
 11
5.345084
 21
1.580359
 31
0.000000
  6
CONTINUOUS
  0
ARC
  8
WHITE
 10
5.063227
 20
1.879855
 30
0.000000
 40
0.411268
 50
-71.382395
 51
-46.737844
  6
CONTINUOUS
  0
ARC
  8
WHITE
 10
5.159628
 20
2.743228
 30
0.000000
 40
1.253605
 50
-94.745775
 51
-88.404868
  6
CONTINUOUS
  0
ARC
  8
WHITE
 10
4.830308
 20
1.116759
 30
0.000000
 40
0.439485
 50
59.113875
 51
68.155701
  6
CONTINUOUS
  0
ARC
  8
WHITE
 10
4.986576
 20
1.637580
 30
0.000000
 40
0.113125
 50
-121.288997
 51
-86.321063
  6
CONTINUOUS
  0
LINE
  8
WHITE
 10
4.927824
 20
1.540908
 30
0.000000
 11
4.927824
 21
1.584935
 31
0.000000
  6
CONTINUOUS
  0
LINE
  8
WHITE
 10
4.927824
 20
1.584935
 30
0.000000
 11
5.030449
 21
1.595738
 31
0.000000
  6
CONTINUOUS
  0
ARC
  8
WHITE
 10
5.144884
 20
1.727139
 30
0.000000
 40
0.174246
 50
-131.052179
 51
-103.697874
  6
CONTINUOUS
  0
LINE
  8
WHITE
 10
5.103622
 20
1.557849
 30
0.000000
 11
5.136669
 21
1.574371
 31
0.000000
  6
CONTINUOUS
  0
LINE
  8
WHITE
 10
5.136669
 20
1.574371
 30
0.000000
 11
5.136669
 21
1.605986
 31
0.000000
  6
CONTINUOUS
  0
LINE
  8
WHITE
 10
5.136669
 20
1.605986
 30
0.000000
 11
4.992076
 21
1.699546
 31
0.000000
  6
CONTINUOUS
  0
LINE
  8
WHITE
 10
4.992076
 20
1.699546
 30
0.000000
 11
4.937321
 21
1.706390
 31
0.000000
  6
CONTINUOUS
  0
LINE
  8
WHITE
 10
4.937321
 20
1.706390
 30
0.000000
 11
4.922180
 21
1.721531
 31
0.000000
  6
CONTINUOUS
  0
LINE
  8
WHITE
 10
4.922180
 20
1.721531
 30
0.000000
 11
4.922180
 21
1.750318
 31
0.000000
  6
CONTINUOUS
  0
LINE
  8
WHITE
 10
4.922180
 20
1.750318
 30
0.000000
 11
4.944004
 21
1.766686
 31
0.000000
  6
CONTINUOUS
  0
LINE
  8
WHITE
 10
4.944004
 20
1.766686
 30
0.000000
 11
5.037113
 21
1.766686
 31
0.000000
  6
CONTINUOUS
  0
ARC
  8
WHITE
 10
5.500496
 20
2.160261
 30
0.000000
 40
0.607968
 50
-139.657030
 51
-114.530279
  6
CONTINUOUS
  0
LINE
  8
WHITE
 10
5.248083
 20
1.607167
 30
0.000000
 11
5.272135
 21
1.631220
 31
0.000000
  6
CONTINUOUS
  0
LINE
  8
WHITE
 10
5.272135
 20
1.631220
 30
0.000000
 11
5.272135
 21
1.673937
 31
0.000000
  6
CONTINUOUS
  0
ARC
  8
WHITE
 10
5.448445
 20
1.846319
 30
0.000000
 40
0.246578
 50
-158.164882
 51
-135.645458
  6
CONTINUOUS
  0
LINE
  8
WHITE
 10
5.219557
 20
1.754608
 30
0.000000
 11
5.273635
 21
1.770831
 31
0.000000
  6
CONTINUOUS
  0
ARC
  8
WHITE
 10
5.066919
 20
1.555876
 30
0.000000
 40
0.298223
 50
28.669984
 51
46.119462
  6
CONTINUOUS
  0
LINE
  8
WHITE
 10
5.328580
 20
1.698953
 30
0.000000
 11
5.351157
 21
1.698953
 31
0.000000
  6
CONTINUOUS
  0
LINE
  8
WHITE
 10
5.351157
 20
1.698953
 30
0.000000
 11
5.369345
 21
1.717140
 31
0.000000
  6
CONTINUOUS
  0
LINE
  8
WHITE
 10
9.520861
 20
2.048908
 30
0.000000
 11
9.711866
 21
2.048908
 31
0.000000
  6
CONTINUOUS
  0
ARC
  8
WHITE
 10
9.735741
 20
2.266232
 30
0.000000
 40
0.218632
 50
-96.269459
 51
-71.244996
  6
CONTINUOUS
  0
ARC
  8
WHITE
 10
9.466631
 20
2.586521
 30
0.000000
 40
0.627099
 50
-57.232527
 51
-48.528942
  6
CONTINUOUS
  0
LINE
  8
WHITE
 10
9.881922
 20
2.116642
 30
0.000000
 11
9.928802
 21
2.116642
 31
0.000000
  6
CONTINUOUS
  0
LINE
  8
WHITE
 10
9.928802
 20
2.116642
 30
0.000000
 11
9.928802
 21
2.071486
 31
0.000000
  6
CONTINUOUS
  0
LINE
  8
WHITE
 10
9.928802
 20
2.071486
 30
0.000000
 11
9.851662
 21
1.994346
 31
0.000000
  6
CONTINUOUS
  0
LINE
  8
WHITE
 10
9.851662
 20
1.994346
 30
0.000000
 11
9.830137
 21
1.983584
 31
0.000000
  6
CONTINUOUS
  0
LINE
  8
WHITE
 10
9.830137
 20
1.983584
 30
0.000000
 11
9.574349
 21
1.986121
 31
0.000000
  6
CONTINUOUS
  0
LINE
  8
WHITE
 10
9.574349
 20
1.986121
 30
0.000000
 11
9.508891
 21
2.022486
 31
0.000000
  6
CONTINUOUS
  0
ARC
  8
WHITE
 10
9.443219
 20
2.294840
 30
0.000000
 40
0.280160
 50
-98.760106
 51
-76.443281
  6
CONTINUOUS
  0
ARC
  8
WHITE
 10
9.395997
 20
2.130258
 30
0.000000
 40
0.112402
 50
-129.193208
 51
-87.677870
  6
CONTINUOUS
  0
ARC
  8
WHITE
 10
9.037876
 20
1.777726
 30
0.000000
 40
0.390982
 50
42.753825
 51
51.670317
  6
CONTINUOUS
  0
ARC
  8
WHITE
 10
9.326702
 20
2.235644
 30
0.000000
 40
0.158153
 50
-140.176641
 51
-107.039779
  6
CONTINUOUS
  0
LINE
  8
WHITE
 10
9.205238
 20
2.134360
 30
0.000000
 11
9.136721
 21
2.195664
 31
0.000000
  6
CONTINUOUS
  0
LINE
  8
WHITE
 10
9.136721
 20
2.195664
 30
0.000000
 11
9.021350
 21
2.195664
 31
0.000000
  6
CONTINUOUS
  0
LINE
  8
WHITE
 10
9.021350
 20
2.195664
 30
0.000000
 11
8.954377
 21
2.229150
 31
0.000000
  6
CONTINUOUS
  0
LINE
  8
WHITE
 10
8.954377
 20
2.229150
 30
0.000000
 11
8.708460
 21
2.230381
 31
0.000000
  6
CONTINUOUS
  0
LINE
  8
WHITE
 10
8.708460
 20
2.230381
 30
0.000000
 11
8.662832
 21
2.241788
 31
0.000000
  6
CONTINUOUS
  0
LINE
  8
WHITE
 10
8.662832
 20
2.241788
 30
0.000000
 11
8.634543
 21
2.258762
 31
0.000000
  6
CONTINUOUS
  0
LINE
  8
WHITE
 10
8.634543
 20
2.258762
 30
0.000000
 11
8.302055
 21
2.270781
 31
0.000000
  6
CONTINUOUS
  0
LINE
  8
WHITE
 10
8.302055
 20
2.270781
 30
0.000000
 11
8.238176
 21
2.300264
 31
0.000000
  6
CONTINUOUS
  0
LINE
  8
WHITE
 10
8.238176
 20
2.300264
 30
0.000000
 11
7.824927
 21
2.301907
 31
0.000000
  6
CONTINUOUS
  0
LINE
  8
WHITE
 10
7.824927
 20
2.301907
 30
0.000000
 11
7.806491
 21
2.314197
 31
0.000000
  6
CONTINUOUS
  0
LINE
  8
WHITE
 10
7.806491
 20
2.314197
 30
0.000000
 11
7.806491
 21
2.343226
 31
0.000000
  6
CONTINUOUS
  0
LINE
  8
WHITE
 10
7.806491
 20
2.343226
 30
0.000000
 11
7.839148
 21
2.364997
 31
0.000000
  6
CONTINUOUS
  0
LINE
  8
WHITE
 10
7.839148
 20
2.364997
 30
0.000000
 11
7.913300
 21
2.364997
 31
0.000000
  6
CONTINUOUS
  0
LINE
  8
WHITE
 10
7.913300
 20
2.364997
 30
0.000000
 11
7.981033
 21
2.398864
 31
0.000000
  6
CONTINUOUS
  0
LINE
  8
WHITE
 10
7.981033
 20
2.398864
 30
0.000000
 11
8.181055
 21
2.398864
 31
0.000000
  6
CONTINUOUS
  0
LINE
  8
WHITE
 10
8.181055
 20
2.398864
 30
0.000000
 11
8.227975
 21
2.372797
 31
0.000000
  6
CONTINUOUS
  0
LINE
  8
WHITE
 10
8.227975
 20
2.372797
 30
0.000000
 11
8.259177
 21
2.364997
 31
0.000000
  6
CONTINUOUS
  0
LINE
  8
WHITE
 10
8.259177
 20
2.364997
 30
0.000000
 11
8.349232
 21
2.364997
 31
0.000000
  6
CONTINUOUS
  0
LINE
  8
WHITE
 10
8.349232
 20
2.364997
 30
0.000000
 11
8.422610
 21
2.331131
 31
0.000000
  6
CONTINUOUS
  0
LINE
  8
WHITE
 10
8.422610
 20
2.331131
 30
0.000000
 11
8.669229
 21
2.331131
 31
0.000000
  6
CONTINUOUS
  0
LINE
  8
WHITE
 10
8.669229
 20
2.331131
 30
0.000000
 11
8.731318
 21
2.297264
 31
0.000000
  6
CONTINUOUS
  0
LINE
  8
WHITE
 10
8.731318
 20
2.297264
 30
0.000000
 11
9.000395
 21
2.297264
 31
0.000000
  6
CONTINUOUS
  0
LINE
  8
WHITE
 10
9.000395
 20
2.297264
 30
0.000000
 11
9.144924
 21
2.262853
 31
0.000000
  6
CONTINUOUS
  0
LINE
  8
WHITE
 10
9.144924
 20
2.262853
 30
0.000000
 11
9.250567
 21
2.194495
 31
0.000000
  6
CONTINUOUS
  0
LINE
  8
WHITE
 10
9.250567
 20
2.194495
 30
0.000000
 11
9.428710
 21
2.110662
 31
0.000000
  6
CONTINUOUS
  0
LINE
  8
WHITE
 10
9.428710
 20
2.110662
 30
0.000000
 11
9.470521
 21
2.074078
 31
0.000000
  6
CONTINUOUS
  0
LINE
  8
WHITE
 10
9.470521
 20
2.074078
 30
0.000000
 11
9.520861
 21
2.048908
 31
0.000000
  6
CONTINUOUS
  0
ARC
  8
WHITE
 10
6.941318
 20
8.902075
 30
0.000000
 40
0.045739
 50
28.417148
 51
206.457613
  6
CONTINUOUS
  0
ARC
  8
WHITE
 10
7.163416
 20
9.103142
 30
0.000000
 40
0.343848
 50
-139.907751
 51
-95.481811
  6
CONTINUOUS
  0
ARC
  8
WHITE
 10
7.145147
 20
8.006351
 30
0.000000
 40
0.754656
 50
35.930308
 51
91.106917
  6
CONTINUOUS
  0
ARC
  8
WHITE
 10
10.078699
 20
9.817186
 30
0.000000
 40
2.695434
 50
-149.500824
 51
-130.055071
  6
CONTINUOUS
  0
ARC
  8
WHITE
 10
9.150902
 20
8.606751
 30
0.000000
 40
1.173892
 50
-133.414226
 51
-119.303309
  6
CONTINUOUS
  0
ARC
  8
WHITE
 10
8.595274
 20
7.602044
 30
0.000000
 40
0.026791
 50
-134.905003
 51
61.635987
  6
CONTINUOUS
  0
ARC
  8
WHITE
 10
10.084653
 20
9.754100
 30
0.000000
 40
2.590546
 50
-141.151477
 51
-124.751310
  6
CONTINUOUS
  0
ARC
  8
WHITE
 10
4.060718
 20
5.559159
 30
0.000000
 40
4.759839
 50
32.678960
 51
39.605122
  6
CONTINUOUS
  0
ARC
  8
WHITE
 10
7.131743
 20
8.009003
 30
0.000000
 40
0.834952
 50
44.432100
 51
78.000634
  6
CONTINUOUS
  0
ARC
  8
WHITE
 10
7.320182
 20
9.457945
 30
0.000000
 40
0.632408
 50
-122.375809
 51
-91.345660
  6
CONTINUOUS
  0
ARC
  8
WHITE
 10
9.765204
 20
10.267232
 30
0.000000
 40
0.233195
 50
-177.657700
 51
-148.087274
  6
CONTINUOUS
  0
ARC
  8
WHITE
 10
11.213569
 20
10.304277
 30
0.000000
 40
1.682010
 50
175.415470
 51
181.586740
  6
CONTINUOUS
  0
ARC
  8
WHITE
 10
3.134115
 20
10.375182
 30
0.000000
 40
6.403141
 50
0.568547
 51
1.379865
  6
CONTINUOUS
  0
ARC
  8
WHITE
 10
9.731400
 20
10.552036
 30
0.000000
 40
0.197306
 50
160.413667
 51
186.595131
  6
CONTINUOUS
  0
LINE
  8
WHITE
 10
9.545510
 20
10.618178
 30
0.000000
 11
9.561349
 21
10.628464
 31
0.000000
  6
CONTINUOUS
  0
LINE
  8
WHITE
 10
9.561349
 20
10.628464
 30
0.000000
 11
9.590216
 21
10.628464
 31
0.000000
  6
CONTINUOUS
  0
ARC
  8
WHITE
 10
11.937635
 20
11.754683
 30
0.000000
 40
2.603602
 50
-154.369752
 51
-146.623845
  6
CONTINUOUS
  0
ARC
  8
WHITE
 10
11.022909
 20
11.218387
 30
0.000000
 40
1.545693
 50
-144.570818
 51
-134.778815
  6
CONTINUOUS
  0
ARC
  8
WHITE
 10
8.516535
 20
8.590004
 30
0.000000
 40
2.086685
 50
36.324856
 51
47.205604
  6
CONTINUOUS
  0
ARC
  8
WHITE
 10
10.735440
 20
10.173766
 30
0.000000
 40
0.640337
 50
-147.113563
 51
-129.379062
  6
CONTINUOUS
  0
ARC
  8
WHITE
 10
10.219488
 20
9.519309
 30
0.000000
 40
0.193577
 50
26.255404
 51
55.482632
  6
CONTINUOUS
  0
ARC
  8
WHITE
 10
10.318268
 20
9.586303
 30
0.000000
 40
0.077112
 50
-58.364903
 51
13.988273
  6
CONTINUOUS
  0
ARC
  8
WHITE
 10
10.368015
 20
9.597241
 30
0.000000
 40
0.077155
 50
-142.014057
 51
-96.923667
  6
CONTINUOUS
  0
ARC
  8
WHITE
 10
12.861318
 20
11.537951
 30
0.000000
 40
3.236730
 50
-146.139076
 51
-142.101770
  6
CONTINUOUS
  0
ARC
  8
WHITE
 10
9.461076
 20
9.355112
 30
0.000000
 40
0.807206
 50
28.035513
 51
52.311766
  6
CONTINUOUS
  0
ARC
  8
WHITE
 10
8.912918
 20
8.651431
 30
0.000000
 40
1.699191
 50
52.191077
 51
57.961408
  6
CONTINUOUS
  0
ARC
  8
WHITE
 10
10.109698
 20
10.583598
 30
0.000000
 40
0.573665
 50
-129.520451
 51
-120.990160
  6
CONTINUOUS
  0
ARC
  8
WHITE
 10
9.422070
 20
9.861262
 30
0.000000
 40
0.427023
 50
40.939491
 51
52.377563
  6
CONTINUOUS
  0
ARC
  8
WHITE
 10
9.684218
 20
10.072929
 30
0.000000
 40
0.126566
 50
90.665156
 51
146.360578
  6
CONTINUOUS
  0
LINE
  8
WHITE
 10
9.578846
 20
10.143042
 30
0.000000
 11
9.567256
 21
10.143959
 31
0.000000
  6
CONTINUOUS
  0
ARC
  8
WHITE
 10
4.840831
 20
6.493490
 30
0.000000
 40
0.036178
 50
149.812152
 51
302.164930
  6
CONTINUOUS
  0
ARC
  8
WHITE
 10
4.875009
 20
6.306790
 30
0.000000
 40
0.156785
 50
41.478059
 51
95.460017
  6
CONTINUOUS
  0
ARC
  8
WHITE
 10
5.158365
 20
6.631291
 30
0.000000
 40
0.276060
 50
-126.936104
 51
-71.860240
  6
CONTINUOUS
  0
ARC
  8
WHITE
 10
5.272465
 20
6.186944
 30
0.000000
 40
0.184171
 50
44.533555
 51
98.792769
  6
CONTINUOUS
  0
ARC
  8
WHITE
 10
5.419787
 20
6.330220
 30
0.000000
 40
0.021362
 50
-138.655569
 51
41.344435
  6
CONTINUOUS
  0
ARC
  8
WHITE
 10
5.327182
 20
6.310681
 30
0.000000
 40
0.113734
 50
17.209144
 51
72.790856
  6
CONTINUOUS
  0
ARC
  8
WHITE
 10
5.776933
 20
9.545754
 30
0.000000
 40
3.153999
 50
-102.885562
 51
-97.581029
  6
CONTINUOUS
  0
ARC
  8
WHITE
 10
5.152906
 20
6.679057
 30
0.000000
 40
0.222499
 50
-151.263475
 51
-110.887727
  6
CONTINUOUS
  0
ARC
  8
WHITE
 10
3.725220
 20
7.239820
 30
0.000000
 40
1.401838
 50
-28.445915
 51
-2.804038
  6
CONTINUOUS
  0
ARC
  8
WHITE
 10
3.605238
 20
7.167216
 30
0.000000
 40
1.520147
 50
0.151732
 51
16.265380
  6
CONTINUOUS
  0
ARC
  8
WHITE
 10
5.027998
 20
7.588768
 30
0.000000
 40
0.036785
 50
6.588542
 51
176.449441
  6
CONTINUOUS
  0
ARC
  8
WHITE
 10
3.650470
 20
7.234243
 30
0.000000
 40
1.387475
 50
-8.170296
 51
14.901613
  6
CONTINUOUS
  0
ARC
  8
WHITE
 10
3.798311
 20
7.230570
 30
0.000000
 40
1.240735
 50
-35.408723
 51
-8.972638
  6
CONTINUOUS
  0
ARC
  8
WHITE
 10
10.109528
 20
2.463497
 30
0.000000
 40
0.229970
 50
-132.390765
 51
-107.355358
  6
CONTINUOUS
  0
LINE
  8
WHITE
 10
10.040929
 20
2.243997
 30
0.000000
 11
10.127271
 21
2.206222
 31
0.000000
  6
CONTINUOUS
  0
ARC
  8
WHITE
 10
10.195275
 20
2.339173
 30
0.000000
 40
0.149333
 50
-117.089636
 51
-83.283687
  6
CONTINUOUS
  0
ARC
  8
WHITE
 10
10.243064
 20
1.835246
 30
0.000000
 40
0.356909
 50
68.310649
 51
94.873920
  6
CONTINUOUS
  0
ARC
  8
WHITE
 10
10.407067
 20
2.264495
 30
0.000000
 40
0.102751
 50
-108.203532
 51
-67.980417
  6
CONTINUOUS
  0
ARC
  8
WHITE
 10
10.504551
 20
2.100300
 30
0.000000
 40
0.090713
 50
87.976231
 51
130.538293
  6
CONTINUOUS
  0
LINE
  8
WHITE
 10
10.507754
 20
2.190956
 30
0.000000
 11
10.858108
 21
2.190005
 31
0.000000
  6
CONTINUOUS
  0
ARC
  8
WHITE
 10
10.878787
 20
2.107721
 30
0.000000
 40
0.084843
 50
47.076166
 51
104.106655
  6
CONTINUOUS
  0
ARC
  8
WHITE
 10
11.086650
 20
2.366826
 30
0.000000
 40
0.247639
 50
-127.304620
 51
-93.549078
  6
CONTINUOUS
  0
ARC
  8
WHITE
 10
11.088364
 20
1.900842
 30
0.000000
 40
0.219483
 50
66.109602
 51
94.453822
  6
CONTINUOUS
  0
ARC
  8
WHITE
 10
11.235583
 20
2.208676
 30
0.000000
 40
0.122004
 50
-118.562031
 51
-80.290977
  6
CONTINUOUS
  0
ARC
  8
WHITE
 10
11.287022
 20
2.284276
 30
0.000000
 40
0.198273
 50
-98.954990
 51
-63.291330
  6
CONTINUOUS
  0
ARC
  8
WHITE
 10
11.551314
 20
1.194582
 30
0.000000
 40
0.929237
 50
93.291755
 51
100.866319
  6
CONTINUOUS
  0
LINE
  8
WHITE
 10
11.497957
 20
2.122286
 30
0.000000
 11
11.520535
 21
2.099708
 31
0.000000
  6
CONTINUOUS
  0
LINE
  8
WHITE
 10
11.520535
 20
2.099708
 30
0.000000
 11
11.520535
 21
2.071110
 31
0.000000
  6
CONTINUOUS
  0
LINE
  8
WHITE
 10
11.520535
 20
2.071110
 30
0.000000
 11
11.418731
 21
2.020208
 31
0.000000
  6
CONTINUOUS
  0
LINE
  8
WHITE
 10
11.418731
 20
2.020208
 30
0.000000
 11
11.166044
 21
2.021928
 31
0.000000
  6
CONTINUOUS
  0
LINE
  8
WHITE
 10
11.166044
 20
2.021928
 30
0.000000
 11
11.110090
 21
2.049905
 31
0.000000
  6
CONTINUOUS
  0
LINE
  8
WHITE
 10
11.110090
 20
2.049905
 30
0.000000
 11
10.985932
 21
2.060700
 31
0.000000
  6
CONTINUOUS
  0
LINE
  8
WHITE
 10
10.985932
 20
2.060700
 30
0.000000
 11
10.850445
 21
2.122286
 31
0.000000
  6
CONTINUOUS
  0
LINE
  8
WHITE
 10
10.850445
 20
2.122286
 30
0.000000
 11
10.528138
 21
2.122286
 31
0.000000
  6
CONTINUOUS
  0
LINE
  8
WHITE
 10
10.528138
 20
2.122286
 30
0.000000
 11
10.474885
 21
2.095660
 31
0.000000
  6
CONTINUOUS
  0
LINE
  8
WHITE
 10
10.474885
 20
2.095660
 30
0.000000
 11
10.436660
 21
2.088014
 31
0.000000
  6
CONTINUOUS
  0
LINE
  8
WHITE
 10
10.436660
 20
2.088014
 30
0.000000
 11
10.347766
 21
2.092953
 31
0.000000
  6
CONTINUOUS
  0
LINE
  8
WHITE
 10
10.347766
 20
2.092953
 30
0.000000
 11
10.304113
 21
2.120236
 31
0.000000
  6
CONTINUOUS
  0
ARC
  8
WHITE
 10
10.444436
 20
7.817441
 30
0.000000
 40
5.698933
 50
-93.485156
 51
-91.410913
  6
CONTINUOUS
  0
LINE
  8
WHITE
 10
10.097998
 20
2.129048
 30
0.000000
 11
9.962044
 21
2.203603
 31
0.000000
  6
CONTINUOUS
  0
ARC
  8
WHITE
 10
9.889035
 20
2.122696
 30
0.000000
 40
0.108978
 50
47.937316
 51
109.135812
  6
CONTINUOUS
  0
ARC
  8
WHITE
 10
9.720579
 20
2.471911
 30
0.000000
 40
0.279752
 50
-97.232332
 51
-61.675424
  6
CONTINUOUS
  0
ARC
  8
WHITE
 10
9.671247
 20
1.940251
 30
0.000000
 40
0.254524
 50
86.821352
 51
106.259334
  6
CONTINUOUS
  0
ARC
  8
WHITE
 10
9.548331
 20
2.249520
 30
0.000000
 40
0.082964
 50
-112.007759
 51
-51.495062
  6
CONTINUOUS
  0
LINE
  8
WHITE
 10
9.517242
 20
2.172601
 30
0.000000
 11
9.492611
 21
2.197232
 31
0.000000
  6
CONTINUOUS
  0
LINE
  8
WHITE
 10
9.492611
 20
2.197232
 30
0.000000
 11
9.498216
 21
2.225253
 31
0.000000
  6
CONTINUOUS
  0
ARC
  8
WHITE
 10
9.504810
 20
2.410019
 30
0.000000
 40
0.184883
 50
-92.044036
 51
-55.444565
  6
CONTINUOUS
  0
LINE
  8
WHITE
 10
9.609677
 20
2.257753
 30
0.000000
 11
9.786367
 21
2.262950
 31
0.000000
  6
CONTINUOUS
  0
ARC
  8
WHITE
 10
6.705683
 20
9.227148
 30
0.000000
 40
7.615160
 50
-66.137307
 51
-65.478360
  6
CONTINUOUS
  0
LINE
  8
WHITE
 10
9.866256
 20
2.298840
 30
0.000000
 11
9.954486
 21
2.293649
 31
0.000000
  6
CONTINUOUS
  0
ARC
  8
WHITE
 10
12.875794
 20
1.527410
 30
0.000000
 40
0.087121
 50
-172.497411
 51
-129.126469
  6
CONTINUOUS
  0
ARC
  8
WHITE
 10
13.042228
 20
1.956600
 30
0.000000
 40
0.507947
 50
-140.056738
 51
-119.848414
  6
CONTINUOUS
  0
LINE
  8
WHITE
 10
12.652795
 20
1.630484
 30
0.000000
 11
12.604973
 21
1.636462
 31
0.000000
  6
CONTINUOUS
  0
LINE
  8
WHITE
 10
12.604973
 20
1.636462
 30
0.000000
 11
12.557470
 21
1.663606
 31
0.000000
  6
CONTINUOUS
  0
LINE
  8
WHITE
 10
12.557470
 20
1.663606
 30
0.000000
 11
11.897074
 21
1.653326
 31
0.000000
  6
CONTINUOUS
  0
LINE
  8
WHITE
 10
11.897074
 20
1.653326
 30
0.000000
 11
11.826425
 21
1.663419
 31
0.000000
  6
CONTINUOUS
  0
LINE
  8
WHITE
 10
11.826425
 20
1.663419
 30
0.000000
 11
11.766337
 21
1.703478
 31
0.000000
  6
CONTINUOUS
  0
LINE
  8
WHITE
 10
11.766337
 20
1.703478
 30
0.000000
 11
11.615034
 21
1.833166
 31
0.000000
  6
CONTINUOUS
  0
LINE
  8
WHITE
 10
11.615034
 20
1.833166
 30
0.000000
 11
11.443186
 21
1.833166
 31
0.000000
  6
CONTINUOUS
  0
ARC
  8
WHITE
 10
11.377127
 20
1.916526
 30
0.000000
 40
0.106361
 50
-113.413443
 51
-51.604965
  6
CONTINUOUS
  0
ARC
  8
WHITE
 10
10.841650
 20
0.429008
 30
0.000000
 40
1.474829
 50
70.462695
 51
77.182160
  6
CONTINUOUS
  0
ARC
  8
WHITE
 10
11.141749
 20
1.617216
 30
0.000000
 40
0.251334
 50
83.811297
 51
123.580336
  6
CONTINUOUS
  0
LINE
  8
WHITE
 10
11.002735
 20
1.826605
 30
0.000000
 11
10.982134
 21
1.778536
 31
0.000000
  6
CONTINUOUS
  0
LINE
  8
WHITE
 10
10.982134
 20
1.778536
 30
0.000000
 11
10.946335
 21
1.752964
 31
0.000000
  6
CONTINUOUS
  0
LINE
  8
WHITE
 10
10.946335
 20
1.752964
 30
0.000000
 11
10.927869
 21
1.765275
 31
0.000000
  6
CONTINUOUS
  0
LINE
  8
WHITE
 10
10.927869
 20
1.765275
 30
0.000000
 11
10.927869
 21
1.834207
 31
0.000000
  6
CONTINUOUS
  0
LINE
  8
WHITE
 10
10.927869
 20
1.834207
 30
0.000000
 11
11.019855
 21
1.907797
 31
0.000000
  6
CONTINUOUS
  0
LINE
  8
WHITE
 10
11.019855
 20
1.907797
 30
0.000000
 11
11.262101
 21
1.907797
 31
0.000000
  6
CONTINUOUS
  0
ARC
  8
WHITE
 10
11.350877
 20
2.010011
 30
0.000000
 40
0.135384
 50
-130.975722
 51
-89.356151
  6
CONTINUOUS
  0
LINE
  8
WHITE
 10
11.352399
 20
1.874635
 30
0.000000
 11
11.647448
 21
1.871555
 31
0.000000
  6
CONTINUOUS
  0
LINE
  8
WHITE
 10
11.647448
 20
1.871555
 30
0.000000
 11
11.678366
 21
1.846821
 31
0.000000
  6
CONTINUOUS
  0
LINE
  8
WHITE
 10
11.678366
 20
1.846821
 30
0.000000
 11
11.733313
 21
1.824842
 31
0.000000
  6
CONTINUOUS
  0
LINE
  8
WHITE
 10
11.733313
 20
1.824842
 30
0.000000
 11
11.808093
 21
1.750062
 31
0.000000
  6
CONTINUOUS
  0
LINE
  8
WHITE
 10
11.808093
 20
1.750062
 30
0.000000
 11
11.919725
 21
1.697968
 31
0.000000
  6
CONTINUOUS
  0
LINE
  8
WHITE
 10
11.919725
 20
1.697968
 30
0.000000
 11
12.651924
 21
1.699861
 31
0.000000
  6
CONTINUOUS
  0
LINE
  8
WHITE
 10
12.651924
 20
1.699861
 30
0.000000
 11
12.743241
 21
1.654202
 31
0.000000
  6
CONTINUOUS
  0
LINE
  8
WHITE
 10
12.743241
 20
1.654202
 30
0.000000
 11
12.781494
 21
1.594090
 31
0.000000
  6
CONTINUOUS
  0
LINE
  8
WHITE
 10
12.781494
 20
1.594090
 30
0.000000
 11
12.820015
 21
1.583083
 31
0.000000
  6
CONTINUOUS
  0
LINE
  8
WHITE
 10
12.820015
 20
1.583083
 30
0.000000
 11
12.878437
 21
1.530504
 31
0.000000
  6
CONTINUOUS
  0
LINE
  8
WHITE
 10
12.878437
 20
1.530504
 30
0.000000
 11
12.927132
 21
1.518331
 31
0.000000
  6
CONTINUOUS
  0
LINE
  8
WHITE
 10
12.927132
 20
1.518331
 30
0.000000
 11
12.981403
 21
1.518331
 31
0.000000
  6
CONTINUOUS
  0
LINE
  8
WHITE
 10
12.981403
 20
1.518331
 30
0.000000
 11
13.056732
 21
1.490082
 31
0.000000
  6
CONTINUOUS
  0
LINE
  8
WHITE
 10
13.056732
 20
1.490082
 30
0.000000
 11
13.313061
 21
1.482615
 31
0.000000
  6
CONTINUOUS
  0
LINE
  8
WHITE
 10
13.313061
 20
1.482615
 30
0.000000
 11
13.344067
 21
1.464897
 31
0.000000
  6
CONTINUOUS
  0
LINE
  8
WHITE
 10
13.344067
 20
1.464897
 30
0.000000
 11
13.441689
 21
1.446349
 31
0.000000
  6
CONTINUOUS
  0
LINE
  8
WHITE
 10
13.441689
 20
1.446349
 30
0.000000
 11
13.436502
 21
1.425601
 31
0.000000
  6
CONTINUOUS
  0
LINE
  8
WHITE
 10
13.436502
 20
1.425601
 30
0.000000
 11
13.311367
 21
1.417664
 31
0.000000
  6
CONTINUOUS
  0
LINE
  8
WHITE
 10
13.311367
 20
1.417664
 30
0.000000
 11
13.097907
 21
1.455334
 31
0.000000
  6
CONTINUOUS
  0
LINE
  8
WHITE
 10
13.097907
 20
1.455334
 30
0.000000
 11
13.005264
 21
1.422246
 31
0.000000
  6
CONTINUOUS
  0
LINE
  8
WHITE
 10
13.005264
 20
1.422246
 30
0.000000
 11
12.957752
 21
1.426206
 31
0.000000
  6
CONTINUOUS
  0
LINE
  8
WHITE
 10
12.957752
 20
1.426206
 30
0.000000
 11
12.918748
 21
1.454066
 31
0.000000
  6
CONTINUOUS
  0
LINE
  8
WHITE
 10
12.918748
 20
1.454066
 30
0.000000
 11
12.820818
 21
1.459826
 31
0.000000
  6
CONTINUOUS
  0
LINE
  8
WHITE
 10
7.206208
 20
3.174203
 30
0.000000
 11
7.197443
 21
3.544409
 31
0.000000
  6
CONTINUOUS
  0
ARC
  8
WHITE
 10
7.184114
 20
3.544094
 30
0.000000
 40
0.013333
 50
1.356240
 51
44.826735
  6
CONTINUOUS
  0
ARC
  8
WHITE
 10
7.101948
 20
3.462424
 30
0.000000
 40
0.129183
 50
44.826734
 51
89.405801
  6
CONTINUOUS
  0
ARC
  8
WHITE
 10
7.126283
 20
3.175293
 30
0.000000
 40
0.416941
 50
93.161510
 51
144.152398
  6
CONTINUOUS
  0
ARC
  8
WHITE
 10
6.868292
 20
3.386465
 30
0.000000
 40
0.086514
 50
157.576229
 51
239.948441
  6
CONTINUOUS
  0
ARC
  8
WHITE
 10
6.909923
 20
3.400891
 30
0.000000
 40
0.123263
 50
-133.568069
 51
-108.359347
  6
CONTINUOUS
  0
LINE
  8
WHITE
 10
6.871098
 20
3.283903
 30
0.000000
 11
7.188074
 21
3.161449
 31
0.000000
  6
CONTINUOUS
  0
ARC
  8
WHITE
 10
7.192878
 20
3.173887
 30
0.000000
 40
0.013333
 50
-111.122439
 51
1.356236
  6
CONTINUOUS
  0
ARC
  8
WHITE
 10
2.221280
 20
7.695198
 30
0.000000
 40
0.031773
 50
24.204976
 51
151.722294
  6
CONTINUOUS
  0
ARC
  8
WHITE
 10
3.978300
 20
7.375091
 30
0.000000
 40
1.816194
 50
169.365715
 51
225.925524
  6
CONTINUOUS
  0
ARC
  8
WHITE
 10
2.741495
 20
6.093770
 30
0.000000
 40
0.035438
 50
-138.463680
 51
54.027045
  6
CONTINUOUS
  0
ARC
  8
WHITE
 10
4.005703
 20
7.399504
 30
0.000000
 40
1.782384
 50
170.025678
 51
225.765178
  6
CONTINUOUS
  0
ARC
  8
WHITE
 10
3.891900
 20
5.489381
 30
0.000000
 40
0.060000
 50
-119.434513
 51
-53.751596
  6
CONTINUOUS
  0
ARC
  8
WHITE
 10
3.267115
 20
6.341529
 30
0.000000
 40
1.116651
 50
-53.751595
 51
-25.446435
  6
CONTINUOUS
  0
ARC
  8
WHITE
 10
4.240232
 20
5.875030
 30
0.000000
 40
0.037630
 50
-20.680131
 51
149.787259
  6
CONTINUOUS
  0
ARC
  8
WHITE
 10
3.267115
 20
6.341529
 30
0.000000
 40
1.041651
 50
-50.902312
 51
-25.446435
  6
CONTINUOUS
  0
ARC
  8
WHITE
 10
3.886188
 20
5.579697
 30
0.000000
 40
0.060000
 50
-121.410600
 51
-50.902313
  6
CONTINUOUS
  0
ARC
  8
WHITE
 10
4.632188
 20
6.801333
 30
0.000000
 40
1.491401
 50
-155.782877
 51
-121.410600
  6
CONTINUOUS
  0
ARC
  8
WHITE
 10
3.240531
 20
6.168188
 30
0.000000
 40
0.038072
 50
34.162075
 51
194.272170
  6
CONTINUOUS
  0
ARC
  8
WHITE
 10
4.632188
 20
6.801333
 30
0.000000
 40
1.566401
 50
-155.782877
 51
-119.434513
  6
CONTINUOUS
  0
LINE
  8
WHITE
 10
12.607364
 20
2.238757
 30
0.000000
 11
12.565802
 21
2.266465
 31
0.000000
  6
CONTINUOUS
  0
LINE
  8
WHITE
 10
12.565802
 20
2.266465
 30
0.000000
 11
12.266805
 21
2.269740
 31
0.000000
  6
CONTINUOUS
  0
LINE
  8
WHITE
 10
12.266805
 20
2.269740
 30
0.000000
 11
11.960508
 21
2.422029
 31
0.000000
  6
CONTINUOUS
  0
LINE
  8
WHITE
 10
11.960508
 20
2.422029
 30
0.000000
 11
11.946246
 21
2.450556
 31
0.000000
  6
CONTINUOUS
  0
LINE
  8
WHITE
 10
11.946246
 20
2.450556
 30
0.000000
 11
11.966446
 21
2.506108
 31
0.000000
  6
CONTINUOUS
  0
LINE
  8
WHITE
 10
11.966446
 20
2.506108
 30
0.000000
 11
12.269802
 21
2.506108
 31
0.000000
  6
CONTINUOUS
  0
LINE
  8
WHITE
 10
12.269802
 20
2.506108
 30
0.000000
 11
12.714951
 21
2.288562
 31
0.000000
  6
CONTINUOUS
  0
LINE
  8
WHITE
 10
12.714951
 20
2.288562
 30
0.000000
 11
12.724615
 21
2.259566
 31
0.000000
  6
CONTINUOUS
  0
LINE
  8
WHITE
 10
12.724615
 20
2.259566
 30
0.000000
 11
12.698448
 21
2.233399
 31
0.000000
  6
CONTINUOUS
  0
LINE
  8
WHITE
 10
12.698448
 20
2.233399
 30
0.000000
 11
12.607364
 21
2.238757
 31
0.000000
  6
CONTINUOUS
  0
ARC
  8
WHITE
 10
7.859376
 20
4.684486
 30
0.000000
 40
0.021653
 50
5.934264
 51
151.445726
  6
CONTINUOUS
  0
ARC
  8
WHITE
 10
6.491074
 20
4.552398
 30
0.000000
 40
1.356781
 50
-6.026138
 51
6.026138
  6
CONTINUOUS
  0
ARC
  8
WHITE
 10
8.323076
 20
4.180523
 30
0.000000
 40
0.534470
 50
154.578195
 51
183.419735
  6
CONTINUOUS
  0
ARC
  8
WHITE
 10
7.821642
 20
4.163793
 30
0.000000
 40
0.035482
 50
-154.722285
 51
-64.722287
  6
CONTINUOUS
  0
ARC
  8
WHITE
 10
7.238244
 20
5.427077
 30
0.000000
 40
1.426969
 50
-65.199843
 51
-52.859480
  6
CONTINUOUS
  0
ARC
  8
WHITE
 10
8.044519
 20
4.367905
 30
0.000000
 40
0.095891
 50
-54.789828
 51
66.200503
  6
CONTINUOUS
  0
ARC
  8
WHITE
 10
8.372198
 20
4.912726
 30
0.000000
 40
0.540775
 50
-155.296519
 51
-122.302358
  6
CONTINUOUS
  0
ARC
  8
WHITE
 10
6.122789
 20
-1.167395
 30
0.000000
 40
3.787430
 50
85.979072
 51
91.341268
  6
CONTINUOUS
  0
ARC
  8
WHITE
 10
6.631047
 20
3.659044
 30
0.000000
 40
1.076054
 50
-103.033893
 51
-93.614880
  6
CONTINUOUS
  0
LINE
  8
WHITE
 10
6.563202
 20
2.585131
 30
0.000000
 11
6.651856
 21
2.585131
 31
0.000000
  6
CONTINUOUS
  0
ARC
  8
WHITE
 10
6.674019
 20
2.797839
 30
0.000000
 40
0.213860
 50
-95.948544
 51
-72.469510
  6
CONTINUOUS
  0
LINE
  8
WHITE
 10
6.738437
 20
2.593912
 30
0.000000
 11
6.752593
 21
2.622223
 31
0.000000
  6
CONTINUOUS
  0
LINE
  8
WHITE
 10
6.752593
 20
2.622223
 30
0.000000
 11
6.736370
 21
2.646555
 31
0.000000
  6
CONTINUOUS
  0
LINE
  8
WHITE
 10
6.736370
 20
2.646555
 30
0.000000
 11
6.434886
 21
2.647820
 31
0.000000
  6
CONTINUOUS
  0
ARC
  8
WHITE
 10
6.215208
 20
2.033835
 30
0.000000
 40
0.652101
 50
70.313308
 51
85.259578
  6
CONTINUOUS
  0
LINE
  8
WHITE
 10
6.269099
 20
2.683706
 30
0.000000
 11
5.937706
 21
2.686472
 31
0.000000
  6
CONTINUOUS
  0
LINE
  8
WHITE
 10
5.937706
 20
2.686472
 30
0.000000
 11
5.861550
 21
2.651855
 31
0.000000
  6
CONTINUOUS
  0
LINE
  8
WHITE
 10
5.861550
 20
2.651855
 30
0.000000
 11
5.676285
 21
2.646243
 31
0.000000
  6
CONTINUOUS
  0
LINE
  8
WHITE
 10
5.676285
 20
2.646243
 30
0.000000
 11
5.600789
 21
2.681086
 31
0.000000
  6
CONTINUOUS
  0
LINE
  8
WHITE
 10
5.600789
 20
2.681086
 30
0.000000
 11
5.491730
 21
2.681086
 31
0.000000
  6
CONTINUOUS
  0
LINE
  8
WHITE
 10
5.491730
 20
2.681086
 30
0.000000
 11
5.378969
 21
2.734782
 31
0.000000
  6
CONTINUOUS
  0
LINE
  8
WHITE
 10
5.378969
 20
2.734782
 30
0.000000
 11
5.282881
 21
2.824864
 31
0.000000
  6
CONTINUOUS
  0
LINE
  8
WHITE
 10
5.282881
 20
2.824864
 30
0.000000
 11
5.242058
 21
2.813202
 31
0.000000
  6
CONTINUOUS
  0
LINE
  8
WHITE
 10
5.242058
 20
2.813202
 30
0.000000
 11
5.247514
 21
2.769552
 31
0.000000
  6
CONTINUOUS
  0
LINE
  8
WHITE
 10
5.247514
 20
2.769552
 30
0.000000
 11
5.308219
 21
2.702777
 31
0.000000
  6
CONTINUOUS
  0
LINE
  8
WHITE
 10
5.308219
 20
2.702777
 30
0.000000
 11
5.362446
 21
2.681086
 31
0.000000
  6
CONTINUOUS
  0
LINE
  8
WHITE
 10
5.362446
 20
2.681086
 30
0.000000
 11
5.398029
 21
2.645504
 31
0.000000
  6
CONTINUOUS
  0
LINE
  8
WHITE
 10
5.398029
 20
2.645504
 30
0.000000
 11
5.567079
 21
2.585131
 31
0.000000
  6
CONTINUOUS
  0
LINE
  8
WHITE
 10
5.567079
 20
2.585131
 30
0.000000
 11
5.983335
 21
2.585131
 31
0.000000
  6
CONTINUOUS
  0
LINE
  8
WHITE
 10
5.983335
 20
2.585131
 30
0.000000
 11
6.034135
 21
2.618997
 31
0.000000
  6
CONTINUOUS
  0
ARC
  8
WHITE
 10
11.916484
 20
0.617510
 30
0.000000
 40
0.829347
 50
90.710708
 51
107.891715
  6
CONTINUOUS
  0
ARC
  8
WHITE
 10
11.473799
 20
1.777131
 30
0.000000
 40
0.415317
 50
-80.265614
 51
-63.101482
  6
CONTINUOUS
  0
ARC
  8
WHITE
 10
11.576475
 20
1.156150
 30
0.000000
 40
0.214118
 50
98.717832
 51
132.056024
  6
CONTINUOUS
  0
LINE
  8
WHITE
 10
11.433046
 20
1.315131
 30
0.000000
 11
11.184635
 21
1.315131
 31
0.000000
  6
CONTINUOUS
  0
ARC
  8
WHITE
 10
11.169794
 20
1.445428
 30
0.000000
 40
0.131140
 50
-123.791445
 51
-83.502284
  6
CONTINUOUS
  0
ARC
  8
WHITE
 10
10.999118
 20
1.122689
 30
0.000000
 40
0.235040
 50
65.427461
 51
84.889545
  6
CONTINUOUS
  0
LINE
  8
WHITE
 10
11.020055
 20
1.356794
 30
0.000000
 11
10.890680
 21
1.416870
 31
0.000000
  6
CONTINUOUS
  0
ARC
  8
WHITE
 10
11.016560
 20
1.805028
 30
0.000000
 40
0.408060
 50
-138.051544
 51
-107.967930
  6
CONTINUOUS
  0
ARC
  8
WHITE
 10
10.545359
 20
1.413330
 30
0.000000
 40
0.205595
 50
35.341364
 51
65.014556
  6
CONTINUOUS
  0
ARC
  8
WHITE
 10
12.723880
 20
4.391533
 30
0.000000
 40
3.488486
 50
-128.596768
 51
-126.840914
  6
CONTINUOUS
  0
ARC
  8
WHITE
 10
10.544376
 20
2.127022
 30
0.000000
 40
0.461947
 50
-115.364257
 51
-89.595348
  6
CONTINUOUS
  0
LINE
  8
WHITE
 10
10.346491
 20
1.709605
 30
0.000000
 11
10.402015
 21
1.736088
 31
0.000000
  6
CONTINUOUS
  0
ARC
  8
WHITE
 10
10.629358
 20
2.338822
 30
0.000000
 40
0.644184
 50
-110.665809
 51
-91.824710
  6
CONTINUOUS
  0
LINE
  8
WHITE
 10
10.608846
 20
1.694965
 30
0.000000
 11
10.754655
 21
1.590816
 31
0.000000
  6
CONTINUOUS
  0
ARC
  8
WHITE
 10
10.627185
 20
1.252399
 30
0.000000
 40
0.361628
 50
40.994827
 51
69.360372
  6
CONTINUOUS
  0
ARC
  8
WHITE
 10
10.904474
 20
1.413069
 30
0.000000
 40
0.076677
 50
42.694929
 51
93.247097
  6
CONTINUOUS
  0
ARC
  8
WHITE
 10
11.698790
 20
2.565656
 30
0.000000
 40
1.325099
 50
-123.842311
 51
-118.377045
  6
CONTINUOUS
  0
ARC
  8
WHITE
 10
11.165846
 20
1.632989
 30
0.000000
 40
0.252514
 50
-112.550590
 51
-87.522091
  6
CONTINUOUS
  0
ARC
  8
WHITE
 10
11.139573
 20
1.042301
 30
0.000000
 40
0.340448
 50
67.486198
 51
83.728425
  6
CONTINUOUS
  0
ARC
  8
WHITE
 10
11.282649
 20
1.734446
 30
0.000000
 40
0.377858
 50
-91.928653
 51
-66.386872
  6
CONTINUOUS
  0
LINE
  8
WHITE
 10
11.434003
 20
1.388226
 30
0.000000
 11
11.547718
 21
1.445084
 31
0.000000
  6
CONTINUOUS
  0
ARC
  8
WHITE
 10
11.644408
 20
0.874829
 30
0.000000
 40
0.578394
 50
90.240289
 51
99.623312
  6
CONTINUOUS
  0
ARC
  8
WHITE
 10
11.651284
 20
1.610603
 30
0.000000
 40
0.157660
 50
-93.382522
 51
-67.391805
  6
CONTINUOUS
  0
ARC
  8
WHITE
 10
11.783352
 20
1.367651
 30
0.000000
 40
0.120809
 50
75.265306
 51
126.263790
  6
CONTINUOUS
  0
LINE
  8
WHITE
 10
11.814078
 20
1.484486
 30
0.000000
 11
11.921291
 21
1.480913
 31
0.000000
  6
CONTINUOUS
  0
LINE
  8
WHITE
 10
11.921291
 20
1.480913
 30
0.000000
 11
11.921291
 21
1.461886
 31
0.000000
  6
CONTINUOUS
  0
LINE
  8
WHITE
 10
11.921291
 20
1.461886
 30
0.000000
 11
11.906197
 21
1.446793
 31
0.000000
  6
CONTINUOUS
  0
ARC
  8
WHITE
 10
6.933393
 20
6.810630
 30
0.000000
 40
0.039360
 50
153.274985
 51
368.647194
  6
CONTINUOUS
  0
ARC
  8
WHITE
 10
5.111672
 20
7.112539
 30
0.000000
 40
1.884030
 50
-9.038910
 51
24.341061
  6
CONTINUOUS
  0
ARC
  8
WHITE
 10
6.795481
 20
7.870479
 30
0.000000
 40
0.037658
 50
29.590997
 51
199.091125
  6
CONTINUOUS
  0
ARC
  8
WHITE
 10
5.111672
 20
7.112539
 30
0.000000
 40
1.809030
 50
-9.038910
 51
24.341061
  6
CONTINUOUS
  0
ARC
  8
WHITE
 10
4.112086
 20
2.939881
 30
0.000000
 40
0.021439
 50
-128.291837
 51
43.521162
  6
CONTINUOUS
  0
ARC
  8
WHITE
 10
5.046108
 20
3.938692
 30
0.000000
 40
1.346086
 50
-170.153002
 51
-133.026066
  6
CONTINUOUS
  0
ARC
  8
WHITE
 10
3.778969
 20
3.718748
 30
0.000000
 40
0.060000
 50
128.501758
 51
189.846998
  6
CONTINUOUS
  0
ARC
  8
WHITE
 10
4.599223
 20
2.687613
 30
0.000000
 40
1.377595
 50
123.693890
 51
128.501759
  6
CONTINUOUS
  0
ARC
  8
WHITE
 10
3.818652
 20
3.847616
 30
0.000000
 40
0.021406
 50
-40.232058
 51
108.609306
  6
CONTINUOUS
  0
ARC
  8
WHITE
 10
4.069406
 20
3.359504
 30
0.000000
 40
0.569930
 50
116.869506
 51
129.946913
  6
CONTINUOUS
  0
ARC
  8
WHITE
 10
3.647791
 20
3.882400
 30
0.000000
 40
0.102419
 50
-108.901736
 51
-57.070534
  6
CONTINUOUS
  0
ARC
  8
WHITE
 10
3.869461
 20
4.107655
 30
0.000000
 40
0.410767
 50
-156.474759
 51
-128.346870
  6
CONTINUOUS
  0
ARC
  8
WHITE
 10
3.462684
 20
3.933854
 30
0.000000
 40
0.031717
 50
18.079509
 51
222.145243
  6
CONTINUOUS
  0
ARC
  8
WHITE
 10
2.340066
 20
2.806946
 30
0.000000
 40
1.558985
 50
33.067756
 51
45.169521
  6
CONTINUOUS
  0
ARC
  8
WHITE
 10
14.241586
 20
7.503044
 30
0.000000
 40
11.271323
 50
-160.051657
 51
-158.526199
  6
CONTINUOUS
  0
ARC
  8
WHITE
 10
5.326308
 20
4.218200
 30
0.000000
 40
1.784426
 50
-151.869843
 51
-133.464129
  6
CONTINUOUS
  0
ARC
  8
WHITE
 10
12.993193
 20
2.061917
 30
0.000000
 40
1.157390
 50
-109.259385
 51
-102.349843
  6
CONTINUOUS
  0
LINE
  8
WHITE
 10
12.611433
 20
0.969300
 30
0.000000
 11
12.578163
 21
1.015975
 31
0.000000
  6
CONTINUOUS
  0
LINE
  8
WHITE
 10
12.578163
 20
1.015975
 30
0.000000
 11
12.555978
 21
1.015975
 31
0.000000
  6
CONTINUOUS
  0
LINE
  8
WHITE
 10
12.555978
 20
1.015975
 30
0.000000
 11
12.518677
 21
0.983338
 31
0.000000
  6
CONTINUOUS
  0
LINE
  8
WHITE
 10
12.518677
 20
0.983338
 30
0.000000
 11
12.365056
 21
0.900126
 31
0.000000
  6
CONTINUOUS
  0
ARC
  8
WHITE
 10
12.170737
 20
0.978059
 30
0.000000
 40
0.209364
 50
-50.406333
 51
-21.853456
  6
CONTINUOUS
  0
LINE
  8
WHITE
 10
12.304173
 20
0.816726
 30
0.000000
 11
12.273045
 21
0.822952
 31
0.000000
  6
CONTINUOUS
  0
LINE
  8
WHITE
 10
12.273045
 20
0.822952
 30
0.000000
 11
12.285546
 21
0.866703
 31
0.000000
  6
CONTINUOUS
  0
LINE
  8
WHITE
 10
12.285546
 20
0.866703
 30
0.000000
 11
12.346920
 21
0.948537
 31
0.000000
  6
CONTINUOUS
  0
LINE
  8
WHITE
 10
12.346920
 20
0.948537
 30
0.000000
 11
12.395424
 21
0.964705
 31
0.000000
  6
CONTINUOUS
  0
LINE
  8
WHITE
 10
12.395424
 20
0.964705
 30
0.000000
 11
12.395424
 21
0.984931
 31
0.000000
  6
CONTINUOUS
  0
LINE
  8
WHITE
 10
12.395424
 20
0.984931
 30
0.000000
 11
12.338880
 21
1.013202
 31
0.000000
  6
CONTINUOUS
  0
LINE
  8
WHITE
 10
12.338880
 20
1.013202
 30
0.000000
 11
12.356854
 21
1.061131
 31
0.000000
  6
CONTINUOUS
  0
LINE
  8
WHITE
 10
12.356854
 20
1.061131
 30
0.000000
 11
12.438226
 21
1.061131
 31
0.000000
  6
CONTINUOUS
  0
LINE
  8
WHITE
 10
12.438226
 20
1.061131
 30
0.000000
 11
12.467162
 21
1.072705
 31
0.000000
  6
CONTINUOUS
  0
LINE
  8
WHITE
 10
12.467162
 20
1.072705
 30
0.000000
 11
12.656105
 21
1.255922
 31
0.000000
  6
CONTINUOUS
  0
LINE
  8
WHITE
 10
12.656105
 20
1.255922
 30
0.000000
 11
12.688117
 21
1.245252
 31
0.000000
  6
CONTINUOUS
  0
LINE
  8
WHITE
 10
12.688117
 20
1.245252
 30
0.000000
 11
12.681767
 21
1.219850
 31
0.000000
  6
CONTINUOUS
  0
LINE
  8
WHITE
 10
12.681767
 20
1.219850
 30
0.000000
 11
12.598624
 21
1.131165
 31
0.000000
  6
CONTINUOUS
  0
LINE
  8
WHITE
 10
12.598624
 20
1.131165
 30
0.000000
 11
12.598624
 21
1.103132
 31
0.000000
  6
CONTINUOUS
  0
LINE
  8
WHITE
 10
12.598624
 20
1.103132
 30
0.000000
 11
12.697613
 21
1.010331
 31
0.000000
  6
CONTINUOUS
  0
LINE
  8
WHITE
 10
12.697613
 20
1.010331
 30
0.000000
 11
12.722281
 21
1.010331
 31
0.000000
  6
CONTINUOUS
  0
LINE
  8
WHITE
 10
12.722281
 20
1.010331
 30
0.000000
 11
12.797082
 21
1.072665
 31
0.000000
  6
CONTINUOUS
  0
LINE
  8
WHITE
 10
12.797082
 20
1.072665
 30
0.000000
 11
12.876259
 21
1.050044
 31
0.000000
  6
CONTINUOUS
  0
LINE
  8
WHITE
 10
12.876259
 20
1.050044
 30
0.000000
 11
12.745650
 21
0.931308
 31
0.000000
  6
CONTINUOUS
  0
LINE
  8
WHITE
 10
2.873246
 20
2.929442
 30
0.000000
 11
3.125953
 21
2.929442
 31
0.000000
  6
CONTINUOUS
  0
ARC
  8
WHITE
 10
3.157541
 20
2.788860
 30
0.000000
 40
0.144087
 50
52.375951
 51
102.663873
  6
CONTINUOUS
  0
ARC
  8
WHITE
 10
3.339357
 20
3.426554
 30
0.000000
 40
0.531917
 50
-100.162674
 51
-86.595438
  6
CONTINUOUS
  0
ARC
  8
WHITE
 10
3.455040
 20
2.978534
 30
0.000000
 40
0.118127
 50
-135.389497
 51
-96.371136
  6
CONTINUOUS
  0
ARC
  8
WHITE
 10
3.502146
 20
3.175751
 30
0.000000
 40
0.320326
 50
-100.834897
 51
-86.382424
  6
CONTINUOUS
  0
ARC
  8
WHITE
 10
3.616651
 20
2.968551
 30
0.000000
 40
0.146781
 50
-129.971909
 51
-85.627354
  6
CONTINUOUS
  0
LINE
  8
WHITE
 10
3.627842
 20
2.822197
 30
0.000000
 11
3.742491
 21
2.822197
 31
0.000000
  6
CONTINUOUS
  0
LINE
  8
WHITE
 10
3.742491
 20
2.822197
 30
0.000000
 11
3.742491
 21
2.782686
 31
0.000000
  6
CONTINUOUS
  0
ARC
  8
WHITE
 10
3.667220
 20
2.874412
 30
0.000000
 40
0.118656
 50
-105.724479
 51
-50.627480
  6
CONTINUOUS
  0
LINE
  8
WHITE
 10
3.635063
 20
2.760196
 30
0.000000
 11
3.519970
 21
2.763581
 31
0.000000
  6
CONTINUOUS
  0
LINE
  8
WHITE
 10
3.519970
 20
2.763581
 30
0.000000
 11
3.485520
 21
2.786548
 31
0.000000
  6
CONTINUOUS
  0
LINE
  8
WHITE
 10
3.485520
 20
2.786548
 30
0.000000
 11
3.384749
 21
2.797745
 31
0.000000
  6
CONTINUOUS
  0
LINE
  8
WHITE
 10
3.384749
 20
2.797745
 30
0.000000
 11
3.337079
 21
2.827539
 31
0.000000
  6
CONTINUOUS
  0
LINE
  8
WHITE
 10
3.337079
 20
2.827539
 30
0.000000
 11
3.216205
 21
2.833295
 31
0.000000
  6
CONTINUOUS
  0
LINE
  8
WHITE
 10
3.216205
 20
2.833295
 30
0.000000
 11
3.148088
 21
2.867353
 31
0.000000
  6
CONTINUOUS
  0
LINE
  8
WHITE
 10
3.148088
 20
2.867353
 30
0.000000
 11
2.899900
 21
2.867353
 31
0.000000
  6
CONTINUOUS
  0
LINE
  8
WHITE
 10
2.899900
 20
2.867353
 30
0.000000
 11
2.873246
 21
2.883345
 31
0.000000
  6
CONTINUOUS
  0
LINE
  8
WHITE
 10
2.873246
 20
2.883345
 30
0.000000
 11
2.873246
 21
2.929442
 31
0.000000
  6
CONTINUOUS
  0
ARC
  8
WHITE
 10
11.368585
 20
1.692128
 30
0.000000
 40
0.172473
 50
-78.282162
 51
-41.400824
  6
CONTINUOUS
  0
ARC
  8
WHITE
 10
11.387076
 20
1.900505
 30
0.000000
 40
0.377618
 50
-131.529431
 51
-87.490025
  6
CONTINUOUS
  0
LINE
  8
WHITE
 10
11.136713
 20
1.617814
 30
0.000000
 11
11.136713
 21
1.678795
 31
0.000000
  6
CONTINUOUS
  0
ARC
  8
WHITE
 10
11.245533
 20
1.618905
 30
0.000000
 40
0.124213
 50
109.139800
 51
151.173394
  6
CONTINUOUS
  0
LINE
  8
WHITE
 10
11.204807
 20
1.736251
 30
0.000000
 11
11.302148
 21
1.726516
 31
0.000000
  6
CONTINUOUS
  0
LINE
  8
WHITE
 10
11.302148
 20
1.726516
 30
0.000000
 11
11.497957
 21
1.613882
 31
0.000000
  6
CONTINUOUS
  0
LINE
  8
WHITE
 10
11.497957
 20
1.613882
 30
0.000000
 11
11.497957
 21
1.578067
 31
0.000000
  6
CONTINUOUS
  0
ARC
  8
WHITE
 10
7.440303
 20
5.394446
 30
0.000000
 40
0.016767
 50
-65.983487
 51
79.854870
  6
CONTINUOUS
  0
ARC
  8
WHITE
 10
7.597752
 20
5.703274
 30
0.000000
 40
0.330638
 50
-149.705440
 51
-117.856809
  6
CONTINUOUS
  0
ARC
  8
WHITE
 10
10.692930
 20
7.445401
 30
0.000000
 40
3.882378
 50
-153.707647
 51
-150.548448
  6
CONTINUOUS
  0
ARC
  8
WHITE
 10
6.826340
 20
5.569764
 30
0.000000
 40
0.416177
 50
22.004406
 51
49.546516
  6
CONTINUOUS
  0
ARC
  8
WHITE
 10
7.162177
 20
5.984907
 30
0.000000
 40
0.118428
 50
125.972056
 51
236.242311
  6
CONTINUOUS
  0
ARC
  8
WHITE
 10
7.078817
 20
6.097088
 30
0.000000
 40
0.021383
 50
-49.819229
 51
129.055031
  6
CONTINUOUS
  0
ARC
  8
WHITE
 10
7.190844
 20
5.984346
 30
0.000000
 40
0.180224
 50
134.135268
 51
225.690834
  6
CONTINUOUS
  0
ARC
  8
WHITE
 10
4.808429
 20
4.167068
 30
0.000000
 40
2.818208
 50
30.093406
 51
36.803546
  6
CONTINUOUS
  0
ARC
  8
WHITE
 10
7.518789
 20
5.650918
 30
0.000000
 40
0.281076
 50
-165.417194
 51
-104.770940
  6
CONTINUOUS
  0
ARC
  8
WHITE
 10
9.865967
 20
9.354625
 30
0.000000
 40
0.067808
 50
76.474743
 51
162.546237
  6
CONTINUOUS
  0
ARC
  8
WHITE
 10
9.920108
 20
9.441236
 30
0.000000
 40
0.136059
 50
-150.850521
 51
-97.719003
  6
CONTINUOUS
  0
ARC
  8
WHITE
 10
9.868674
 20
9.205125
 30
0.000000
 40
0.106575
 50
-1.866349
 51
71.872059
  6
CONTINUOUS
  0
ARC
  8
WHITE
 10
9.875032
 20
9.287096
 30
0.000000
 40
0.131652
 50
-81.577813
 51
-40.465758
  6
CONTINUOUS
  0
ARC
  8
WHITE
 10
9.913096
 20
9.136869
 30
0.000000
 40
0.027432
 50
133.208669
 51
282.698619
  6
CONTINUOUS
  0
ARC
  8
WHITE
 10
9.939688
 20
9.234285
 30
0.000000
 40
0.125867
 50
-99.402027
 51
-62.531518
  6
CONTINUOUS
  0
ARC
  8
WHITE
 10
9.953430
 20
9.199579
 30
0.000000
 40
0.088817
 50
-60.069710
 51
-1.961138
  6
CONTINUOUS
  0
ARC
  8
WHITE
 10
9.829636
 20
9.213781
 30
0.000000
 40
0.213257
 50
-4.637240
 51
75.834301
  6
CONTINUOUS
  0
LINE
  8
WHITE
 10
11.734521
 20
2.302406
 30
0.000000
 11
11.538604
 21
2.303989
 31
0.000000
  6
CONTINUOUS
  0
ARC
  8
WHITE
 10
11.549872
 20
2.411982
 30
0.000000
 40
0.108579
 50
-147.865152
 51
-95.956882
  6
CONTINUOUS
  0
ARC
  8
WHITE
 10
11.633606
 20
2.522464
 30
0.000000
 40
0.243242
 50
-159.213027
 51
-136.239628
  6
CONTINUOUS
  0
LINE
  8
WHITE
 10
11.406198
 20
2.436139
 30
0.000000
 11
11.411119
 21
2.465662
 31
0.000000
  6
CONTINUOUS
  0
ARC
  8
WHITE
 10
11.247935
 20
1.639637
 30
0.000000
 40
0.841990
 50
67.419532
 51
78.824947
  6
CONTINUOUS
  0
ARC
  8
WHITE
 10
11.747182
 20
2.662384
 30
0.000000
 40
0.301875
 50
-125.649130
 51
-93.721729
  6
CONTINUOUS
  0
LINE
  8
WHITE
 10
11.727587
 20
2.361146
 30
0.000000
 11
11.751957
 21
2.336775
 31
0.000000
  6
CONTINUOUS
  0
LINE
  8
WHITE
 10
11.751957
 20
2.336775
 30
0.000000
 11
11.751957
 21
2.319842
 31
0.000000
  6
CONTINUOUS
  0
LINE
  8
WHITE
 10
11.751957
 20
2.319842
 30
0.000000
 11
11.734521
 21
2.302406
 31
0.000000
  6
CONTINUOUS
  0
ARC
  8
WHITE
 10
8.315045
 20
4.944324
 30
0.000000
 40
0.332680
 50
-75.084003
 51
-60.650951
  6
CONTINUOUS
  0
ARC
  8
WHITE
 10
8.482852
 20
4.622939
 30
0.000000
 40
0.031762
 50
-35.615985
 51
98.603019
  6
CONTINUOUS
  0
ARC
  8
WHITE
 10
8.436324
 20
4.618668
 30
0.000000
 40
0.073733
 50
-112.541421
 51
-11.123913
  6
CONTINUOUS
  0
ARC
  8
WHITE
 10
8.455947
 20
5.010902
 30
0.000000
 40
0.462818
 50
-119.878085
 51
-95.939138
  6
CONTINUOUS
  0
ARC
  8
WHITE
 10
8.388583
 20
4.906655
 30
0.000000
 40
0.338932
 50
-135.106754
 51
-118.782706
  6
CONTINUOUS
  0
ARC
  8
WHITE
 10
8.238613
 20
4.739688
 30
0.000000
 40
0.115518
 50
170.757230
 51
218.712649
  6
CONTINUOUS
  0
LINE
  8
WHITE
 10
8.124596
 20
4.758242
 30
0.000000
 11
8.152346
 21
4.758242
 31
0.000000
  6
CONTINUOUS
  0
ARC
  8
WHITE
 10
8.319110
 20
4.840959
 30
0.000000
 40
0.186152
 50
-153.617863
 51
-98.049655
  6
CONTINUOUS
  0
ARC
  8
WHITE
 10
8.308917
 20
4.597067
 30
0.000000
 40
0.061653
 50
33.845286
 51
104.920438
  6
CONTINUOUS
  0
ARC
  8
WHITE
 10
8.400677
 20
4.723290
 30
0.000000
 40
0.100436
 50
-113.814738
 51
-90.000000
  6
CONTINUOUS
  0
LINE
  8
WHITE
 10
14.068241
 20
13.907896
 30
0.000000
 11
14.068241
 21
14.077220
 31
0.000000
  6
CONTINUOUS
  0
LINE
  8
WHITE
 10
14.068241
 20
14.077220
 30
0.000000
 11
13.899183
 21
14.077220
 31
0.000000
  6
CONTINUOUS
  0
LINE
  8
WHITE
 10
13.899183
 20
14.077220
 30
0.000000
 11
13.899183
 21
13.907896
 31
0.000000
  6
CONTINUOUS
  0
LINE
  8
WHITE
 10
13.899183
 20
13.907896
 30
0.000000
 11
14.068241
 21
13.907896
 31
0.000000
  6
CONTINUOUS
  0
LINE
  8
WHITE
 10
0.531358
 20
14.077220
 30
0.000000
 11
0.363058
 21
14.077220
 31
0.000000
  6
CONTINUOUS
  0
LINE
  8
WHITE
 10
0.363058
 20
14.077220
 30
0.000000
 11
0.363058
 21
13.907896
 31
0.000000
  6
CONTINUOUS
  0
LINE
  8
WHITE
 10
0.363058
 20
13.907896
 30
0.000000
 11
0.531358
 21
13.907896
 31
0.000000
  6
CONTINUOUS
  0
LINE
  8
WHITE
 10
0.531358
 20
13.907896
 30
0.000000
 11
0.531358
 21
14.077220
 31
0.000000
  6
CONTINUOUS
  0
ARC
  8
WHITE
 10
1.778305
 20
4.655534
 30
0.000000
 40
0.023144
 50
137.320278
 51
291.925260
  6
CONTINUOUS
  0
ARC
  8
WHITE
 10
1.596010
 20
5.090616
 30
0.000000
 40
0.494871
 50
-67.304526
 51
-39.290625
  6
CONTINUOUS
  0
ARC
  8
WHITE
 10
2.207646
 20
4.641494
 30
0.000000
 40
0.265895
 50
112.943710
 51
149.301792
  6
CONTINUOUS
  0
ARC
  8
WHITE
 10
2.091061
 20
5.014478
 30
0.000000
 40
0.128775
 50
-84.236505
 51
-35.795084
  6
CONTINUOUS
  0
ARC
  8
WHITE
 10
2.180856
 20
4.956175
 30
0.000000
 40
0.022458
 50
-49.261460
 51
113.894324
  6
CONTINUOUS
  0
ARC
  8
WHITE
 10
2.469373
 20
4.298624
 30
0.000000
 40
0.740521
 50
113.696843
 51
135.701361
  6
CONTINUOUS
  0
ARC
  8
WHITE
 10
1.395210
 20
5.304107
 30
0.000000
 40
0.731134
 50
-59.953497
 51
-41.903059
  6
CONTINUOUS
  0
LINE
  8
WHITE
 10
0.530208
 20
0.564424
 30
0.000000
 11
0.530180
 21
0.399549
 31
0.000000
  6
CONTINUOUS
  0
LINE
  8
WHITE
 10
0.530180
 20
0.399549
 30
0.000000
 11
0.365645
 21
0.399585
 31
0.000000
  6
CONTINUOUS
  0
LINE
  8
WHITE
 10
0.365645
 20
0.399585
 30
0.000000
 11
0.365583
 21
0.564424
 31
0.000000
  6
CONTINUOUS
  0
LINE
  8
WHITE
 10
0.365583
 20
0.564424
 30
0.000000
 11
0.530208
 21
0.564424
 31
0.000000
  6
CONTINUOUS
  0
LINE
  8
WHITE
 10
14.062329
 20
0.564407
 30
0.000000
 11
14.062181
 21
0.396615
 31
0.000000
  6
CONTINUOUS
  0
LINE
  8
WHITE
 10
14.062181
 20
0.396615
 30
0.000000
 11
13.901316
 21
0.396650
 31
0.000000
  6
CONTINUOUS
  0
LINE
  8
WHITE
 10
13.901316
 20
0.396650
 30
0.000000
 11
13.901264
 21
0.564407
 31
0.000000
  6
CONTINUOUS
  0
LINE
  8
WHITE
 10
13.901264
 20
0.564407
 30
0.000000
 11
14.062329
 21
0.564407
 31
0.000000
  6
CONTINUOUS
  0
ARC
  8
WHITE
 10
8.388409
 20
3.670023
 30
0.000000
 40
0.011035
 50
156.016917
 51
334.736953
  6
CONTINUOUS
  0
ARC
  8
WHITE
 10
8.707642
 20
3.595237
 30
0.000000
 40
0.317093
 50
120.950607
 51
167.232418
  6
CONTINUOUS
  0
ARC
  8
WHITE
 10
8.422788
 20
4.208494
 30
0.000000
 40
0.362387
 50
-70.364735
 51
-45.573784
  6
CONTINUOUS
  0
ARC
  8
WHITE
 10
8.418620
 20
4.246553
 30
0.000000
 40
0.393197
 50
-49.024219
 51
-32.804173
  6
CONTINUOUS
  0
ARC
  8
WHITE
 10
8.731598
 20
4.042985
 30
0.000000
 40
0.019904
 50
-28.358561
 51
146.308020
  6
CONTINUOUS
  0
ARC
  8
WHITE
 10
8.504796
 20
4.174385
 30
0.000000
 40
0.242255
 50
-72.783842
 51
-29.790365
  6
CONTINUOUS
  0
ARC
  8
WHITE
 10
8.685675
 20
3.665496
 30
0.000000
 40
0.298194
 50
111.476987
 51
143.561240
  6
CONTINUOUS
  0
ARC
  8
WHITE
 10
8.982634
 20
3.529608
 30
0.000000
 40
0.621436
 50
149.756346
 51
166.516240
  6
CONTINUOUS
  0
ARC
  8
WHITE
 10
12.333695
 20
0.897915
 30
0.000000
 40
0.183061
 50
105.117831
 51
149.593170
  6
CONTINUOUS
  0
ARC
  8
WHITE
 10
11.726802
 20
1.342004
 30
0.000000
 40
0.570191
 50
-52.376724
 51
-38.049763
  6
CONTINUOUS
  0
LINE
  8
WHITE
 10
12.074884
 20
0.890389
 30
0.000000
 11
12.041277
 21
0.895989
 31
0.000000
  6
CONTINUOUS
  0
LINE
  8
WHITE
 10
12.041277
 20
0.895989
 30
0.000000
 11
12.025791
 21
0.911474
 31
0.000000
  6
CONTINUOUS
  0
LINE
  8
WHITE
 10
12.025791
 20
0.911474
 30
0.000000
 11
12.035917
 21
0.946916
 31
0.000000
  6
CONTINUOUS
  0
LINE
  8
WHITE
 10
12.035917
 20
0.946916
 30
0.000000
 11
12.083650
 21
0.970781
 31
0.000000
  6
CONTINUOUS
  0
LINE
  8
WHITE
 10
12.083650
 20
0.970781
 30
0.000000
 11
12.285468
 21
1.166833
 31
0.000000
  6
CONTINUOUS
  0
LINE
  8
WHITE
 10
12.285468
 20
1.166833
 30
0.000000
 11
12.333335
 21
1.150877
 31
0.000000
  6
CONTINUOUS
  0
ARC
  8
WHITE
 10
12.254455
 20
1.147061
 30
0.000000
 40
0.078972
 50
-66.495169
 51
2.769714
  6
CONTINUOUS
  0
ARC
  8
WHITE
 10
11.538848
 20
10.275564
 30
0.000000
 40
0.030473
 50
-61.464076
 51
105.322811
  6
CONTINUOUS
  0
ARC
  8
WHITE
 10
11.568617
 20
10.459078
 30
0.000000
 40
0.158696
 50
-127.528089
 51
-103.787872
  6
CONTINUOUS
  0
ARC
  8
WHITE
 10
11.446649
 20
10.276322
 30
0.000000
 40
0.062271
 50
66.029737
 51
246.439198
  6
CONTINUOUS
  0
ARC
  8
WHITE
 10
11.472806
 20
10.299841
 30
0.000000
 40
0.095406
 50
-122.348632
 51
-32.348737
  6
CONTINUOUS
  0
ARC
  8
WHITE
 10
7.291546
 20
4.680215
 30
0.000000
 40
0.026470
 50
112.168983
 51
247.831017
  6
CONTINUOUS
  0
ARC
  8
WHITE
 10
7.344773
 20
4.737746
 30
0.000000
 40
0.103574
 50
-127.614407
 51
-83.281392
  6
CONTINUOUS
  0
ARC
  8
WHITE
 10
7.359207
 20
4.505109
 30
0.000000
 40
0.129795
 50
61.858329
 51
91.022767
  6
CONTINUOUS
  0
ARC
  8
WHITE
 10
7.498232
 20
4.726643
 30
0.000000
 40
0.132365
 50
-126.002415
 51
-93.697508
  6
CONTINUOUS
  0
ARC
  8
WHITE
 10
7.503595
 20
4.717322
 30
0.000000
 40
0.123553
 50
-96.459045
 51
-68.387013
  6
CONTINUOUS
  0
ARC
  8
WHITE
 10
7.543913
 20
4.629438
 30
0.000000
 40
0.027478
 50
-79.109875
 51
81.895173
  6
CONTINUOUS
  0
ARC
  8
WHITE
 10
7.519673
 20
5.008416
 30
0.000000
 40
0.352896
 50
-107.626033
 51
-85.430699
  6
CONTINUOUS
  0
ARC
  8
WHITE
 10
7.306386
 20
4.524340
 30
0.000000
 40
0.182089
 50
54.233114
 51
97.837085
  6
CONTINUOUS
  0
ARC
  8
WHITE
 10
12.503247
 20
2.154206
 30
0.000000
 40
0.195424
 50
-102.240374
 51
-57.956004
  6
CONTINUOUS
  0
ARC
  8
WHITE
 10
13.275174
 20
8.962840
 30
0.000000
 40
7.046714
 50
-98.470979
 51
-96.628074
  6
CONTINUOUS
  0
ARC
  8
WHITE
 10
12.077148
 20
1.340005
 30
0.000000
 40
0.672309
 50
76.233569
 51
95.562864
  6
CONTINUOUS
  0
LINE
  8
WHITE
 10
12.011975
 20
2.009148
 30
0.000000
 11
12.045469
 21
1.986820
 31
0.000000
  6
CONTINUOUS
  0
ARC
  8
WHITE
 10
12.559853
 20
3.727013
 30
0.000000
 40
1.814625
 50
-106.467158
 51
-91.952826
  6
CONTINUOUS
  0
LINE
  8
WHITE
 10
12.498016
 20
1.913442
 30
0.000000
 11
12.559113
 21
1.913442
 31
0.000000
  6
CONTINUOUS
  0
LINE
  8
WHITE
 10
12.559113
 20
1.913442
 30
0.000000
 11
12.598624
 21
1.932183
 31
0.000000
  6
CONTINUOUS
  0
LINE
  8
WHITE
 10
12.598624
 20
1.932183
 30
0.000000
 11
13.048305
 21
1.982171
 31
0.000000
  6
CONTINUOUS
  0
LINE
  8
WHITE
 10
13.048305
 20
1.982171
 30
0.000000
 11
13.340146
 21
1.869040
 31
0.000000
  6
CONTINUOUS
  0
LINE
  8
WHITE
 10
13.340146
 20
1.869040
 30
0.000000
 11
13.372483
 21
1.874430
 31
0.000000
  6
CONTINUOUS
  0
LINE
  8
WHITE
 10
13.372483
 20
1.874430
 30
0.000000
 11
13.445291
 21
1.835226
 31
0.000000
  6
CONTINUOUS
  0
LINE
  8
WHITE
 10
13.445291
 20
1.835226
 30
0.000000
 11
13.445291
 21
1.815177
 31
0.000000
  6
CONTINUOUS
  0
LINE
  8
WHITE
 10
13.445291
 20
1.815177
 30
0.000000
 11
13.392145
 21
1.809862
 31
0.000000
  6
CONTINUOUS
  0
LINE
  8
WHITE
 10
13.392145
 20
1.809862
 30
0.000000
 11
13.351055
 21
1.834516
 31
0.000000
  6
CONTINUOUS
  0
LINE
  8
WHITE
 10
13.351055
 20
1.834516
 30
0.000000
 11
12.901972
 21
1.966232
 31
0.000000
  6
CONTINUOUS
  0
LINE
  8
WHITE
 10
12.901972
 20
1.966232
 30
0.000000
 11
12.606934
 21
1.988556
 31
0.000000
  6
CONTINUOUS
  0
CIRCLE
  8
WHITE
 10
10.818384
 20
8.793271
 30
0.000000
 40
0.064289
  6
CONTINUOUS
  0
ARC
  8
WHITE
 10
11.917492
 20
11.865919
 30
0.000000
 40
1.616667
 50
15.962244
 51
23.133886
  6
CONTINUOUS
  0
LINE
  8
WHITE
 10
13.404161
 20
12.501077
 30
0.000000
 11
13.503581
 21
12.484507
 31
0.000000
  6
CONTINUOUS
  0
LINE
  8
WHITE
 10
13.503581
 20
12.484507
 30
0.000000
 11
13.503581
 21
12.310508
 31
0.000000
  6
CONTINUOUS
  0
LINE
  8
WHITE
 10
13.503581
 20
12.310508
 30
0.000000
 11
13.471825
 21
12.310508
 31
0.000000
  6
CONTINUOUS
  0
ARC
  8
WHITE
 10
11.618547
 20
7.623887
 30
0.000000
 40
0.021021
 50
-133.687847
 51
44.949496
  6
CONTINUOUS
  0
ARC
  8
WHITE
 10
11.679433
 20
7.711450
 30
0.000000
 40
0.086045
 50
126.891917
 51
237.675808
  6
CONTINUOUS
  0
LINE
  8
WHITE
 10
11.627780
 20
7.780266
 30
0.000000
 11
11.627780
 21
7.799467
 31
0.000000
  6
CONTINUOUS
  0
ARC
  8
WHITE
 10
11.605095
 20
7.804456
 30
0.000000
 40
0.023227
 50
-12.403707
 51
158.918601
  6
CONTINUOUS
  0
ARC
  8
WHITE
 10
11.710776
 20
7.722564
 30
0.000000
 40
0.156088
 50
144.677198
 51
226.850457
  6
CONTINUOUS
  0
LINE
  8
WHITE
 10
7.302683
 20
1.552197
 30
0.000000
 11
7.367165
 21
1.552197
 31
0.000000
  6
CONTINUOUS
  0
LINE
  8
WHITE
 10
7.367165
 20
1.552197
 30
0.000000
 11
7.388083
 21
1.526050
 31
0.000000
  6
CONTINUOUS
  0
LINE
  8
WHITE
 10
7.388083
 20
1.526050
 30
0.000000
 11
7.381025
 21
1.504877
 31
0.000000
  6
CONTINUOUS
  0
LINE
  8
WHITE
 10
7.381025
 20
1.504877
 30
0.000000
 11
7.361333
 21
1.490108
 31
0.000000
  6
CONTINUOUS
  0
LINE
  8
WHITE
 10
7.361333
 20
1.490108
 30
0.000000
 11
7.278332
 21
1.490108
 31
0.000000
  6
CONTINUOUS
  0
LINE
  8
WHITE
 10
7.278332
 20
1.490108
 30
0.000000
 11
7.267429
 21
1.522819
 31
0.000000
  6
CONTINUOUS
  0
LINE
  8
WHITE
 10
7.267429
 20
1.522819
 30
0.000000
 11
7.302683
 21
1.552197
 31
0.000000
  6
CONTINUOUS
  0
ARC
  8
WHITE
 10
7.512240
 20
3.751720
 30
0.000000
 40
0.013333
 50
-22.194299
 51
28.072278
  6
CONTINUOUS
  0
LINE
  8
WHITE
 10
7.524005
 20
3.757994
 30
0.000000
 11
7.484782
 21
3.831537
 31
0.000000
  6
CONTINUOUS
  0
ARC
  8
WHITE
 10
7.473017
 20
3.825262
 30
0.000000
 40
0.013333
 50
28.072278
 51
101.310333
  6
CONTINUOUS
  0
LINE
  8
WHITE
 10
7.470402
 20
3.838337
 30
0.000000
 11
7.459834
 21
3.836223
 31
0.000000
  6
CONTINUOUS
  0
ARC
  8
WHITE
 10
7.462449
 20
3.823149
 30
0.000000
 40
0.013333
 50
101.310337
 51
203.962608
  6
CONTINUOUS
  0
LINE
  8
WHITE
 10
7.450265
 20
3.817733
 30
0.000000
 11
7.483241
 21
3.743537
 31
0.000000
  6
CONTINUOUS
  0
ARC
  8
WHITE
 10
7.495425
 20
3.748952
 30
0.000000
 40
0.013333
 50
-156.037390
 51
-139.110529
  6
CONTINUOUS
  0
ARC
  8
WHITE
 10
7.502983
 20
3.755496
 30
0.000000
 40
0.023331
 50
-139.110528
 51
-22.194297
  6
CONTINUOUS
  0
ARC
  8
WHITE
 10
7.507335
 20
3.612420
 30
0.000000
 40
0.023273
 50
-165.963716
 51
-14.036284
  6
CONTINUOUS
  0
LINE
  8
WHITE
 10
7.529913
 20
3.606775
 30
0.000000
 11
7.529913
 21
3.635750
 31
0.000000
  6
CONTINUOUS
  0
ARC
  8
WHITE
 10
7.506882
 20
3.636115
 30
0.000000
 40
0.023034
 50
-0.909604
 51
163.848753
  6
CONTINUOUS
  0
LINE
  8
WHITE
 10
7.484757
 20
3.642523
 30
0.000000
 11
7.484757
 21
3.606775
 31
0.000000
  6
CONTINUOUS
  0
ENDSEC
  0
EOF
