  0
SECTION
  2
HEADER
  9
$ACADVER
  1
AC1009
  9
$INSBASE
 10
0.0
 20
0.0
 30
0.0
  9
$EXTMIN
 10
0.0
 20
0.0
 30
0.0
  9
$EXTMAX
 10
863.59999999999991
 20
558.79999999999995
 30
0.0
  9
$LIMMIN
 10
0.0
 20
0.0
  9
$LIMMAX
 10
863.59999999999991
 20
558.79999999999995
  9
$ORTHOMODE
 70
     0
  9
$REGENMODE
 70
     1
  9
$FILLMODE
 70
     1
  9
$QTEXTMODE
 70
     0
  9
$MIRRTEXT
 70
     0
  9
$DRAGMODE
 70
     2
  9
$LTSCALE
 40
1.0
  9
$OSMODE
 70
     0
  9
$ATTMODE
 70
     1
  9
$TEXTSIZE
 40
0.2
  9
$TRACEWID
 40
0.05
  9
$TEXTSTYLE
  7
STANDARD
  9
$CLAYER
  8
0
  9
$CELTYPE
  6
BYLAYER
  9
$CECOLOR
 62
   256
  9
$DIMSCALE
 40
1.0
  9
$DIMASZ
 40
1.7999999999999989
  9
$DIMEXO
 40
0.0625
  9
$DIMDLI
 40
0.38
  9
$DIMRND
 40
0.0
  9
$DIMDLE
 40
0.0
  9
$DIMEXE
 40
0.18
  9
$DIMTP
 40
0.0
  9
$DIMTM
 40
0.0
  9
$DIMTXT
 40
1.7999999999999989
  9
$DIMCEN
 40
0.09
  9
$DIMTSZ
 40
0.0
  9
$DIMTOL
 70
     0
  9
$DIMLIM
 70
     0
  9
$DIMTIH
 70
     1
  9
$DIMTOH
 70
     1
  9
$DIMSE1
 70
     0
  9
$DIMSE2
 70
     0
  9
$DIMTAD
 70
     0
  9
$DIMZIN
 70
     0
  9
$DIMBLK
  1

  9
$DIMASO
 70
     1
  9
$DIMSHO
 70
     1
  9
$DIMPOST
  1

  9
$DIMAPOST
  1

  9
$DIMALT
 70
     0
  9
$DIMALTD
 70
     2
  9
$DIMALTF
 40
25.399999999999999
  9
$DIMLFAC
 40
1.0
  9
$DIMTOFL
 70
     0
  9
$DIMTVP
 40
0.0
  9
$DIMTIX
 70
     0
  9
$DIMSOXD
 70
     0
  9
$DIMSAH
 70
     0
  9
$DIMBLK1
  1

  9
$DIMBLK2
  1

  9
$DIMSTYLE
  2
STANDARD
  9
$DIMCLRD
 70
     0
  9
$DIMCLRE
 70
     0
  9
$DIMCLRT
 70
     0
  9
$DIMTFAC
 40
1.0
  9
$DIMGAP
 40
0.09
  9
$LUNITS
 70
     2
  9
$LUPREC
 70
     4
  9
$SKETCHINC
 40
0.1
  9
$FILLETRAD
 40
0.0
  9
$AUNITS
 70
     0
  9
$AUPREC
 70
     0
  9
$MENU
  1
.
  9
$ELEVATION
 40
0.0
  9
$PELEVATION
 40
0.0
  9
$THICKNESS
 40
0.0
  9
$LIMCHECK
 70
     0
  9
$BLIPMODE
 70
     0
  9
$CHAMFERA
 40
0.0
  9
$CHAMFERB
 40
0.0
  9
$SKPOLY
 70
     0
  9
$TDCREATE
 40
2457425.5093188309
  9
$TDUPDATE
 40
2457425.5093197799
  9
$TDINDWG
 40
0.0000986111
  9
$TDUSRTIMER
 40
0.0000986111
  9
$USRTIMER
 70
     1
  9
$ANGBASE
 50
0.0
  9
$ANGDIR
 70
     0
  9
$PDMODE
 70
     0
  9
$PDSIZE
 40
0.0
  9
$PLINEWID
 40
0.0
  9
$COORDS
 70
     0
  9
$SPLFRAME
 70
     0
  9
$SPLINETYPE
 70
     6
  9
$SPLINESEGS
 70
     8
  9
$ATTDIA
 70
     1
  9
$ATTREQ
 70
     1
  9
$HANDLING
 70
     1
  9
$HANDSEED
  5
332
  9
$SURFTAB1
 70
     6
  9
$SURFTAB2
 70
     6
  9
$SURFTYPE
 70
     6
  9
$SURFU
 70
     6
  9
$SURFV
 70
     6
  9
$UCSNAME
  2

  9
$UCSORG
 10
0.0
 20
0.0
 30
0.0
  9
$UCSXDIR
 10
1.0
 20
0.0
 30
0.0
  9
$UCSYDIR
 10
0.0
 20
1.0
 30
0.0
  9
$PUCSNAME
  2

  9
$PUCSORG
 10
0.0
 20
0.0
 30
0.0
  9
$PUCSXDIR
 10
1.0
 20
0.0
 30
0.0
  9
$PUCSYDIR
 10
0.0
 20
1.0
 30
0.0
  9
$USERI1
 70
     0
  9
$USERI2
 70
     0
  9
$USERI3
 70
     0
  9
$USERI4
 70
     0
  9
$USERI5
 70
     0
  9
$USERR1
 40
0.0
  9
$USERR2
 40
0.0
  9
$USERR3
 40
0.0
  9
$USERR4
 40
0.0
  9
$USERR5
 40
0.0
  9
$WORLDVIEW
 70
     1
  9
$SHADEDGE
 70
     3
  9
$SHADEDIF
 70
    70
  9
$TILEMODE
 70
     1
  9
$MAXACTVP
 70
    64
  9
$PLIMCHECK
 70
     0
  9
$PEXTMIN
 10
0.0
 20
0.0
 30
0.0
  9
$PEXTMAX
 10
863.59999999999991
 20
558.79999999999995
 30
0.0
  9
$PLIMMIN
 10
0.0
 20
0.0
  9
$PLIMMAX
 10
863.59999999999991
 20
558.79999999999995
  9
$UNITMODE
 70
     0
  9
$VISRETAIN
 70
     1
  9
$PLINEGEN
 70
     0
  9
$PSLTSCALE
 70
     1
  0
ENDSEC
  0
SECTION
  2
TABLES
  0
TABLE
  2
VPORT
 70
     1
  0
VPORT
  2
*ACTIVE
 70
     0
 10
0.0
 20
0.0
 11
1.0
 21
1.0
 12
431.7999999999999
 22
279.39999999999998
 13
0.0
 23
0.0
 14
1.0
 24
1.0
 15
0.0
 25
0.0
 16
0.0
 26
0.0
 36
1.0
 17
0.0
 27
0.0
 37
0.0
 40
558.79999999999995
 41
1.545454545454545
 42
50.0
 43
0.0
 44
0.0
 50
0.0
 51
0.0
 71
     0
 72
   100
 73
     1
 74
     1
 75
     0
 76
     0
 77
     0
 78
     0
  0
ENDTAB
  0
TABLE
  2
LTYPE
 70
    59
  0
LTYPE
  2
CONTINUOUS
 70
     0
  3
Solid line
 72
    65
 73
     0
 40
0.0
  0
LTYPE
  2
BY_STANDARD
 70
     0
  3
By Standard ____________    ____    ____   _
 72
    65
 73
     6
 40
1.2402999999999991
 49
0.6614
 49
-0.0827
 49
0.1654
 49
-0.0827
 49
0.1654
 49
-0.0827
  0
LTYPE
  2
CHAIN
 70
     0
  3
Chain ____ _ ____ _ ____ _ ____ _ ____ _ ____
 72
    65
 73
     4
 40
0.7087
 49
0.4724000000000001
 49
-0.0591
 49
0.1181
 49
-0.0591
  0
LTYPE
  2
DASH_DOT
 70
     0
  3
Dash dot __ . __ . __ . __ . __ . __ . __ . __
 72
    65
 73
     4
 40
0.37
 49
0.24
 49
-0.06
 49
0.01
 49
-0.06
  0
LTYPE
  2
DOUBLE_DASH_DOT
 70
     0
  3
Double-Dash Dot __ __ . __ __ . __ __ . __ _
 72
    65
 73
     6
 40
0.4398
 49
0.24
 49
-0.06
 49
0.0098
 49
-0.06
 49
0.01
 49
-0.06
  0
LTYPE
  2
DASH_TRIPLE_DOT
 70
     0
  3
Dash Triple-Dot _ . . . _ . . . _ . . . _
 72
    65
 73
     8
 40
0.51
 49
0.24
 49
-0.06
 49
0.01
 49
-0.06
 49
0.01
 49
-0.06
 49
0.01
 49
-0.06
  0
LTYPE
  2
DASHED
 70
     0
  3
Dashed __ __ __ __ __ __ __ __ __ __ __ __ __ _
 72
    65
 73
     2
 40
0.2067
 49
0.1654
 49
-0.0413
  0
LTYPE
  2
DASH_DOUBLE_DOT
 70
     0
  3
Dash Double-Dot __ . . __ . . __ . . __ . .
 72
    65
 73
     6
 40
0.4398
 49
0.24
 49
-0.06
 49
0.0098
 49
-0.06
 49
0.01
 49
-0.06
  0
LTYPE
  2
DASHED_SPACE
 70
     0
  3
Dashed Space __ __ __ __ __ __ __ __ __ __ __ _
 72
    65
 73
     2
 40
0.2067
 49
0.1654
 49
-0.0413
  0
LTYPE
  2
DOTTED
 70
     0
  3
Dotted . . . . . . . . . . . . . . . . . . . . 
 72
    65
 73
     2
 40
0.0482
 49
0.0069
 49
-0.0413
  0
LTYPE
  2
DOUBLE_DASH_CHAIN
 70
     0
  3
Double-Dash Chain ______  __  __  ______  __  _
 72
    65
 73
     6
 40
1.2402999999999991
 49
0.6614
 49
-0.0827
 49
0.1654
 49
-0.0827
 49
0.1654
 49
-0.0827
  0
LTYPE
  2
DOUBLE_DASH_DOUBLE_DOT
 70
     0
  3
Double-Dash Double-dot _ _ . . _ _ . . _
 72
    65
 73
     8
 40
0.7400000000000001
 49
0.24
 49
-0.06
 49
0.24
 49
-0.06
 49
0.01
 49
-0.06
 49
0.01
 49
-0.06
  0
LTYPE
  2
DOUBLE_DASH_TRIPLE_DOT
 70
     0
  3
Double Dash Triple Dot __ __ . . . __ __ . .
 72
    65
 73
    10
 40
0.8100000000000001
 49
0.24
 49
-0.06
 49
0.24
 49
-0.06
 49
0.01
 49
-0.06
 49
0.01
 49
-0.06
 49
0.01
 49
-0.06
  0
LTYPE
  2
LONG_DASH_DOTTED
 70
     0
  3
Long Dash Dotted ____ . ____ . ____ . ____ . _
 72
    65
 73
     4
 40
0.3543
 49
0.2362
 49
-0.0295
 49
0.0591
 49
-0.0295
  0
LTYPE
  2
LONG_DASH_DOUBLE_DOT
 70
     0
  3
Long Dash Double Dot ________  .  .  ________  
 72
    65
 73
     6
 40
0.6799999999999999
 49
0.48
 49
-0.06
 49
0.01
 49
-0.06
 49
0.01
 49
-0.06
  0
LTYPE
  2
LONG_DASH_TRIPLE_DOT
 70
     0
  3
Long Dash Triple Dot ____ ... ____ ... ____
 72
    65
 73
     8
 40
0.3689
 49
0.2362
 49
-0.0295
 49
0.0049
 49
-0.0295
 49
0.0049
 49
-0.0295
 49
0.0049
 49
-0.0295
  0
LTYPE
  2
BORDER
 70
     0
  3
Border __ __ . __ __ . __ __ . __ __ . __ __ .
 72
    65
 73
     6
 40
1.75
 49
0.5
 49
-0.25
 49
0.5
 49
-0.25
 49
0.0
 49
-0.25
  0
LTYPE
  2
BORDER2
 70
     0
  3
Border (.5x) __.__.__.__.__.__.__.__.__.__.__.
 72
    65
 73
     6
 40
0.875
 49
0.25
 49
-0.125
 49
0.25
 49
-0.125
 49
0.0
 49
-0.125
  0
LTYPE
  2
BORDERX2
 70
     0
  3
Border (2x) ____  ____  .  ____  ____  .  ___
 72
    65
 73
     6
 40
3.5
 49
1.0
 49
-0.5
 49
1.0
 49
-0.5
 49
0.0
 49
-0.5
  0
LTYPE
  2
CENTER
 70
     0
  3
Center ____ _ ____ _ ____ _ ____ _ ____ _ ____
 72
    65
 73
     4
 40
2.0
 49
1.25
 49
-0.25
 49
0.25
 49
-0.25
  0
LTYPE
  2
CENTER2
 70
     0
  3
Center (.5x) ___ _ ___ _ ___ _ ___ _ ___ _ ___
 72
    65
 73
     4
 40
1.125
 49
0.75
 49
-0.125
 49
0.125
 49
-0.125
  0
LTYPE
  2
CENTERX2
 70
     0
  3
Center (2x) ________  __  ________  __  _____
 72
    65
 73
     4
 40
4.0
 49
2.5
 49
-0.5
 49
0.5
 49
-0.5
  0
LTYPE
  2
DASHDOT2
 70
     0
  3
Dash dot (.5x) _._._._._._._._._._._._._._._.
 72
    65
 73
     4
 40
0.5
 49
0.25
 49
-0.125
 49
0.0
 49
-0.125
  0
LTYPE
  2
DASHDOTX2
 70
     0
  3
Dash dot (2x) ____  .  ____  .  ____  .  ___
 72
    65
 73
     4
 40
2.0
 49
1.0
 49
-0.5
 49
0.0
 49
-0.5
  0
LTYPE
  2
DASHED2
 70
     0
  3
Dashed (.5x) _ _ _ _ _ _ _ _ _ _ _ _ _ _ _ _ _
 72
    65
 73
     2
 40
0.375
 49
0.25
 49
-0.125
  0
LTYPE
  2
DASHEDX2
 70
     0
  3
Dashed (2x) ____  ____  ____  ____  ____  ___
 72
    65
 73
     2
 40
1.5
 49
1.0
 49
-0.5
  0
LTYPE
  2
DIVIDE
 70
     0
  3
Divide ____ . . ____ . . ____ . . ____ . . ____
 72
    65
 73
     6
 40
1.25
 49
0.5
 49
-0.25
 49
0.0
 49
-0.25
 49
0.0
 49
-0.25
  0
LTYPE
  2
DIVIDE2
 70
     0
  3
Divide (.5x) __..__..__..__..__..__..__..__.._
 72
    65
 73
     6
 40
0.625
 49
0.25
 49
-0.125
 49
0.0
 49
-0.125
 49
0.0
 49
-0.125
  0
LTYPE
  2
DIVIDEX2
 70
     0
  3
Divide (2x) ________  .  .  ________  .  .  _
 72
    65
 73
     6
 40
2.5
 49
1.0
 49
-0.5
 49
0.0
 49
-0.5
 49
0.0
 49
-0.5
  0
LTYPE
  2
DOT
 70
     0
  3
Dot . . . . . . . . . . . . . . . . . . . . . .
 72
    65
 73
     2
 40
0.25
 49
0.0
 49
-0.25
  0
LTYPE
  2
DOT2
 70
     0
  3
Dot (.5x) .....................................
 72
    65
 73
     2
 40
0.125
 49
0.0
 49
-0.125
  0
LTYPE
  2
DOTX2
 70
     0
  3
Dot (2x) .  .  .  .  .  .  .  .  .  .  .  .  . 
 72
    65
 73
     2
 40
0.5
 49
0.0
 49
-0.5
  0
LTYPE
  2
HIDDEN
 70
     0
  3
Hidden __ __ __ __ __ __ __ __ __ __ __ __ __ _
 72
    65
 73
     2
 40
0.375
 49
0.25
 49
-0.125
  0
LTYPE
  2
HIDDEN2
 70
     0
  3
Hidden (.5x) _ _ _ _ _ _ _ _ _ _ _ _ _ _ _ _ _
 72
    65
 73
     2
 40
0.1875
 49
0.125
 49
-0.0625
  0
LTYPE
  2
HIDDENX2
 70
     0
  3
Hidden (2x) ____ ____ ____ ____ ____ ____ ____
 72
    65
 73
     2
 40
0.75
 49
0.5
 49
-0.25
  0
LTYPE
  2
PHANTOM
 70
     0
  3
Phantom ______  __  __  ______  __  __  ______
 72
    65
 73
     6
 40
2.5
 49
1.25
 49
-0.25
 49
0.25
 49
-0.25
 49
0.25
 49
-0.25
  0
LTYPE
  2
PHANTOM2
 70
     0
  3
Phantom (.5x) ___ _ _ ___ _ _ ___ _ _ ___ _ _
 72
    65
 73
     6
 40
1.25
 49
0.625
 49
-0.125
 49
0.125
 49
-0.125
 49
0.125
 49
-0.125
  0
LTYPE
  2
PHANTOMX2
 70
     0
  3
Phantom (2x) ____________    ____    ____   _
 72
    65
 73
     6
 40
5.0
 49
2.5
 49
-0.5
 49
0.5
 49
-0.5
 49
0.5
 49
-0.5
  0
LTYPE
  2
ACAD_ISO02W100
 70
     0
  3
ISO dash __ __ __ __ __ __ __ __ __ __ __ __ __
 72
    65
 73
     2
 40
0.59
 49
0.47
 49
-0.12
  0
LTYPE
  2
ACAD_ISO03W100
 70
     0
  3
ISO dash space __    __    __    __    __    __
 72
    65
 73
     2
 40
1.179999999999999
 49
0.47
 49
-0.71
  0
LTYPE
  2
ACAD_ISO04W100
 70
     0
  3
ISO long-dash dot ____ . ____ . ____ . ____ . _
 72
    65
 73
     4
 40
1.179999999999999
 49
0.9399999999999998
 49
-0.12
 49
0.0
 49
-0.12
  0
LTYPE
  2
ACAD_ISO05W100
 70
     0
  3
ISO long-dash double-dot ____ .. ____ .. ____ .
 72
    65
 73
     6
 40
1.2999999999999989
 49
0.9399999999999998
 49
-0.12
 49
0.0
 49
-0.12
 49
0.0
 49
-0.12
  0
LTYPE
  2
ACAD_ISO06W100
 70
     0
  3
ISO long-dash triple-dot ____ ... ____ ... ____
 72
    65
 73
     8
 40
1.419999999999999
 49
0.9399999999999998
 49
-0.12
 49
0.0
 49
-0.12
 49
0.0
 49
-0.12
 49
0.0
 49
-0.12
  0
LTYPE
  2
ACAD_ISO07W100
 70
     0
  3
ISO dot . . . . . . . . . . . . . . . . . . . .
 72
    65
 73
     2
 40
0.12
 49
0.0
 49
-0.12
  0
LTYPE
  2
ACAD_ISO08W100
 70
     0
  3
ISO long-dash short-dash ____ __ ____ __ ____ _
 72
    65
 73
     4
 40
0.95
 49
0.47
 49
-0.12
 49
0.24
 49
-0.12
  0
LTYPE
  2
ACAD_ISO09W100
 70
     0
  3
ISO long-dash double-short-dash ____ __ __ ____
 72
    65
 73
     6
 40
1.3100000000000001
 49
0.47
 49
-0.12
 49
0.24
 49
-0.12
 49
0.24
 49
-0.12
  0
LTYPE
  2
ACAD_ISO10W100
 70
     0
  3
ISO dash dot __ . __ . __ . __ . __ . __ . __ .
 72
    65
 73
     4
 40
0.71
 49
0.47
 49
-0.12
 49
0.0
 49
-0.12
  0
LTYPE
  2
ACAD_ISO11W100
 70
     0
  3
ISO double-dash dot __ __ . __ __ . __ __ . __ 
 72
    65
 73
     6
 40
1.2999999999999989
 49
0.47
 49
-0.12
 49
0.47
 49
-0.12
 49
0.0
 49
-0.12
  0
LTYPE
  2
ACAD_ISO12W100
 70
     0
  3
ISO dash double-dot __ . . __ . . __ . . __ . .
 72
    65
 73
     6
 40
0.8299999999999999
 49
0.47
 49
-0.12
 49
0.0
 49
-0.12
 49
0.0
 49
-0.12
  0
LTYPE
  2
ACAD_ISO13W100
 70
     0
  3
ISO double-dash double-dot __ __ . . __ __ . . 
 72
    65
 73
     8
 40
1.419999999999999
 49
0.47
 49
-0.12
 49
0.47
 49
-0.12
 49
0.0
 49
-0.12
 49
0.0
 49
-0.12
  0
LTYPE
  2
ACAD_ISO14W100
 70
     0
  3
ISO dash triple-dot __ . . . __ . . . __ . . . 
 72
    65
 73
     8
 40
0.95
 49
0.47
 49
-0.12
 49
0.0
 49
-0.12
 49
0.0
 49
-0.12
 49
0.0
 49
-0.12
  0
LTYPE
  2
ACAD_ISO15W100
 70
     0
  3
ISO double-dash triple-dot __ __ . . . __ __ . 
 72
    65
 73
    10
 40
1.5399999999999989
 49
0.47
 49
-0.12
 49
0.47
 49
-0.12
 49
0.0
 49
-0.12
 49
0.0
 49
-0.12
 49
0.0
 49
-0.12
  0
LTYPE
  2
FENCELINE1
 70
     0
  3
Fenceline circle ----0-----0----0-----0----0---
 72
    65
 73
     4
 40
1.45
 49
0.25
 49
-0.1
 49
-0.1
 49
1.0
  0
LTYPE
  2
FENCELINE2
 70
     0
  3
Fenceline square ----[]-----[]----[]-----[]----
 72
    65
 73
     4
 40
1.45
 49
0.25
 49
-0.1
 49
-0.1
 49
1.0
  0
LTYPE
  2
TRACKS
 70
     0
  3
Tracks -|-|-|-|-|-|-|-|-|-|-|-|-|-|-|-|-|-|-|-|
 72
    65
 73
     2
 40
0.3
 49
0.15
 49
0.15
  0
LTYPE
  2
BATTING
 70
     0
  3
Batting SSSSSSSSSSSSSSSSSSSSSSSSSSSSSSSSSSSSSSS
 72
    65
 73
     4
 40
0.4001000000000001
 49
0.0001
 49
-0.1
 49
-0.2
 49
-0.1
  0
LTYPE
  2
HOT_WATER_SUPPLY
 70
     0
  3
Hot water supply ---- HW ---- HW ---- HW ----
 72
    65
 73
     3
 40
0.9
 49
0.5
 49
-0.2
 49
-0.2
  0
LTYPE
  2
GAS_LINE
 70
     0
  3
Gas line ----GAS----GAS----GAS----GAS----GAS---
 72
    65
 73
     3
 40
0.95
 49
0.5
 49
-0.2
 49
-0.25
  0
LTYPE
  2
ZIGZAG
 70
     0
  3
Zig zag /\\/\\/\\/\\/\\/\\/\\/\\/\\/\\/\\/\\/\\/\\/\\/\\/\\/\\/\\/
 72
    65
 73
     4
 40
0.8001000000000001
 49
0.0001
 49
-0.2
 49
-0.4
 49
-0.2
  0
ENDTAB
  0
TABLE
  2
LAYER
 70
    26
  0
LAYER
  2
0
 70
     0
 62
     7
  6
CONTINUOUS
  0
LAYER
  2
BORDER__ANSI_
 70
     0
 62
     7
  6
CONTINUOUS
  0
LAYER
  2
TITLE__ANSI_
 70
     0
 62
     7
  6
CONTINUOUS
  0
LAYER
  2
VISIBLE__ANSI_
 70
     0
 62
     7
  6
CONTINUOUS
  0
ENDTAB
  0
TABLE
  2
STYLE
 70
     8
  0
STYLE
  2
STANDARD
 70
     0
 40
0.0
 41
1.0
 50
0.0
 71
     0
 42
0.2
  3
txt
  4

  0
STYLE
  2
ANNOTATIVE
 70
     0
 40
0.0
 41
1.0
 50
0.0
 71
     0
 42
0.2
  3
txt
  4

  0
STYLE
  2

 70
     1
 40
0.0
 41
1.0
 50
0.0
 71
     0
 42
0.2
  3
ltypeshp.shx
  4

  0
STYLE
  2
LABEL_TEXT__ANSI_
 70
     0
 40
0.0
 41
1.0
 50
0.0
 71
     0
 42
0.2
  3
txt.shx
  4
bigfont.shx
  0
STYLE
  2
NOTE_TEXT__ANSI_
 70
     0
 40
0.0
 41
1.0
 50
0.0
 71
     0
 42
0.2
  3
txt.shx
  4
bigfont.shx
  0
STYLE
  2
TEXT_STYLE38
 70
     0
 40
0.0
 41
1.0
 50
0.0
 71
     0
 42
0.2
  3
txt
  4

  0
STYLE
  2
TEXT_STYLE39
 70
     0
 40
0.0
 41
1.0
 50
0.0
 71
     0
 42
0.2
  3
txt
  4

  0
STYLE
  2
TEXT_STYLE30
 70
     0
 40
0.0
 41
1.0
 50
0.0
 71
     0
 42
0.2
  3
txt
  4

  0
ENDTAB
  0
TABLE
  2
VIEW
 70
     0
  0
ENDTAB
  0
TABLE
  2
UCS
 70
     0
  0
ENDTAB
  0
TABLE
  2
APPID
 70
     4
  0
APPID
  2
ACAD
 70
     0
  0
APPID
  2
ACADANNOTATIVE
 70
     0
  0
APPID
  2
ACADANNOPO
 70
     0
  0
APPID
  2
ACAD_MLEADERVER
 70
     0
  0
ENDTAB
  0
TABLE
  2
DIMSTYLE
 70
    15
  0
DIMSTYLE
  2
STANDARD
 70
     0
  3

  4

  5

  6

  7

 40
1.0
 41
0.18
 42
0.0625
 43
0.38
 44
0.18
 45
0.0
 46
0.0
 47
0.0
 48
0.0
140
0.18
141
0.09
142
0.0
143
25.399999999999999
144
1.0
145
0.0
146
1.0
147
0.09
 71
     0
 72
     0
 73
     1
 74
     1
 75
     0
 76
     0
 77
     0
 78
     0
170
     0
171
     2
172
     0
173
     0
174
     0
175
     0
176
     0
177
     0
178
     0
  0
DIMSTYLE
  2
ANNOTATIVE
 70
     0
  3

  4

  5

  6

  7

 40
1.0
 41
0.18
 42
0.0625
 43
0.38
 44
0.18
 45
0.0
 46
0.0
 47
0.0
 48
0.0
140
0.18
141
0.09
142
0.0
143
25.399999999999999
144
1.0
145
0.0
146
1.0
147
0.09
 71
     0
 72
     0
 73
     1
 74
     1
 75
     0
 76
     0
 77
     0
 78
     0
170
     0
171
     2
172
     0
173
     0
174
     0
175
     0
176
     0
177
     0
178
     0
  0
DIMSTYLE
  2
ARCHITECTURAL__ANSI_
 70
     0
  3

  4

  5

  6

  7

 40
1.0
 41
2.5
 42
1.587499999999999
 43
5.9999999999999991
 44
3.1749999999999989
 45
0.00000001
 46
10.0
 47
0.0
 48
0.0
140
3.0480000972747798
141
0.09
142
0.0
143
25.399999999999999
144
0.0393700787401575
145
0.0
146
1.0
147
0.8
 71
     0
 72
     0
 73
     1
 74
     1
 75
     0
 76
     0
 77
     0
 78
     3
170
     0
171
     1
172
     0
173
     0
174
     0
175
     0
176
   256
177
   256
178
   256
  0
DIMSTYLE
  2
ARCHITECTURAL__ANSI_$7
 70
     0
  3

  4

  5

  6

  7

 40
1.0
 41
2.5
 42
1.587499999999999
 43
5.9999999999999991
 44
3.1749999999999989
 45
0.00000001
 46
10.0
 47
0.0
 48
0.0
140
3.0480000972747798
141
0.09
142
0.0
143
25.399999999999999
144
0.0393700787401575
145
0.0
146
1.0
147
0.8
 71
     0
 72
     0
 73
     1
 74
     1
 75
     0
 76
     0
 77
     0
 78
     3
170
     0
171
     1
172
     0
173
     0
174
     0
175
     0
176
   256
177
   256
178
   256
  0
DIMSTYLE
  2
DEFAULT_-_FRACTION__ANSI_
 70
     0
  3

  4

  5

  6

  7

 40
1.0
 41
2.5
 42
1.587499999999999
 43
5.9999999999999991
 44
3.1749999999999989
 45
0.00000001
 46
10.0
 47
0.0
 48
0.0
140
3.0480000972747798
141
0.09
142
0.0
143
25.399999999999999
144
0.0393700787401575
145
0.0
146
1.0
147
0.8
 71
     0
 72
     0
 73
     1
 74
     1
 75
     0
 76
     0
 77
     0
 78
     0
170
     0
171
     1
172
     0
173
     0
174
     0
175
     0
176
   256
177
   256
178
   256
  0
DIMSTYLE
  2
DEFAULT_-_FRACTION__ANSI_$
 70
     0
  3

  4

  5

  6

  7

 40
1.0
 41
2.5
 42
1.587499999999999
 43
5.9999999999999991
 44
3.1749999999999989
 45
0.00000001
 46
10.0
 47
0.0
 48
0.0
140
3.0480000972747798
141
0.09
142
0.0
143
25.399999999999999
144
0.0393700787401575
145
0.0
146
1.0
147
0.8
 71
     0
 72
     0
 73
     1
 74
     1
 75
     0
 76
     0
 77
     0
 78
     0
170
     0
171
     1
172
     0
173
     0
174
     0
175
     0
176
   256
177
   256
178
   256
  0
DIMSTYLE
  2
DEFAULT_-_MM__ANSI_
 70
     0
  3

  4

  5

  6

  7

 40
1.0
 41
2.5
 42
1.600199999999999
 43
5.9999999999999991
 44
3.1749999999999989
 45
0.00000001
 46
10.0
 47
0.0
 48
0.0
140
3.0480000972747798
141
0.09
142
0.0
143
1.0
144
1.0
145
0.0
146
1.0
147
0.8
 71
     0
 72
     0
 73
     0
 74
     1
 75
     0
 76
     0
 77
     0
 78
     4
170
     0
171
     1
172
     0
173
     0
174
     0
175
     0
176
   256
177
   256
178
   256
  0
DIMSTYLE
  2
DEFAULT_-_MM__ANSI_$7
 70
     0
  3

  4

  5

  6

  7

 40
1.0
 41
2.5
 42
1.600199999999999
 43
5.9999999999999991
 44
3.1749999999999989
 45
0.00000001
 46
10.0
 47
0.0
 48
0.0
140
3.0480000972747798
141
0.09
142
0.0
143
1.0
144
1.0
145
0.0
146
1.0
147
0.8
 71
     0
 72
     0
 73
     0
 74
     1
 75
     0
 76
     0
 77
     0
 78
     4
170
     0
171
     1
172
     0
173
     0
174
     0
175
     0
176
   256
177
   256
178
   256
  0
DIMSTYLE
  2
DEFAULT_-_MM__IN___ANSI_
 70
     0
  3

  4
 in
  5

  6

  7

 40
1.0
 41
2.5
 42
1.600199999999999
 43
6.3499999999999988
 44
3.1749999999999989
 45
0.00000001
 46
10.0
 47
0.0
 48
0.0
140
3.0480000972747798
141
0.09
142
0.0
143
0.03937
144
1.0
145
0.0
146
1.0
147
0.8
 71
     0
 72
     0
 73
     0
 74
     1
 75
     0
 76
     0
 77
     0
 78
     4
170
     1
171
     3
172
     0
173
     0
174
     0
175
     0
176
   256
177
   256
178
   256
  0
DIMSTYLE
  2
DEFAULT_-_MM__IN___ANSI_$7
 70
     0
  3

  4
 in
  5

  6

  7

 40
1.0
 41
2.5
 42
1.600199999999999
 43
6.3499999999999988
 44
3.1749999999999989
 45
0.00000001
 46
10.0
 47
0.0
 48
0.0
140
3.0480000972747798
141
0.09
142
0.0
143
0.03937
144
1.0
145
0.0
146
1.0
147
0.8
 71
     0
 72
     0
 73
     0
 74
     1
 75
     0
 76
     0
 77
     0
 78
     4
170
     1
171
     3
172
     0
173
     0
174
     0
175
     0
176
   256
177
   256
178
   256
  0
DIMSTYLE
  2
DEFAULT__ANSI_
 70
     0
  3

  4

  5

  6

  7

 40
1.0
 41
2.5
 42
1.587499999999999
 43
5.9999999999999991
 44
3.1749999999999989
 45
0.00000001
 46
10.0
 47
0.0
 48
0.0
140
3.0480000972747798
141
0.09
142
0.0
143
25.399999999999999
144
0.0393700787401575
145
0.0
146
1.0
147
0.8
 71
     0
 72
     0
 73
     1
 74
     1
 75
     0
 76
     0
 77
     0
 78
     4
170
     0
171
     1
172
     0
173
     0
174
     0
175
     0
176
   256
177
   256
178
   256
  0
DIMSTYLE
  2
DEFAULT__ANSI_$7
 70
     0
  3

  4

  5

  6

  7

 40
1.0
 41
2.5
 42
1.587499999999999
 43
5.9999999999999991
 44
3.1749999999999989
 45
0.00000001
 46
10.0
 47
0.0
 48
0.0
140
3.0480000972747798
141
0.09
142
0.0
143
25.399999999999999
144
0.0393700787401575
145
0.0
146
1.0
147
0.8
 71
     0
 72
     0
 73
     1
 74
     1
 75
     0
 76
     0
 77
     0
 78
     4
170
     0
171
     1
172
     0
173
     0
174
     0
175
     0
176
   256
177
   256
178
   256
  0
DIMSTYLE
  2
ALTERNATE__ANSI_
 70
     0
  3

  4

  5
CLOSED
  6

  7

 40
1.0
 41
2.489200115203857
 42
0.0625
 43
0.38
 44
0.18
 45
0.0
 46
0.0
 47
0.0
 48
0.0
140
0.18
141
0.09
142
0.0
143
25.399999999999999
144
1.0
145
0.0
146
1.0
147
0.09
 71
     0
 72
     0
 73
     1
 74
     1
 75
     0
 76
     0
 77
     0
 78
     0
170
     0
171
     2
172
     0
173
     0
174
     0
175
     0
176
     0
177
     0
178
     0
  0
DIMSTYLE
  2
DATUM__ANSI_
 70
     0
  3

  4

  5
CLOSED
  6

  7

 40
1.0
 41
2.489200115203857
 42
0.0625
 43
0.38
 44
0.18
 45
0.0
 46
0.0
 47
0.0
 48
0.0
140
0.18
141
0.09
142
0.0
143
25.399999999999999
144
1.0
145
0.0
146
1.0
147
0.09
 71
     0
 72
     0
 73
     1
 74
     1
 75
     0
 76
     0
 77
     0
 78
     0
170
     0
171
     2
172
     0
173
     0
174
     0
175
     0
176
     0
177
     0
178
     0
  0
DIMSTYLE
  2
LARGE__ANSI_
 70
     0
  3

  4

  5
CLOSED
  6

  7

 40
1.0
 41
4.978400230407714
 42
0.0625
 43
0.38
 44
0.18
 45
0.0
 46
0.0
 47
0.0
 48
0.0
140
0.18
141
0.09
142
0.0
143
25.399999999999999
144
1.0
145
0.0
146
1.0
147
0.09
 71
     0
 72
     0
 73
     1
 74
     1
 75
     0
 76
     0
 77
     0
 78
     0
170
     0
171
     2
172
     0
173
     0
174
     0
175
     0
176
     0
177
     0
178
     0
  0
ENDTAB
  0
ENDSEC
  0
SECTION
  2
BLOCKS
  0
BLOCK
  8
0
  2
$MODEL_SPACE
 70
     0
 10
0.0
 20
0.0
 30
0.0
  3
$MODEL_SPACE
  1

  0
ENDBLK
  5
72
  8
0
  0
BLOCK
 67
     1
  8
0
  2
$PAPER_SPACE
 70
     0
 10
0.0
 20
0.0
 30
0.0
  3
$PAPER_SPACE
  1

  0
ENDBLK
  5
6E
 67
     1
  8
0
  0
BLOCK
  8
0
  2
_CLOSED
 70
     0
 10
0.0
 20
0.0
 30
0.0
  3
_CLOSED
  1

  0
LINE
  5
EB
  8
0
  6
BYBLOCK
 62
     0
 10
-1.0
 20
0.1666666666666666
 30
0.0
 11
0.0
 21
0.0
 31
0.0
  0
LINE
  5
EC
  8
0
  6
BYBLOCK
 62
     0
 10
0.0
 20
0.0
 30
0.0
 11
-1.0
 21
-0.1666666666666666
 31
0.0
  0
LINE
  5
ED
  8
0
  6
BYBLOCK
 62
     0
 10
-1.0
 20
0.1666666666666666
 30
0.0
 11
-1.0
 21
-0.1666666666666666
 31
0.0
  0
LINE
  5
EE
  8
0
  6
BYBLOCK
 62
     0
 10
0.0
 20
0.0
 30
0.0
 11
-1.0
 21
0.0
 31
0.0
  0
ENDBLK
  5
F0
  8
0
  0
BLOCK
  8
0
  2
DATUMFILLED45
 70
     0
 10
0.0
 20
0.0
 30
0.0
  3
DATUMFILLED45
  1

  0
POLYLINE
  5
F4
  8
0
 62
     0
 66
     1
 10
0.0
 20
0.0
 30
0.0
 70
   128
  0
VERTEX
  5
F5
  8
0
 62
     0
 10
0.0
 20
1.0
 30
0.0
  0
VERTEX
  5
F6
  8
0
 62
     0
 10
0.0
 20
-1.0
 30
0.0
  0
VERTEX
  5
F8
  8
0
 62
     0
 10
-1.0
 20
0.0
 30
0.0
  0
VERTEX
  5
F9
  8
0
 62
     0
 10
0.0
 20
1.0
 30
0.0
  0
SEQEND
  5
F7
  8
0
 62
     0
  0
SOLID
  5
FB
  8
0
 62
     0
 10
0.0
 20
1.0
 30
0.0
 11
0.0
 21
-1.0
 31
0.0
 12
-1.0
 22
0.0
 32
0.0
 13
0.0
 23
1.0
 33
0.0
  0
ENDBLK
  5
F3
  8
0
  0
BLOCK
  8
0
  2
FILLED-1
 70
     0
 10
0.0
 20
0.0
 30
0.0
  3
FILLED-1
  1

  0
LINE
  5
100
  8
0
 62
     0
 10
-1.0
 20
0.0
 30
0.0
 11
0.0
 21
0.0
 31
0.0
  0
POLYLINE
  5
101
  8
0
 62
     0
 66
     1
 10
0.0
 20
0.0
 30
0.0
 70
   128
  0
VERTEX
  5
102
  8
0
 62
     0
 10
-1.0
 20
-0.0994897959183674
 30
0.0
  0
VERTEX
  5
103
  8
0
 62
     0
 10
0.0
 20
0.0
 30
0.0
  0
VERTEX
  5
105
  8
0
 62
     0
 10
-1.0
 20
0.0994897959183674
 30
0.0
  0
VERTEX
  5
106
  8
0
 62
     0
 10
-1.0
 20
-0.0994897959183674
 30
0.0
  0
SEQEND
  5
104
  8
0
 62
     0
  0
SOLID
  5
107
  8
0
 62
     0
 10
-1.0
 20
-0.0994897959183674
 30
0.0
 11
0.0
 21
0.0
 31
0.0
 12
-1.0
 22
0.0994897959183674
 32
0.0
 13
-1.0
 23
-0.0994897959183674
 33
0.0
  0
LINE
  5
108
  8
0
 62
     0
 10
-1.0
 20
-0.0994897959183674
 30
0.0
 11
0.0
 21
0.0
 31
0.0
  0
LINE
  5
109
  8
0
 62
     0
 10
0.0
 20
0.0
 30
0.0
 11
-1.0
 21
0.0994897959183674
 31
0.0
  0
LINE
  5
10A
  8
0
 62
     0
 10
-1.0
 20
0.0994897959183674
 30
0.0
 11
-1.0
 21
-0.0994897959183674
 31
0.0
  0
ENDBLK
  5
FF
  8
0
  0
BLOCK
  8
0
  2
BORDERS_DEFAULT_BORDER
 70
     0
 10
0.0
 20
0.0
 30
0.0
  3
BORDERS_DEFAULT_BORDER
  1

  0
POLYLINE
  5
10F
  8
BORDER__ANSI_
 66
     1
 10
0.0
 20
0.0
 30
0.0
 70
   128
  0
VERTEX
  5
110
  8
BORDER__ANSI_
 10
12.69999980926513
 20
25.39999961853027
 30
0.0
  0
VERTEX
  5
111
  8
BORDER__ANSI_
 10
12.69999980926513
 20
533.40000152587891
 30
0.0
  0
VERTEX
  5
113
  8
BORDER__ANSI_
 10
850.89996337890625
 20
533.40000152587891
 30
0.0
  0
VERTEX
  5
114
  8
BORDER__ANSI_
 10
850.89996337890625
 20
25.39999961853027
 30
0.0
  0
VERTEX
  5
115
  8
BORDER__ANSI_
 10
12.69999980926513
 20
25.39999961853027
 30
0.0
  0
SEQEND
  5
112
  8
BORDER__ANSI_
  0
POLYLINE
  5
116
  8
BORDER__ANSI_
 66
     1
 10
0.0
 20
0.0
 30
0.0
 70
   128
  0
VERTEX
  5
117
  8
BORDER__ANSI_
 10
431.80000305175781
 20
15.2400004863739
 30
0.0
  0
VERTEX
  5
118
  8
BORDER__ANSI_
 10
431.80000305175781
 20
25.39999961853027
 30
0.0
  0
VERTEX
  5
11A
  8
BORDER__ANSI_
 10
428.86707305908197
 20
20.320000648498532
 30
0.0
  0
VERTEX
  5
11B
  8
BORDER__ANSI_
 10
434.73293304443359
 20
20.320000648498532
 30
0.0
  0
VERTEX
  5
11C
  8
BORDER__ANSI_
 10
431.80000305175781
 20
25.39999961853027
 30
0.0
  0
SEQEND
  5
119
  8
BORDER__ANSI_
  0
POLYLINE
  5
11D
  8
BORDER__ANSI_
 66
     1
 10
0.0
 20
0.0
 30
0.0
 70
   128
  0
VERTEX
  5
11E
  8
BORDER__ANSI_
 10
431.80000305175781
 20
543.55998992919922
 30
0.0
  0
VERTEX
  5
11F
  8
BORDER__ANSI_
 10
431.80000305175781
 20
533.40000152587891
 30
0.0
  0
VERTEX
  5
121
  8
BORDER__ANSI_
 10
428.86707305908197
 20
538.47999572753895
 30
0.0
  0
VERTEX
  5
122
  8
BORDER__ANSI_
 10
434.73293304443359
 20
538.47999572753895
 30
0.0
  0
VERTEX
  5
123
  8
BORDER__ANSI_
 10
431.80000305175781
 20
533.40000152587891
 30
0.0
  0
SEQEND
  5
120
  8
BORDER__ANSI_
  0
POLYLINE
  5
124
  8
BORDER__ANSI_
 66
     1
 10
0.0
 20
0.0
 30
0.0
 70
   128
  0
VERTEX
  5
125
  8
BORDER__ANSI_
 10
2.540000081062316
 20
279.40000534057617
 30
0.0
  0
VERTEX
  5
126
  8
BORDER__ANSI_
 10
12.69999980926513
 20
279.40000534057617
 30
0.0
  0
VERTEX
  5
128
  8
BORDER__ANSI_
 10
7.6200002431869498
 20
282.3329353332519
 30
0.0
  0
VERTEX
  5
129
  8
BORDER__ANSI_
 10
7.6200002431869498
 20
276.46705627441412
 30
0.0
  0
VERTEX
  5
12A
  8
BORDER__ANSI_
 10
12.69999980926513
 20
279.40000534057617
 30
0.0
  0
SEQEND
  5
127
  8
BORDER__ANSI_
  0
POLYLINE
  5
12B
  8
BORDER__ANSI_
 66
     1
 10
0.0
 20
0.0
 30
0.0
 70
   128
  0
VERTEX
  5
12C
  8
BORDER__ANSI_
 10
861.06002807617187
 20
279.40000534057617
 30
0.0
  0
VERTEX
  5
12D
  8
BORDER__ANSI_
 10
850.89996337890625
 20
279.40000534057617
 30
0.0
  0
VERTEX
  5
12F
  8
BORDER__ANSI_
 10
855.97999572753906
 20
282.3329353332519
 30
0.0
  0
VERTEX
  5
130
  8
BORDER__ANSI_
 10
855.97999572753906
 20
276.46705627441412
 30
0.0
  0
VERTEX
  5
131
  8
BORDER__ANSI_
 10
850.89996337890625
 20
279.40000534057617
 30
0.0
  0
SEQEND
  5
12E
  8
BORDER__ANSI_
  0
LINE
  5
132
  8
BORDER__ANSI_
 10
107.9500007629394
 20
25.39999961853027
 30
0.0
 11
107.9500007629394
 21
21.335999965667721
 31
0.0
  0
LINE
  5
133
  8
BORDER__ANSI_
 10
107.9500007629394
 20
533.40000152587891
 30
0.0
 11
107.9500007629394
 21
537.4639892578125
 31
0.0
  0
LINE
  5
134
  8
BORDER__ANSI_
 10
215.90000152587891
 20
25.39999961853027
 30
0.0
 11
215.90000152587891
 21
21.335999965667721
 31
0.0
  0
LINE
  5
135
  8
BORDER__ANSI_
 10
215.90000152587891
 20
533.40000152587891
 30
0.0
 11
215.90000152587891
 21
537.4639892578125
 31
0.0
  0
LINE
  5
136
  8
BORDER__ANSI_
 10
323.84998321533197
 20
25.39999961853027
 30
0.0
 11
323.84998321533197
 21
21.335999965667721
 31
0.0
  0
LINE
  5
137
  8
BORDER__ANSI_
 10
323.84998321533197
 20
533.40000152587891
 30
0.0
 11
323.84998321533197
 21
537.4639892578125
 31
0.0
  0
LINE
  5
138
  8
BORDER__ANSI_
 10
539.74998474121094
 20
25.39999961853027
 30
0.0
 11
539.74998474121094
 21
21.335999965667721
 31
0.0
  0
LINE
  5
139
  8
BORDER__ANSI_
 10
539.74998474121094
 20
533.40000152587891
 30
0.0
 11
539.74998474121094
 21
537.4639892578125
 31
0.0
  0
LINE
  5
13A
  8
BORDER__ANSI_
 10
647.69996643066395
 20
25.39999961853027
 30
0.0
 11
647.69996643066395
 21
21.335999965667721
 31
0.0
  0
LINE
  5
13B
  8
BORDER__ANSI_
 10
647.69996643066395
 20
533.40000152587891
 30
0.0
 11
647.69996643066395
 21
537.4639892578125
 31
0.0
  0
LINE
  5
13C
  8
BORDER__ANSI_
 10
755.65002441406239
 20
25.39999961853027
 30
0.0
 11
755.65002441406239
 21
21.335999965667721
 31
0.0
  0
LINE
  5
13D
  8
BORDER__ANSI_
 10
755.65002441406239
 20
533.40000152587891
 30
0.0
 11
755.65002441406239
 21
537.4639892578125
 31
0.0
  0
INSERT
  5
13E
  8
0
  2
*U6
 10
0.0
 20
0.0
 30
0.0
  0
INSERT
  5
141
  8
0
  2
*U7
 10
0.0
 20
0.0
 30
0.0
  0
INSERT
  5
142
  8
0
  2
*U8
 10
0.0
 20
0.0
 30
0.0
  0
INSERT
  5
143
  8
0
  2
*U9
 10
0.0
 20
0.0
 30
0.0
  0
INSERT
  5
144
  8
0
  2
*U10
 10
0.0
 20
0.0
 30
0.0
  0
INSERT
  5
145
  8
0
  2
*U11
 10
0.0
 20
0.0
 30
0.0
  0
INSERT
  5
146
  8
0
  2
*U12
 10
0.0
 20
0.0
 30
0.0
  0
INSERT
  5
147
  8
0
  2
*U13
 10
0.0
 20
0.0
 30
0.0
  0
INSERT
  5
148
  8
0
  2
*U14
 10
0.0
 20
0.0
 30
0.0
  0
INSERT
  5
149
  8
0
  2
*U15
 10
0.0
 20
0.0
 30
0.0
  0
INSERT
  5
14A
  8
0
  2
*U16
 10
0.0
 20
0.0
 30
0.0
  0
INSERT
  5
14B
  8
0
  2
*U17
 10
0.0
 20
0.0
 30
0.0
  0
INSERT
  5
14C
  8
0
  2
*U18
 10
0.0
 20
0.0
 30
0.0
  0
INSERT
  5
14D
  8
0
  2
*U19
 10
0.0
 20
0.0
 30
0.0
  0
INSERT
  5
14E
  8
0
  2
*U20
 10
0.0
 20
0.0
 30
0.0
  0
INSERT
  5
14F
  8
0
  2
*U21
 10
0.0
 20
0.0
 30
0.0
  0
LINE
  5
150
  8
BORDER__ANSI_
 10
12.69999980926513
 20
139.70000267028809
 30
0.0
 11
8.6360001564025861
 21
139.70000267028809
 31
0.0
  0
LINE
  5
151
  8
BORDER__ANSI_
 10
850.89996337890625
 20
139.70000267028809
 30
0.0
 11
854.96398925781261
 21
139.70000267028809
 31
0.0
  0
LINE
  5
152
  8
BORDER__ANSI_
 10
12.69999980926513
 20
419.09999847412098
 30
0.0
 11
8.6360001564025861
 21
419.09999847412098
 31
0.0
  0
LINE
  5
153
  8
BORDER__ANSI_
 10
850.89996337890625
 20
419.09999847412098
 30
0.0
 11
854.96398925781261
 21
419.09999847412098
 31
0.0
  0
INSERT
  5
154
  8
0
  2
*U22
 10
0.0
 20
0.0
 30
0.0
  0
INSERT
  5
155
  8
0
  2
*U23
 10
0.0
 20
0.0
 30
0.0
  0
INSERT
  5
156
  8
0
  2
*U24
 10
0.0
 20
0.0
 30
0.0
  0
INSERT
  5
157
  8
0
  2
*U25
 10
0.0
 20
0.0
 30
0.0
  0
INSERT
  5
158
  8
0
  2
*U26
 10
0.0
 20
0.0
 30
0.0
  0
INSERT
  5
159
  8
0
  2
*U27
 10
0.0
 20
0.0
 30
0.0
  0
INSERT
  5
15A
  8
0
  2
*U28
 10
0.0
 20
0.0
 30
0.0
  0
INSERT
  5
15B
  8
0
  2
*U29
 10
0.0
 20
0.0
 30
0.0
  0
ENDBLK
  5
10E
  8
0
  0
BLOCK
  8
0
  2
TITLE_BLOCKS_ANSI_-_LARGE
 70
     2
 10
0.0
 20
0.0
 30
0.0
  3
TITLE_BLOCKS_ANSI_-_LARGE
  1

  0
LINE
  5
160
  8
TITLE__ANSI_
 10
127.000255
 20
189.2295967932487
 30
0.0
 11
127.000255
 21
125.7295967932487
 31
0.0
  0
LINE
  5
161
  8
TITLE__ANSI_
 10
127.000255
 20
125.7295967932487
 30
0.0
 11
323.850255
 21
125.7295967932491
 31
0.0
  0
LINE
  5
162
  8
TITLE__ANSI_
 10
323.850255
 20
125.7295967932491
 30
0.0
 11
323.850255
 21
189.22959679324899
 31
0.0
  0
LINE
  5
163
  8
TITLE__ANSI_
 10
323.850255
 20
189.22959679324899
 30
0.0
 11
127.000255
 21
189.2295967932487
 31
0.0
  0
LINE
  5
164
  8
TITLE__ANSI_
 10
196.850255
 20
125.7295967932488
 30
0.0
 11
196.850255
 21
189.22959679324879
 31
0.0
  0
LINE
  5
165
  8
TITLE__ANSI_
 10
196.85025499999989
 20
173.4816926732488
 30
0.0
 11
323.850255
 21
173.481692673249
 31
0.0
  0
LINE
  5
166
  8
TITLE__ANSI_
 10
323.850255
 20
144.77963504324879
 30
0.0
 11
196.850255
 21
144.7796350432487
 31
0.0
  0
LINE
  5
167
  8
TITLE__ANSI_
 10
323.850255
 20
132.0795967932489
 30
0.0
 11
196.850255
 21
132.07959679324881
 31
0.0
  0
LINE
  5
168
  8
TITLE__ANSI_
 10
196.850255
 20
132.07959679324881
 30
0.0
 11
127.000255
 21
132.0795967932487
 31
0.0
  0
LINE
  5
169
  8
TITLE__ANSI_
 10
209.55025499999999
 20
132.07959679324881
 30
0.0
 11
209.55025499999999
 21
144.7796350432487
 31
0.0
  0
LINE
  5
16A
  8
TITLE__ANSI_
 10
225.29845237000001
 20
132.07959679324881
 30
0.0
 11
225.29845237000001
 21
125.7295967932489
 31
0.0
  0
LINE
  5
16B
  8
TITLE__ANSI_
 10
234.950255
 20
132.07959679324881
 30
0.0
 11
234.950255
 21
144.7796350432487
 31
0.0
  0
LINE
  5
16C
  8
TITLE__ANSI_
 10
273.05025500000011
 20
132.0795967932489
 30
0.0
 11
273.05025500000011
 21
125.729596793249
 31
0.0
  0
LINE
  5
16D
  8
TITLE__ANSI_
 10
311.15025500000007
 20
132.0795967932489
 30
0.0
 11
311.15025500000002
 21
144.77963504324879
 31
0.0
  0
LINE
  5
16E
  8
TITLE__ANSI_
 10
171.45034425
 20
125.7295967932488
 30
0.0
 11
171.45034425
 21
189.22959679324879
 31
0.0
  0
LINE
  5
16F
  8
TITLE__ANSI_
 10
127.000255
 20
141.6045967932487
 30
0.0
 11
196.850255
 21
141.60459679324879
 31
0.0
  0
LINE
  5
170
  8
TITLE__ANSI_
 10
127.000255
 20
151.12959679324871
 30
0.0
 11
196.850255
 21
151.12959679324879
 31
0.0
  0
LINE
  5
171
  8
TITLE__ANSI_
 10
127.000255
 20
160.65459679324869
 30
0.0
 11
196.850255
 21
160.6545967932488
 31
0.0
  0
LINE
  5
172
  8
TITLE__ANSI_
 10
127.000255
 20
170.17959679324869
 30
0.0
 11
196.850255
 21
170.17959679324881
 31
0.0
  0
LINE
  5
173
  8
TITLE__ANSI_
 10
127.000255
 20
179.7045967932487
 30
0.0
 11
196.850255
 21
179.70459679324881
 31
0.0
  0
INSERT
  5
174
  8
0
  2
*U30
 10
0.0
 20
0.0
 30
0.0
  0
TEXT
  5
176
  8
TITLE__ANSI_
 10
127.762255
 20
185.92759671218641
 30
0.0
 40
2.540000081062316
  1
DRAWN
  7
TEXT_STYLE38
 11
127.762255
 21
188.4675967932487
 31
0.0
 73
     3
  0
TEXT
  5
178
  8
TITLE__ANSI_
 10
127.762255
 20
176.40259671218641
 30
0.0
 40
2.540000081062316
  1
CHECKED
  7
TEXT_STYLE38
 11
127.762255
 21
178.9425967932487
 31
0.0
 73
     3
  0
TEXT
  5
179
  8
TITLE__ANSI_
 10
127.762255
 20
166.8775967121864
 30
0.0
 40
2.540000081062316
  1
QA
  7
TEXT_STYLE38
 11
127.762255
 21
169.41759679324869
 31
0.0
 73
     3
  0
TEXT
  5
17A
  8
TITLE__ANSI_
 10
127.762255
 20
157.3525967121864
 30
0.0
 40
2.540000081062316
  1
MFG
  7
TEXT_STYLE38
 11
127.762255
 21
159.89259679324871
 31
0.0
 73
     3
  0
TEXT
  5
17B
  8
TITLE__ANSI_
 10
127.762255
 20
147.82759671218639
 30
0.0
 40
2.540000081062316
  1
APPROVED
  7
TEXT_STYLE38
 11
127.762255
 21
150.36759679324871
 31
0.0
 73
     3
  0
TEXT
  5
17C
  8
TITLE__ANSI_
 10
235.712255
 20
141.47763496218619
 30
0.0
 40
2.540000081062316
  1
DWG NO
  7
TEXT_STYLE38
 11
235.712255
 21
144.0176350432485
 31
0.0
 73
     3
  0
TEXT
  5
17D
  8
TITLE__ANSI_
 10
197.61225499999989
 20
170.17969259218651
 30
0.0
 40
2.540000081062316
  1
TITLE
  7
TEXT_STYLE38
 11
197.61225499999989
 21
172.7196926732488
 31
0.0
 73
     3
  0
TEXT
  5
17E
  8
TITLE__ANSI_
 10
199.6188378504128
 20
141.4776349621865
 30
0.0
 40
2.540000081062316
  1
SIZE
  7
TEXT_STYLE38
 72
     1
 11
203.200255
 21
144.01763504324879
 31
0.0
 73
     3
  0
TEXT
  5
17F
  8
TITLE__ANSI_
 10
197.61225499999989
 20
128.77759671218649
 30
0.0
 40
2.540000081062316
  1
SCALE
  7
TEXT_STYLE38
 11
197.61225499999989
 21
131.31759679324881
 31
0.0
 73
     3
  0
TEXT
  5
180
  8
TITLE__ANSI_
 10
314.38709172398359
 20
141.47763496218661
 30
0.0
 40
2.540000081062316
  1
REV
  7
TEXT_STYLE38
 72
     1
 11
317.50025499999998
 21
144.0176350432489
 31
0.0
 73
     3
  0
ATTDEF
  5
182
  8
TITLE__ANSI_
 10
127.762255
 20
142.73122069408029
 30
0.0
 40
3.1749999523162842
  1

  7
TEXT_STYLE39
 11
127.762255
 21
142.3665967932487
 31
0.0
  3
ENG APPROVED BY
  2
ENG_APPROVED_BY
 70
     0
 74
     1
  0
ATTDEF
  5
184
  8
TITLE__ANSI_
 10
127.762255
 20
152.2562206940803
 30
0.0
 40
3.1749999523162842
  1

  7
TEXT_STYLE39
 11
127.762255
 21
151.89159679324871
 31
0.0
  3
MFG APPROVED BY
  2
MFG_APPROVED_BY
 70
     0
 74
     1
  0
ATTDEF
  5
185
  8
TITLE__ANSI_
 10
127.762255
 20
180.53269820217139
 30
0.0
 40
3.1749999523162842
  1
Todos-26
  7
TEXT_STYLE39
  3
AUTHOR
  2
AUTHOR_001
 70
     0
  0
ATTDEF
  5
186
  8
TITLE__ANSI_
 10
127.762255
 20
171.30622069408031
 30
0.0
 40
3.1749999523162842
  1

  7
TEXT_STYLE39
 11
127.762255
 21
170.94159679324869
 31
0.0
  3
CHECKED BY
  2
CHECKED_BY
 70
     0
 74
     1
  0
ATTDEF
  5
187
  8
TITLE__ANSI_
 10
172.03536305836829
 20
181.15746313166659
 30
0.0
 40
3.1749999523162842
  1
04/02/2016
  7
TEXT_STYLE39
  3
CREATION DATE
  2
CREATION_DATE_001
 70
     0
  0
ATTDEF
  5
188
  8
TITLE__ANSI_
 10
172.21234425
 20
171.30622069408039
 30
0.0
 40
3.1749999523162842
  1

  7
TEXT_STYLE39
 11
172.21234425
 21
170.94159679324881
 31
0.0
  3
CHECKED DATE
  2
CHECKED_DATE
 70
     0
 74
     1
  0
ATTDEF
  5
189
  8
TITLE__ANSI_
 10
172.21234425
 20
152.2562206940803
 30
0.0
 40
3.1749999523162842
  1

  7
TEXT_STYLE39
 11
172.21234425
 21
151.89159679324879
 31
0.0
  3
MFG APPROVED DATE
  2
MFG_APPROVED_DATE
 70
     0
 74
     1
  0
ATTDEF
  5
18A
  8
TITLE__ANSI_
 10
172.21234425
 20
142.73122069408029
 30
0.0
 40
3.1749999523162842
  1

  7
TEXT_STYLE39
 11
172.21234425
 21
142.36659679324879
 31
0.0
  3
ENG APPROVAL DATE
  2
ENG_APPROVAL_DATE
 70
     0
 74
     1
  0
ATTDEF
  5
18C
  8
TITLE__ANSI_
 10
235.5310944944263
 20
134.1066498152212
 30
0.0
 40
4.5719999074935913
  1
entrepa�o
  7
TEXT_STYLE30
  3
PART NUMBER
  2
PART_NUMBER_001
 70
     0
  0
ATTDEF
  5
18D
  8
TITLE__ANSI_
 10
197.61225499999989
 20
155.7717470397811
 30
0.0
 40
4.5719999074935913
  1

  7
TEXT_STYLE30
 11
197.61225499999989
 21
158.0577469935279
 31
0.0
  3
TITLE
  2
TITLE
 70
     0
 74
     2
  0
ATTDEF
  5
18E
  8
TITLE__ANSI_
 10
200.9342134218067
 20
134.23861596450189
 30
0.0
 40
4.5719999074935913
  1
D
  7
TEXT_STYLE30
  3
Sheet Size
  2
Sheet_Size_001
 70
     0
  0
ATTDEF
  5
18F
  8
TITLE__ANSI_
 10
260.350255
 20
179.76814475709079
 30
0.0
 40
3.1749999523162842
  1

  7
TEXT_STYLE39
 72
     1
 11
260.350255
 21
181.35564473324899
 31
0.0
  3
COMPANY
  2
COMPANY
 70
     0
 74
     2
  0
ATTDEF
  5
190
  8
TITLE__ANSI_
 10
317.50025499999998
 20
134.9371159420908
 30
0.0
 40
3.1749999523162842
  1

  7
TEXT_STYLE39
 72
     1
 11
317.50025499999998
 21
136.52461591824891
 31
0.0
  3
REVISION NUMBER
  2
REVISION_NUMBER
 70
     0
 74
     2
  0
ATTDEF
  5
191
  8
TITLE__ANSI_
 10
216.81485227456901
 20
126.4915967932487
 30
0.0
 40
3.0480000376701351
  1
1 : 1
  7
NOTE_TEXT__ANSI_
  3
Initial View Scale
  2
Initial_View_Scale_001
 70
     0
  0
ENDBLK
  5
15F
  8
0
  0
BLOCK
  8
0
  2
*U6
 70
     1
 10
0.0
 20
0.0
 30
0.0
  3
*U6
  1

  0
TEXT
  5
2CC
  8
BORDER__ANSI_
 10
808.93736449195615
 20
534.41600000000005
 30
0.0
 40
3.0480000376701351
  1
1
  7
NOTE_TEXT__ANSI_
  0
ENDBLK
  5
2CE
  8
0
  0
BLOCK
  8
0
  2
*U7
 70
     1
 10
0.0
 20
0.0
 30
0.0
  3
*U7
  1

  0
TEXT
  5
2D0
  8
BORDER__ANSI_
 10
808.93736449195615
 20
21.335999962329868
 30
0.0
 40
3.0480000376701351
  1
1
  7
NOTE_TEXT__ANSI_
  0
ENDBLK
  5
2D2
  8
0
  0
BLOCK
  8
0
  2
*U8
 70
     1
 10
0.0
 20
0.0
 30
0.0
  3
*U8
  1

  0
TEXT
  5
2D4
  8
BORDER__ANSI_
 10
700.75083908352781
 20
534.41600000000005
 30
0.0
 40
3.0480000376701351
  1
2
  7
NOTE_TEXT__ANSI_
  0
ENDBLK
  5
2D6
  8
0
  0
BLOCK
  8
0
  2
*U9
 70
     1
 10
0.0
 20
0.0
 30
0.0
  3
*U9
  1

  0
TEXT
  5
2D8
  8
BORDER__ANSI_
 10
700.75083908352781
 20
21.335999962329868
 30
0.0
 40
3.0480000376701351
  1
2
  7
NOTE_TEXT__ANSI_
  0
ENDBLK
  5
2DA
  8
0
  0
BLOCK
  8
0
  2
*U10
 70
     1
 10
0.0
 20
0.0
 30
0.0
  3
*U10
  1

  0
TEXT
  5
2DC
  8
BORDER__ANSI_
 10
592.77645502080316
 20
534.35177958084637
 30
0.0
 40
3.0480000376701351
  1
3
  7
NOTE_TEXT__ANSI_
  0
ENDBLK
  5
2DE
  8
0
  0
BLOCK
  8
0
  2
*U11
 70
     1
 10
0.0
 20
0.0
 30
0.0
  3
*U11
  1

  0
TEXT
  5
2E0
  8
BORDER__ANSI_
 10
592.77645502080316
 20
21.27177954317629
 30
0.0
 40
3.0480000376701351
  1
3
  7
NOTE_TEXT__ANSI_
  0
ENDBLK
  5
2E2
  8
0
  0
BLOCK
  8
0
  2
*U12
 70
     1
 10
0.0
 20
0.0
 30
0.0
  3
*U12
  1

  0
TEXT
  5
2E4
  8
BORDER__ANSI_
 10
484.7118499259978
 20
534.41600000000005
 30
0.0
 40
3.0480000376701351
  1
4
  7
NOTE_TEXT__ANSI_
  0
ENDBLK
  5
2E6
  8
0
  0
BLOCK
  8
0
  2
*U13
 70
     1
 10
0.0
 20
0.0
 30
0.0
  3
*U13
  1

  0
TEXT
  5
2E8
  8
BORDER__ANSI_
 10
484.7118499259978
 20
21.335999962329868
 30
0.0
 40
3.0480000376701351
  1
4
  7
NOTE_TEXT__ANSI_
  0
ENDBLK
  5
2EA
  8
0
  0
BLOCK
  8
0
  2
*U14
 70
     1
 10
0.0
 20
0.0
 30
0.0
  3
*U14
  1

  0
TEXT
  5
2EC
  8
BORDER__ANSI_
 10
376.93253836506972
 20
534.35177958084637
 30
0.0
 40
3.0480000376701351
  1
5
  7
NOTE_TEXT__ANSI_
  0
ENDBLK
  5
2EE
  8
0
  0
BLOCK
  8
0
  2
*U15
 70
     1
 10
0.0
 20
0.0
 30
0.0
  3
*U15
  1

  0
TEXT
  5
2F0
  8
BORDER__ANSI_
 10
376.93253836506972
 20
21.27177954317629
 30
0.0
 40
3.0480000376701351
  1
5
  7
NOTE_TEXT__ANSI_
  0
ENDBLK
  5
2F2
  8
0
  0
BLOCK
  8
0
  2
*U16
 70
     1
 10
0.0
 20
0.0
 30
0.0
  3
*U16
  1

  0
TEXT
  5
2F4
  8
BORDER__ANSI_
 10
268.90207095807858
 20
534.35177958084637
 30
0.0
 40
3.0480000376701351
  1
6
  7
NOTE_TEXT__ANSI_
  0
ENDBLK
  5
2F6
  8
0
  0
BLOCK
  8
0
  2
*U17
 70
     1
 10
0.0
 20
0.0
 30
0.0
  3
*U17
  1

  0
TEXT
  5
2F8
  8
BORDER__ANSI_
 10
268.90207095807858
 20
21.27177954317629
 30
0.0
 40
3.0480000376701351
  1
6
  7
NOTE_TEXT__ANSI_
  0
ENDBLK
  5
2FA
  8
0
  0
BLOCK
  8
0
  2
*U18
 70
     1
 10
0.0
 20
0.0
 30
0.0
  3
*U18
  1

  0
TEXT
  5
2FC
  8
BORDER__ANSI_
 10
160.98133183334809
 20
534.41600000000005
 30
0.0
 40
3.0480000376701351
  1
7
  7
NOTE_TEXT__ANSI_
  0
ENDBLK
  5
2FE
  8
0
  0
BLOCK
  8
0
  2
*U19
 70
     1
 10
0.0
 20
0.0
 30
0.0
  3
*U19
  1

  0
TEXT
  5
300
  8
BORDER__ANSI_
 10
160.98133183334809
 20
21.335999962329868
 30
0.0
 40
3.0480000376701351
  1
7
  7
NOTE_TEXT__ANSI_
  0
ENDBLK
  5
302
  8
0
  0
BLOCK
  8
0
  2
*U20
 70
     1
 10
0.0
 20
0.0
 30
0.0
  3
*U20
  1

  0
TEXT
  5
304
  8
BORDER__ANSI_
 10
52.980125301626508
 20
534.3468395478875
 30
0.0
 40
3.0480000376701351
  1
8
  7
NOTE_TEXT__ANSI_
  0
ENDBLK
  5
306
  8
0
  0
BLOCK
  8
0
  2
*U21
 70
     1
 10
0.0
 20
0.0
 30
0.0
  3
*U21
  1

  0
TEXT
  5
308
  8
BORDER__ANSI_
 10
52.980125301626508
 20
21.266839510217309
 30
0.0
 40
3.0480000376701351
  1
8
  7
NOTE_TEXT__ANSI_
  0
ENDBLK
  5
30A
  8
0
  0
BLOCK
  8
0
  2
*U22
 70
     1
 10
0.0
 20
0.0
 30
0.0
  3
*U22
  1

  0
TEXT
  5
30C
  8
BORDER__ANSI_
 10
8.8634943600994358
 20
68.325999981164941
 30
0.0
 40
3.0480000376701351
  1
A
  7
NOTE_TEXT__ANSI_
  0
ENDBLK
  5
30E
  8
0
  0
BLOCK
  8
0
  2
*U23
 70
     1
 10
0.0
 20
0.0
 30
0.0
  3
*U23
  1

  0
TEXT
  5
310
  8
BORDER__ANSI_
 10
852.1434943977697
 20
68.325999981164941
 30
0.0
 40
3.0480000376701351
  1
A
  7
NOTE_TEXT__ANSI_
  0
ENDBLK
  5
312
  8
0
  0
BLOCK
  8
0
  2
*U24
 70
     1
 10
0.0
 20
0.0
 30
0.0
  3
*U24
  1

  0
TEXT
  5
314
  8
BORDER__ANSI_
 10
9.2297926744874719
 20
208.02599998116489
 30
0.0
 40
3.0480000376701351
  1
B
  7
NOTE_TEXT__ANSI_
  0
ENDBLK
  5
316
  8
0
  0
BLOCK
  8
0
  2
*U25
 70
     1
 10
0.0
 20
0.0
 30
0.0
  3
*U25
  1

  0
TEXT
  5
318
  8
BORDER__ANSI_
 10
852.5097927121576
 20
208.02599998116489
 30
0.0
 40
3.0480000376701351
  1
B
  7
NOTE_TEXT__ANSI_
  0
ENDBLK
  5
31A
  8
0
  0
BLOCK
  8
0
  2
*U26
 70
     1
 10
0.0
 20
0.0
 30
0.0
  3
*U26
  1

  0
TEXT
  5
31C
  8
BORDER__ANSI_
 10
9.0356390788603651
 20
347.67165962327277
 30
0.0
 40
3.0480000376701351
  1
C
  7
NOTE_TEXT__ANSI_
  0
ENDBLK
  5
31E
  8
0
  0
BLOCK
  8
0
  2
*U27
 70
     1
 10
0.0
 20
0.0
 30
0.0
  3
*U27
  1

  0
TEXT
  5
320
  8
BORDER__ANSI_
 10
852.31563911653041
 20
347.67165962327277
 30
0.0
 40
3.0480000376701351
  1
C
  7
NOTE_TEXT__ANSI_
  0
ENDBLK
  5
322
  8
0
  0
BLOCK
  8
0
  2
*U28
 70
     1
 10
0.0
 20
0.0
 30
0.0
  3
*U28
  1

  0
TEXT
  5
324
  8
BORDER__ANSI_
 10
9.0433064302858117
 20
487.42599998116492
 30
0.0
 40
3.0480000376701351
  1
D
  7
NOTE_TEXT__ANSI_
  0
ENDBLK
  5
326
  8
0
  0
BLOCK
  8
0
  2
*U29
 70
     1
 10
0.0
 20
0.0
 30
0.0
  3
*U29
  1

  0
TEXT
  5
328
  8
BORDER__ANSI_
 10
852.32330646795594
 20
487.42599998116492
 30
0.0
 40
3.0480000376701351
  1
D
  7
NOTE_TEXT__ANSI_
  0
ENDBLK
  5
32A
  8
0
  0
BLOCK
  8
0
  2
*U30
 70
     1
 10
0.0
 20
0.0
 30
0.0
  3
*U30
  1

  0
TEXT
  5
32C
  8
TITLE__ANSI_
 10
273.68090510158748
 20
126.5444779211813
 30
0.0
 40
2.54
  1
SHEET
  7
NOTE_TEXT__ANSI_
  0
TEXT
  5
32D
  8
TITLE__ANSI_
 10
283.94837313464438
 20
126.5444779211813
 30
0.0
 40
3.048
  1
 1  
  7
NOTE_TEXT__ANSI_
  0
TEXT
  5
32E
  8
TITLE__ANSI_
 10
295.12575082096851
 20
126.5444779211813
 30
0.0
 40
2.54
  1
OF
  7
NOTE_TEXT__ANSI_
  0
TEXT
  5
32F
  8
TITLE__ANSI_
 10
299.41935724050728
 20
126.5444779211813
 30
0.0
 40
3.048
  1
 1
  7
NOTE_TEXT__ANSI_
  0
ENDBLK
  5
331
  8
0
  0
ENDSEC
  0
SECTION
  2
ENTITIES
  0
INSERT
  5
15C
  8
0
  2
BORDERS_DEFAULT_BORDER
 10
0.0
 20
0.0
 30
0.0
  0
INSERT
  5
192
  8
0
 66
     1
  2
TITLE_BLOCKS_ANSI_-_LARGE
 10
527.04974500000003
 20
-100.3295967932487
 30
0.0
  0
ATTRIB
  5
195
  8
TITLE__ANSI_
 10
654.8119999999999
 20
42.401623900831602
 30
0.0
 40
3.1749999523162842
  1

  7
TEXT_STYLE39
 11
654.8119999999999
 21
42.037000000000027
 31
0.0
  2
ENG_APPROVED_BY
 70
     0
 74
     1
  0
ATTRIB
  5
196
  8
TITLE__ANSI_
 10
654.8119999999999
 20
51.926623900831601
 30
0.0
 40
3.1749999523162842
  1

  7
TEXT_STYLE39
 11
654.8119999999999
 21
51.56200000000004
 31
0.0
  2
MFG_APPROVED_BY
 70
     0
 74
     1
  0
ATTRIB
  5
197
  8
TITLE__ANSI_
 10
654.8119999999999
 20
80.203101408922706
 30
0.0
 40
3.1749999523162842
  1
Todos-26
  7
TEXT_STYLE39
  2
AUTHOR_001
 70
     0
  0
ATTRIB
  5
198
  8
TITLE__ANSI_
 10
654.8119999999999
 20
70.976623900831612
 30
0.0
 40
3.1749999523162842
  1

  7
TEXT_STYLE39
 11
654.8119999999999
 21
70.612000000000023
 31
0.0
  2
CHECKED_BY
 70
     0
 74
     1
  0
ATTRIB
  5
199
  8
TITLE__ANSI_
 10
699.08510805836818
 20
80.827866338417863
 30
0.0
 40
3.1749999523162842
  1
04/02/2016
  7
TEXT_STYLE39
  2
CREATION_DATE_001
 70
     0
  0
ATTRIB
  5
19A
  8
TITLE__ANSI_
 10
699.26208924999992
 20
70.976623900831683
 30
0.0
 40
3.1749999523162842
  1

  7
TEXT_STYLE39
 11
699.26208924999992
 21
70.612000000000108
 31
0.0
  2
CHECKED_DATE
 70
     0
 74
     1
  0
ATTRIB
  5
19B
  8
TITLE__ANSI_
 10
699.26208924999992
 20
51.926623900831643
 30
0.0
 40
3.1749999523162842
  1

  7
TEXT_STYLE39
 11
699.26208924999992
 21
51.562000000000069
 31
0.0
  2
MFG_APPROVED_DATE
 70
     0
 74
     1
  0
ATTRIB
  5
19C
  8
TITLE__ANSI_
 10
699.26208924999992
 20
42.40162390083163
 30
0.0
 40
3.1749999523162842
  1

  7
TEXT_STYLE39
 11
699.26208924999992
 21
42.037000000000063
 31
0.0
  2
ENG_APPROVAL_DATE
 70
     0
 74
     1
  0
ATTRIB
  5
19D
  8
TITLE__ANSI_
 10
762.58083949442641
 20
33.777053021972542
 30
0.0
 40
4.5719999074935913
  1
entrepa�o
  7
TEXT_STYLE30
  2
PART_NUMBER_001
 70
     0
  0
ATTRIB
  5
19E
  8
TITLE__ANSI_
 10
724.66200000000003
 20
55.4421502465324
 30
0.0
 40
4.5719999074935913
  1

  7
TEXT_STYLE30
 11
724.66200000000003
 21
57.728150200279202
 31
0.0
  2
TITLE
 70
     0
 74
     2
  0
ATTRIB
  5
19F
  8
TITLE__ANSI_
 10
727.98395842180662
 20
33.909019171253249
 30
0.0
 40
4.5719999074935913
  1
D
  7
TEXT_STYLE30
  2
Sheet_Size_001
 70
     0
  0
ATTRIB
  5
1A0
  8
TITLE__ANSI_
 10
787.40000000000009
 20
79.438547963842126
 30
0.0
 40
3.1749999523162842
  1

  7
TEXT_STYLE39
 72
     1
 11
787.40000000000009
 21
81.026047940000268
 31
0.0
  2
COMPANY
 70
     0
 74
     2
  0
ATTRIB
  5
1A1
  8
TITLE__ANSI_
 10
844.55000000000018
 20
34.60751914884208
 30
0.0
 40
3.1749999523162842
  1

  7
TEXT_STYLE39
 72
     1
 11
844.55000000000018
 21
36.195019125000222
 31
0.0
  2
REVISION_NUMBER
 70
     0
 74
     2
  0
ATTRIB
  5
1A2
  8
TITLE__ANSI_
 10
743.86459727456895
 20
26.16200000000001
 30
0.0
 40
3.0480000376701351
  1
1 : 1
  7
NOTE_TEXT__ANSI_
  2
Initial_View_Scale_001
 70
     0
  0
SEQEND
  5
194
  8
0
  0
LINE
  5
1A3
  8
VISIBLE__ANSI_
 10
-771.13412881015586
 20
925.76455802632813
 30
0.0
 11
-771.13412881015586
 21
902.66455802632788
 31
0.0
  0
LINE
  5
1A4
  8
VISIBLE__ANSI_
 10
-771.13412881015586
 20
957.96455802632795
 30
0.0
 11
-771.13412881015586
 21
934.86455802632804
 31
0.0
  0
LINE
  5
1A5
  8
VISIBLE__ANSI_
 10
-780.23412881015577
 20
902.66455802632788
 30
0.0
 11
-780.23412881015577
 21
925.76455802632813
 31
0.0
  0
LINE
  5
1A6
  8
VISIBLE__ANSI_
 10
-780.23412881015577
 20
957.96455802632795
 30
0.0
 11
-771.13412881015586
 21
957.96455802632795
 31
0.0
  0
LINE
  5
1A7
  8
VISIBLE__ANSI_
 10
-780.23412881015577
 20
934.86455802632804
 30
0.0
 11
-780.23412881015577
 21
957.96455802632795
 31
0.0
  0
LINE
  5
1A8
  8
VISIBLE__ANSI_
 10
-771.13412881015586
 20
902.66455802632788
 30
0.0
 11
-780.23412881015577
 21
902.66455802632788
 31
0.0
  0
LINE
  5
1A9
  8
VISIBLE__ANSI_
 10
-803.33412881015579
 20
934.86455802632804
 30
0.0
 11
-780.23412881015577
 21
934.86455802632804
 31
0.0
  0
LINE
  5
1AA
  8
VISIBLE__ANSI_
 10
-780.23412881015577
 20
925.76455802632813
 30
0.0
 11
-803.33412881015579
 21
925.76455802632813
 31
0.0
  0
LINE
  5
1AB
  8
VISIBLE__ANSI_
 10
-748.03412881015583
 20
934.86455802632804
 30
0.0
 11
-748.03412881015583
 21
925.76455802632813
 31
0.0
  0
LINE
  5
1AC
  8
VISIBLE__ANSI_
 10
-771.13412881015586
 20
934.86455802632804
 30
0.0
 11
-748.03412881015583
 21
934.86455802632804
 31
0.0
  0
LINE
  5
1AD
  8
VISIBLE__ANSI_
 10
-803.33412881015579
 20
925.76455802632813
 30
0.0
 11
-803.33412881015579
 21
934.86455802632804
 31
0.0
  0
LINE
  5
1AE
  8
VISIBLE__ANSI_
 10
-748.03412881015583
 20
925.76455802632813
 30
0.0
 11
-771.13412881015586
 21
925.76455802632813
 31
0.0
  0
LINE
  5
1AF
  8
VISIBLE__ANSI_
 10
-181.13412881015589
 20
925.76455802632813
 30
0.0
 11
-181.13412881015589
 21
902.66455802632788
 31
0.0
  0
LINE
  5
1B0
  8
VISIBLE__ANSI_
 10
-181.13412881015589
 20
957.96455802632795
 30
0.0
 11
-181.13412881015589
 21
934.86455802632804
 31
0.0
  0
LINE
  5
1B1
  8
VISIBLE__ANSI_
 10
-190.23412881015591
 20
902.66455802632788
 30
0.0
 11
-190.23412881015591
 21
925.76455802632813
 31
0.0
  0
LINE
  5
1B2
  8
VISIBLE__ANSI_
 10
-190.23412881015591
 20
957.96455802632795
 30
0.0
 11
-181.13412881015589
 21
957.96455802632795
 31
0.0
  0
LINE
  5
1B3
  8
VISIBLE__ANSI_
 10
-190.23412881015591
 20
934.86455802632804
 30
0.0
 11
-190.23412881015591
 21
957.96455802632795
 31
0.0
  0
LINE
  5
1B4
  8
VISIBLE__ANSI_
 10
-181.13412881015589
 20
902.66455802632788
 30
0.0
 11
-190.23412881015591
 21
902.66455802632788
 31
0.0
  0
LINE
  5
1B5
  8
VISIBLE__ANSI_
 10
-213.3341288101559
 20
934.86455802632804
 30
0.0
 11
-190.23412881015591
 21
934.86455802632804
 31
0.0
  0
LINE
  5
1B6
  8
VISIBLE__ANSI_
 10
-190.23412881015591
 20
925.76455802632813
 30
0.0
 11
-213.3341288101559
 21
925.76455802632813
 31
0.0
  0
LINE
  5
1B7
  8
VISIBLE__ANSI_
 10
-158.03412881015589
 20
934.86455802632804
 30
0.0
 11
-158.03412881015589
 21
925.76455802632813
 31
0.0
  0
LINE
  5
1B8
  8
VISIBLE__ANSI_
 10
-181.13412881015589
 20
934.86455802632804
 30
0.0
 11
-158.03412881015589
 21
934.86455802632804
 31
0.0
  0
LINE
  5
1B9
  8
VISIBLE__ANSI_
 10
-213.3341288101559
 20
925.76455802632813
 30
0.0
 11
-213.3341288101559
 21
934.86455802632804
 31
0.0
  0
LINE
  5
1BA
  8
VISIBLE__ANSI_
 10
-158.03412881015589
 20
925.76455802632813
 30
0.0
 11
-181.13412881015589
 21
925.76455802632813
 31
0.0
  0
LINE
  5
1BB
  8
VISIBLE__ANSI_
 10
-771.13412881015574
 20
635.76455802632813
 30
0.0
 11
-771.13412881015574
 21
612.66455802632788
 31
0.0
  0
LINE
  5
1BC
  8
VISIBLE__ANSI_
 10
-771.13412881015574
 20
667.96455802632795
 30
0.0
 11
-771.13412881015574
 21
644.86455802632804
 31
0.0
  0
LINE
  5
1BD
  8
VISIBLE__ANSI_
 10
-780.23412881015565
 20
612.66455802632788
 30
0.0
 11
-780.23412881015565
 21
635.76455802632813
 31
0.0
  0
LINE
  5
1BE
  8
VISIBLE__ANSI_
 10
-780.23412881015565
 20
667.96455802632795
 30
0.0
 11
-771.13412881015574
 21
667.96455802632795
 31
0.0
  0
LINE
  5
1BF
  8
VISIBLE__ANSI_
 10
-780.23412881015565
 20
644.86455802632804
 30
0.0
 11
-780.23412881015565
 21
667.96455802632795
 31
0.0
  0
LINE
  5
1C0
  8
VISIBLE__ANSI_
 10
-771.13412881015574
 20
612.66455802632788
 30
0.0
 11
-780.23412881015565
 21
612.66455802632788
 31
0.0
  0
LINE
  5
1C1
  8
VISIBLE__ANSI_
 10
-803.33412881015579
 20
644.86455802632804
 30
0.0
 11
-780.23412881015565
 21
644.86455802632804
 31
0.0
  0
LINE
  5
1C2
  8
VISIBLE__ANSI_
 10
-780.23412881015565
 20
635.76455802632813
 30
0.0
 11
-803.33412881015579
 21
635.76455802632813
 31
0.0
  0
LINE
  5
1C3
  8
VISIBLE__ANSI_
 10
-748.03412881015561
 20
644.86455802632804
 30
0.0
 11
-748.03412881015561
 21
635.76455802632813
 31
0.0
  0
LINE
  5
1C4
  8
VISIBLE__ANSI_
 10
-771.13412881015574
 20
644.86455802632804
 30
0.0
 11
-748.03412881015561
 21
644.86455802632804
 31
0.0
  0
LINE
  5
1C5
  8
VISIBLE__ANSI_
 10
-803.33412881015579
 20
635.76455802632813
 30
0.0
 11
-803.33412881015579
 21
644.86455802632804
 31
0.0
  0
LINE
  5
1C6
  8
VISIBLE__ANSI_
 10
-748.03412881015561
 20
635.76455802632813
 30
0.0
 11
-771.13412881015574
 21
635.76455802632813
 31
0.0
  0
LINE
  5
1C7
  8
VISIBLE__ANSI_
 10
-181.1341288101558
 20
635.76455802632813
 30
0.0
 11
-181.1341288101558
 21
612.66455802632788
 31
0.0
  0
LINE
  5
1C8
  8
VISIBLE__ANSI_
 10
-181.1341288101558
 20
667.96455802632795
 30
0.0
 11
-181.1341288101558
 21
644.86455802632804
 31
0.0
  0
LINE
  5
1C9
  8
VISIBLE__ANSI_
 10
-190.23412881015571
 20
612.66455802632788
 30
0.0
 11
-190.23412881015571
 21
635.76455802632813
 31
0.0
  0
LINE
  5
1CA
  8
VISIBLE__ANSI_
 10
-190.23412881015571
 20
667.96455802632795
 30
0.0
 11
-181.1341288101558
 21
667.96455802632795
 31
0.0
  0
LINE
  5
1CB
  8
VISIBLE__ANSI_
 10
-190.23412881015571
 20
644.86455802632804
 30
0.0
 11
-190.23412881015571
 21
667.96455802632795
 31
0.0
  0
LINE
  5
1CC
  8
VISIBLE__ANSI_
 10
-181.1341288101558
 20
612.66455802632788
 30
0.0
 11
-190.23412881015571
 21
612.66455802632788
 31
0.0
  0
LINE
  5
1CD
  8
VISIBLE__ANSI_
 10
-213.33412881015579
 20
644.86455802632804
 30
0.0
 11
-190.23412881015571
 21
644.86455802632804
 31
0.0
  0
LINE
  5
1CE
  8
VISIBLE__ANSI_
 10
-190.23412881015571
 20
635.76455802632813
 30
0.0
 11
-213.33412881015579
 21
635.76455802632813
 31
0.0
  0
LINE
  5
1CF
  8
VISIBLE__ANSI_
 10
-158.03412881015569
 20
644.86455802632804
 30
0.0
 11
-158.03412881015569
 21
635.76455802632813
 31
0.0
  0
LINE
  5
1D0
  8
VISIBLE__ANSI_
 10
-181.1341288101558
 20
644.86455802632804
 30
0.0
 11
-158.03412881015569
 21
644.86455802632804
 31
0.0
  0
LINE
  5
1D1
  8
VISIBLE__ANSI_
 10
-213.33412881015579
 20
635.76455802632813
 30
0.0
 11
-213.33412881015579
 21
644.86455802632804
 31
0.0
  0
LINE
  5
1D2
  8
VISIBLE__ANSI_
 10
-158.03412881015569
 20
635.76455802632813
 30
0.0
 11
-181.1341288101558
 21
635.76455802632813
 31
0.0
  0
ARC
  5
1D3
  8
VISIBLE__ANSI_
 10
-185.6841288101557
 20
640.31455802632809
 30
0.0
 40
80.0
 50
269.99999999999989
 51
0.0
  0
ARC
  5
1D4
  8
VISIBLE__ANSI_
 10
-775.6841288101557
 20
640.31455802632809
 30
0.0
 40
80.0
 50
180.0
 51
270.0
  0
ARC
  5
1D5
  8
VISIBLE__ANSI_
 10
-775.68412881015593
 20
930.31455802632809
 30
0.0
 40
79.999999999999943
 50
90.0
 51
180.0
  0
ARC
  5
1D6
  8
VISIBLE__ANSI_
 10
-185.6841288101559
 20
930.31455802632809
 30
0.0
 40
80.0
 50
0.0
 51
89.999999999999915
  0
LINE
  5
1D7
  8
VISIBLE__ANSI_
 10
-105.6841288101557
 20
640.31455802632809
 30
0.0
 11
-105.6841288101559
 21
930.31455802632809
 31
0.0
  0
LINE
  5
1D8
  8
VISIBLE__ANSI_
 10
-855.68412881015581
 20
930.31455802632809
 30
0.0
 11
-855.6841288101557
 21
640.31455802632809
 31
0.0
  0
LINE
  5
1D9
  8
VISIBLE__ANSI_
 10
-185.6841288101557
 20
1010.314558026328
 30
0.0
 11
-775.68412881015593
 21
1010.314558026328
 31
0.0
  0
LINE
  5
1DA
  8
VISIBLE__ANSI_
 10
-775.6841288101557
 20
560.31455802632797
 30
0.0
 11
-185.6841288101557
 21
560.31455802632797
 31
0.0
  0
LINE
  5
1DB
  8
VISIBLE__ANSI_
 10
-724.63578451377839
 20
521.8561753090404
 30
0.0
 11
-724.63578451377839
 21
296.65617530904029
 31
0.0
  0
LINE
  5
1DC
  8
VISIBLE__ANSI_
 10
-724.63578451377839
 20
296.65617530904029
 30
0.0
 11
-733.68578451377834
 21
296.65617530904029
 31
0.0
  0
LINE
  5
1DD
  8
VISIBLE__ANSI_
 10
-733.68578451377834
 20
296.65617530904029
 30
0.0
 11
-733.68578451377834
 21
521.8561753090404
 31
0.0
  0
LINE
  5
1DE
  8
VISIBLE__ANSI_
 10
-733.68578451377834
 20
521.8561753090404
 30
0.0
 11
-756.66078451377837
 21
521.8561753090404
 31
0.0
  0
LINE
  5
1DF
  8
VISIBLE__ANSI_
 10
-701.66078451377848
 20
521.8561753090404
 30
0.0
 11
-724.63578451377839
 21
521.8561753090404
 31
0.0
  0
LINE
  5
1E0
  8
VISIBLE__ANSI_
 10
-756.66078451377837
 20
521.8561753090404
 30
0.0
 11
-756.66078451377837
 21
517.65617530904035
 31
0.0
  0
LINE
  5
1E1
  8
VISIBLE__ANSI_
 10
-756.66078451377837
 20
517.65617530904035
 30
0.0
 11
-769.16078451377837
 21
517.65617530904035
 31
0.0
  0
LINE
  5
1E2
  8
VISIBLE__ANSI_
 10
-769.16078451377837
 20
517.65617530904035
 30
0.0
 11
-769.16078451377837
 21
76.056175309040341
 31
0.0
  0
LINE
  5
1E3
  8
VISIBLE__ANSI_
 10
-769.16078451377837
 20
76.056175309040327
 30
0.0
 11
-756.66078451377837
 21
76.056175309040327
 31
0.0
  0
LINE
  5
1E4
  8
VISIBLE__ANSI_
 10
-756.66078451377837
 20
76.056175309040327
 30
0.0
 11
-756.66078451377837
 21
71.856175309040324
 31
0.0
  0
LINE
  5
1E5
  8
VISIBLE__ANSI_
 10
-756.66078451377837
 20
71.856175309040324
 30
0.0
 11
-701.66078451377848
 21
71.856175309040324
 31
0.0
  0
LINE
  5
1E6
  8
VISIBLE__ANSI_
 10
-701.66078451377848
 20
71.856175309040324
 30
0.0
 11
-701.66078451377848
 21
76.056175309040327
 31
0.0
  0
LINE
  5
1E7
  8
VISIBLE__ANSI_
 10
-701.66078451377848
 20
76.056175309040327
 30
0.0
 11
-689.16078451377848
 21
76.056175309040327
 31
0.0
  0
LINE
  5
1E8
  8
VISIBLE__ANSI_
 10
-689.16078451377848
 20
76.056175309040327
 30
0.0
 11
-689.16078451377848
 21
517.65617530904035
 31
0.0
  0
LINE
  5
1E9
  8
VISIBLE__ANSI_
 10
-689.16078451377848
 20
517.65617530904035
 30
0.0
 11
-701.66078451377848
 21
517.65617530904035
 31
0.0
  0
LINE
  5
1EA
  8
VISIBLE__ANSI_
 10
-701.66078451377848
 20
517.65617530904035
 30
0.0
 11
-701.66078451377848
 21
521.8561753090404
 31
0.0
  0
LINE
  5
1EB
  8
VISIBLE__ANSI_
 10
-601.4593227119824
 20
520.51742222299754
 30
0.0
 11
-601.4593227119824
 21
445.31742222299749
 31
0.0
  0
LINE
  5
1EC
  8
VISIBLE__ANSI_
 10
-601.4593227119824
 20
445.31742222299749
 30
0.0
 11
-610.50932271198235
 21
445.31742222299749
 31
0.0
  0
LINE
  5
1ED
  8
VISIBLE__ANSI_
 10
-610.50932271198235
 20
445.31742222299749
 30
0.0
 11
-610.50932271198235
 21
520.51742222299754
 31
0.0
  0
LINE
  5
1EE
  8
VISIBLE__ANSI_
 10
-610.50932271198235
 20
520.51742222299754
 30
0.0
 11
-633.48432271198249
 21
520.51742222299754
 31
0.0
  0
LINE
  5
1EF
  8
VISIBLE__ANSI_
 10
-578.48432271198237
 20
520.51742222299754
 30
0.0
 11
-601.4593227119824
 21
520.51742222299754
 31
0.0
  0
LINE
  5
1F0
  8
VISIBLE__ANSI_
 10
-633.48432271198249
 20
520.51742222299754
 30
0.0
 11
-633.48432271198249
 21
516.31742222299761
 31
0.0
  0
LINE
  5
1F1
  8
VISIBLE__ANSI_
 10
-633.48432271198249
 20
516.31742222299761
 30
0.0
 11
-645.98432271198249
 21
516.31742222299761
 31
0.0
  0
LINE
  5
1F2
  8
VISIBLE__ANSI_
 10
-645.98432271198249
 20
516.31742222299761
 30
0.0
 11
-645.98432271198249
 21
370.5174222229976
 31
0.0
  0
LINE
  5
1F3
  8
VISIBLE__ANSI_
 10
-645.98432271198249
 20
370.5174222229976
 30
0.0
 11
-565.98432271198237
 21
370.5174222229976
 31
0.0
  0
LINE
  5
1F4
  8
VISIBLE__ANSI_
 10
-565.98432271198237
 20
370.5174222229976
 30
0.0
 11
-565.98432271198237
 21
516.31742222299761
 31
0.0
  0
LINE
  5
1F5
  8
VISIBLE__ANSI_
 10
-565.98432271198237
 20
516.31742222299761
 30
0.0
 11
-578.48432271198237
 21
516.31742222299761
 31
0.0
  0
LINE
  5
1F6
  8
VISIBLE__ANSI_
 10
-578.48432271198237
 20
516.31742222299761
 30
0.0
 11
-578.48432271198237
 21
520.51742222299754
 31
0.0
  0
LINE
  5
1F7
  8
VISIBLE__ANSI_
 10
-493.31800410993878
 20
510.73244321026959
 30
0.0
 11
-505.81800410993878
 21
510.73244321026959
 31
0.0
  0
LINE
  5
1F8
  8
VISIBLE__ANSI_
 10
-425.81800410993878
 20
510.73244321026959
 30
0.0
 11
-438.31800410993878
 21
510.73244321026959
 31
0.0
  0
LINE
  5
1F9
  8
VISIBLE__ANSI_
 10
-505.81800410993878
 20
510.73244321026959
 30
0.0
 11
-505.81800410993878
 21
73.932443210269554
 31
0.0
  0
LINE
  5
1FA
  8
VISIBLE__ANSI_
 10
-425.81800410993878
 20
73.93244321026954
 30
0.0
 11
-425.81800410993878
 21
510.73244321026959
 31
0.0
  0
LINE
  5
1FB
  8
VISIBLE__ANSI_
 10
-461.29300410993881
 20
519.73244321026948
 30
0.0
 11
-461.29300410993881
 21
294.53244321026961
 31
0.0
  0
LINE
  5
1FC
  8
VISIBLE__ANSI_
 10
-461.29300410993881
 20
294.53244321026961
 30
0.0
 11
-470.34300410993882
 21
294.53244321026961
 31
0.0
  0
LINE
  5
1FD
  8
VISIBLE__ANSI_
 10
-470.34300410993882
 20
294.53244321026961
 30
0.0
 11
-470.34300410993882
 21
519.73244321026948
 31
0.0
  0
LINE
  5
1FE
  8
VISIBLE__ANSI_
 10
-470.34300410993882
 20
519.73244321026948
 30
0.0
 11
-493.31800410993878
 21
519.73244321026948
 31
0.0
  0
LINE
  5
1FF
  8
VISIBLE__ANSI_
 10
-438.31800410993878
 20
519.73244321026948
 30
0.0
 11
-461.29300410993881
 21
519.73244321026948
 31
0.0
  0
LINE
  5
200
  8
VISIBLE__ANSI_
 10
-505.81800410993878
 20
73.93244321026954
 30
0.0
 11
-493.31800410993878
 21
73.93244321026954
 31
0.0
  0
LINE
  5
201
  8
VISIBLE__ANSI_
 10
-493.31800410993878
 20
73.93244321026954
 30
0.0
 11
-493.31800410993878
 21
69.732443210269537
 31
0.0
  0
LINE
  5
202
  8
VISIBLE__ANSI_
 10
-493.31800410993878
 20
69.732443210269537
 30
0.0
 11
-438.31800410993878
 21
69.732443210269537
 31
0.0
  0
LINE
  5
203
  8
VISIBLE__ANSI_
 10
-438.31800410993878
 20
69.732443210269537
 30
0.0
 11
-438.31800410993878
 21
73.93244321026954
 31
0.0
  0
LINE
  5
204
  8
VISIBLE__ANSI_
 10
-438.31800410993878
 20
73.93244321026954
 30
0.0
 11
-425.81800410993878
 21
73.93244321026954
 31
0.0
  0
LINE
  5
205
  8
VISIBLE__ANSI_
 10
-438.31800410993878
 20
510.73244321026959
 30
0.0
 11
-438.31800410993878
 21
519.73244321026948
 31
0.0
  0
LINE
  5
206
  8
VISIBLE__ANSI_
 10
-493.31800410993878
 20
519.73244321026948
 30
0.0
 11
-493.31800410993878
 21
510.73244321026959
 31
0.0
  0
LINE
  5
207
  8
VISIBLE__ANSI_
 10
-298.15168550789531
 20
76.608711111498693
 30
0.0
 11
-285.65168550789531
 21
76.608711111498693
 31
0.0
  0
LINE
  5
208
  8
VISIBLE__ANSI_
 10
-365.65168550789531
 20
76.608711111498678
 30
0.0
 11
-353.15168550789531
 21
76.608711111498678
 31
0.0
  0
LINE
  5
209
  8
VISIBLE__ANSI_
 10
-365.65168550789531
 20
513.40871111149875
 30
0.0
 11
-365.65168550789531
 21
76.608711111498664
 31
0.0
  0
LINE
  5
20A
  8
VISIBLE__ANSI_
 10
-321.12668550789527
 20
517.60871111149879
 30
0.0
 11
-321.12668550789527
 21
292.40871111149869
 31
0.0
  0
LINE
  5
20B
  8
VISIBLE__ANSI_
 10
-321.12668550789527
 20
292.40871111149869
 30
0.0
 11
-330.17668550789529
 21
292.40871111149869
 31
0.0
  0
LINE
  5
20C
  8
VISIBLE__ANSI_
 10
-330.17668550789529
 20
292.40871111149869
 30
0.0
 11
-330.17668550789529
 21
517.60871111149879
 31
0.0
  0
LINE
  5
20D
  8
VISIBLE__ANSI_
 10
-330.17668550789529
 20
517.60871111149879
 30
0.0
 11
-353.15168550789531
 21
517.60871111149879
 31
0.0
  0
LINE
  5
20E
  8
VISIBLE__ANSI_
 10
-298.15168550789531
 20
517.60871111149879
 30
0.0
 11
-321.12668550789527
 21
517.60871111149879
 31
0.0
  0
LINE
  5
20F
  8
VISIBLE__ANSI_
 10
-285.65168550789531
 20
76.608711111498693
 30
0.0
 11
-285.65168550789531
 21
513.40871111149875
 31
0.0
  0
LINE
  5
210
  8
VISIBLE__ANSI_
 10
-285.65168550789531
 20
513.40871111149875
 30
0.0
 11
-298.15168550789531
 21
513.40871111149875
 31
0.0
  0
LINE
  5
211
  8
VISIBLE__ANSI_
 10
-298.15168550789531
 20
513.40871111149875
 30
0.0
 11
-298.15168550789531
 21
517.60871111149879
 31
0.0
  0
LINE
  5
212
  8
VISIBLE__ANSI_
 10
-353.15168550789531
 20
517.60871111149879
 30
0.0
 11
-353.15168550789531
 21
513.40871111149875
 31
0.0
  0
LINE
  5
213
  8
VISIBLE__ANSI_
 10
-353.15168550789531
 20
513.40871111149875
 30
0.0
 11
-365.65168550789531
 21
513.40871111149875
 31
0.0
  0
LINE
  5
214
  8
VISIBLE__ANSI_
 10
-353.15168550789531
 20
76.608711111498678
 30
0.0
 11
-353.15168550789531
 21
67.608711111498664
 31
0.0
  0
LINE
  5
215
  8
VISIBLE__ANSI_
 10
-353.15168550789531
 20
67.608711111498664
 30
0.0
 11
-298.15168550789531
 21
67.608711111498664
 31
0.0
  0
LINE
  5
216
  8
VISIBLE__ANSI_
 10
-298.15168550789531
 20
67.608711111498664
 30
0.0
 11
-298.15168550789531
 21
76.608711111498693
 31
0.0
  0
LINE
  5
217
  8
VISIBLE__ANSI_
 10
-600.63414922642096
 20
157.9369695135095
 30
0.0
 11
-600.63414922642096
 21
233.13696951350951
 31
0.0
  0
LINE
  5
218
  8
VISIBLE__ANSI_
 10
-600.63414922642096
 20
233.13696951350951
 30
0.0
 11
-591.58414922642112
 21
233.13696951350951
 31
0.0
  0
LINE
  5
219
  8
VISIBLE__ANSI_
 10
-591.58414922642112
 20
233.13696951350951
 30
0.0
 11
-591.58414922642112
 21
157.9369695135095
 31
0.0
  0
LINE
  5
21A
  8
VISIBLE__ANSI_
 10
-636.10914922642098
 20
157.9369695135095
 30
0.0
 11
-600.63414922642096
 21
157.9369695135095
 31
0.0
  0
LINE
  5
21B
  8
VISIBLE__ANSI_
 10
-623.60914922642098
 20
307.9369695135095
 30
0.0
 11
-623.60914922642098
 21
303.73696951350951
 31
0.0
  0
LINE
  5
21C
  8
VISIBLE__ANSI_
 10
-623.60914922642098
 20
303.73696951350951
 30
0.0
 11
-636.10914922642098
 21
303.73696951350951
 31
0.0
  0
LINE
  5
21D
  8
VISIBLE__ANSI_
 10
-568.60914922642098
 20
307.9369695135095
 30
0.0
 11
-623.60914922642098
 21
307.9369695135095
 31
0.0
  0
LINE
  5
21E
  8
VISIBLE__ANSI_
 10
-556.10914922642098
 20
303.73696951350951
 30
0.0
 11
-568.60914922642098
 21
303.73696951350951
 31
0.0
  0
LINE
  5
21F
  8
VISIBLE__ANSI_
 10
-568.60914922642098
 20
303.73696951350951
 30
0.0
 11
-568.60914922642098
 21
307.9369695135095
 31
0.0
  0
LINE
  5
220
  8
VISIBLE__ANSI_
 10
-556.10914922642098
 20
157.9369695135095
 30
0.0
 11
-556.10914922642098
 21
303.73696951350951
 31
0.0
  0
LINE
  5
221
  8
VISIBLE__ANSI_
 10
-591.58414922642112
 20
157.9369695135095
 30
0.0
 11
-556.10914922642098
 21
157.9369695135095
 31
0.0
  0
LINE
  5
222
  8
VISIBLE__ANSI_
 10
-636.10914922642098
 20
303.73696951350951
 30
0.0
 11
-636.10914922642098
 21
157.9369695135095
 31
0.0
  0
ENDSEC
  0
EOF
