  0
SECTION
  2
HEADER
  9
$ACADVER
  1
AC1021
  9
$ACADMAINTVER
 70
    25
  9
$DWGCODEPAGE
  3
ANSI_1252
  9
$INSBASE
 10
0.0
 20
0.0
 30
0.0
  9
$EXTMIN
 10
-7.42434
 20
-5.86019
 30
0.0
  9
$EXTMAX
 10
7.4674
 20
5.86018
 30
0.0
  9
$LIMMIN
 10
0.0
 20
0.0
  9
$LIMMAX
 10
12.0
 20
9.0
  9
$ORTHOMODE
 70
     0
  9
$REGENMODE
 70
     1
  9
$FILLMODE
 70
     1
  9
$QTEXTMODE
 70
     0
  9
$MIRRTEXT
 70
     1
  9
$LTSCALE
 40
1.0
  9
$ATTMODE
 70
     1
  9
$TEXTSIZE
 40
0.2
  9
$TRACEWID
 40
0.05
  9
$TEXTSTYLE
  7
Standard
  9
$CLAYER
  8
0
  9
$CELTYPE
  6
ByLayer
  9
$CECOLOR
 62
   256
  9
$CELTSCALE
 40
1.0
  9
$DISPSILH
 70
     0
  9
$DIMSCALE
 40
1.0
  9
$DIMASZ
 40
0.18
  9
$DIMEXO
 40
0.0625
  9
$DIMDLI
 40
0.38
  9
$DIMRND
 40
0.0
  9
$DIMDLE
 40
0.0
  9
$DIMEXE
 40
0.18
  9
$DIMTP
 40
0.0
  9
$DIMTM
 40
0.0
  9
$DIMTXT
 40
0.18
  9
$DIMCEN
 40
0.09
  9
$DIMTSZ
 40
0.0
  9
$DIMTOL
 70
     0
  9
$DIMLIM
 70
     0
  9
$DIMTIH
 70
     1
  9
$DIMTOH
 70
     1
  9
$DIMSE1
 70
     0
  9
$DIMSE2
 70
     0
  9
$DIMTAD
 70
     0
  9
$DIMZIN
 70
     0
  9
$DIMBLK
  1

  9
$DIMASO
 70
     1
  9
$DIMSHO
 70
     1
  9
$DIMPOST
  1

  9
$DIMAPOST
  1

  9
$DIMALT
 70
     0
  9
$DIMALTD
 70
     2
  9
$DIMALTF
 40
25.4
  9
$DIMLFAC
 40
1.0
  9
$DIMTOFL
 70
     0
  9
$DIMTVP
 40
0.0
  9
$DIMTIX
 70
     0
  9
$DIMSOXD
 70
     0
  9
$DIMSAH
 70
     0
  9
$DIMBLK1
  1

  9
$DIMBLK2
  1

  9
$DIMSTYLE
  2
Standard
  9
$DIMCLRD
 70
     0
  9
$DIMCLRE
 70
     0
  9
$DIMCLRT
 70
     0
  9
$DIMTFAC
 40
1.0
  9
$DIMGAP
 40
0.09
  9
$DIMJUST
 70
     0
  9
$DIMSD1
 70
     0
  9
$DIMSD2
 70
     0
  9
$DIMTOLJ
 70
     1
  9
$DIMTZIN
 70
     0
  9
$DIMALTZ
 70
     0
  9
$DIMALTTZ
 70
     0
  9
$DIMUPT
 70
     0
  9
$DIMDEC
 70
     4
  9
$DIMTDEC
 70
     4
  9
$DIMALTU
 70
     2
  9
$DIMALTTD
 70
     2
  9
$DIMTXSTY
  7
Standard
  9
$DIMAUNIT
 70
     0
  9
$DIMADEC
 70
     0
  9
$DIMALTRND
 40
0.0
  9
$DIMAZIN
 70
     0
  9
$DIMDSEP
 70
    46
  9
$DIMATFIT
 70
     3
  9
$DIMFRAC
 70
     0
  9
$DIMLDRBLK
  1

  9
$DIMLUNIT
 70
     2
  9
$DIMLWD
 70
    -2
  9
$DIMLWE
 70
    -2
  9
$DIMTMOVE
 70
     0
  9
$DIMFXL
 40
1.0
  9
$DIMFXLON
 70
     0
  9
$DIMJOGANG
 40
0.7853981633974483
  9
$DIMTFILL
 70
     0
  9
$DIMTFILLCLR
 70
     0
  9
$DIMARCSYM
 70
     0
  9
$DIMLTYPE
  6

  9
$DIMLTEX1
  6

  9
$DIMLTEX2
  6

  9
$LUNITS
 70
     2
  9
$LUPREC
 70
     4
  9
$SKETCHINC
 40
0.1
  9
$FILLETRAD
 40
0.5
  9
$AUNITS
 70
     0
  9
$AUPREC
 70
     0
  9
$MENU
  1
.
  9
$ELEVATION
 40
0.0
  9
$PELEVATION
 40
0.0
  9
$THICKNESS
 40
0.0
  9
$LIMCHECK
 70
     0
  9
$CHAMFERA
 40
0.5
  9
$CHAMFERB
 40
0.5
  9
$CHAMFERC
 40
1.0
  9
$CHAMFERD
 40
0.0
  9
$SKPOLY
 70
     0
  9
$TDCREATE
 40
2454710.791619248
  9
$TDUCREATE
 40
2454710.749952581
  9
$TDUPDATE
 40
2454710.791619259
  9
$TDUUPDATE
 40
2454710.749952592
  9
$TDINDWG
 40
0.0000000116
  9
$TDUSRTIMER
 40
0.0000000116
  9
$USRTIMER
 70
     1
  9
$ANGBASE
 50
0.0
  9
$ANGDIR
 70
     0
  9
$PDMODE
 70
     0
  9
$PDSIZE
 40
0.0
  9
$PLINEWID
 40
0.0
  9
$SPLFRAME
 70
     0
  9
$SPLINETYPE
 70
     6
  9
$SPLINESEGS
 70
     8
  9
$HANDSEED
  5
A7
  9
$SURFTAB1
 70
     6
  9
$SURFTAB2
 70
     6
  9
$SURFTYPE
 70
     6
  9
$SURFU
 70
     6
  9
$SURFV
 70
     6
  9
$UCSBASE
  2

  9
$UCSNAME
  2

  9
$UCSORG
 10
0.0
 20
0.0
 30
0.0
  9
$UCSXDIR
 10
1.0
 20
0.0
 30
0.0
  9
$UCSYDIR
 10
0.0
 20
1.0
 30
0.0
  9
$UCSORTHOREF
  2

  9
$UCSORTHOVIEW
 70
     0
  9
$UCSORGTOP
 10
0.0
 20
0.0
 30
0.0
  9
$UCSORGBOTTOM
 10
0.0
 20
0.0
 30
0.0
  9
$UCSORGLEFT
 10
0.0
 20
0.0
 30
0.0
  9
$UCSORGRIGHT
 10
0.0
 20
0.0
 30
0.0
  9
$UCSORGFRONT
 10
0.0
 20
0.0
 30
0.0
  9
$UCSORGBACK
 10
0.0
 20
0.0
 30
0.0
  9
$PUCSBASE
  2

  9
$PUCSNAME
  2

  9
$PUCSORG
 10
0.0
 20
0.0
 30
0.0
  9
$PUCSXDIR
 10
1.0
 20
0.0
 30
0.0
  9
$PUCSYDIR
 10
0.0
 20
1.0
 30
0.0
  9
$PUCSORTHOREF
  2

  9
$PUCSORTHOVIEW
 70
     0
  9
$PUCSORGTOP
 10
0.0
 20
0.0
 30
0.0
  9
$PUCSORGBOTTOM
 10
0.0
 20
0.0
 30
0.0
  9
$PUCSORGLEFT
 10
0.0
 20
0.0
 30
0.0
  9
$PUCSORGRIGHT
 10
0.0
 20
0.0
 30
0.0
  9
$PUCSORGFRONT
 10
0.0
 20
0.0
 30
0.0
  9
$PUCSORGBACK
 10
0.0
 20
0.0
 30
0.0
  9
$USERI1
 70
     0
  9
$USERI2
 70
     0
  9
$USERI3
 70
     0
  9
$USERI4
 70
     0
  9
$USERI5
 70
     0
  9
$USERR1
 40
0.0
  9
$USERR2
 40
0.0
  9
$USERR3
 40
0.0
  9
$USERR4
 40
0.0
  9
$USERR5
 40
0.0
  9
$WORLDVIEW
 70
     1
  9
$SHADEDGE
 70
     3
  9
$SHADEDIF
 70
    70
  9
$TILEMODE
 70
     1
  9
$MAXACTVP
 70
    64
  9
$PINSBASE
 10
0.0
 20
0.0
 30
0.0
  9
$PLIMCHECK
 70
     0
  9
$PEXTMIN
 10
1.000000000000000E+20
 20
1.000000000000000E+20
 30
1.000000000000000E+20
  9
$PEXTMAX
 10
-1.000000000000000E+20
 20
-1.000000000000000E+20
 30
-1.000000000000000E+20
  9
$PLIMMIN
 10
0.0
 20
0.0
  9
$PLIMMAX
 10
12.0
 20
9.0
  9
$UNITMODE
 70
     0
  9
$VISRETAIN
 70
     1
  9
$PLINEGEN
 70
     0
  9
$PSLTSCALE
 70
     1
  9
$TREEDEPTH
 70
  3020
  9
$CMLSTYLE
  2
Standard
  9
$CMLJUST
 70
     0
  9
$CMLSCALE
 40
1.0
  9
$PROXYGRAPHICS
 70
     1
  9
$MEASUREMENT
 70
     0
  9
$CELWEIGHT
370
    -1
  9
$ENDCAPS
280
     0
  9
$JOINSTYLE
280
     0
  9
$LWDISPLAY
290
     0
  9
$INSUNITS
 70
     5
  9
$HYPERLINKBASE
  1

  9
$STYLESHEET
  1

  9
$XEDIT
290
     1
  9
$CEPSNTYPE
380
     0
  9
$PSTYLEMODE
290
     1
  9
$FINGERPRINTGUID
  2
{DB065D92-ACCB-4F92-B599-6D61A34995E2}
  9
$VERSIONGUID
  2
{FAEB1C32-E019-11D5-929B-00C0DF256EC4}
  9
$EXTNAMES
290
     1
  9
$PSVPSCALE
 40
0.0
  9
$OLESTARTUP
290
     0
  9
$SORTENTS
280
   127
  9
$INDEXCTL
280
     0
  9
$HIDETEXT
280
     1
  9
$XCLIPFRAME
290
     0
  9
$HALOGAP
280
     0
  9
$OBSCOLOR
 70
   257
  9
$OBSLTYPE
280
     0
  9
$INTERSECTIONDISPLAY
280
     0
  9
$INTERSECTIONCOLOR
 70
   257
  9
$DIMASSOC
280
     2
  9
$PROJECTNAME
  1

  9
$CAMERADISPLAY
290
     0
  9
$LENSLENGTH
 40
50.0
  9
$CAMERAHEIGHT
 40
0.0
  9
$STEPSPERSEC
 40
2.0
  9
$STEPSIZE
 40
6.0
  9
$3DDWFPREC
 40
2.0
  9
$PSOLWIDTH
 40
0.25
  9
$PSOLHEIGHT
 40
4.0
  9
$LOFTANG1
 40
1.570796326794897
  9
$LOFTANG2
 40
1.570796326794897
  9
$LOFTMAG1
 40
0.0
  9
$LOFTMAG2
 40
0.0
  9
$LOFTPARAM
 70
     7
  9
$LOFTNORMALS
280
     1
  9
$LATITUDE
 40
37.795
  9
$LONGITUDE
 40
-122.394
  9
$NORTHDIRECTION
 40
0.0
  9
$TIMEZONE
 70
 -8000
  9
$LIGHTGLYPHDISPLAY
280
     1
  9
$TILEMODELIGHTSYNCH
280
     1
  9
$SOLIDHIST
280
     1
  9
$SHOWHIST
280
     1
  9
$DWFFRAME
280
     2
  9
$DGNFRAME
280
     2
  9
$REALWORLDSCALE
290
     1
  9
$INTERFERECOLOR
 62
   256
  9
$CSHADOW
280
     0
  9
$SHADOWPLANELOCATION
 40
0.0
  0
ENDSEC
  0
SECTION
  2
CLASSES
  0
CLASS
  1
ACDBDICTIONARYWDFLT
  2
AcDbDictionaryWithDefault
  3
ObjectDBX Classes
 90
        0
 91
        3
280
     0
281
     0
  0
CLASS
  1
VISUALSTYLE
  2
AcDbVisualStyle
  3
ObjectDBX Classes
 90
     4095
 91
        3
280
     0
281
     0
  0
CLASS
  1
SCALE
  2
AcDbScale
  3
ObjectDBX Classes
 90
     1153
 91
        3
280
     0
281
     0
  0
ENDSEC
  0
SECTION
  2
TABLES
  0
TABLE
  2
VPORT
  5
8
330
0
100
AcDbSymbolTable
 70
     1
  0
VPORT
  5
29
330
8
100
AcDbSymbolTableRecord
100
AcDbViewportTableRecord
  2
*Active
 70
     0
 10
0.0
 20
0.0
 11
1.0
 21
1.0
 12
10.42990654205607
 22
4.5
 13
0.0
 23
0.0
 14
0.5
 24
0.5
 15
0.5
 25
0.5
 16
0.0
 26
0.0
 36
1.0
 17
0.0
 27
0.0
 37
0.0
 40
9.0
 41
1.972972972850329
 42
50.0
 43
0.0
 44
0.0
 50
0.0
 51
0.0
 71
     0
 72
   100
 73
     1
 74
     3
 75
     0
 76
     0
 77
     0
 78
     0
281
     0
 65
     1
110
0.0
120
0.0
130
0.0
111
1.0
121
0.0
131
0.0
112
0.0
122
1.0
132
0.0
 79
     0
146
0.0
 60
     3
 61
     5
292
     1
282
     1
141
0.0
142
0.0
 63
   256
  0
ENDTAB
  0
TABLE
  2
LTYPE
  5
5
330
0
100
AcDbSymbolTable
 70
     1
  0
LTYPE
  5
14
330
5
100
AcDbSymbolTableRecord
100
AcDbLinetypeTableRecord
  2
ByBlock
 70
     0
  3

 72
    65
 73
     0
 40
0.0
  0
LTYPE
  5
15
330
5
100
AcDbSymbolTableRecord
100
AcDbLinetypeTableRecord
  2
ByLayer
 70
     0
  3

 72
    65
 73
     0
 40
0.0
  0
LTYPE
  5
16
330
5
100
AcDbSymbolTableRecord
100
AcDbLinetypeTableRecord
  2
Continuous
 70
     0
  3
Solid line
 72
    65
 73
     0
 40
0.0
  0
ENDTAB
  0
TABLE
  2
LAYER
  5
2
330
0
100
AcDbSymbolTable
 70
     2
  0
LAYER
  5
10
330
2
100
AcDbSymbolTableRecord
100
AcDbLayerTableRecord
  2
0
 70
     0
 62
     7
  6
Continuous
370
    -3
390
F
347
0
  0
LAYER
  5
5E
330
2
100
AcDbSymbolTableRecord
100
AcDbLayerTableRecord
  2
Layer 1
 70
     0
 62
     7
  6
Continuous
370
    -3
390
F
347
0
  0
ENDTAB
  0
TABLE
  2
STYLE
  5
3
330
0
100
AcDbSymbolTable
 70
     1
  0
STYLE
  5
11
330
3
100
AcDbSymbolTableRecord
100
AcDbTextStyleTableRecord
  2
Standard
 70
     0
 40
0.0
 41
1.0
 50
0.0
 71
     0
 42
0.2
  3
txt
  4

  0
ENDTAB
  0
TABLE
  2
VIEW
  5
6
330
0
100
AcDbSymbolTable
 70
     0
  0
ENDTAB
  0
TABLE
  2
UCS
  5
7
330
0
100
AcDbSymbolTable
 70
     0
  0
ENDTAB
  0
TABLE
  2
APPID
  5
9
330
0
100
AcDbSymbolTable
 70
     2
  0
APPID
  5
12
330
9
100
AcDbSymbolTableRecord
100
AcDbRegAppTableRecord
  2
ACAD
 70
     0
  0
APPID
  5
5D
330
9
100
AcDbSymbolTableRecord
100
AcDbRegAppTableRecord
  2
ODA
 70
     0
  0
ENDTAB
  0
TABLE
  2
DIMSTYLE
  5
A
330
0
100
AcDbSymbolTable
 70
     1
100
AcDbDimStyleTable
  0
DIMSTYLE
105
27
330
A
100
AcDbSymbolTableRecord
100
AcDbDimStyleTableRecord
  2
Standard
 70
     0
340
11
  0
ENDTAB
  0
TABLE
  2
BLOCK_RECORD
  5
1
330
0
100
AcDbSymbolTable
 70
     1
  0
BLOCK_RECORD
  5
1F
330
1
100
AcDbSymbolTableRecord
100
AcDbBlockTableRecord
  2
*Model_Space
340
22
 70
     0
280
     1
281
     0
  0
BLOCK_RECORD
  5
1B
330
1
100
AcDbSymbolTableRecord
100
AcDbBlockTableRecord
  2
*Paper_Space
340
1E
 70
     0
280
     1
281
     0
  0
BLOCK_RECORD
  5
23
330
1
100
AcDbSymbolTableRecord
100
AcDbBlockTableRecord
  2
*Paper_Space0
340
26
 70
     0
280
     1
281
     0
  0
ENDTAB
  0
ENDSEC
  0
SECTION
  2
BLOCKS
  0
BLOCK
  5
20
330
1F
100
AcDbEntity
  8
0
100
AcDbBlockBegin
  2
*Model_Space
 70
     0
 10
0.0
 20
0.0
 30
0.0
  3
*Model_Space
  1

  0
ENDBLK
  5
21
330
1F
100
AcDbEntity
  8
0
100
AcDbBlockEnd
  0
BLOCK
  5
1C
330
1B
100
AcDbEntity
 67
     1
  8
0
100
AcDbBlockBegin
  2
*Paper_Space
 70
     0
 10
0.0
 20
0.0
 30
0.0
  3
*Paper_Space
  1

  0
ENDBLK
  5
1D
330
1B
100
AcDbEntity
 67
     1
  8
0
100
AcDbBlockEnd
  0
BLOCK
  5
24
330
23
100
AcDbEntity
  8
0
100
AcDbBlockBegin
  2
*Paper_Space0
 70
     0
 10
0.0
 20
0.0
 30
0.0
  3
*Paper_Space0
  1

  0
ENDBLK
  5
25
330
23
100
AcDbEntity
  8
0
100
AcDbBlockEnd
  0
ENDSEC
  0
SECTION
  2
ENTITIES
  0
SPLINE
  5
5F
330
1F
100
AcDbEntity
  8
Layer 1
 62
    22
370
     0
100
AcDbSpline
210
0.0
220
0.0
230
1.0
 70
    11
 71
     3
 72
    40
 73
    36
 74
     0
 42
0.0000000001
 43
0.0000000001
 40
0.0
 40
0.0
 40
0.0
 40
0.0
 40
0.1111111111111111
 40
0.1111111111111111
 40
0.1111111111111111
 40
0.1111111111111111
 40
0.2222222222222222
 40
0.2222222222222222
 40
0.2222222222222222
 40
0.2222222222222222
 40
0.3333333333333333
 40
0.3333333333333333
 40
0.3333333333333333
 40
0.3333333333333333
 40
0.4444444444444444
 40
0.4444444444444444
 40
0.4444444444444444
 40
0.4444444444444444
 40
0.5555555555555556
 40
0.5555555555555556
 40
0.5555555555555556
 40
0.5555555555555556
 40
0.6666666666666667
 40
0.6666666666666667
 40
0.6666666666666667
 40
0.6666666666666667
 40
0.7777777777777779
 40
0.7777777777777779
 40
0.7777777777777779
 40
0.7777777777777779
 40
0.8888888888888891
 40
0.8888888888888891
 40
0.8888888888888891
 40
0.8888888888888891
 40
1.0
 40
1.0
 40
1.0
 40
1.0
 10
1.77662
 20
-1.25274
 30
0.0
 10
1.6309
 20
-2.24727
 30
0.0
 10
1.15636
 20
-3.13869
 30
0.0
 10
0.46687
 20
-3.81005
 30
0.0
 10
0.46687
 20
-3.81005
 30
0.0
 10
0.04353
 20
-3.5735
 30
0.0
 10
-0.60404
 20
-3.18232
 30
0.0
 10
-0.8064
 20
-2.78454
 30
0.0
 10
-0.8064
 20
-2.78454
 30
0.0
 10
-0.57629
 20
-2.78904
 30
0.0
 10
-0.39984
 20
-2.8158
 30
0.0
 10
-0.26229
 20
-2.59067
 30
0.0
 10
-0.26229
 20
-2.59067
 30
0.0
 10
-0.10013
 20
-2.62481
 30
0.0
 10
-0.10013
 20
-2.62481
 30
0.0
 10
-0.09281
 20
-2.63554
 30
0.0
 10
-0.09281
 20
-2.63554
 30
0.0
 10
0.16216
 20
-2.61451
 30
0.0
 10
0.2508
 20
-2.50892
 30
0.0
 10
0.36679
 20
-2.28404
 30
0.0
 10
0.36679
 20
-2.28404
 30
0.0
 10
0.62197
 20
-2.28104
 30
0.0
 10
0.77953
 20
-2.22871
 30
0.0
 10
0.94944
 20
-2.0032
 30
0.0
 10
0.94944
 20
-2.0032
 30
0.0
 10
0.97376
 20
-1.93081
 30
0.0
 10
0.98365
 20
-1.85499
 30
0.0
 10
0.99786
 20
-1.8404
 30
0.0
 10
0.99786
 20
-1.8404
 30
0.0
 10
1.34239
 20
-1.79308
 30
0.0
 10
1.43474
 20
-1.69826
 30
0.0
 10
1.51716
 20
-1.36923
 30
0.0
 10
1.51716
 20
-1.36923
 30
0.0
 10
1.57099
 20
-1.36139
 30
0.0
 10
1.73772
 20
-1.3213
 30
0.0
 10
1.77662
 20
-1.25274
 30
0.0
  0
SPLINE
  5
60
330
1F
100
AcDbEntity
  8
Layer 1
 62
    22
370
     0
100
AcDbSpline
210
0.0
220
0.0
230
1.0
 70
    11
 71
     3
 72
    40
 73
    36
 74
     0
 42
0.0000000001
 43
0.0000000001
 40
0.0
 40
0.0
 40
0.0
 40
0.0
 40
0.1111111111111111
 40
0.1111111111111111
 40
0.1111111111111111
 40
0.1111111111111111
 40
0.2222222222222222
 40
0.2222222222222222
 40
0.2222222222222222
 40
0.2222222222222222
 40
0.3333333333333333
 40
0.3333333333333333
 40
0.3333333333333333
 40
0.3333333333333333
 40
0.4444444444444444
 40
0.4444444444444444
 40
0.4444444444444444
 40
0.4444444444444444
 40
0.5555555555555556
 40
0.5555555555555556
 40
0.5555555555555556
 40
0.5555555555555556
 40
0.6666666666666667
 40
0.6666666666666667
 40
0.6666666666666667
 40
0.6666666666666667
 40
0.7777777777777779
 40
0.7777777777777779
 40
0.7777777777777779
 40
0.7777777777777779
 40
0.8888888888888891
 40
0.8888888888888891
 40
0.8888888888888891
 40
0.8888888888888891
 40
1.0
 40
1.0
 40
1.0
 40
1.0
 10
-3.33527
 20
-5.02066
 30
0.0
 10
-3.62723
 20
-4.978
 30
0.0
 10
-3.85589
 20
-4.91521
 30
0.0
 10
-4.12711
 20
-4.81831
 30
0.0
 10
-4.12711
 20
-4.81831
 30
0.0
 10
-4.22576
 20
-4.68248
 30
0.0
 10
-4.17975
 20
-4.49701
 30
0.0
 10
-4.13073
 20
-4.38468
 30
0.0
 10
-4.13073
 20
-4.38468
 30
0.0
 10
-3.88662
 20
-4.35657
 30
0.0
 10
-3.51058
 20
-3.93035
 30
0.0
 10
-3.30769
 20
-3.75852
 30
0.0
 10
-3.30769
 20
-3.75852
 30
0.0
 10
-3.28253
 20
-3.75822
 30
0.0
 10
-3.17978
 20
-3.63084
 30
0.0
 10
-3.15483
 20
-3.61252
 30
0.0
 10
-3.15483
 20
-3.61252
 30
0.0
 10
-3.06138
 20
-3.61142
 30
0.0
 10
-2.9289
 20
-3.5666
 30
0.0
 10
-2.83465
 20
-3.63398
 30
0.0
 10
-2.83465
 20
-3.63398
 30
0.0
 10
-2.73005
 20
-3.97163
 30
0.0
 10
-2.62836
 20
-4.36699
 30
0.0
 10
-2.60625
 20
-4.4136
 30
0.0
 10
-2.60625
 20
-4.4136
 30
0.0
 10
-2.58815
 20
-4.4242
 30
0.0
 10
-2.57005
 20
-4.4348
 30
0.0
 10
-2.54832
 20
-4.44896
 30
0.0
 10
-2.54832
 20
-4.44896
 30
0.0
 10
-2.61421
 20
-4.65523
 30
0.0
 10
-2.96652
 20
-4.65217
 30
0.0
 10
-3.13515
 20
-4.67939
 30
0.0
 10
-3.13515
 20
-4.67939
 30
0.0
 10
-3.28559
 20
-4.72442
 30
0.0
 10
-3.32627
 20
-4.86915
 30
0.0
 10
-3.33527
 20
-5.02066
 30
0.0
  0
SPLINE
  5
61
330
1F
100
AcDbEntity
  8
Layer 1
 62
    22
370
     0
100
AcDbSpline
210
0.0
220
0.0
230
1.0
 70
    11
 71
     3
 72
   324
 73
   320
 74
     0
 42
0.0000000001
 43
0.0000000001
 40
0.0
 40
0.0
 40
0.0
 40
0.0
 40
0.0125
 40
0.0125
 40
0.0125
 40
0.0125
 40
0.025
 40
0.025
 40
0.025
 40
0.025
 40
0.0375
 40
0.0375
 40
0.0375
 40
0.0375
 40
0.05
 40
0.05
 40
0.05
 40
0.05
 40
0.0625
 40
0.0625
 40
0.0625
 40
0.0625
 40
0.075
 40
0.075
 40
0.075
 40
0.075
 40
0.0875
 40
0.0875
 40
0.0875
 40
0.0875
 40
0.1
 40
0.1
 40
0.1
 40
0.1
 40
0.1125
 40
0.1125
 40
0.1125
 40
0.1125
 40
0.125
 40
0.125
 40
0.125
 40
0.125
 40
0.1375
 40
0.1375
 40
0.1375
 40
0.1375
 40
0.15
 40
0.15
 40
0.15
 40
0.15
 40
0.1625
 40
0.1625
 40
0.1625
 40
0.1625
 40
0.175
 40
0.175
 40
0.175
 40
0.175
 40
0.1875
 40
0.1875
 40
0.1875
 40
0.1875
 40
0.2
 40
0.2
 40
0.2
 40
0.2
 40
0.2125
 40
0.2125
 40
0.2125
 40
0.2125
 40
0.2250000000000001
 40
0.2250000000000001
 40
0.2250000000000001
 40
0.2250000000000001
 40
0.2375000000000001
 40
0.2375000000000001
 40
0.2375000000000001
 40
0.2375000000000001
 40
0.2500000000000001
 40
0.2500000000000001
 40
0.2500000000000001
 40
0.2500000000000001
 40
0.2625000000000001
 40
0.2625000000000001
 40
0.2625000000000001
 40
0.2625000000000001
 40
0.2750000000000001
 40
0.2750000000000001
 40
0.2750000000000001
 40
0.2750000000000001
 40
0.2875000000000001
 40
0.2875000000000001
 40
0.2875000000000001
 40
0.2875000000000001
 40
0.3000000000000001
 40
0.3000000000000001
 40
0.3000000000000001
 40
0.3000000000000001
 40
0.3125000000000001
 40
0.3125000000000001
 40
0.3125000000000001
 40
0.3125000000000001
 40
0.3250000000000001
 40
0.3250000000000001
 40
0.3250000000000001
 40
0.3250000000000001
 40
0.3375000000000001
 40
0.3375000000000001
 40
0.3375000000000001
 40
0.3375000000000001
 40
0.3500000000000001
 40
0.3500000000000001
 40
0.3500000000000001
 40
0.3500000000000001
 40
0.3625000000000002
 40
0.3625000000000002
 40
0.3625000000000002
 40
0.3625000000000002
 40
0.3750000000000002
 40
0.3750000000000002
 40
0.3750000000000002
 40
0.3750000000000002
 40
0.3875000000000002
 40
0.3875000000000002
 40
0.3875000000000002
 40
0.3875000000000002
 40
0.4000000000000002
 40
0.4000000000000002
 40
0.4000000000000002
 40
0.4000000000000002
 40
0.4125000000000002
 40
0.4125000000000002
 40
0.4125000000000002
 40
0.4125000000000002
 40
0.4250000000000002
 40
0.4250000000000002
 40
0.4250000000000002
 40
0.4250000000000002
 40
0.4375000000000002
 40
0.4375000000000002
 40
0.4375000000000002
 40
0.4375000000000002
 40
0.4500000000000002
 40
0.4500000000000002
 40
0.4500000000000002
 40
0.4500000000000002
 40
0.4625000000000002
 40
0.4625000000000002
 40
0.4625000000000002
 40
0.4625000000000002
 40
0.4750000000000003
 40
0.4750000000000003
 40
0.4750000000000003
 40
0.4750000000000003
 40
0.4875000000000003
 40
0.4875000000000003
 40
0.4875000000000003
 40
0.4875000000000003
 40
0.5000000000000002
 40
0.5000000000000002
 40
0.5000000000000002
 40
0.5000000000000002
 40
0.5125000000000002
 40
0.5125000000000002
 40
0.5125000000000002
 40
0.5125000000000002
 40
0.5250000000000001
 40
0.5250000000000001
 40
0.5250000000000001
 40
0.5250000000000001
 40
0.5375000000000001
 40
0.5375000000000001
 40
0.5375000000000001
 40
0.5375000000000001
 40
0.55
 40
0.55
 40
0.55
 40
0.55
 40
0.5625
 40
0.5625
 40
0.5625
 40
0.5625
 40
0.575
 40
0.575
 40
0.575
 40
0.575
 40
0.5874999999999999
 40
0.5874999999999999
 40
0.5874999999999999
 40
0.5874999999999999
 40
0.5999999999999999
 40
0.5999999999999999
 40
0.5999999999999999
 40
0.5999999999999999
 40
0.6124999999999998
 40
0.6124999999999998
 40
0.6124999999999998
 40
0.6124999999999998
 40
0.6249999999999998
 40
0.6249999999999998
 40
0.6249999999999998
 40
0.6249999999999998
 40
0.6374999999999997
 40
0.6374999999999997
 40
0.6374999999999997
 40
0.6374999999999997
 40
0.6499999999999997
 40
0.6499999999999997
 40
0.6499999999999997
 40
0.6499999999999997
 40
0.6624999999999996
 40
0.6624999999999996
 40
0.6624999999999996
 40
0.6624999999999996
 40
0.6749999999999996
 40
0.6749999999999996
 40
0.6749999999999996
 40
0.6749999999999996
 40
0.6874999999999996
 40
0.6874999999999996
 40
0.6874999999999996
 40
0.6874999999999996
 40
0.6999999999999995
 40
0.6999999999999995
 40
0.6999999999999995
 40
0.6999999999999995
 40
0.7124999999999995
 40
0.7124999999999995
 40
0.7124999999999995
 40
0.7124999999999995
 40
0.7249999999999994
 40
0.7249999999999994
 40
0.7249999999999994
 40
0.7249999999999994
 40
0.7374999999999994
 40
0.7374999999999994
 40
0.7374999999999994
 40
0.7374999999999994
 40
0.7499999999999993
 40
0.7499999999999993
 40
0.7499999999999993
 40
0.7499999999999993
 40
0.7624999999999993
 40
0.7624999999999993
 40
0.7624999999999993
 40
0.7624999999999993
 40
0.7749999999999992
 40
0.7749999999999992
 40
0.7749999999999992
 40
0.7749999999999992
 40
0.7874999999999992
 40
0.7874999999999992
 40
0.7874999999999992
 40
0.7874999999999992
 40
0.7999999999999992
 40
0.7999999999999992
 40
0.7999999999999992
 40
0.7999999999999992
 40
0.8124999999999991
 40
0.8124999999999991
 40
0.8124999999999991
 40
0.8124999999999991
 40
0.8249999999999991
 40
0.8249999999999991
 40
0.8249999999999991
 40
0.8249999999999991
 40
0.837499999999999
 40
0.837499999999999
 40
0.837499999999999
 40
0.837499999999999
 40
0.849999999999999
 40
0.849999999999999
 40
0.849999999999999
 40
0.849999999999999
 40
0.8624999999999989
 40
0.8624999999999989
 40
0.8624999999999989
 40
0.8624999999999989
 40
0.8749999999999989
 40
0.8749999999999989
 40
0.8749999999999989
 40
0.8749999999999989
 40
0.8874999999999988
 40
0.8874999999999988
 40
0.8874999999999988
 40
0.8874999999999988
 40
0.8999999999999988
 40
0.8999999999999988
 40
0.8999999999999988
 40
0.8999999999999988
 40
0.9124999999999988
 40
0.9124999999999988
 40
0.9124999999999988
 40
0.9124999999999988
 40
0.9249999999999987
 40
0.9249999999999987
 40
0.9249999999999987
 40
0.9249999999999987
 40
0.9374999999999987
 40
0.9374999999999987
 40
0.9374999999999987
 40
0.9374999999999987
 40
0.9499999999999986
 40
0.9499999999999986
 40
0.9499999999999986
 40
0.9499999999999986
 40
0.9624999999999986
 40
0.9624999999999986
 40
0.9624999999999986
 40
0.9624999999999986
 40
0.9749999999999985
 40
0.9749999999999985
 40
0.9749999999999985
 40
0.9749999999999985
 40
0.9874999999999985
 40
0.9874999999999985
 40
0.9874999999999985
 40
0.9874999999999985
 40
1.0
 40
1.0
 40
1.0
 40
1.0
 10
-5.00205
 20
-4.77485
 30
0.0
 10
-5.02258
 20
-4.78025
 30
0.0
 10
-5.04041
 20
-4.78925
 30
0.0
 10
-5.05686
 20
-4.80296
 30
0.0
 10
-5.05686
 20
-4.80296
 30
0.0
 10
-5.05597
 20
-4.87865
 30
0.0
 10
-5.00172
 20
-4.90685
 30
0.0
 10
-4.98265
 20
-5.00036
 30
0.0
 10
-4.98265
 20
-5.00036
 30
0.0
 10
-5.16955
 20
-5.00256
 30
0.0
 10
-5.25657
 20
-4.9387
 30
0.0
 10
-5.30481
 20
-4.80948
 30
0.0
 10
-5.30481
 20
-4.80948
 30
0.0
 10
-5.44579
 20
-4.74264
 30
0.0
 10
-5.47405
 20
-4.59436
 30
0.0
 10
-5.42118
 20
-4.50361
 30
0.0
 10
-5.42118
 20
-4.50361
 30
0.0
 10
-6.6173
 20
-3.64231
 30
0.0
 10
-7.4057
 20
-2.24225
 30
0.0
 10
-7.42424
 20
-0.65809
 30
0.0
 10
-7.42424
 20
-0.65809
 30
0.0
 10
-7.4392
 20
0.62013
 30
0.0
 10
-6.95034
 20
1.79034
 30
0.0
 10
-6.14166
 20
2.6597
 30
0.0
 10
-6.14166
 20
2.6597
 30
0.0
 10
-6.22345
 20
2.73234
 30
0.0
 10
-6.30702
 20
2.80706
 30
0.0
 10
-6.39053
 20
2.87818
 30
0.0
 10
-6.39053
 20
2.87818
 30
0.0
 10
-6.43818
 20
2.95693
 30
0.0
 10
-6.48221
 20
3.03212
 30
0.0
 10
-6.52622
 20
3.10731
 30
0.0
 10
-6.52622
 20
3.10731
 30
0.0
 10
-6.6567
 20
3.50594
 30
0.0
 10
-6.73702
 20
3.91957
 30
0.0
 10
-6.82785
 20
4.30785
 30
0.0
 10
-6.82785
 20
4.30785
 30
0.0
 10
-6.95891
 20
4.75695
 30
0.0
 10
-7.11139
 20
5.19136
 30
0.0
 10
-7.27784
 20
5.59317
 30
0.0
 10
-7.27784
 20
5.59317
 30
0.0
 10
-7.34368
 20
5.68974
 30
0.0
 10
-7.40224
 20
5.77917
 30
0.0
 10
-7.36003
 20
5.85898
 30
0.0
 10
-7.36003
 20
5.85898
 30
0.0
 10
-7.33128
 20
5.85932
 30
0.0
 10
-7.29894
 20
5.8597
 30
0.0
 10
-7.2666
 20
5.86008
 30
0.0
 10
-7.2666
 20
5.86008
 30
0.0
 10
-6.93204
 20
5.53235
 30
0.0
 10
-6.69682
 20
5.0917
 30
0.0
 10
-6.47576
 20
4.63285
 30
0.0
 10
-6.47576
 20
4.63285
 30
0.0
 10
-6.41432
 20
5.2176
 30
0.0
 10
-6.33934
 20
5.56817
 30
0.0
 10
-6.14562
 20
4.68
 30
0.0
 10
-6.14562
 20
4.68
 30
0.0
 10
-6.12794
 20
4.70544
 30
0.0
 10
-6.12794
 20
4.70544
 30
0.0
 10
-6.05952
 20
5.00186
 30
0.0
 10
-6.05952
 20
5.00186
 30
0.0
 10
-5.85626
 20
5.14125
 30
0.0
 10
-5.86282
 20
4.47423
 30
0.0
 10
-5.78155
 20
4.28773
 30
0.0
 10
-5.78155
 20
4.28773
 30
0.0
 10
-5.75034
 20
4.38543
 30
0.0
 10
-5.73318
 20
4.45413
 30
0.0
 10
-5.66925
 20
4.51977
 30
0.0
 10
-5.66925
 20
4.51977
 30
0.0
 10
-5.64403
 20
4.51647
 30
0.0
 10
-5.61524
 20
4.5132
 30
0.0
 10
-5.58645
 20
4.50993
 30
0.0
 10
-5.58645
 20
4.50993
 30
0.0
 10
-5.55287
 20
4.40578
 30
0.0
 10
-5.46866
 20
3.96695
 30
0.0
 10
-5.43606
 20
3.94571
 30
0.0
 10
-5.43606
 20
3.94571
 30
0.0
 10
-5.41842
 20
3.97476
 30
0.0
 10
-5.39714
 20
4.00024
 30
0.0
 10
-5.3759
 20
4.02573
 30
0.0
 10
-5.3759
 20
4.02573
 30
0.0
 10
-5.35436
 20
4.02959
 30
0.0
 10
-5.32919
 20
4.02988
 30
0.0
 10
-5.30404
 20
4.03018
 30
0.0
 10
-5.30404
 20
4.03018
 30
0.0
 10
-5.22042
 20
3.94825
 30
0.0
 10
-5.22109
 20
3.69949
 30
0.0
 10
-5.2087
 20
3.56264
 30
0.0
 10
-5.2087
 20
3.56264
 30
0.0
 10
-5.20666
 20
3.5816
 30
0.0
 10
-4.89741
 20
4.00882
 30
0.0
 10
-4.96518
 20
3.59145
 30
0.0
 10
-4.96518
 20
3.59145
 30
0.0
 10
-4.29132
 20
3.96972
 30
0.0
 10
-3.51733
 20
4.18947
 30
0.0
 10
-2.69339
 20
4.19917
 30
0.0
 10
-2.69339
 20
4.19917
 30
0.0
 10
-1.43689
 20
4.21396
 30
0.0
 10
-0.28506
 20
3.73765
 30
0.0
 10
0.57983
 20
2.94878
 30
0.0
 10
0.57983
 20
2.94878
 30
0.0
 10
0.79389
 20
3.08829
 30
0.0
 10
0.9781
 20
3.2245
 30
0.0
 10
1.22493
 20
3.32835
 30
0.0
 10
1.22493
 20
3.32835
 30
0.0
 10
2.36146
 20
3.58327
 30
0.0
 10
3.48348
 20
3.84884
 30
0.0
 10
4.61904
 20
4.18666
 30
0.0
 10
4.61904
 20
4.18666
 30
0.0
 10
5.4211
 20
4.45567
 30
0.0
 10
6.23369
 20
4.74644
 30
0.0
 10
7.05381
 20
5.00845
 30
0.0
 10
7.05381
 20
5.00845
 30
0.0
 10
7.13639
 20
5.01663
 30
0.0
 10
7.36211
 20
5.08057
 30
0.0
 10
7.4673
 20
4.99889
 30
0.0
 10
7.4673
 20
4.99889
 30
0.0
 10
7.46966
 20
4.79704
 30
0.0
 10
7.06973
 20
4.56881
 30
0.0
 10
6.92385
 20
4.44092
 30
0.0
 10
6.92385
 20
4.44092
 30
0.0
 10
6.50286
 20
4.16919
 30
0.0
 10
6.10974
 20
3.97349
 30
0.0
 10
5.66282
 20
3.76634
 30
0.0
 10
5.66282
 20
3.76634
 30
0.0
 10
6.12863
 20
3.8944
 30
0.0
 10
6.63242
 20
4.15629
 30
0.0
 10
7.13225
 20
4.14055
 30
0.0
 10
7.13225
 20
4.14055
 30
0.0
 10
7.2895
 20
3.91167
 30
0.0
 10
6.25041
 20
3.31902
 30
0.0
 10
6.08968
 20
3.23061
 30
0.0
 10
6.08968
 20
3.23061
 30
0.0
 10
5.8108
 20
3.10115
 30
0.0
 10
5.52145
 20
2.94633
 30
0.0
 10
5.23142
 20
2.84918
 30
0.0
 10
5.23142
 20
2.84918
 30
0.0
 10
5.66631
 20
2.8543
 30
0.0
 10
6.12379
 20
3.0796
 30
0.0
 10
6.6052
 20
3.10329
 30
0.0
 10
6.6052
 20
3.10329
 30
0.0
 10
6.68245
 20
2.95279
 30
0.0
 10
6.47885
 20
2.84224
 30
0.0
 10
6.37212
 20
2.74725
 30
0.0
 10
6.37212
 20
2.74725
 30
0.0
 10
6.06902
 20
2.53819
 30
0.0
 10
5.73649
 20
2.38647
 30
0.0
 10
5.4183
 20
2.23852
 30
0.0
 10
5.4183
 20
2.23852
 30
0.0
 10
4.77721
 20
2.0363
 30
0.0
 10
4.77721
 20
2.0363
 30
0.0
 10
4.77374
 20
2.02544
 30
0.0
 10
4.77374
 20
2.02544
 30
0.0
 10
5.1763
 20
2.03018
 30
0.0
 10
5.58439
 20
2.17558
 30
0.0
 10
6.00529
 20
2.14809
 30
0.0
 10
6.00529
 20
2.14809
 30
0.0
 10
6.03075
 20
2.12316
 30
0.0
 10
6.02733
 20
2.10869
 30
0.0
 10
6.02773
 20
2.07265
 30
0.0
 10
6.02773
 20
2.07265
 30
0.0
 10
5.66509
 20
1.7295
 30
0.0
 10
5.09604
 20
1.51731
 30
0.0
 10
4.62997
 20
1.41088
 30
0.0
 10
4.62997
 20
1.41088
 30
0.0
 10
4.61922
 20
1.40715
 30
0.0
 10
4.60853
 20
1.39982
 30
0.0
 10
4.59783
 20
1.39248
 30
0.0
 10
4.59783
 20
1.39248
 30
0.0
 10
4.76147
 20
1.23218
 30
0.0
 10
5.33245
 20
1.58859
 30
0.0
 10
5.29759
 20
1.18802
 30
0.0
 10
5.29759
 20
1.18802
 30
0.0
 10
4.99888
 20
0.91052
 30
0.0
 10
4.39949
 20
0.83136
 30
0.0
 10
4.04456
 20
0.75147
 30
0.0
 10
4.04456
 20
0.75147
 30
0.0
 10
4.12435
 20
0.69112
 30
0.0
 10
4.37812
 20
0.81669
 30
0.0
 10
4.5592
 20
0.69985
 30
0.0
 10
4.5592
 20
0.69985
 30
0.0
 10
4.56241
 20
0.4259
 30
0.0
 10
4.03148
 20
0.33313
 30
0.0
 10
3.84514
 20
0.28407
 30
0.0
 10
3.84514
 20
0.28407
 30
0.0
 10
3.89566
 20
0.26664
 30
0.0
 10
3.94983
 20
0.24565
 30
0.0
 10
4.004
 20
0.22465
 30
0.0
 10
4.004
 20
0.22465
 30
0.0
 10
4.06107
 20
-0.04506
 30
0.0
 10
3.25094
 20
-0.23845
 30
0.0
 10
3.11842
 20
-0.27967
 30
0.0
 10
3.11842
 20
-0.27967
 30
0.0
 10
2.8527
 20
-0.30443
 30
0.0
 10
2.58699
 20
-0.32919
 30
0.0
 10
2.32127
 20
-0.35395
 30
0.0
 10
2.32127
 20
-0.35395
 30
0.0
 10
2.30878
 20
-0.51632
 30
0.0
 10
2.24021
 20
-0.58162
 30
0.0
 10
2.14849
 20
-0.73051
 30
0.0
 10
2.14849
 20
-0.73051
 30
0.0
 10
2.11574
 20
-1.97059
 30
0.0
 10
1.60919
 20
-3.0984
 30
0.0
 10
0.8029
 20
-3.93519
 30
0.0
 10
0.8029
 20
-3.93519
 30
0.0
 10
1.17031
 20
-3.99936
 30
0.0
 10
1.41401
 20
-3.91923
 30
0.0
 10
1.37302
 20
-4.41001
 30
0.0
 10
1.37302
 20
-4.41001
 30
0.0
 10
1.25657
 20
-4.59524
 30
0.0
 10
1.1747
 20
-4.6647
 30
0.0
 10
0.96675
 20
-4.71041
 30
0.0
 10
0.96675
 20
-4.71041
 30
0.0
 10
0.9508
 20
-4.88364
 30
0.0
 10
0.94509
 20
-5.00988
 30
0.0
 10
0.75921
 20
-5.09859
 30
0.0
 10
0.75921
 20
-5.09859
 30
0.0
 10
0.68736
 20
-5.10304
 30
0.0
 10
0.61552
 20
-5.10749
 30
0.0
 10
0.54732
 20
-5.11551
 30
0.0
 10
0.54732
 20
-5.11551
 30
0.0
 10
0.54858
 20
-5.22365
 30
0.0
 10
0.55348
 20
-5.33535
 30
0.0
 10
0.46127
 20
-5.44098
 30
0.0
 10
0.46127
 20
-5.44098
 30
0.0
 10
0.32188
 20
-5.51112
 30
0.0
 10
0.18438
 20
-5.43342
 30
0.0
 10
0.08037
 20
-5.45267
 30
0.0
 10
0.08037
 20
-5.45267
 30
0.0
 10
0.0267
 20
-5.78137
 30
0.0
 10
-0.28249
 20
-5.7778
 30
0.0
 10
-0.52478
 20
-5.65447
 30
0.0
 10
-0.52478
 20
-5.65447
 30
0.0
 10
-0.58909
 20
-5.68767
 30
0.0
 10
-0.62073
 20
-5.74933
 30
0.0
 10
-0.66323
 20
-5.80391
 30
0.0
 10
-0.66323
 20
-5.80391
 30
0.0
 10
-0.72411
 20
-5.82265
 30
0.0
 10
-0.785
 20
-5.84139
 30
0.0
 10
-0.84229
 20
-5.86009
 30
0.0
 10
-0.84229
 20
-5.86009
 30
0.0
 10
-0.9795
 20
-5.80763
 30
0.0
 10
-1.1179
 20
-5.65424
 30
0.0
 10
-1.19339
 20
-5.65513
 30
0.0
 10
-1.19339
 20
-5.65513
 30
0.0
 10
-1.59497
 20
-6.04921
 30
0.0
 10
-1.58469
 20
-5.54761
 30
0.0
 10
-1.61286
 20
-5.29199
 30
0.0
 10
-1.61286
 20
-5.29199
 30
0.0
 10
-1.66168
 20
-5.30271
 30
0.0
 10
-1.71078
 20
-5.3127
 30
0.0
 10
-1.76014
 20
-5.32192
 30
0.0
 10
-1.76014
 20
-5.32192
 30
0.0
 10
-1.73035
 20
-5.51263
 30
0.0
 10
-1.74902
 20
-5.73016
 30
0.0
 10
-1.99725
 20
-5.76914
 30
0.0
 10
-1.99725
 20
-5.76914
 30
0.0
 10
-2.14492
 20
-5.74565
 30
0.0
 10
-2.21304
 20
-5.76087
 30
0.0
 10
-2.30289
 20
-5.76193
 30
0.0
 10
-2.30289
 20
-5.76193
 30
0.0
 10
-2.30669
 20
-5.74395
 30
0.0
 10
-2.31045
 20
-5.72957
 30
0.0
 10
-2.31421
 20
-5.7152
 30
0.0
 10
-2.31421
 20
-5.7152
 30
0.0
 10
-2.21515
 20
-5.58064
 30
0.0
 10
-2.26553
 20
-5.52927
 30
0.0
 10
-2.21691
 20
-5.3845
 30
0.0
 10
-2.21691
 20
-5.3845
 30
0.0
 10
-2.33706
 20
-5.39507
 30
0.0
 10
-2.45848
 20
-5.40117
 30
0.0
 10
-2.58097
 20
-5.40261
 30
0.0
 10
-2.58097
 20
-5.40261
 30
0.0
 10
-2.65594
 20
-5.40349
 30
0.0
 10
-2.73052
 20
-5.40261
 30
0.0
 10
-2.80469
 20
-5.40005
 30
0.0
 10
-2.80469
 20
-5.40005
 30
0.0
 10
-2.8624
 20
-5.58097
 30
0.0
 10
-2.87925
 20
-5.53076
 30
0.0
 10
-3.00214
 20
-5.60072
 30
0.0
 10
-3.00214
 20
-5.60072
 30
0.0
 10
-3.00147
 20
-5.6584
 30
0.0
 10
-2.9259
 20
-5.66472
 30
0.0
 10
-2.92467
 20
-5.76925
 30
0.0
 10
-2.92467
 20
-5.76925
 30
0.0
 10
-3.08664
 20
-5.75313
 30
0.0
 10
-3.21268
 20
-5.73298
 30
0.0
 10
-3.286
 20
-5.61127
 30
0.0
 10
-3.286
 20
-5.61127
 30
0.0
 10
-3.44845
 20
-5.5519
 30
0.0
 10
-3.45431
 20
-5.44846
 30
0.0
 10
-3.41245
 20
-5.33981
 30
0.0
 10
-3.41245
 20
-5.33981
 30
0.0
 10
-3.66709
 20
-5.2979
 30
0.0
 10
-3.91518
 20
-5.23568
 30
0.0
 10
-4.15498
 20
-5.15487
 30
0.0
 10
-4.15498
 20
-5.15487
 30
0.0
 10
-4.25337
 20
-5.3471
 30
0.0
 10
-4.3341
 20
-5.43615
 30
0.0
 10
-4.55462
 20
-5.33059
 30
0.0
 10
-4.55462
 20
-5.33059
 30
0.0
 10
-4.65893
 20
-5.32461
 30
0.0
 10
-4.68786
 20
-5.31053
 30
0.0
 10
-4.74951
 20
-5.26439
 30
0.0
 10
-4.74951
 20
-5.26439
 30
0.0
 10
-4.74966
 20
-5.24997
 30
0.0
 10
-4.7498
 20
-5.23916
 30
0.0
 10
-4.74993
 20
-5.22835
 30
0.0
 10
-4.74993
 20
-5.22835
 30
0.0
 10
-4.68544
 20
-5.20956
 30
0.0
 10
-4.6209
 20
-5.19438
 30
0.0
 10
-4.55639
 20
-5.1792
 30
0.0
 10
-4.55639
 20
-5.1792
 30
0.0
 10
-4.5573
 20
-5.10081
 30
0.0
 10
-4.55182
 20
-5.05071
 30
0.0
 10
-4.54086
 20
-5.00397
 30
0.0
 10
-4.54086
 20
-5.00397
 30
0.0
 10
-4.69997
 20
-4.93613
 30
0.0
 10
-4.85265
 20
-4.85916
 30
0.0
 10
-5.00205
 20
-4.77485
 30
0.0
  0
SPLINE
  5
62
330
1F
100
AcDbEntity
  8
Layer 1
 62
    22
370
     0
100
AcDbSpline
210
0.0
220
0.0
230
1.0
 70
    11
 71
     3
 72
    20
 73
    16
 74
     0
 42
0.0000000001
 43
0.0000000001
 40
0.0
 40
0.0
 40
0.0
 40
0.0
 40
0.25
 40
0.25
 40
0.25
 40
0.25
 40
0.5
 40
0.5
 40
0.5
 40
0.5
 40
0.75
 40
0.75
 40
0.75
 40
0.75
 40
1.0
 40
1.0
 40
1.0
 40
1.0
 10
-0.90707
 20
-5.54722
 30
0.0
 10
-1.01232
 20
-5.46193
 30
0.0
 10
-1.02399
 20
-5.38636
 30
0.0
 10
-1.03582
 20
-5.29638
 30
0.0
 10
-1.03582
 20
-5.29638
 30
0.0
 10
-1.05366
 20
-5.00097
 30
0.0
 10
-1.0679
 20
-4.70552
 30
0.0
 10
-1.08211
 20
-4.41368
 30
0.0
 10
-1.08211
 20
-4.41368
 30
0.0
 10
-1.03893
 20
-4.41677
 30
0.0
 10
-0.99576
 20
-4.41987
 30
0.0
 10
-0.94895
 20
-4.42653
 30
0.0
 10
-0.94895
 20
-4.42653
 30
0.0
 10
-0.85673
 20
-4.62733
 30
0.0
 10
-0.48342
 20
-5.50257
 30
0.0
 10
-0.90707
 20
-5.54722
 30
0.0
  0
SPLINE
  5
63
330
1F
100
AcDbEntity
  8
Layer 1
 62
    22
370
     0
100
AcDbSpline
210
0.0
220
0.0
230
1.0
 70
    11
 71
     3
 72
    24
 73
    20
 74
     0
 42
0.0000000001
 43
0.0000000001
 40
0.0
 40
0.0
 40
0.0
 40
0.0
 40
0.2
 40
0.2
 40
0.2
 40
0.2
 40
0.4
 40
0.4
 40
0.4
 40
0.4
 40
0.6000000000000001
 40
0.6000000000000001
 40
0.6000000000000001
 40
0.6000000000000001
 40
0.8
 40
0.8
 40
0.8
 40
0.8
 40
1.0
 40
1.0
 40
1.0
 40
1.0
 10
-1.37542
 20
-5.459
 30
0.0
 10
-1.39381
 20
-5.42316
 30
0.0
 10
-1.39381
 20
-5.42316
 30
0.0
 10
-1.44877
 20
-5.02725
 30
0.0
 10
-1.44877
 20
-5.02725
 30
0.0
 10
-1.51286
 20
-4.77205
 30
0.0
 10
-1.61996
 20
-4.52816
 30
0.0
 10
-1.67645
 20
-4.30892
 30
0.0
 10
-1.67645
 20
-4.30892
 30
0.0
 10
-1.62241
 20
-4.3191
 30
0.0
 10
-1.40288
 20
-4.34175
 30
0.0
 10
-1.33742
 20
-4.40587
 30
0.0
 10
-1.33742
 20
-4.40587
 30
0.0
 10
-1.2509
 20
-4.73291
 30
0.0
 10
-1.21793
 20
-5.09303
 30
0.0
 10
-1.30375
 20
-5.44013
 30
0.0
 10
-1.30375
 20
-5.44013
 30
0.0
 10
-1.32885
 20
-5.44403
 30
0.0
 10
-1.35393
 20
-5.45153
 30
0.0
 10
-1.37542
 20
-5.459
 30
0.0
  0
SPLINE
  5
64
330
1F
100
AcDbEntity
  8
Layer 1
 62
    22
370
     0
100
AcDbSpline
210
0.0
220
0.0
230
1.0
 70
    11
 71
     3
 72
    20
 73
    16
 74
     0
 42
0.0000000001
 43
0.0000000001
 40
0.0
 40
0.0
 40
0.0
 40
0.0
 40
0.25
 40
0.25
 40
0.25
 40
0.25
 40
0.5
 40
0.5
 40
0.5
 40
0.5
 40
0.75
 40
0.75
 40
0.75
 40
0.75
 40
1.0
 40
1.0
 40
1.0
 40
1.0
 10
-0.29733
 20
-5.43188
 30
0.0
 10
-0.51868
 20
-5.25424
 30
0.0
 10
-0.55148
 20
-4.90853
 30
0.0
 10
-0.62597
 20
-4.6859
 30
0.0
 10
-0.62597
 20
-4.6859
 30
0.0
 10
-0.73685
 20
-4.42764
 30
0.0
 10
-0.73685
 20
-4.42764
 30
0.0
 10
-0.74099
 20
-4.38082
 30
0.0
 10
-0.74099
 20
-4.38082
 30
0.0
 10
-0.58644
 20
-4.379
 30
0.0
 10
-0.25182
 20
-5.02037
 30
0.0
 10
-0.16317
 20
-5.22481
 30
0.0
 10
-0.16317
 20
-5.22481
 30
0.0
 10
-0.1613
 20
-5.38342
 30
0.0
 10
-0.16107
 20
-5.40144
 30
0.0
 10
-0.29733
 20
-5.43188
 30
0.0
  0
SPLINE
  5
65
330
1F
100
AcDbEntity
  8
Layer 1
 62
    22
370
     0
100
AcDbSpline
210
0.0
220
0.0
230
1.0
 70
    11
 71
     3
 72
    32
 73
    28
 74
     0
 42
0.0000000001
 43
0.0000000001
 40
0.0
 40
0.0
 40
0.0
 40
0.0
 40
0.1428571428571428
 40
0.1428571428571428
 40
0.1428571428571428
 40
0.1428571428571428
 40
0.2857142857142857
 40
0.2857142857142857
 40
0.2857142857142857
 40
0.2857142857142857
 40
0.4285714285714285
 40
0.4285714285714285
 40
0.4285714285714285
 40
0.4285714285714285
 40
0.5714285714285714
 40
0.5714285714285714
 40
0.5714285714285714
 40
0.5714285714285714
 40
0.7142857142857142
 40
0.7142857142857142
 40
0.7142857142857142
 40
0.7142857142857142
 40
0.857142857142857
 40
0.857142857142857
 40
0.857142857142857
 40
0.857142857142857
 40
1.0
 40
1.0
 40
1.0
 40
1.0
 10
0.22865
 20
-5.22381
 30
0.0
 10
0.06616
 20
-5.16083
 30
0.0
 10
-0.03967
 20
-5.02508
 30
0.0
 10
-0.08411
 20
-4.91385
 30
0.0
 10
-0.08411
 20
-4.91385
 30
0.0
 10
-0.46057
 20
-4.38473
 30
0.0
 10
-0.4864
 20
-4.32735
 30
0.0
 10
-0.54465
 20
-4.26315
 30
0.0
 10
-0.54465
 20
-4.26315
 30
0.0
 10
-0.54512
 20
-4.2235
 30
0.0
 10
-0.54558
 20
-4.18385
 30
0.0
 10
-0.54606
 20
-4.14419
 30
0.0
 10
-0.54606
 20
-4.14419
 30
0.0
 10
-0.53527
 20
-4.14407
 30
0.0
 10
-0.52449
 20
-4.14394
 30
0.0
 10
-0.51371
 20
-4.14381
 30
0.0
 10
-0.51371
 20
-4.14381
 30
0.0
 10
-0.18643
 20
-4.46442
 30
0.0
 10
-0.1499
 20
-4.51446
 30
0.0
 10
-0.07734
 20
-4.57129
 30
0.0
 10
-0.07734
 20
-4.57129
 30
0.0
 10
0.03556
 20
-4.69613
 30
0.0
 10
0.16346
 20
-4.87488
 30
0.0
 10
0.33387
 20
-4.99905
 30
0.0
 10
0.33387
 20
-4.99905
 30
0.0
 10
0.35686
 20
-5.12136
 30
0.0
 10
0.36121
 20
-5.1862
 30
0.0
 10
0.22865
 20
-5.22381
 30
0.0
  0
SPLINE
  5
66
330
1F
100
AcDbEntity
  8
Layer 1
 62
    22
370
     0
100
AcDbSpline
210
0.0
220
0.0
230
1.0
 70
    11
 71
     3
 72
    24
 73
    20
 74
     0
 42
0.0000000001
 43
0.0000000001
 40
0.0
 40
0.0
 40
0.0
 40
0.0
 40
0.2
 40
0.2
 40
0.2
 40
0.2
 40
0.4
 40
0.4
 40
0.4
 40
0.4
 40
0.6000000000000001
 40
0.6000000000000001
 40
0.6000000000000001
 40
0.6000000000000001
 40
0.8
 40
0.8
 40
0.8
 40
0.8
 40
1.0
 40
1.0
 40
1.0
 40
1.0
 10
-1.66429
 20
-4.96822
 30
0.0
 10
-1.66568
 20
-4.84927
 30
0.0
 10
-1.85664
 20
-4.57781
 30
0.0
 10
-1.88623
 20
-4.50606
 30
0.0
 10
-1.88623
 20
-4.50606
 30
0.0
 10
-1.90424
 20
-4.50267
 30
0.0
 10
-1.91866
 20
-4.49923
 30
0.0
 10
-1.93309
 20
-4.4958
 30
0.0
 10
-1.93309
 20
-4.4958
 30
0.0
 10
-1.97232
 20
-4.52149
 30
0.0
 10
-2.00793
 20
-4.55075
 30
0.0
 10
-2.04353
 20
-4.58001
 30
0.0
 10
-2.04353
 20
-4.58001
 30
0.0
 10
-2.21199
 20
-4.62165
 30
0.0
 10
-2.15621
 20
-4.93333
 30
0.0
 10
-2.01846
 20
-5.03265
 30
0.0
 10
-2.01846
 20
-5.03265
 30
0.0
 10
-1.89882
 20
-5.0159
 30
0.0
 10
-1.7807
 20
-4.99434
 30
0.0
 10
-1.66429
 20
-4.96822
 30
0.0
  0
SPLINE
  5
67
330
1F
100
AcDbEntity
  8
Layer 1
 62
    22
370
     0
100
AcDbSpline
210
0.0
220
0.0
230
1.0
 70
    11
 71
     3
 72
    28
 73
    24
 74
     0
 42
0.0000000001
 43
0.0000000001
 40
0.0
 40
0.0
 40
0.0
 40
0.0
 40
0.1666666666666667
 40
0.1666666666666667
 40
0.1666666666666667
 40
0.1666666666666667
 40
0.3333333333333333
 40
0.3333333333333333
 40
0.3333333333333333
 40
0.3333333333333333
 40
0.5
 40
0.5
 40
0.5
 40
0.5
 40
0.6666666666666666
 40
0.6666666666666666
 40
0.6666666666666666
 40
0.6666666666666666
 40
0.8333333333333333
 40
0.8333333333333333
 40
0.8333333333333333
 40
0.8333333333333333
 40
1.0
 40
1.0
 40
1.0
 40
1.0
 10
0.5841
 20
-4.88074
 30
0.0
 10
0.16013
 20
-4.59012
 30
0.0
 10
-0.21434
 20
-4.23042
 30
0.0
 10
-0.5488
 20
-3.9099
 30
0.0
 10
-0.5488
 20
-3.9099
 30
0.0
 10
-0.55269
 20
-3.88471
 30
0.0
 10
-0.55658
 20
-3.85952
 30
0.0
 10
-0.55683
 20
-3.83789
 30
0.0
 10
-0.55683
 20
-3.83789
 30
0.0
 10
-0.49213
 20
-3.83713
 30
0.0
 10
-0.35023
 20
-3.98327
 30
0.0
 10
-0.26338
 20
-4.03271
 30
0.0
 10
-0.26338
 20
-4.03271
 30
0.0
 10
0.04495
 20
-4.27062
 30
0.0
 10
0.40306
 20
-4.46108
 30
0.0
 10
0.74048
 20
-4.72749
 30
0.0
 10
0.74048
 20
-4.72749
 30
0.0
 10
0.74082
 20
-4.75633
 30
0.0
 10
0.74116
 20
-4.78516
 30
0.0
 10
0.7415
 20
-4.814
 30
0.0
 10
0.7415
 20
-4.814
 30
0.0
 10
0.68111
 20
-4.876
 30
0.0
 10
0.64158
 20
-4.87646
 30
0.0
 10
0.5841
 20
-4.88074
 30
0.0
  0
SPLINE
  5
68
330
1F
100
AcDbEntity
  8
Layer 1
 62
    22
370
     0
100
AcDbSpline
210
0.0
220
0.0
230
1.0
 70
    11
 71
     3
 72
    28
 73
    24
 74
     0
 42
0.0000000001
 43
0.0000000001
 40
0.0
 40
0.0
 40
0.0
 40
0.0
 40
0.1666666666666667
 40
0.1666666666666667
 40
0.1666666666666667
 40
0.1666666666666667
 40
0.3333333333333333
 40
0.3333333333333333
 40
0.3333333333333333
 40
0.3333333333333333
 40
0.5
 40
0.5
 40
0.5
 40
0.5
 40
0.6666666666666666
 40
0.6666666666666666
 40
0.6666666666666666
 40
0.6666666666666666
 40
0.8333333333333333
 40
0.8333333333333333
 40
0.8333333333333333
 40
0.8333333333333333
 40
1.0
 40
1.0
 40
1.0
 40
1.0
 10
0.93906
 20
-4.49443
 30
0.0
 10
0.57854
 20
-4.40494
 30
0.0
 10
0.27054
 20
-4.19587
 30
0.0
 10
-0.01187
 20
-4.02254
 30
0.0
 10
-0.01187
 20
-4.02254
 30
0.0
 10
-0.21187
 20
-3.82662
 30
0.0
 10
-0.42926
 20
-3.68137
 30
0.0
 10
-0.6145
 20
-3.51772
 30
0.0
 10
-0.6145
 20
-3.51772
 30
0.0
 10
-0.64083
 20
-3.41709
 30
0.0
 10
-0.64083
 20
-3.41709
 30
0.0
 10
-0.64908
 20
-3.32706
 30
0.0
 10
-0.64908
 20
-3.32706
 30
0.0
 10
-0.34776
 20
-3.57947
 30
0.0
 10
-0.06079
 20
-3.83565
 30
0.0
 10
0.34015
 20
-4.00037
 30
0.0
 10
0.34015
 20
-4.00037
 30
0.0
 10
0.51782
 20
-4.13167
 30
0.0
 10
0.8383
 20
-4.17837
 30
0.0
 10
1.08369
 20
-4.25839
 30
0.0
 10
1.08369
 20
-4.25839
 30
0.0
 10
1.21822
 20
-4.3902
 30
0.0
 10
1.06092
 20
-4.46415
 30
0.0
 10
0.93906
 20
-4.49443
 30
0.0
  0
SPLINE
  5
69
330
1F
100
AcDbEntity
  8
Layer 1
 62
    22
370
     0
100
AcDbSpline
210
0.0
220
0.0
230
1.0
 70
     8
 71
     3
 72
   132
 73
   128
 74
     0
 42
0.0000000001
 43
0.0000000001
 40
0.0
 40
0.0
 40
0.0
 40
0.0
 40
0.03125
 40
0.03125
 40
0.03125
 40
0.03125
 40
0.0625
 40
0.0625
 40
0.0625
 40
0.0625
 40
0.09375
 40
0.09375
 40
0.09375
 40
0.09375
 40
0.125
 40
0.125
 40
0.125
 40
0.125
 40
0.15625
 40
0.15625
 40
0.15625
 40
0.15625
 40
0.1875
 40
0.1875
 40
0.1875
 40
0.1875
 40
0.21875
 40
0.21875
 40
0.21875
 40
0.21875
 40
0.25
 40
0.25
 40
0.25
 40
0.25
 40
0.28125
 40
0.28125
 40
0.28125
 40
0.28125
 40
0.3125
 40
0.3125
 40
0.3125
 40
0.3125
 40
0.34375
 40
0.34375
 40
0.34375
 40
0.34375
 40
0.375
 40
0.375
 40
0.375
 40
0.375
 40
0.40625
 40
0.40625
 40
0.40625
 40
0.40625
 40
0.4375
 40
0.4375
 40
0.4375
 40
0.4375
 40
0.46875
 40
0.46875
 40
0.46875
 40
0.46875
 40
0.5
 40
0.5
 40
0.5
 40
0.5
 40
0.53125
 40
0.53125
 40
0.53125
 40
0.53125
 40
0.5625
 40
0.5625
 40
0.5625
 40
0.5625
 40
0.59375
 40
0.59375
 40
0.59375
 40
0.59375
 40
0.625
 40
0.625
 40
0.625
 40
0.625
 40
0.65625
 40
0.65625
 40
0.65625
 40
0.65625
 40
0.6875
 40
0.6875
 40
0.6875
 40
0.6875
 40
0.71875
 40
0.71875
 40
0.71875
 40
0.71875
 40
0.75
 40
0.75
 40
0.75
 40
0.75
 40
0.78125
 40
0.78125
 40
0.78125
 40
0.78125
 40
0.8125
 40
0.8125
 40
0.8125
 40
0.8125
 40
0.84375
 40
0.84375
 40
0.84375
 40
0.84375
 40
0.875
 40
0.875
 40
0.875
 40
0.875
 40
0.90625
 40
0.90625
 40
0.90625
 40
0.90625
 40
0.9375
 40
0.9375
 40
0.9375
 40
0.9375
 40
0.96875
 40
0.96875
 40
0.96875
 40
0.96875
 40
1.0
 40
1.0
 40
1.0
 40
1.0
 10
-5.90727
 20
2.43684
 30
0.0
 10
-5.69521
 20
2.43934
 30
0.0
 10
-5.37627
 20
1.90954
 30
0.0
 10
-5.25167
 20
1.70552
 30
0.0
 10
-5.25167
 20
1.70552
 30
0.0
 10
-5.15184
 20
1.46876
 30
0.0
 10
-5.15184
 20
1.46876
 30
0.0
 10
-5.10419
 20
1.39001
 30
0.0
 10
-5.10419
 20
1.39001
 30
0.0
 10
-4.69086
 20
1.39488
 30
0.0
 10
-4.39305
 20
1.13521
 30
0.0
 10
-4.02739
 20
0.9124
 30
0.0
 10
-4.02739
 20
0.9124
 30
0.0
 10
-3.85453
 20
0.88559
 30
0.0
 10
-3.7105
 20
0.86566
 30
0.0
 10
-3.49853
 20
0.87536
 30
0.0
 10
-3.49853
 20
0.87536
 30
0.0
 10
-3.519
 20
0.78139
 30
0.0
 10
-3.63304
 20
0.69713
 30
0.0
 10
-3.63144
 20
0.56016
 30
0.0
 10
-3.63144
 20
0.56016
 30
0.0
 10
-3.60236
 20
0.53166
 30
0.0
 10
-3.60236
 20
0.53166
 30
0.0
 10
-3.45426
 20
0.47211
 30
0.0
 10
-3.45426
 20
0.47211
 30
0.0
 10
-3.45419
 20
0.46491
 30
0.0
 10
-3.4541
 20
0.4577
 30
0.0
 10
-3.45401
 20
0.45049
 30
0.0
 10
-3.45401
 20
0.45049
 30
0.0
 10
-3.57634
 20
0.45986
 30
0.0
 10
-3.6522
 20
0.49141
 30
0.0
 10
-3.72831
 20
0.54459
 30
0.0
 10
-3.72831
 20
0.54459
 30
0.0
 10
-3.72937
 20
0.63471
 30
0.0
 10
-3.61182
 20
0.72622
 30
0.0
 10
-3.59143
 20
0.8274
 30
0.0
 10
-3.59143
 20
0.8274
 30
0.0
 10
-3.75317
 20
0.8255
 30
0.0
 10
-3.89338
 20
0.82745
 30
0.0
 10
-4.03026
 20
0.85108
 30
0.0
 10
-4.03026
 20
0.85108
 30
0.0
 10
-4.21124
 20
0.9571
 30
0.0
 10
-4.35267
 20
1.06359
 30
0.0
 10
-4.54099
 20
1.18394
 30
0.0
 10
-4.54099
 20
1.18394
 30
0.0
 10
-4.95319
 20
1.38818
 30
0.0
 10
-5.12195
 20
1.37178
 30
0.0
 10
-5.54201
 20
1.32717
 30
0.0
 10
-5.54201
 20
1.32717
 30
0.0
 10
-6.0468
 20
1.15179
 30
0.0
 10
-6.59384
 20
0.90021
 30
0.0
 10
-6.48219
 20
0.26703
 30
0.0
 10
-6.48219
 20
0.26703
 30
0.0
 10
-6.5953
 20
0.10347
 30
0.0
 10
-6.54117
 20
0.08608
 30
0.0
 10
-6.53856
 20
-0.13741
 30
0.0
 10
-6.53856
 20
-0.13741
 30
0.0
 10
-6.70111
 20
-0.37725
 30
0.0
 10
-6.68318
 20
-0.67987
 30
0.0
 10
-6.55058
 20
-0.95229
 30
0.0
 10
-6.55058
 20
-0.95229
 30
0.0
 10
-6.48141
 20
-1.02719
 30
0.0
 10
-6.30289
 20
-1.23057
 30
0.0
 10
-6.13794
 20
-1.19619
 30
0.0
 10
-6.13794
 20
-1.19619
 30
0.0
 10
-6.197
 20
-1.06349
 30
0.0
 10
-6.205
 20
-0.99509
 30
0.0
 10
-6.22077
 20
-0.87631
 30
0.0
 10
-6.22077
 20
-0.87631
 30
0.0
 10
-6.21011
 20
-0.86537
 30
0.0
 10
-6.19944
 20
-0.85443
 30
0.0
 10
-6.1888
 20
-0.84349
 30
0.0
 10
-6.1888
 20
-0.84349
 30
0.0
 10
-5.97379
 20
-0.78688
 30
0.0
 10
-5.70357
 20
-0.53134
 30
0.0
 10
-5.5872
 20
-0.3389
 30
0.0
 10
-5.5872
 20
-0.3389
 30
0.0
 10
-5.58006
 20
-0.33521
 30
0.0
 10
-5.57292
 20
-0.33153
 30
0.0
 10
-5.56573
 20
-0.33144
 30
0.0
 10
-5.56573
 20
-0.33144
 30
0.0
 10
-5.47862
 20
-0.40252
 30
0.0
 10
-5.40932
 20
-0.48822
 30
0.0
 10
-5.25063
 20
-0.53322
 30
0.0
 10
-5.25063
 20
-0.53322
 30
0.0
 10
-5.16335
 20
-0.61872
 30
0.0
 10
-5.25537
 20
-1.0488
 30
0.0
 10
-5.30375
 20
-1.21521
 30
0.0
 10
-5.30375
 20
-1.21521
 30
0.0
 10
-5.30362
 20
-1.22602
 30
0.0
 10
-5.29987
 20
-1.2404
 30
0.0
 10
-5.2961
 20
-1.25477
 30
0.0
 10
-5.2961
 20
-1.25477
 30
0.0
 10
-5.20265
 20
-1.25367
 30
0.0
 10
-5.12049
 20
-1.20944
 30
0.0
 10
-5.03076
 20
-1.19757
 30
0.0
 10
-5.03076
 20
-1.19757
 30
0.0
 10
-4.90857
 20
-1.809
 30
0.0
 10
-4.70719
 20
-2.4303
 30
0.0
 10
-4.19855
 20
-2.88937
 30
0.0
 10
-4.19855
 20
-2.88937
 30
0.0
 10
-4.16199
 20
-2.94302
 30
0.0
 10
-4.12177
 20
-3.00022
 30
0.0
 10
-4.08156
 20
-3.05743
 30
0.0
 10
-4.08156
 20
-3.05743
 30
0.0
 10
-4.07988
 20
-3.20161
 30
0.0
 10
-4.18953
 20
-3.35432
 30
0.0
 10
-4.21641
 20
-3.51326
 30
0.0
 10
-4.21641
 20
-3.51326
 30
0.0
 10
-4.31875
 20
-3.67669
 30
0.0
 10
-4.34611
 20
-3.79598
 30
0.0
 10
-4.36164
 20
-4.00526
 30
0.0
 10
-4.36164
 20
-4.00526
 30
0.0
 10
-4.46765
 20
-4.16153
 30
0.0
 10
-4.49594
 20
-4.20151
 30
0.0
 10
-4.67167
 20
-4.23603
 30
0.0
 10
-4.67167
 20
-4.23603
 30
0.0
 10
-4.86135
 20
-4.19181
 30
0.0
 10
-5.12476
 20
-4.00718
 30
0.0
 10
-5.30445
 20
-4.18402
 30
0.0
 10
-5.30445
 20
-4.18402
 30
0.0
 10
-6.37802
 20
-3.37764
 30
0.0
 10
-7.08106
 20
-2.09799
 30
0.0
 10
-7.09795
 20
-0.65424
 30
0.0
 10
-7.09795
 20
-0.65424
 30
0.0
 10
-7.11189
 20
0.53564
 30
0.0
 10
-6.65729
 20
1.6251
 30
0.0
 10
-5.90671
 20
2.43689
 30
0.0
  0
SPLINE
  5
6A
330
1F
100
AcDbEntity
  8
Layer 1
 62
    22
370
     0
100
AcDbSpline
210
0.0
220
0.0
230
1.0
 70
    11
 71
     3
 72
    32
 73
    28
 74
     0
 42
0.0000000001
 43
0.0000000001
 40
0.0
 40
0.0
 40
0.0
 40
0.0
 40
0.1428571428571428
 40
0.1428571428571428
 40
0.1428571428571428
 40
0.1428571428571428
 40
0.2857142857142857
 40
0.2857142857142857
 40
0.2857142857142857
 40
0.2857142857142857
 40
0.4285714285714285
 40
0.4285714285714285
 40
0.4285714285714285
 40
0.4285714285714285
 40
0.5714285714285714
 40
0.5714285714285714
 40
0.5714285714285714
 40
0.5714285714285714
 40
0.7142857142857142
 40
0.7142857142857142
 40
0.7142857142857142
 40
0.7142857142857142
 40
0.857142857142857
 40
0.857142857142857
 40
0.857142857142857
 40
0.857142857142857
 40
1.0
 40
1.0
 40
1.0
 40
1.0
 10
-1.11373
 20
-4.1689
 30
0.0
 10
-1.31901
 20
-4.13527
 30
0.0
 10
-1.47766
 20
-4.09388
 30
0.0
 10
-1.64748
 20
-4.02017
 30
0.0
 10
-1.64748
 20
-4.02017
 30
0.0
 10
-1.64824
 20
-3.95529
 30
0.0
 10
-1.64811
 20
-3.9661
 30
0.0
 10
-1.62351
 20
-3.91894
 30
0.0
 10
-1.62351
 20
-3.91894
 30
0.0
 10
-1.21368
 20
-3.92133
 30
0.0
 10
-1.21368
 20
-3.92133
 30
0.0
 10
-1.10598
 20
-3.90925
 30
0.0
 10
-1.10598
 20
-3.90925
 30
0.0
 10
-0.96991
 20
-3.86438
 30
0.0
 10
-1.01721
 20
-3.20161
 30
0.0
 10
-1.01801
 20
-3.13312
 30
0.0
 10
-1.01801
 20
-3.13312
 30
0.0
 10
-1.01082
 20
-3.13303
 30
0.0
 10
-1.00361
 20
-3.13295
 30
0.0
 10
-0.99645
 20
-3.13287
 30
0.0
 10
-0.99645
 20
-3.13287
 30
0.0
 10
-0.93518
 20
-3.453
 30
0.0
 10
-0.88097
 20
-3.78403
 30
0.0
 10
-0.84087
 20
-4.14046
 30
0.0
 10
-0.84087
 20
-4.14046
 30
0.0
 10
-0.94847
 20
-4.15975
 30
0.0
 10
-0.94847
 20
-4.15975
 30
0.0
 10
-1.11373
 20
-4.1689
 30
0.0
  0
SPLINE
  5
6B
330
1F
100
AcDbEntity
  8
Layer 1
 62
    22
370
     0
100
AcDbSpline
210
0.0
220
0.0
230
1.0
 70
    11
 71
     3
 72
    12
 73
     8
 74
     0
 42
0.0000000001
 43
0.0000000001
 40
0.0
 40
0.0
 40
0.0
 40
0.0
 40
0.5
 40
0.5
 40
0.5
 40
0.5
 40
1.0
 40
1.0
 40
1.0
 40
1.0
 10
-1.5629
 20
-3.87497
 30
0.0
 10
-1.6831
 20
-3.77354
 30
0.0
 10
-1.56132
 20
-3.18716
 30
0.0
 10
-1.39976
 20
-3.37915
 30
0.0
 10
-1.39976
 20
-3.37915
 30
0.0
 10
-1.41659
 20
-3.47669
 30
0.0
 10
-1.47372
 20
-3.81624
 30
0.0
 10
-1.5629
 20
-3.87497
 30
0.0
  0
SPLINE
  5
6C
330
1F
100
AcDbEntity
  8
Layer 1
 62
    22
370
     0
100
AcDbSpline
210
0.0
220
0.0
230
1.0
 70
    11
 71
     3
 72
    68
 73
    64
 74
     0
 42
0.0000000001
 43
0.0000000001
 40
0.0
 40
0.0
 40
0.0
 40
0.0
 40
0.0625
 40
0.0625
 40
0.0625
 40
0.0625
 40
0.125
 40
0.125
 40
0.125
 40
0.125
 40
0.1875
 40
0.1875
 40
0.1875
 40
0.1875
 40
0.25
 40
0.25
 40
0.25
 40
0.25
 40
0.3125
 40
0.3125
 40
0.3125
 40
0.3125
 40
0.375
 40
0.375
 40
0.375
 40
0.375
 40
0.4375
 40
0.4375
 40
0.4375
 40
0.4375
 40
0.5
 40
0.5
 40
0.5
 40
0.5
 40
0.5625
 40
0.5625
 40
0.5625
 40
0.5625
 40
0.625
 40
0.625
 40
0.625
 40
0.625
 40
0.6875
 40
0.6875
 40
0.6875
 40
0.6875
 40
0.75
 40
0.75
 40
0.75
 40
0.75
 40
0.8125
 40
0.8125
 40
0.8125
 40
0.8125
 40
0.875
 40
0.875
 40
0.875
 40
0.875
 40
0.9375
 40
0.9375
 40
0.9375
 40
0.9375
 40
1.0
 40
1.0
 40
1.0
 40
1.0
 10
-3.34683
 20
-2.87213
 30
0.0
 10
-3.53473
 20
-2.78782
 30
0.0
 10
-3.84907
 20
-2.65093
 30
0.0
 10
-3.92269
 20
-2.50398
 30
0.0
 10
-3.92269
 20
-2.50398
 30
0.0
 10
-3.90112
 20
-2.50373
 30
0.0
 10
-3.86129
 20
-2.5285
 30
0.0
 10
-3.79668
 20
-2.52053
 30
0.0
 10
-3.79668
 20
-2.52053
 30
0.0
 10
-3.79676
 20
-2.51332
 30
0.0
 10
-3.79325
 20
-2.50606
 30
0.0
 10
-3.78974
 20
-2.49881
 30
0.0
 10
-3.78974
 20
-2.49881
 30
0.0
 10
-3.81905
 20
-2.45229
 30
0.0
 10
-3.81905
 20
-2.45229
 30
0.0
 10
-3.9207
 20
-2.36697
 30
0.0
 10
-3.9207
 20
-2.36697
 30
0.0
 10
-4.0127
 20
-2.18419
 30
0.0
 10
-4.14742
 20
-2.03797
 30
0.0
 10
-4.19579
 20
-1.89794
 30
0.0
 10
-4.19579
 20
-1.89794
 30
0.0
 10
-4.14894
 20
-1.9082
 30
0.0
 10
-4.14471
 20
-1.96223
 30
0.0
 10
-4.04048
 20
-1.961
 30
0.0
 10
-4.04048
 20
-1.961
 30
0.0
 10
-4.04061
 20
-1.95019
 30
0.0
 10
-4.0371
 20
-1.94294
 30
0.0
 10
-4.03359
 20
-1.93569
 30
0.0
 10
-4.03359
 20
-1.93569
 30
0.0
 10
-4.15498
 20
-1.69918
 30
0.0
 10
-4.3277
 20
-1.37676
 30
0.0
 10
-4.27303
 20
-1.13457
 30
0.0
 10
-4.27303
 20
-1.13457
 30
0.0
 10
-4.26584
 20
-1.13449
 30
0.0
 10
-4.25864
 20
-1.1344
 30
0.0
 10
-4.25146
 20
-1.13432
 30
0.0
 10
-4.25146
 20
-1.13432
 30
0.0
 10
-3.95801
 20
-1.63558
 30
0.0
 10
-3.80842
 20
-1.82488
 30
0.0
 10
-3.82567
 20
-1.88637
 30
0.0
 10
-3.82567
 20
-1.88637
 30
0.0
 10
-3.84737
 20
-1.87581
 30
0.0
 10
-3.86902
 20
-1.86886
 30
0.0
 10
-3.88706
 20
-1.86186
 30
0.0
 10
-3.88706
 20
-1.86186
 30
0.0
 10
-3.89776
 20
-1.8692
 30
0.0
 10
-3.90842
 20
-1.88014
 30
0.0
 10
-3.91908
 20
-1.89108
 30
0.0
 10
-3.91908
 20
-1.89108
 30
0.0
 10
-3.80914
 20
-2.07004
 30
0.0
 10
-3.59312
 20
-2.40637
 30
0.0
 10
-3.39028
 20
-2.53737
 30
0.0
 10
-3.39028
 20
-2.53737
 30
0.0
 10
-3.48373
 20
-2.53847
 30
0.0
 10
-3.51658
 20
-2.4956
 30
0.0
 10
-3.58128
 20
-2.49636
 30
0.0
 10
-3.58128
 20
-2.49636
 30
0.0
 10
-3.59126
 20
-2.56497
 30
0.0
 10
-3.3842
 20
-2.75
 30
0.0
 10
-3.32167
 20
-2.87184
 30
0.0
 10
-3.32167
 20
-2.87184
 30
0.0
 10
-3.33245
 20
-2.87196
 30
0.0
 10
-3.33964
 20
-2.87205
 30
0.0
 10
-3.34683
 20
-2.87213
 30
0.0
  0
SPLINE
  5
6D
330
1F
100
AcDbEntity
  8
Layer 1
 62
    22
370
     0
100
AcDbSpline
210
0.0
220
0.0
230
1.0
 70
    11
 71
     3
 72
    20
 73
    16
 74
     0
 42
0.0000000001
 43
0.0000000001
 40
0.0
 40
0.0
 40
0.0
 40
0.0
 40
0.25
 40
0.25
 40
0.25
 40
0.25
 40
0.5
 40
0.5
 40
0.5
 40
0.5
 40
0.75
 40
0.75
 40
0.75
 40
0.75
 40
1.0
 40
1.0
 40
1.0
 40
1.0
 10
-0.70086
 20
-2.58862
 30
0.0
 10
-0.93545
 20
-2.50847
 30
0.0
 10
-1.08087
 20
-2.36958
 30
0.0
 10
-1.21922
 20
-2.2198
 30
0.0
 10
-1.21922
 20
-2.2198
 30
0.0
 10
-1.05046
 20
-2.20339
 30
0.0
 10
-0.95345
 20
-2.19864
 30
0.0
 10
-0.84741
 20
-2.04598
 30
0.0
 10
-0.84741
 20
-2.04598
 30
0.0
 10
-0.68926
 20
-2.04412
 30
0.0
 10
-0.46364
 20
-2.2794
 30
0.0
 10
-0.46123
 20
-2.48486
 30
0.0
 10
-0.46123
 20
-2.48486
 30
0.0
 10
-0.53921
 20
-2.57951
 30
0.0
 10
-0.60031
 20
-2.58023
 30
0.0
 10
-0.70086
 20
-2.58862
 30
0.0
  0
SPLINE
  5
6E
330
1F
100
AcDbEntity
  8
Layer 1
 62
    22
370
     0
100
AcDbSpline
210
0.0
220
0.0
230
1.0
 70
    11
 71
     3
 72
    24
 73
    20
 74
     0
 42
0.0000000001
 43
0.0000000001
 40
0.0
 40
0.0
 40
0.0
 40
0.0
 40
0.2
 40
0.2
 40
0.2
 40
0.2
 40
0.4
 40
0.4
 40
0.4
 40
0.4
 40
0.6000000000000001
 40
0.6000000000000001
 40
0.6000000000000001
 40
0.6000000000000001
 40
0.8
 40
0.8
 40
0.8
 40
0.8
 40
1.0
 40
1.0
 40
1.0
 40
1.0
 10
-0.12803
 20
-2.39081
 30
0.0
 10
-0.27653
 20
-2.29522
 30
0.0
 10
-0.37936
 20
-2.10897
 30
0.0
 10
-0.48845
 20
-2.0021
 30
0.0
 10
-0.48845
 20
-2.0021
 30
0.0
 10
-0.49221
 20
-1.98772
 30
0.0
 10
-0.49238
 20
-1.97331
 30
0.0
 10
-0.49251
 20
-1.96249
 30
0.0
 10
-0.49251
 20
-1.96249
 30
0.0
 10
-0.35986
 20
-1.93209
 30
0.0
 10
-0.2683
 20
-1.76878
 30
0.0
 10
-0.18662
 20
-1.68491
 30
0.0
 10
-0.18662
 20
-1.68491
 30
0.0
 10
-0.04128
 20
-1.81658
 30
0.0
 10
0.24327
 20
-2.17374
 30
0.0
 10
0.01553
 20
-2.3711
 30
0.0
 10
0.01553
 20
-2.3711
 30
0.0
 10
-0.03475
 20
-2.37529
 30
0.0
 10
-0.08139
 20
-2.38305
 30
0.0
 10
-0.12803
 20
-2.39081
 30
0.0
  0
SPLINE
  5
6F
330
1F
100
AcDbEntity
  8
Layer 1
 62
    22
370
     0
100
AcDbSpline
210
0.0
220
0.0
230
1.0
 70
    11
 71
     3
 72
    28
 73
    24
 74
     0
 42
0.0000000001
 43
0.0000000001
 40
0.0
 40
0.0
 40
0.0
 40
0.0
 40
0.1666666666666667
 40
0.1666666666666667
 40
0.1666666666666667
 40
0.1666666666666667
 40
0.3333333333333333
 40
0.3333333333333333
 40
0.3333333333333333
 40
0.3333333333333333
 40
0.5
 40
0.5
 40
0.5
 40
0.5
 40
0.6666666666666666
 40
0.6666666666666666
 40
0.6666666666666666
 40
0.6666666666666666
 40
0.8333333333333333
 40
0.8333333333333333
 40
0.8333333333333333
 40
0.8333333333333333
 40
1.0
 40
1.0
 40
1.0
 40
1.0
 10
0.42898
 20
-2.07061
 30
0.0
 10
0.2481
 20
-1.9718
 30
0.0
 10
0.21285
 20
-1.72346
 30
0.0
 10
0.07186
 20
-1.65663
 30
0.0
 10
0.07186
 20
-1.65663
 30
0.0
 10
0.06811
 20
-1.64225
 30
0.0
 10
0.06439
 20
-1.63148
 30
0.0
 10
0.06426
 20
-1.62067
 30
0.0
 10
0.06426
 20
-1.62067
 30
0.0
 10
0.23923
 20
-1.52127
 30
0.0
 10
0.25645
 20
-1.45617
 30
0.0
 10
0.30829
 20
-1.27891
 30
0.0
 10
0.30829
 20
-1.27891
 30
0.0
 10
0.37996
 20
-1.26005
 30
0.0
 10
0.44771
 20
-1.21238
 30
0.0
 10
0.54529
 20
-1.2581
 30
0.0
 10
0.54529
 20
-1.2581
 30
0.0
 10
0.68825
 20
-1.49435
 30
0.0
 10
0.937
 20
-1.86275
 30
0.0
 10
0.57255
 20
-2.0509
 30
0.0
 10
0.57255
 20
-2.0509
 30
0.0
 10
0.52227
 20
-2.05509
 30
0.0
 10
0.47564
 20
-2.06285
 30
0.0
 10
0.42898
 20
-2.07061
 30
0.0
  0
SPLINE
  5
70
330
1F
100
AcDbEntity
  8
Layer 1
 62
    22
370
     0
100
AcDbSpline
210
0.0
220
0.0
230
1.0
 70
    11
 71
     3
 72
    24
 73
    20
 74
     0
 42
0.0000000001
 43
0.0000000001
 40
0.0
 40
0.0
 40
0.0
 40
0.0
 40
0.2
 40
0.2
 40
0.2
 40
0.2
 40
0.4
 40
0.4
 40
0.4
 40
0.4
 40
0.6000000000000001
 40
0.6000000000000001
 40
0.6000000000000001
 40
0.6000000000000001
 40
0.8
 40
0.8
 40
0.8
 40
0.8
 40
1.0
 40
1.0
 40
1.0
 40
1.0
 10
-1.71411
 20
-2.01293
 30
0.0
 10
-1.88042
 20
-1.93197
 30
0.0
 10
-2.13424
 20
-1.74389
 30
0.0
 10
-2.16444
 20
-1.62167
 30
0.0
 10
-2.16444
 20
-1.62167
 30
0.0
 10
-2.07796
 20
-1.63868
 30
0.0
 10
-2.07796
 20
-1.63868
 30
0.0
 10
-1.94497
 20
-1.63711
 30
0.0
 10
-1.94497
 20
-1.63711
 30
0.0
 10
-1.91201
 20
-1.6908
 30
0.0
 10
-1.87542
 20
-1.74444
 30
0.0
 10
-1.8388
 20
-1.80169
 30
0.0
 10
-1.8388
 20
-1.80169
 30
0.0
 10
-1.6857
 20
-1.98375
 30
0.0
 10
-1.6857
 20
-1.98375
 30
0.0
 10
-1.67817
 20
-2.0125
 30
0.0
 10
-1.67817
 20
-2.0125
 30
0.0
 10
-1.69252
 20
-2.01267
 30
0.0
 10
-1.70333
 20
-2.0128
 30
0.0
 10
-1.71411
 20
-2.01293
 30
0.0
  0
SPLINE
  5
71
330
1F
100
AcDbEntity
  8
Layer 1
 62
    22
370
     0
100
AcDbSpline
210
0.0
220
0.0
230
1.0
 70
    11
 71
     3
 72
    20
 73
    16
 74
     0
 42
0.0000000001
 43
0.0000000001
 40
0.0
 40
0.0
 40
0.0
 40
0.0
 40
0.25
 40
0.25
 40
0.25
 40
0.25
 40
0.5
 40
0.5
 40
0.5
 40
0.5
 40
0.75
 40
0.75
 40
0.75
 40
0.75
 40
1.0
 40
1.0
 40
1.0
 40
1.0
 10
-1.30825
 20
-1.98291
 30
0.0
 10
-1.4675
 20
-1.89105
 30
0.0
 10
-1.70294
 20
-1.73881
 30
0.0
 10
-1.73341
 20
-1.59136
 30
0.0
 10
-1.73341
 20
-1.59136
 30
0.0
 10
-1.57477
 20
-1.63275
 30
0.0
 10
-1.44928
 20
-1.60604
 30
0.0
 10
-1.25879
 20
-1.6038
 30
0.0
 10
-1.25879
 20
-1.6038
 30
0.0
 10
-1.16787
 20
-1.69285
 30
0.0
 10
-1.06643
 20
-1.76016
 30
0.0
 10
-1.06449
 20
-1.92597
 30
0.0
 10
-1.06449
 20
-1.92597
 30
0.0
 10
-1.12855
 20
-1.9808
 30
0.0
 10
-1.24002
 20
-1.9785
 30
0.0
 10
-1.30825
 20
-1.98291
 30
0.0
  0
SPLINE
  5
72
330
1F
100
AcDbEntity
  8
Layer 1
 62
    22
370
     0
100
AcDbSpline
210
0.0
220
0.0
230
1.0
 70
    11
 71
     3
 72
    24
 73
    20
 74
     0
 42
0.0000000001
 43
0.0000000001
 40
0.0
 40
0.0
 40
0.0
 40
0.0
 40
0.2
 40
0.2
 40
0.2
 40
0.2
 40
0.4
 40
0.4
 40
0.4
 40
0.4
 40
0.6000000000000001
 40
0.6000000000000001
 40
0.6000000000000001
 40
0.6000000000000001
 40
0.8
 40
0.8
 40
0.8
 40
0.8
 40
1.0
 40
1.0
 40
1.0
 40
1.0
 10
-0.76114
 20
-1.73854
 30
0.0
 10
-0.88418
 20
-1.66788
 30
0.0
 10
-0.98629
 20
-1.54291
 30
0.0
 10
-1.05497
 20
-1.51127
 30
0.0
 10
-1.05497
 20
-1.51127
 30
0.0
 10
-1.05594
 20
-1.42836
 30
0.0
 10
-0.90629
 20
-1.31485
 30
0.0
 10
-0.86416
 20
-1.22783
 30
0.0
 10
-0.86416
 20
-1.22783
 30
0.0
 10
-0.80302
 20
-1.23071
 30
0.0
 10
-0.74188
 20
-1.2336
 30
0.0
 10
-0.67715
 20
-1.23644
 30
0.0
 10
-0.67715
 20
-1.23644
 30
0.0
 10
-0.61131
 20
-1.333
 30
0.0
 10
-0.41089
 20
-1.56497
 30
0.0
 10
-0.5854
 20
-1.70402
 30
0.0
 10
-0.5854
 20
-1.70402
 30
0.0
 10
-0.67497
 20
-1.73031
 30
0.0
 10
-0.67497
 20
-1.73031
 30
0.0
 10
-0.76114
 20
-1.73854
 30
0.0
  0
SPLINE
  5
73
330
1F
100
AcDbEntity
  8
Layer 1
 62
    22
370
     0
100
AcDbSpline
210
0.0
220
0.0
230
1.0
 70
    11
 71
     3
 72
    24
 73
    20
 74
     0
 42
0.0000000001
 43
0.0000000001
 40
0.0
 40
0.0
 40
0.0
 40
0.0
 40
0.2
 40
0.2
 40
0.2
 40
0.2
 40
0.4
 40
0.4
 40
0.4
 40
0.4
 40
0.6000000000000001
 40
0.6000000000000001
 40
0.6000000000000001
 40
0.6000000000000001
 40
0.8
 40
0.8
 40
0.8
 40
0.8
 40
1.0
 40
1.0
 40
1.0
 40
1.0
 10
1.03493
 20
-1.63087
 30
0.0
 10
0.99155
 20
-1.60975
 30
0.0
 10
0.99155
 20
-1.60975
 30
0.0
 10
0.95871
 20
-1.56687
 30
0.0
 10
0.95871
 20
-1.56687
 30
0.0
 10
0.89186
 20
-1.3838
 30
0.0
 10
0.7281
 20
-1.21269
 30
0.0
 10
0.70133
 20
-1.07601
 30
0.0
 10
0.70133
 20
-1.07601
 30
0.0
 10
0.78637
 20
-0.97046
 30
0.0
 10
0.78853
 20
-0.84786
 30
0.0
 10
0.79085
 20
-0.73968
 30
0.0
 10
0.79085
 20
-0.73968
 30
0.0
 10
0.90198
 20
-0.71314
 30
0.0
 10
0.90198
 20
-0.71314
 30
0.0
 10
0.98464
 20
-0.71216
 30
0.0
 10
0.98464
 20
-0.71216
 30
0.0
 10
1.19623
 20
-0.97645
 30
0.0
 10
1.5323
 20
-1.43394
 30
0.0
 10
1.03493
 20
-1.63087
 30
0.0
  0
SPLINE
  5
74
330
1F
100
AcDbEntity
  8
Layer 1
 62
    22
370
     0
100
AcDbSpline
210
0.0
220
0.0
230
1.0
 70
    11
 71
     3
 72
    24
 73
    20
 74
     0
 42
0.0000000001
 43
0.0000000001
 40
0.0
 40
0.0
 40
0.0
 40
0.0
 40
0.2
 40
0.2
 40
0.2
 40
0.2
 40
0.4
 40
0.4
 40
0.4
 40
0.4
 40
0.6000000000000001
 40
0.6000000000000001
 40
0.6000000000000001
 40
0.6000000000000001
 40
0.8
 40
0.8
 40
0.8
 40
0.8
 40
1.0
 40
1.0
 40
1.0
 40
1.0
 10
-0.22556
 20
-1.4294
 30
0.0
 10
-0.32729
 20
-1.33687
 30
0.0
 10
-0.46158
 20
-1.22669
 30
0.0
 10
-0.46276
 20
-1.12576
 30
0.0
 10
-0.46276
 20
-1.12576
 30
0.0
 10
-0.34157
 20
-1.03782
 30
0.0
 10
-0.26686
 20
-0.97204
 30
0.0
 10
-0.21442
 20
-0.84525
 30
0.0
 10
-0.21442
 20
-0.84525
 30
0.0
 10
-0.20009
 20
-0.84148
 30
0.0
 10
-0.18574
 20
-0.8377
 30
0.0
 10
-0.16782
 20
-0.83389
 30
0.0
 10
-0.16782
 20
-0.83389
 30
0.0
 10
-0.04025
 20
-0.9838
 30
0.0
 10
0.16355
 20
-1.1977
 30
0.0
 10
-0.04956
 20
-1.41652
 30
0.0
 10
-0.04956
 20
-1.41652
 30
0.0
 10
-0.11063
 20
-1.42084
 30
0.0
 10
-0.16809
 20
-1.42512
 30
0.0
 10
-0.22556
 20
-1.4294
 30
0.0
  0
SPLINE
  5
75
330
1F
100
AcDbEntity
  8
Layer 1
 62
    22
370
     0
100
AcDbSpline
210
0.0
220
0.0
230
1.0
 70
    11
 71
     3
 72
    24
 73
    20
 74
     0
 42
0.0000000001
 43
0.0000000001
 40
0.0
 40
0.0
 40
0.0
 40
0.0
 40
0.2
 40
0.2
 40
0.2
 40
0.2
 40
0.4
 40
0.4
 40
0.4
 40
0.4
 40
0.6000000000000001
 40
0.6000000000000001
 40
0.6000000000000001
 40
0.6000000000000001
 40
0.8
 40
0.8
 40
0.8
 40
0.8
 40
1.0
 40
1.0
 40
1.0
 40
1.0
 10
-2.17775
 20
-1.40552
 30
0.0
 10
-2.49589
 20
-1.25064
 30
0.0
 10
-2.64485
 20
-1.1154
 30
0.0
 10
-2.76709
 20
-0.80681
 30
0.0
 10
-2.76709
 20
-0.80681
 30
0.0
 10
-2.72401
 20
-0.80269
 30
0.0
 10
-2.72401
 20
-0.80269
 30
0.0
 10
-2.43241
 20
-0.83892
 30
0.0
 10
-2.43241
 20
-0.83892
 30
0.0
 10
-2.38358
 20
-1.0186
 30
0.0
 10
-2.28454
 20
-1.18687
 30
0.0
 10
-2.1495
 20
-1.36193
 30
0.0
 10
-2.1495
 20
-1.36193
 30
0.0
 10
-2.14933
 20
-1.37635
 30
0.0
 10
-2.14557
 20
-1.39072
 30
0.0
 10
-2.1418
 20
-1.4051
 30
0.0
 10
-2.1418
 20
-1.4051
 30
0.0
 10
-2.15617
 20
-1.40527
 30
0.0
 10
-2.16696
 20
-1.40539
 30
0.0
 10
-2.17775
 20
-1.40552
 30
0.0
  0
SPLINE
  5
76
330
1F
100
AcDbEntity
  8
Layer 1
 62
    22
370
     0
100
AcDbSpline
210
0.0
220
0.0
230
1.0
 70
    11
 71
     3
 72
    24
 73
    20
 74
     0
 42
0.0000000001
 43
0.0000000001
 40
0.0
 40
0.0
 40
0.0
 40
0.0
 40
0.2
 40
0.2
 40
0.2
 40
0.2
 40
0.4
 40
0.4
 40
0.4
 40
0.4
 40
0.6000000000000001
 40
0.6000000000000001
 40
0.6000000000000001
 40
0.6000000000000001
 40
0.8
 40
0.8
 40
0.8
 40
0.8
 40
1.0
 40
1.0
 40
1.0
 40
1.0
 10
-1.6028
 20
-1.38794
 30
0.0
 10
-1.95964
 20
-1.30562
 30
0.0
 10
-2.07731
 20
-1.07988
 30
0.0
 10
-2.23862
 20
-0.8114
 30
0.0
 10
-2.23862
 20
-0.8114
 30
0.0
 10
-2.23904
 20
-0.77535
 30
0.0
 10
-2.23904
 20
-0.77535
 30
0.0
 10
-2.22482
 20
-0.76077
 30
0.0
 10
-2.22482
 20
-0.76077
 30
0.0
 10
-1.94563
 20
-0.66014
 30
0.0
 10
-1.94563
 20
-0.66014
 30
0.0
 10
-1.72033
 20
-0.56015
 30
0.0
 10
-1.72033
 20
-0.56015
 30
0.0
 10
-1.54422
 20
-0.55808
 30
0.0
 10
-1.1495
 20
-0.80579
 30
0.0
 10
-1.11077
 20
-1.04327
 30
0.0
 10
-1.11077
 20
-1.04327
 30
0.0
 10
-1.17235
 20
-1.31077
 30
0.0
 10
-1.35519
 20
-1.35258
 30
0.0
 10
-1.6028
 20
-1.38794
 30
0.0
  0
SPLINE
  5
77
330
1F
100
AcDbEntity
  8
Layer 1
 62
    22
370
     0
100
AcDbSpline
210
0.0
220
0.0
230
1.0
 70
    11
 71
     3
 72
    20
 73
    16
 74
     0
 42
0.0000000001
 43
0.0000000001
 40
0.0
 40
0.0
 40
0.0
 40
0.0
 40
0.25
 40
0.25
 40
0.25
 40
0.25
 40
0.5
 40
0.5
 40
0.5
 40
0.5
 40
0.75
 40
0.75
 40
0.75
 40
0.75
 40
1.0
 40
1.0
 40
1.0
 40
1.0
 10
1.52144
 20
-1.12043
 30
0.0
 10
1.42367
 20
-1.06029
 30
0.0
 10
1.30571
 20
-0.80933
 30
0.0
 10
1.26542
 20
-0.74491
 30
0.0
 10
1.26542
 20
-0.74491
 30
0.0
 10
1.06478
 20
-0.49492
 30
0.0
 10
1.15561
 20
-0.57676
 30
0.0
 10
1.19946
 20
-0.3311
 30
0.0
 10
1.19946
 20
-0.3311
 30
0.0
 10
1.27494
 20
-0.33021
 30
0.0
 10
1.28724
 20
-0.45985
 30
0.0
 10
1.38467
 20
-0.49115
 30
0.0
 10
1.38467
 20
-0.49115
 30
0.0
 10
1.52298
 20
-0.63733
 30
0.0
 10
1.9878
 20
-1.03923
 30
0.0
 10
1.52144
 20
-1.12043
 30
0.0
  0
SPLINE
  5
78
330
1F
100
AcDbEntity
  8
Layer 1
 62
    22
370
     0
100
AcDbSpline
210
0.0
220
0.0
230
1.0
 70
    11
 71
     3
 72
   168
 73
   164
 74
     0
 42
0.0000000001
 43
0.0000000001
 40
0.0
 40
0.0
 40
0.0
 40
0.0
 40
0.024390243902439
 40
0.024390243902439
 40
0.024390243902439
 40
0.024390243902439
 40
0.0487804878048781
 40
0.0487804878048781
 40
0.0487804878048781
 40
0.0487804878048781
 40
0.0731707317073171
 40
0.0731707317073171
 40
0.0731707317073171
 40
0.0731707317073171
 40
0.0975609756097561
 40
0.0975609756097561
 40
0.0975609756097561
 40
0.0975609756097561
 40
0.1219512195121951
 40
0.1219512195121951
 40
0.1219512195121951
 40
0.1219512195121951
 40
0.1463414634146341
 40
0.1463414634146341
 40
0.1463414634146341
 40
0.1463414634146341
 40
0.1707317073170732
 40
0.1707317073170732
 40
0.1707317073170732
 40
0.1707317073170732
 40
0.1951219512195122
 40
0.1951219512195122
 40
0.1951219512195122
 40
0.1951219512195122
 40
0.2195121951219512
 40
0.2195121951219512
 40
0.2195121951219512
 40
0.2195121951219512
 40
0.2439024390243902
 40
0.2439024390243902
 40
0.2439024390243902
 40
0.2439024390243902
 40
0.2682926829268292
 40
0.2682926829268292
 40
0.2682926829268292
 40
0.2682926829268292
 40
0.2926829268292683
 40
0.2926829268292683
 40
0.2926829268292683
 40
0.2926829268292683
 40
0.3170731707317073
 40
0.3170731707317073
 40
0.3170731707317073
 40
0.3170731707317073
 40
0.3414634146341464
 40
0.3414634146341464
 40
0.3414634146341464
 40
0.3414634146341464
 40
0.3658536585365854
 40
0.3658536585365854
 40
0.3658536585365854
 40
0.3658536585365854
 40
0.3902439024390245
 40
0.3902439024390245
 40
0.3902439024390245
 40
0.3902439024390245
 40
0.4146341463414635
 40
0.4146341463414635
 40
0.4146341463414635
 40
0.4146341463414635
 40
0.4390243902439026
 40
0.4390243902439026
 40
0.4390243902439026
 40
0.4390243902439026
 40
0.4634146341463416
 40
0.4634146341463416
 40
0.4634146341463416
 40
0.4634146341463416
 40
0.4878048780487806
 40
0.4878048780487806
 40
0.4878048780487806
 40
0.4878048780487806
 40
0.5121951219512196
 40
0.5121951219512196
 40
0.5121951219512196
 40
0.5121951219512196
 40
0.5365853658536587
 40
0.5365853658536587
 40
0.5365853658536587
 40
0.5365853658536587
 40
0.5609756097560977
 40
0.5609756097560977
 40
0.5609756097560977
 40
0.5609756097560977
 40
0.5853658536585368
 40
0.5853658536585368
 40
0.5853658536585368
 40
0.5853658536585368
 40
0.6097560975609758
 40
0.6097560975609758
 40
0.6097560975609758
 40
0.6097560975609758
 40
0.6341463414634149
 40
0.6341463414634149
 40
0.6341463414634149
 40
0.6341463414634149
 40
0.6585365853658539
 40
0.6585365853658539
 40
0.6585365853658539
 40
0.6585365853658539
 40
0.682926829268293
 40
0.682926829268293
 40
0.682926829268293
 40
0.682926829268293
 40
0.707317073170732
 40
0.707317073170732
 40
0.707317073170732
 40
0.707317073170732
 40
0.731707317073171
 40
0.731707317073171
 40
0.731707317073171
 40
0.731707317073171
 40
0.7560975609756101
 40
0.7560975609756101
 40
0.7560975609756101
 40
0.7560975609756101
 40
0.7804878048780491
 40
0.7804878048780491
 40
0.7804878048780491
 40
0.7804878048780491
 40
0.8048780487804882
 40
0.8048780487804882
 40
0.8048780487804882
 40
0.8048780487804882
 40
0.8292682926829272
 40
0.8292682926829272
 40
0.8292682926829272
 40
0.8292682926829272
 40
0.8536585365853663
 40
0.8536585365853663
 40
0.8536585365853663
 40
0.8536585365853663
 40
0.8780487804878053
 40
0.8780487804878053
 40
0.8780487804878053
 40
0.8780487804878053
 40
0.9024390243902444
 40
0.9024390243902444
 40
0.9024390243902444
 40
0.9024390243902444
 40
0.9268292682926834
 40
0.9268292682926834
 40
0.9268292682926834
 40
0.9268292682926834
 40
0.9512195121951225
 40
0.9512195121951225
 40
0.9512195121951225
 40
0.9512195121951225
 40
0.9756097560975615
 40
0.9756097560975615
 40
0.9756097560975615
 40
0.9756097560975615
 40
1.0
 40
1.0
 40
1.0
 40
1.0
 10
-4.80475
 20
-1.15886
 30
0.0
 10
-4.81252
 20
-1.10848
 30
0.0
 10
-4.80382
 20
-0.93173
 30
0.0
 10
-4.82465
 20
-0.68683
 30
0.0
 10
-4.82465
 20
-0.68683
 30
0.0
 10
-4.83903
 20
-0.687
 30
0.0
 10
-4.85341
 20
-0.68717
 30
0.0
 10
-4.86415
 20
-0.6909
 30
0.0
 10
-4.86415
 20
-0.6909
 30
0.0
 10
-4.90889
 20
-0.86086
 30
0.0
 10
-4.91875
 20
-0.94029
 30
0.0
 10
-5.07621
 20
-0.99983
 30
0.0
 10
-5.07621
 20
-0.99983
 30
0.0
 10
-5.08074
 20
-0.92057
 30
0.0
 10
-5.0494
 20
-0.83368
 30
0.0
 10
-5.04276
 20
-0.78673
 30
0.0
 10
-5.04276
 20
-0.78673
 30
0.0
 10
-5.04443
 20
-0.64255
 30
0.0
 10
-5.04254
 20
-0.49833
 30
0.0
 10
-5.09403
 20
-0.39799
 30
0.0
 10
-5.09403
 20
-0.39799
 30
0.0
 10
-5.33912
 20
-0.34319
 30
0.0
 10
-5.41201
 20
-0.25753
 30
0.0
 10
-5.51472
 20
-0.08209
 30
0.0
 10
-5.51472
 20
-0.08209
 30
0.0
 10
-5.62347
 20
-0.00406
 30
0.0
 10
-5.77384
 20
-0.0563
 30
0.0
 10
-5.85973
 20
-0.08976
 30
0.0
 10
-5.85973
 20
-0.08976
 30
0.0
 10
-5.86132
 20
0.04722
 30
0.0
 10
-5.54922
 20
0.10136
 30
0.0
 10
-5.44521
 20
0.12061
 30
0.0
 10
-5.44521
 20
0.12061
 30
0.0
 10
-5.44532
 20
0.13143
 30
0.0
 10
-5.44185
 20
0.14228
 30
0.0
 10
-5.43836
 20
0.14953
 30
0.0
 10
-5.43836
 20
0.14953
 30
0.0
 10
-5.49654
 20
0.20653
 30
0.0
 10
-5.55045
 20
0.2059
 30
0.0
 10
-5.60812
 20
0.21964
 30
0.0
 10
-5.60812
 20
0.21964
 30
0.0
 10
-5.6082
 20
0.22685
 30
0.0
 10
-5.60829
 20
0.23405
 30
0.0
 10
-5.60836
 20
0.24126
 30
0.0
 10
-5.60836
 20
0.24126
 30
0.0
 10
-5.54385
 20
0.25644
 30
0.0
 10
-5.335
 20
0.22646
 30
0.0
 10
-5.27424
 20
0.25601
 30
0.0
 10
-5.27424
 20
0.25601
 30
0.0
 10
-5.27445
 20
0.27404
 30
0.0
 10
-5.27462
 20
0.28845
 30
0.0
 10
-5.27479
 20
0.30287
 30
0.0
 10
-5.27479
 20
0.30287
 30
0.0
 10
-5.37974
 20
0.36292
 30
0.0
 10
-5.43382
 20
0.37671
 30
0.0
 10
-5.50228
 20
0.39032
 30
0.0
 10
-5.50228
 20
0.39032
 30
0.0
 10
-5.69725
 20
0.77016
 30
0.0
 10
-5.99569
 20
0.77747
 30
0.0
 10
-6.1601
 20
0.38979
 30
0.0
 10
-6.1601
 20
0.38979
 30
0.0
 10
-6.18209
 20
0.11915
 30
0.0
 10
-6.18209
 20
0.11915
 30
0.0
 10
-6.19631
 20
0.10456
 30
0.0
 10
-6.19631
 20
0.10456
 30
0.0
 10
-6.27875
 20
0.08556
 30
0.0
 10
-6.34285
 20
0.03434
 30
0.0
 10
-6.40024
 20
0.02285
 30
0.0
 10
-6.40024
 20
0.02285
 30
0.0
 10
-6.39859
 20
0.1887
 30
0.0
 10
-6.39225
 20
0.26088
 30
0.0
 10
-6.24552
 20
0.31668
 30
0.0
 10
-6.24552
 20
0.31668
 30
0.0
 10
-6.24564
 20
0.32749
 30
0.0
 10
-6.24577
 20
0.33831
 30
0.0
 10
-6.2459
 20
0.34912
 30
0.0
 10
-6.2459
 20
0.34912
 30
0.0
 10
-6.47574
 20
0.63843
 30
0.0
 10
-6.20123
 20
0.83273
 30
0.0
 10
-5.96951
 20
0.99768
 30
0.0
 10
-5.96951
 20
0.99768
 30
0.0
 10
-5.5157
 20
1.23015
 30
0.0
 10
-5.22149
 20
1.27687
 30
0.0
 10
-4.71623
 20
1.10617
 30
0.0
 10
-4.71623
 20
1.10617
 30
0.0
 10
-4.53501
 20
0.97852
 30
0.0
 10
-4.35001
 20
0.8365
 30
0.0
 10
-4.13293
 20
0.71648
 30
0.0
 10
-4.13293
 20
0.71648
 30
0.0
 10
-4.0753
 20
0.70634
 30
0.0
 10
-3.91706
 20
0.701
 30
0.0
 10
-3.84798
 20
0.63331
 30
0.0
 10
-3.84798
 20
0.63331
 30
0.0
 10
-3.96832
 20
0.47327
 30
0.0
 10
-4.18647
 20
0.6834
 30
0.0
 10
-4.23292
 20
0.66123
 30
0.0
 10
-4.23292
 20
0.66123
 30
0.0
 10
-4.2328
 20
0.65041
 30
0.0
 10
-4.23267
 20
0.6396
 30
0.0
 10
-4.23251
 20
0.62518
 30
0.0
 10
-4.23251
 20
0.62518
 30
0.0
 10
-4.00794
 20
0.48002
 30
0.0
 10
-3.85893
 20
0.34117
 30
0.0
 10
-3.5846
 20
0.24346
 30
0.0
 10
-3.5846
 20
0.24346
 30
0.0
 10
-3.58088
 20
0.23269
 30
0.0
 10
-3.57714
 20
0.22192
 30
0.0
 10
-3.57343
 20
0.21115
 30
0.0
 10
-3.57343
 20
0.21115
 30
0.0
 10
-3.65246
 20
0.20661
 30
0.0
 10
-3.6953
 20
0.18087
 30
0.0
 10
-3.75275
 20
0.17659
 30
0.0
 10
-3.75275
 20
0.17659
 30
0.0
 10
-3.95522
 20
0.27515
 30
0.0
 10
-3.95522
 20
0.27515
 30
0.0
 10
-4.0057
 20
0.28897
 30
0.0
 10
-4.0057
 20
0.28897
 30
0.0
 10
-3.99746
 20
0.19894
 30
0.0
 10
-3.72942
 20
0.02545
 30
0.0
 10
-3.60291
 20
-0.03435
 30
0.0
 10
-3.60291
 20
-0.03435
 30
0.0
 10
-3.60283
 20
-0.04156
 30
0.0
 10
-3.60274
 20
-0.04876
 30
0.0
 10
-3.60265
 20
-0.05597
 30
0.0
 10
-3.60265
 20
-0.05597
 30
0.0
 10
-3.68161
 20
-0.06772
 30
0.0
 10
-3.75696
 20
-0.07942
 30
0.0
 10
-3.83225
 20
-0.09473
 30
0.0
 10
-3.83225
 20
-0.09473
 30
0.0
 10
-3.87734
 20
-0.23586
 30
0.0
 10
-3.71032
 20
-0.37809
 30
0.0
 10
-3.68707
 20
-0.52202
 30
0.0
 10
-3.68707
 20
-0.52202
 30
0.0
 10
-3.97101
 20
-0.52537
 30
0.0
 10
-4.02226
 20
-0.44666
 30
0.0
 10
-4.17173
 20
-0.26816
 30
0.0
 10
-4.17173
 20
-0.26816
 30
0.0
 10
-4.18256
 20
-0.26469
 30
0.0
 10
-4.19334
 20
-0.26481
 30
0.0
 10
-4.20053
 20
-0.2649
 30
0.0
 10
-4.20053
 20
-0.2649
 30
0.0
 10
-4.18904
 20
-0.32605
 30
0.0
 10
-4.13063
 20
-0.40107
 30
0.0
 10
-4.07584
 20
-0.47613
 30
0.0
 10
-4.07584
 20
-0.47613
 30
0.0
 10
-4.03491
 20
-0.59461
 30
0.0
 10
-4.06202
 20
-0.73553
 30
0.0
 10
-4.12141
 20
-0.88043
 30
0.0
 10
-4.12141
 20
-0.88043
 30
0.0
 10
-4.19357
 20
-0.85965
 30
0.0
 10
-4.25238
 20
-0.74859
 30
0.0
 10
-4.27424
 20
-0.72361
 30
0.0
 10
-4.27424
 20
-0.72361
 30
0.0
 10
-4.30676
 20
-0.70957
 30
0.0
 10
-4.33927
 20
-0.69553
 30
0.0
 10
-4.36819
 20
-0.68145
 30
0.0
 10
-4.36819
 20
-0.68145
 30
0.0
 10
-4.37889
 20
-0.68879
 30
0.0
 10
-4.38959
 20
-0.69613
 30
0.0
 10
-4.40029
 20
-0.70346
 30
0.0
 10
-4.40029
 20
-0.70346
 30
0.0
 10
-4.45919
 20
-0.89162
 30
0.0
 10
-4.6113
 20
-1.10251
 30
0.0
 10
-4.80475
 20
-1.15886
 30
0.0
  0
SPLINE
  5
79
330
1F
100
AcDbEntity
  8
Layer 1
 62
    22
370
     0
100
AcDbSpline
210
0.0
220
0.0
230
1.0
 70
    11
 71
     3
 72
    24
 73
    20
 74
     0
 42
0.0000000001
 43
0.0000000001
 40
0.0
 40
0.0
 40
0.0
 40
0.0
 40
0.2
 40
0.2
 40
0.2
 40
0.2
 40
0.4
 40
0.4
 40
0.4
 40
0.4
 40
0.6000000000000001
 40
0.6000000000000001
 40
0.6000000000000001
 40
0.6000000000000001
 40
0.8
 40
0.8
 40
0.8
 40
0.8
 40
1.0
 40
1.0
 40
1.0
 40
1.0
 10
0.28711
 20
-1.00518
 30
0.0
 10
0.13493
 20
-0.90242
 30
0.0
 10
0.03981
 20
-0.75934
 30
0.0
 10
-0.03707
 20
-0.64128
 30
0.0
 10
-0.03707
 20
-0.64128
 30
0.0
 10
-0.02346
 20
-0.57623
 30
0.0
 10
0.04103
 20
-0.55744
 30
0.0
 10
0.09084
 20
-0.51359
 30
0.0
 10
0.09084
 20
-0.51359
 30
0.0
 10
0.11905
 20
-0.4664
 30
0.0
 10
0.14725
 20
-0.4192
 30
0.0
 10
0.17548
 20
-0.3756
 30
0.0
 10
0.17548
 20
-0.3756
 30
0.0
 10
0.18628
 20
-0.37548
 30
0.0
 10
0.19706
 20
-0.37535
 30
0.0
 10
0.21144
 20
-0.37518
 30
0.0
 10
0.21144
 20
-0.37518
 30
0.0
 10
0.32467
 20
-0.52887
 30
0.0
 10
0.73224
 20
-0.95307
 30
0.0
 10
0.28711
 20
-1.00518
 30
0.0
  0
SPLINE
  5
7A
330
1F
100
AcDbEntity
  8
Layer 1
 62
    22
370
     0
100
AcDbSpline
210
0.0
220
0.0
230
1.0
 70
    11
 71
     3
 72
    32
 73
    28
 74
     0
 42
0.0000000001
 43
0.0000000001
 40
0.0
 40
0.0
 40
0.0
 40
0.0
 40
0.1428571428571428
 40
0.1428571428571428
 40
0.1428571428571428
 40
0.1428571428571428
 40
0.2857142857142857
 40
0.2857142857142857
 40
0.2857142857142857
 40
0.2857142857142857
 40
0.4285714285714285
 40
0.4285714285714285
 40
0.4285714285714285
 40
0.4285714285714285
 40
0.5714285714285714
 40
0.5714285714285714
 40
0.5714285714285714
 40
0.5714285714285714
 40
0.7142857142857142
 40
0.7142857142857142
 40
0.7142857142857142
 40
0.7142857142857142
 40
0.857142857142857
 40
0.857142857142857
 40
0.857142857142857
 40
0.857142857142857
 40
1.0
 40
1.0
 40
1.0
 40
1.0
 10
-0.77059
 20
-0.93111
 30
0.0
 10
-0.80314
 20
-0.91347
 30
0.0
 10
-0.83211
 20
-0.89578
 30
0.0
 10
-0.86108
 20
-0.8781
 30
0.0
 10
-0.86108
 20
-0.8781
 30
0.0
 10
-1.01791
 20
-0.68527
 30
0.0
 10
-1.19969
 20
-0.51076
 30
0.0
 10
-1.38421
 20
-0.40839
 30
0.0
 10
-1.38421
 20
-0.40839
 30
0.0
 10
-1.38801
 20
-0.39041
 30
0.0
 10
-1.39182
 20
-0.37243
 30
0.0
 10
-1.39199
 20
-0.35801
 30
0.0
 10
-1.39199
 20
-0.35801
 30
0.0
 10
-1.21372
 20
-0.23334
 30
0.0
 10
-1.21372
 20
-0.23334
 30
0.0
 10
-0.99646
 20
-0.06134
 30
0.0
 10
-0.99646
 20
-0.06134
 30
0.0
 10
-0.9603
 20
-0.07894
 30
0.0
 10
-0.90158
 20
-0.1828
 30
0.0
 10
-0.86123
 20
-0.25082
 30
0.0
 10
-0.86123
 20
-0.25082
 30
0.0
 10
-0.69358
 20
-0.44712
 30
0.0
 10
-0.22359
 20
-0.67592
 30
0.0
 10
-0.60894
 20
-0.922
 30
0.0
 10
-0.60894
 20
-0.922
 30
0.0
 10
-0.66285
 20
-0.92263
 30
0.0
 10
-0.71671
 20
-0.92687
 30
0.0
 10
-0.77059
 20
-0.93111
 30
0.0
  0
SPLINE
  5
7B
330
1F
100
AcDbEntity
  8
Layer 1
 62
    22
370
     0
100
AcDbSpline
210
0.0
220
0.0
230
1.0
 70
    11
 71
     3
 72
    20
 73
    16
 74
     0
 42
0.0000000001
 43
0.0000000001
 40
0.0
 40
0.0
 40
0.0
 40
0.0
 40
0.25
 40
0.25
 40
0.25
 40
0.25
 40
0.5
 40
0.5
 40
0.5
 40
0.5
 40
0.75
 40
0.75
 40
0.75
 40
0.75
 40
1.0
 40
1.0
 40
1.0
 40
1.0
 10
-6.20004
 20
-0.80396
 30
0.0
 10
-6.20208
 20
-0.63094
 30
0.0
 10
-6.11703
 20
-0.5254
 30
0.0
 10
-6.0106
 20
-0.40518
 30
0.0
 10
-6.0106
 20
-0.40518
 30
0.0
 10
-6.01048
 20
-0.41599
 30
0.0
 10
-6.0103
 20
-0.43041
 30
0.0
 10
-6.00654
 20
-0.44478
 30
0.0
 10
-6.00654
 20
-0.44478
 30
0.0
 10
-6.10244
 20
-0.54325
 30
0.0
 10
-6.12638
 20
-0.64808
 30
0.0
 10
-6.17497
 20
-0.79646
 30
0.0
 10
-6.17497
 20
-0.79646
 30
0.0
 10
-6.18575
 20
-0.79659
 30
0.0
 10
-6.1929
 20
-0.80028
 30
0.0
 10
-6.20004
 20
-0.80396
 30
0.0
  0
SPLINE
  5
7C
330
1F
100
AcDbEntity
  8
Layer 1
 62
    22
370
     0
100
AcDbSpline
210
0.0
220
0.0
230
1.0
 70
    11
 71
     3
 72
    24
 73
    20
 74
     0
 42
0.0000000001
 43
0.0000000001
 40
0.0
 40
0.0
 40
0.0
 40
0.0
 40
0.2
 40
0.2
 40
0.2
 40
0.2
 40
0.4
 40
0.4
 40
0.4
 40
0.4
 40
0.6000000000000001
 40
0.6000000000000001
 40
0.6000000000000001
 40
0.6000000000000001
 40
0.8
 40
0.8
 40
0.8
 40
0.8
 40
1.0
 40
1.0
 40
1.0
 40
1.0
 10
-6.42678
 20
-0.7814
 30
0.0
 10
-6.51806
 20
-0.6599
 30
0.0
 10
-6.48394
 20
-0.50448
 30
0.0
 10
-6.4852
 20
-0.39634
 30
0.0
 10
-6.4852
 20
-0.39634
 30
0.0
 10
-6.40917
 20
-0.13588
 30
0.0
 10
-6.37293
 20
-0.16069
 30
0.0
 10
-6.11073
 20
-0.14318
 30
0.0
 10
-6.11073
 20
-0.14318
 30
0.0
 10
-6.11761
 20
-0.1685
 30
0.0
 10
-6.11761
 20
-0.1685
 30
0.0
 10
-6.27002
 20
-0.35415
 30
0.0
 10
-6.27002
 20
-0.35415
 30
0.0
 10
-6.29729
 20
-0.48065
 30
0.0
 10
-6.36018
 20
-0.63641
 30
0.0
 10
-6.39082
 20
-0.78098
 30
0.0
 10
-6.39082
 20
-0.78098
 30
0.0
 10
-6.40521
 20
-0.78114
 30
0.0
 10
-6.416
 20
-0.78127
 30
0.0
 10
-6.42678
 20
-0.7814
 30
0.0
  0
SPLINE
  5
7D
330
1F
100
AcDbEntity
  8
Layer 1
 62
    22
370
     0
100
AcDbSpline
210
0.0
220
0.0
230
1.0
 70
    11
 71
     3
 72
    24
 73
    20
 74
     0
 42
0.0000000001
 43
0.0000000001
 40
0.0
 40
0.0
 40
0.0
 40
0.0
 40
0.2
 40
0.2
 40
0.2
 40
0.2
 40
0.4
 40
0.4
 40
0.4
 40
0.4
 40
0.6000000000000001
 40
0.6000000000000001
 40
0.6000000000000001
 40
0.6000000000000001
 40
0.8
 40
0.8
 40
0.8
 40
0.8
 40
1.0
 40
1.0
 40
1.0
 40
1.0
 10
1.88603
 20
-0.63666
 30
0.0
 10
1.85694
 20
-0.60816
 30
0.0
 10
1.82822
 20
-0.61211
 30
0.0
 10
1.80303
 20
-0.6088
 30
0.0
 10
1.80303
 20
-0.6088
 30
0.0
 10
1.68339
 20
-0.52368
 30
0.0
 10
1.32352
 20
-0.18183
 30
0.0
 10
1.32239
 20
-0.08451
 30
0.0
 10
1.32239
 20
-0.08451
 30
0.0
 10
1.37956
 20
-0.055
 30
0.0
 10
1.66152
 20
-0.18867
 30
0.0
 10
1.77347
 20
-0.23422
 30
0.0
 10
1.77347
 20
-0.23422
 30
0.0
 10
1.87078
 20
-0.2547
 30
0.0
 10
1.96811
 20
-0.27879
 30
0.0
 10
2.06545
 20
-0.30288
 30
0.0
 10
2.06545
 20
-0.30288
 30
0.0
 10
2.13229
 20
-0.48595
 30
0.0
 10
2.05462
 20
-0.60584
 30
0.0
 10
1.88603
 20
-0.63666
 30
0.0
  0
SPLINE
  5
7E
330
1F
100
AcDbEntity
  8
Layer 1
 62
    22
370
     0
100
AcDbSpline
210
0.0
220
0.0
230
1.0
 70
    11
 71
     3
 72
    32
 73
    28
 74
     0
 42
0.0000000001
 43
0.0000000001
 40
0.0
 40
0.0
 40
0.0
 40
0.0
 40
0.1428571428571428
 40
0.1428571428571428
 40
0.1428571428571428
 40
0.1428571428571428
 40
0.2857142857142857
 40
0.2857142857142857
 40
0.2857142857142857
 40
0.2857142857142857
 40
0.4285714285714285
 40
0.4285714285714285
 40
0.4285714285714285
 40
0.4285714285714285
 40
0.5714285714285714
 40
0.5714285714285714
 40
0.5714285714285714
 40
0.5714285714285714
 40
0.7142857142857142
 40
0.7142857142857142
 40
0.7142857142857142
 40
0.7142857142857142
 40
0.857142857142857
 40
0.857142857142857
 40
0.857142857142857
 40
0.857142857142857
 40
1.0
 40
1.0
 40
1.0
 40
1.0
 10
-3.37239
 20
-0.68776
 30
0.0
 10
-3.40846
 20
-0.67737
 30
0.0
 10
-3.44089
 20
-0.67054
 30
0.0
 10
-3.47333
 20
-0.66371
 30
0.0
 10
-3.47333
 20
-0.66371
 30
0.0
 10
-3.47345
 20
-0.6529
 30
0.0
 10
-3.47358
 20
-0.64208
 30
0.0
 10
-3.47366
 20
-0.63487
 30
0.0
 10
-3.47366
 20
-0.63487
 30
0.0
 10
-3.43434
 20
-0.61638
 30
0.0
 10
-3.39142
 20
-0.59785
 30
0.0
 10
-3.34851
 20
-0.57932
 30
0.0
 10
-3.34851
 20
-0.57932
 30
0.0
 10
-3.34872
 20
-0.5613
 30
0.0
 10
-3.34527
 20
-0.54684
 30
0.0
 10
-3.34186
 20
-0.53238
 30
0.0
 10
-3.34186
 20
-0.53238
 30
0.0
 10
-3.3165
 20
-0.5501
 30
0.0
 10
-3.29111
 20
-0.56783
 30
0.0
 10
-3.26574
 20
-0.58556
 30
0.0
 10
-3.26574
 20
-0.58556
 30
0.0
 10
-3.26555
 20
-0.60358
 30
0.0
 10
-3.26534
 20
-0.6216
 30
0.0
 10
-3.26511
 20
-0.63963
 30
0.0
 10
-3.26511
 20
-0.63963
 30
0.0
 10
-3.30089
 20
-0.65447
 30
0.0
 10
-3.33667
 20
-0.66931
 30
0.0
 10
-3.37239
 20
-0.68776
 30
0.0
  0
SPLINE
  5
7F
330
1F
100
AcDbEntity
  8
Layer 1
 62
    22
370
     0
100
AcDbSpline
210
0.0
220
0.0
230
1.0
 70
    11
 71
     3
 72
    20
 73
    16
 74
     0
 42
0.0000000001
 43
0.0000000001
 40
0.0
 40
0.0
 40
0.0
 40
0.0
 40
0.25
 40
0.25
 40
0.25
 40
0.25
 40
0.5
 40
0.5
 40
0.5
 40
0.5
 40
0.75
 40
0.75
 40
0.75
 40
0.75
 40
1.0
 40
1.0
 40
1.0
 40
1.0
 10
0.6876
 20
-0.51738
 30
0.0
 10
0.47805
 20
-0.42612
 30
0.0
 10
0.24718
 20
-0.0503
 30
0.0
 10
0.22017
 20
0.108
 30
0.0
 10
0.22017
 20
0.108
 30
0.0
 10
0.30228
 20
0.15584
 30
0.0
 10
0.31269
 20
0.1884
 30
0.0
 10
0.40597
 20
0.20392
 30
0.0
 10
0.40597
 20
0.20392
 30
0.0
 10
0.56888
 20
0.1049
 30
0.0
 10
1.22036
 20
-0.27318
 30
0.0
 10
0.80613
 20
-0.50878
 30
0.0
 10
0.80613
 20
-0.50878
 30
0.0
 10
0.76659
 20
-0.50924
 30
0.0
 10
0.7271
 20
-0.51331
 30
0.0
 10
0.6876
 20
-0.51738
 30
0.0
  0
SPLINE
  5
80
330
1F
100
AcDbEntity
  8
Layer 1
 62
    22
370
     0
100
AcDbSpline
210
0.0
220
0.0
230
1.0
 70
    11
 71
     3
 72
    28
 73
    24
 74
     0
 42
0.0000000001
 43
0.0000000001
 40
0.0
 40
0.0
 40
0.0
 40
0.0
 40
0.1666666666666667
 40
0.1666666666666667
 40
0.1666666666666667
 40
0.1666666666666667
 40
0.3333333333333333
 40
0.3333333333333333
 40
0.3333333333333333
 40
0.3333333333333333
 40
0.5
 40
0.5
 40
0.5
 40
0.5
 40
0.6666666666666666
 40
0.6666666666666666
 40
0.6666666666666666
 40
0.6666666666666666
 40
0.8333333333333333
 40
0.8333333333333333
 40
0.8333333333333333
 40
0.8333333333333333
 40
1.0
 40
1.0
 40
1.0
 40
1.0
 10
-0.30993
 20
-0.36329
 30
0.0
 10
-0.54101
 20
-0.27589
 30
0.0
 10
-0.73813
 20
-0.01864
 30
0.0
 10
-0.74059
 20
0.19042
 30
0.0
 10
-0.74059
 20
0.19042
 30
0.0
 10
-0.67322
 20
0.27053
 30
0.0
 10
-0.60582
 20
0.34703
 30
0.0
 10
-0.53841
 20
0.42353
 30
0.0
 10
-0.53841
 20
0.42353
 30
0.0
 10
-0.52404
 20
0.4237
 30
0.0
 10
-0.50966
 20
0.42387
 30
0.0
 10
-0.49528
 20
0.42404
 30
0.0
 10
-0.49528
 20
0.42404
 30
0.0
 10
-0.45516
 20
0.37404
 30
0.0
 10
-0.41503
 20
0.32404
 30
0.0
 10
-0.37131
 20
0.27408
 30
0.0
 10
-0.37131
 20
0.27408
 30
0.0
 10
-0.12412
 20
0.03906
 30
0.0
 10
0.06688
 20
-0.00195
 30
0.0
 10
-0.10184
 20
-0.3284
 30
0.0
 10
-0.10184
 20
-0.3284
 30
0.0
 10
-0.1591
 20
-0.3507
 30
0.0
 10
-0.1591
 20
-0.3507
 30
0.0
 10
-0.30993
 20
-0.36329
 30
0.0
  0
SPLINE
  5
81
330
1F
100
AcDbEntity
  8
Layer 1
 62
    22
370
     0
100
AcDbSpline
210
0.0
220
0.0
230
1.0
 70
    11
 71
     3
 72
    28
 73
    24
 74
     0
 42
0.0000000001
 43
0.0000000001
 40
0.0
 40
0.0
 40
0.0
 40
0.0
 40
0.1666666666666667
 40
0.1666666666666667
 40
0.1666666666666667
 40
0.1666666666666667
 40
0.3333333333333333
 40
0.3333333333333333
 40
0.3333333333333333
 40
0.3333333333333333
 40
0.5
 40
0.5
 40
0.5
 40
0.5
 40
0.6666666666666666
 40
0.6666666666666666
 40
0.6666666666666666
 40
0.6666666666666666
 40
0.8333333333333333
 40
0.8333333333333333
 40
0.8333333333333333
 40
0.8333333333333333
 40
1.0
 40
1.0
 40
1.0
 40
1.0
 10
-3.55704
 20
-0.26814
 30
0.0
 10
-3.56077
 20
-0.25736
 30
0.0
 10
-3.56448
 20
-0.24659
 30
0.0
 10
-3.56457
 20
-0.23938
 30
0.0
 10
-3.56457
 20
-0.23938
 30
0.0
 10
-3.45695
 20
-0.22009
 30
0.0
 10
-3.32426
 20
-0.19329
 30
0.0
 10
-3.19914
 20
-0.13414
 30
0.0
 10
-3.19914
 20
-0.13414
 30
0.0
 10
-3.19932
 20
-0.11972
 30
0.0
 10
-3.19584
 20
-0.10887
 30
0.0
 10
-3.19236
 20
-0.09801
 30
0.0
 10
-3.19236
 20
-0.09801
 30
0.0
 10
-3.29347
 20
-0.05954
 30
0.0
 10
-3.46007
 20
0.04665
 30
0.0
 10
-3.46096
 20
0.12234
 30
0.0
 10
-3.46096
 20
0.12234
 30
0.0
 10
-3.34506
 20
0.13106
 30
0.0
 10
-2.97836
 20
-0.00359
 30
0.0
 10
-3.07362
 20
-0.1579
 30
0.0
 10
-3.07362
 20
-0.1579
 30
0.0
 10
-3.15177
 20
-0.23813
 30
0.0
 10
-3.46605
 20
-0.36392
 30
0.0
 10
-3.55704
 20
-0.26814
 30
0.0
  0
SPLINE
  5
82
330
1F
100
AcDbEntity
  8
Layer 1
 62
    22
370
     0
100
AcDbSpline
210
0.0
220
0.0
230
1.0
 70
    11
 71
     3
 72
    28
 73
    24
 74
     0
 42
0.0000000001
 43
0.0000000001
 40
0.0
 40
0.0
 40
0.0
 40
0.0
 40
0.1666666666666667
 40
0.1666666666666667
 40
0.1666666666666667
 40
0.1666666666666667
 40
0.3333333333333333
 40
0.3333333333333333
 40
0.3333333333333333
 40
0.3333333333333333
 40
0.5
 40
0.5
 40
0.5
 40
0.5
 40
0.6666666666666666
 40
0.6666666666666666
 40
0.6666666666666666
 40
0.6666666666666666
 40
0.8333333333333333
 40
0.8333333333333333
 40
0.8333333333333333
 40
0.8333333333333333
 40
1.0
 40
1.0
 40
1.0
 40
1.0
 10
2.39696
 20
-0.06465
 30
0.0
 10
2.07657
 20
-0.02516
 30
0.0
 10
1.78469
 20
0.0363
 30
0.0
 10
1.50684
 20
0.12676
 30
0.0
 10
1.50684
 20
0.12676
 30
0.0
 10
1.51677
 20
0.19897
 30
0.0
 10
1.52676
 20
0.26759
 30
0.0
 10
1.53674
 20
0.3362
 30
0.0
 10
1.53674
 20
0.3362
 30
0.0
 10
1.56185
 20
0.3401
 30
0.0
 10
1.58701
 20
0.3404
 30
0.0
 10
1.61218
 20
0.3407
 30
0.0
 10
1.61218
 20
0.3407
 30
0.0
 10
2.21029
 20
0.22156
 30
0.0
 10
2.8076
 20
0.17091
 30
0.0
 10
3.44787
 20
0.13519
 30
0.0
 10
3.44787
 20
0.13519
 30
0.0
 10
3.4803
 20
0.12836
 30
0.0
 10
3.51273
 20
0.12153
 30
0.0
 10
3.54517
 20
0.1147
 30
0.0
 10
3.54517
 20
0.1147
 30
0.0
 10
3.46093
 20
-0.05933
 30
0.0
 10
2.55511
 20
-0.06279
 30
0.0
 10
2.39696
 20
-0.06465
 30
0.0
  0
SPLINE
  5
83
330
1F
100
AcDbEntity
  8
Layer 1
 62
    22
370
     0
100
AcDbSpline
210
0.0
220
0.0
230
1.0
 70
    11
 71
     3
 72
    24
 73
    20
 74
     0
 42
0.0000000001
 43
0.0000000001
 40
0.0
 40
0.0
 40
0.0
 40
0.0
 40
0.2
 40
0.2
 40
0.2
 40
0.2
 40
0.4
 40
0.4
 40
0.4
 40
0.4
 40
0.6000000000000001
 40
0.6000000000000001
 40
0.6000000000000001
 40
0.6000000000000001
 40
0.8
 40
0.8
 40
0.8
 40
0.8
 40
1.0
 40
1.0
 40
1.0
 40
1.0
 10
1.08657
 20
0.10018
 30
0.0
 10
0.8234
 20
0.16558
 30
0.0
 10
0.64961
 20
0.27168
 30
0.0
 10
0.4505
 20
0.39191
 30
0.0
 10
0.4505
 20
0.39191
 30
0.0
 10
0.44635
 20
0.43873
 30
0.0
 10
0.4458
 20
0.48559
 30
0.0
 10
0.44529
 20
0.52884
 30
0.0
 10
0.44529
 20
0.52884
 30
0.0
 10
0.50636
 20
0.53317
 30
0.0
 10
1.07148
 20
0.46772
 30
0.0
 10
1.16882
 20
0.44363
 30
0.0
 10
1.16882
 20
0.44363
 30
0.0
 10
1.29884
 20
0.39108
 30
0.0
 10
1.31479
 20
0.25788
 30
0.0
 10
1.23368
 20
0.12354
 30
0.0
 10
1.23368
 20
0.12354
 30
0.0
 10
1.18346
 20
0.11574
 30
0.0
 10
1.13321
 20
0.10794
 30
0.0
 10
1.08657
 20
0.10018
 30
0.0
  0
SPLINE
  5
84
330
1F
100
AcDbEntity
  8
Layer 1
 62
    22
370
     0
100
AcDbSpline
210
0.0
220
0.0
230
1.0
 70
    11
 71
     3
 72
    20
 73
    16
 74
     0
 42
0.0000000001
 43
0.0000000001
 40
0.0
 40
0.0
 40
0.0
 40
0.0
 40
0.25
 40
0.25
 40
0.25
 40
0.25
 40
0.5
 40
0.5
 40
0.5
 40
0.5
 40
0.75
 40
0.75
 40
0.75
 40
0.75
 40
1.0
 40
1.0
 40
1.0
 40
1.0
 10
-0.0159
 20
0.31432
 30
0.0
 10
-0.13548
 20
0.39583
 30
0.0
 10
-0.34911
 20
0.5267
 30
0.0
 10
-0.35045
 20
0.64205
 30
0.0
 10
-0.35045
 20
0.64205
 30
0.0
 10
-0.29023
 20
0.71846
 30
0.0
 10
-0.23002
 20
0.79488
 30
0.0
 10
-0.1698
 20
0.87129
 30
0.0
 10
-0.1698
 20
0.87129
 30
0.0
 10
-0.1087
 20
0.87201
 30
0.0
 10
0.16191
 20
0.78507
 30
0.0
 10
0.26644
 20
0.76107
 30
0.0
 10
0.26644
 20
0.76107
 30
0.0
 10
0.25916
 20
0.46176
 30
0.0
 10
0.28889
 20
0.37919
 30
0.0
 10
-0.0159
 20
0.31432
 30
0.0
  0
SPLINE
  5
85
330
1F
100
AcDbEntity
  8
Layer 1
 62
    22
370
     0
100
AcDbSpline
210
0.0
220
0.0
230
1.0
 70
    11
 71
     3
 72
    12
 73
     8
 74
     0
 42
0.0000000001
 43
0.0000000001
 40
0.0
 40
0.0
 40
0.0
 40
0.0
 40
0.5
 40
0.5
 40
0.5
 40
0.5
 40
1.0
 40
1.0
 40
1.0
 40
1.0
 10
-6.05426
 20
0.25404
 30
0.0
 10
-6.11447
 20
0.48406
 30
0.0
 10
-5.83534
 20
0.59189
 30
0.0
 10
-5.78267
 20
0.39063
 30
0.0
 10
-5.78267
 20
0.39063
 30
0.0
 10
-5.90115
 20
0.37841
 30
0.0
 10
-5.96508
 20
0.31277
 30
0.0
 10
-6.05426
 20
0.25404
 30
0.0
  0
SPLINE
  5
86
330
1F
100
AcDbEntity
  8
Layer 1
 62
    22
370
     0
100
AcDbSpline
210
0.0
220
0.0
230
1.0
 70
    11
 71
     3
 72
    32
 73
    28
 74
     0
 42
0.0000000001
 43
0.0000000001
 40
0.0
 40
0.0
 40
0.0
 40
0.0
 40
0.1428571428571428
 40
0.1428571428571428
 40
0.1428571428571428
 40
0.1428571428571428
 40
0.2857142857142857
 40
0.2857142857142857
 40
0.2857142857142857
 40
0.2857142857142857
 40
0.4285714285714285
 40
0.4285714285714285
 40
0.4285714285714285
 40
0.4285714285714285
 40
0.5714285714285714
 40
0.5714285714285714
 40
0.5714285714285714
 40
0.5714285714285714
 40
0.7142857142857142
 40
0.7142857142857142
 40
0.7142857142857142
 40
0.7142857142857142
 40
0.857142857142857
 40
0.857142857142857
 40
0.857142857142857
 40
0.857142857142857
 40
1.0
 40
1.0
 40
1.0
 40
1.0
 10
2.9775
 20
0.39643
 30
0.0
 10
2.45229
 20
0.4299
 30
0.0
 10
1.98804
 20
0.4749
 30
0.0
 10
1.51215
 20
0.59548
 30
0.0
 10
1.51215
 20
0.59548
 30
0.0
 10
1.52254
 20
0.62805
 30
0.0
 10
1.52254
 20
0.62805
 30
0.0
 10
1.59332
 20
0.72261
 30
0.0
 10
1.59332
 20
0.72261
 30
0.0
 10
1.63282
 20
0.72668
 30
0.0
 10
1.65456
 20
0.71252
 30
0.0
 10
2.10133
 20
0.62405
 30
0.0
 10
2.10133
 20
0.62405
 30
0.0
 10
2.70257
 20
0.5446
 30
0.0
 10
3.31718
 20
0.55184
 30
0.0
 10
3.95695
 20
0.55937
 30
0.0
 10
3.95695
 20
0.55937
 30
0.0
 10
3.97495
 20
0.55598
 30
0.0
 10
3.9966
 20
0.54902
 30
0.0
 10
4.01826
 20
0.54207
 30
0.0
 10
4.01826
 20
0.54207
 30
0.0
 10
4.01474
 20
0.53482
 30
0.0
 10
4.01124
 20
0.52756
 30
0.0
 10
4.00777
 20
0.51671
 30
0.0
 10
4.00777
 20
0.51671
 30
0.0
 10
3.66724
 20
0.43339
 30
0.0
 10
3.31514
 20
0.41843
 30
0.0
 10
2.9775
 20
0.39643
 30
0.0
  0
SPLINE
  5
87
330
1F
100
AcDbEntity
  8
Layer 1
 62
    22
370
     0
100
AcDbSpline
210
0.0
220
0.0
230
1.0
 70
    11
 71
     3
 72
   120
 73
   116
 74
     0
 42
0.0000000001
 43
0.0000000001
 40
0.0
 40
0.0
 40
0.0
 40
0.0
 40
0.0344827586206897
 40
0.0344827586206897
 40
0.0344827586206897
 40
0.0344827586206897
 40
0.0689655172413793
 40
0.0689655172413793
 40
0.0689655172413793
 40
0.0689655172413793
 40
0.103448275862069
 40
0.103448275862069
 40
0.103448275862069
 40
0.103448275862069
 40
0.1379310344827586
 40
0.1379310344827586
 40
0.1379310344827586
 40
0.1379310344827586
 40
0.1724137931034483
 40
0.1724137931034483
 40
0.1724137931034483
 40
0.1724137931034483
 40
0.206896551724138
 40
0.206896551724138
 40
0.206896551724138
 40
0.206896551724138
 40
0.2413793103448276
 40
0.2413793103448276
 40
0.2413793103448276
 40
0.2413793103448276
 40
0.2758620689655173
 40
0.2758620689655173
 40
0.2758620689655173
 40
0.2758620689655173
 40
0.310344827586207
 40
0.310344827586207
 40
0.310344827586207
 40
0.310344827586207
 40
0.3448275862068966
 40
0.3448275862068966
 40
0.3448275862068966
 40
0.3448275862068966
 40
0.3793103448275863
 40
0.3793103448275863
 40
0.3793103448275863
 40
0.3793103448275863
 40
0.413793103448276
 40
0.413793103448276
 40
0.413793103448276
 40
0.413793103448276
 40
0.4482758620689656
 40
0.4482758620689656
 40
0.4482758620689656
 40
0.4482758620689656
 40
0.4827586206896553
 40
0.4827586206896553
 40
0.4827586206896553
 40
0.4827586206896553
 40
0.517241379310345
 40
0.517241379310345
 40
0.517241379310345
 40
0.517241379310345
 40
0.5517241379310346
 40
0.5517241379310346
 40
0.5517241379310346
 40
0.5517241379310346
 40
0.5862068965517242
 40
0.5862068965517242
 40
0.5862068965517242
 40
0.5862068965517242
 40
0.6206896551724138
 40
0.6206896551724138
 40
0.6206896551724138
 40
0.6206896551724138
 40
0.6551724137931034
 40
0.6551724137931034
 40
0.6551724137931034
 40
0.6551724137931034
 40
0.689655172413793
 40
0.689655172413793
 40
0.689655172413793
 40
0.689655172413793
 40
0.7241379310344827
 40
0.7241379310344827
 40
0.7241379310344827
 40
0.7241379310344827
 40
0.7586206896551723
 40
0.7586206896551723
 40
0.7586206896551723
 40
0.7586206896551723
 40
0.7931034482758619
 40
0.7931034482758619
 40
0.7931034482758619
 40
0.7931034482758619
 40
0.8275862068965515
 40
0.8275862068965515
 40
0.8275862068965515
 40
0.8275862068965515
 40
0.8620689655172411
 40
0.8620689655172411
 40
0.8620689655172411
 40
0.8620689655172411
 40
0.8965517241379307
 40
0.8965517241379307
 40
0.8965517241379307
 40
0.8965517241379307
 40
0.9310344827586203
 40
0.9310344827586203
 40
0.9310344827586203
 40
0.9310344827586203
 40
0.9655172413793099
 40
0.9655172413793099
 40
0.9655172413793099
 40
0.9655172413793099
 40
1.0
 40
1.0
 40
1.0
 40
1.0
 10
-4.61539
 20
3.40693
 30
0.0
 10
-4.61484
 20
3.36007
 30
0.0
 10
-4.66421
 20
3.11121
 30
0.0
 10
-4.61694
 20
3.0649
 30
0.0
 10
-4.61694
 20
3.0649
 30
0.0
 10
-4.38607
 20
3.30195
 30
0.0
 10
-4.35969
 20
3.19771
 30
0.0
 10
-4.35623
 20
2.90213
 30
0.0
 10
-4.35623
 20
2.90213
 30
0.0
 10
-4.29871
 20
2.90281
 30
0.0
 10
-4.26327
 20
2.94649
 30
0.0
 10
-4.17322
 20
2.92952
 30
0.0
 10
-4.17322
 20
2.92952
 30
0.0
 10
-4.14323
 20
2.82533
 30
0.0
 10
-4.1601
 20
2.7314
 30
0.0
 10
-4.17652
 20
2.59782
 30
0.0
 10
-4.17652
 20
2.59782
 30
0.0
 10
-4.08687
 20
2.6169
 30
0.0
 10
-4.04785
 20
2.66062
 30
0.0
 10
-3.92886
 20
2.62957
 30
0.0
 10
-3.92886
 20
2.62957
 30
0.0
 10
-3.89935
 20
2.56503
 30
0.0
 10
-3.91686
 20
2.52517
 30
0.0
 10
-3.9048
 20
2.41716
 30
0.0
 10
-3.9048
 20
2.41716
 30
0.0
 10
-3.80412
 20
2.41474
 30
0.0
 10
-3.79368
 20
2.4437
 30
0.0
 10
-3.69212
 20
2.36559
 30
0.0
 10
-3.69212
 20
2.36559
 30
0.0
 10
-3.69131
 20
2.2971
 30
0.0
 10
-3.70497
 20
2.23565
 30
0.0
 10
-3.72895
 20
2.13443
 30
0.0
 10
-3.72895
 20
2.13443
 30
0.0
 10
-3.64265
 20
2.13184
 30
0.0
 10
-3.61398
 20
2.13939
 30
0.0
 10
-3.50916
 20
2.09015
 30
0.0
 10
-3.50916
 20
2.09015
 30
0.0
 10
-3.51187
 20
2.01441
 30
0.0
 10
-3.55762
 20
1.93095
 30
0.0
 10
-3.57103
 20
1.84788
 30
0.0
 10
-3.57103
 20
1.84788
 30
0.0
 10
-3.50982
 20
1.84139
 30
0.0
 10
-3.43449
 20
1.85309
 30
0.0
 10
-3.36187
 20
1.79266
 30
0.0
 10
-3.36187
 20
1.79266
 30
0.0
 10
-3.36095
 20
1.71336
 30
0.0
 10
-3.37107
 20
1.65556
 30
0.0
 10
-3.40586
 20
1.55781
 30
0.0
 10
-3.40586
 20
1.55781
 30
0.0
 10
-3.34096
 20
1.54055
 30
0.0
 10
-3.30143
 20
1.54102
 30
0.0
 10
-3.22536
 20
1.49144
 30
0.0
 10
-3.22536
 20
1.49144
 30
0.0
 10
-3.22447
 20
1.41575
 30
0.0
 10
-3.23813
 20
1.3543
 30
0.0
 10
-3.26934
 20
1.25659
 30
0.0
 10
-3.26934
 20
1.25659
 30
0.0
 10
-3.08176
 20
1.20112
 30
0.0
 10
-3.0246
 20
1.23063
 30
0.0
 10
-3.06113
 20
0.97424
 30
0.0
 10
-3.06113
 20
0.97424
 30
0.0
 10
-3.0178
 20
0.95673
 30
0.0
 10
-2.989
 20
0.95346
 30
0.0
 10
-2.93082
 20
0.89647
 30
0.0
 10
-2.93082
 20
0.89647
 30
0.0
 10
-2.92968
 20
0.79914
 30
0.0
 10
-2.92968
 20
0.79914
 30
0.0
 10
-2.94676
 20
0.72324
 30
0.0
 10
-2.94676
 20
0.72324
 30
0.0
 10
-2.90364
 20
0.72374
 30
0.0
 10
-2.8605
 20
0.72425
 30
0.0
 10
-2.81374
 20
0.7212
 30
0.0
 10
-2.81374
 20
0.7212
 30
0.0
 10
-2.78819
 20
0.68905
 30
0.0
 10
-2.80143
 20
0.59156
 30
0.0
 10
-2.82934
 20
0.51913
 30
0.0
 10
-2.82934
 20
0.51913
 30
0.0
 10
-2.77869
 20
0.49088
 30
0.0
 10
-2.77869
 20
0.49088
 30
0.0
 10
-2.72051
 20
0.43389
 30
0.0
 10
-2.72051
 20
0.43389
 30
0.0
 10
-2.73472
 20
0.4193
 30
0.0
 10
-2.77789
 20
0.4224
 30
0.0
 10
-2.98246
 20
0.39475
 30
0.0
 10
-2.98246
 20
0.39475
 30
0.0
 10
-2.98225
 20
0.37673
 30
0.0
 10
-2.98204
 20
0.35871
 30
0.0
 10
-2.97823
 20
0.34073
 30
0.0
 10
-2.97823
 20
0.34073
 30
0.0
 10
-2.81337
 20
0.38232
 30
0.0
 10
-2.59454
 20
0.42095
 30
0.0
 10
-2.40104
 20
0.4737
 30
0.0
 10
-2.40104
 20
0.4737
 30
0.0
 10
-2.39398
 20
0.4846
 30
0.0
 10
-2.39398
 20
0.4846
 30
0.0
 10
-1.89637
 20
0.6599
 30
0.0
 10
-1.89637
 20
0.6599
 30
0.0
 10
-1.32096
 20
0.94426
 30
0.0
 10
-0.79648
 20
1.2821
 30
0.0
 10
-0.34184
 20
1.74891
 30
0.0
 10
-0.34184
 20
1.74891
 30
0.0
 10
-0.31681
 20
1.76002
 30
0.0
 10
-0.29566
 20
1.79632
 30
0.0
 10
-0.01895
 20
2.10961
 30
0.0
 10
-0.01895
 20
2.10961
 30
0.0
 10
0.10821
 20
2.30218
 30
0.0
 10
0.20073
 20
2.54268
 30
0.0
 10
0.36058
 20
2.70679
 30
0.0
 10
0.36058
 20
2.70679
 30
0.0
 10
-0.44537
 20
3.4419
 30
0.0
 10
-1.51869
 20
3.88573
 30
0.0
 10
-2.68957
 20
3.87195
 30
0.0
 10
-2.68957
 20
3.87195
 30
0.0
 10
-3.38057
 20
3.86381
 30
0.0
 10
-4.03388
 20
3.69714
 30
0.0
 10
-4.61539
 20
3.40693
 30
0.0
  0
SPLINE
  5
88
330
1F
100
AcDbEntity
  8
Layer 1
 62
    22
370
     0
100
AcDbSpline
210
0.0
220
0.0
230
1.0
 70
    11
 71
     3
 72
    20
 73
    16
 74
     0
 42
0.0000000001
 43
0.0000000001
 40
0.0
 40
0.0
 40
0.0
 40
0.0
 40
0.25
 40
0.25
 40
0.25
 40
0.25
 40
0.5
 40
0.5
 40
0.5
 40
0.5
 40
0.75
 40
0.75
 40
0.75
 40
0.75
 40
1.0
 40
1.0
 40
1.0
 40
1.0
 10
-3.08781
 20
0.44709
 30
0.0
 10
-3.10232
 20
0.45416
 30
0.0
 10
-3.11683
 20
0.46121
 30
0.0
 10
-3.13135
 20
0.46828
 30
0.0
 10
-3.13135
 20
0.46828
 30
0.0
 10
-3.13178
 20
0.50445
 30
0.0
 10
-3.13212
 20
0.53339
 30
0.0
 10
-3.13246
 20
0.56233
 30
0.0
 10
-3.13246
 20
0.56233
 30
0.0
 10
-3.07492
 20
0.57747
 30
0.0
 10
-3.01007
 20
0.58547
 30
0.0
 10
-2.94525
 20
0.59347
 30
0.0
 10
-2.94525
 20
0.59347
 30
0.0
 10
-2.94423
 20
0.50666
 30
0.0
 10
-3.04463
 20
0.45484
 30
0.0
 10
-3.08781
 20
0.44709
 30
0.0
  0
SPLINE
  5
89
330
1F
100
AcDbEntity
  8
Layer 1
 62
    22
370
     0
100
AcDbSpline
210
0.0
220
0.0
230
1.0
 70
    11
 71
     3
 72
    24
 73
    20
 74
     0
 42
0.0000000001
 43
0.0000000001
 40
0.0
 40
0.0
 40
0.0
 40
0.0
 40
0.2
 40
0.2
 40
0.2
 40
0.2
 40
0.4
 40
0.4
 40
0.4
 40
0.4
 40
0.6000000000000001
 40
0.6000000000000001
 40
0.6000000000000001
 40
0.6000000000000001
 40
0.8
 40
0.8
 40
0.8
 40
0.8
 40
1.0
 40
1.0
 40
1.0
 40
1.0
 10
0.75634
 20
0.6731
 30
0.0
 10
0.51862
 20
0.71356
 30
0.0
 10
0.51862
 20
0.71356
 30
0.0
 10
0.45363
 20
0.73803
 30
0.0
 10
0.45363
 20
0.73803
 30
0.0
 10
0.44978
 20
0.75962
 30
0.0
 10
0.44593
 20
0.7812
 30
0.0
 10
0.44572
 20
0.79923
 30
0.0
 10
0.44572
 20
0.79923
 30
0.0
 10
0.71491
 20
0.83484
 30
0.0
 10
0.98761
 20
0.87771
 30
0.0
 10
1.2702
 20
0.9964
 30
0.0
 10
1.2702
 20
0.9964
 30
0.0
 10
1.36724
 20
0.99754
 30
0.0
 10
1.33663
 20
0.84937
 30
0.0
 10
1.31965
 20
0.76265
 30
0.0
 10
1.31965
 20
0.76265
 30
0.0
 10
1.12672
 20
0.66304
 30
0.0
 10
0.93601
 20
0.67882
 30
0.0
 10
0.75634
 20
0.6731
 30
0.0
  0
SPLINE
  5
8A
330
1F
100
AcDbEntity
  8
Layer 1
 62
    22
370
     0
100
AcDbSpline
210
0.0
220
0.0
230
1.0
 70
    11
 71
     3
 72
    20
 73
    16
 74
     0
 42
0.0000000001
 43
0.0000000001
 40
0.0
 40
0.0
 40
0.0
 40
0.0
 40
0.25
 40
0.25
 40
0.25
 40
0.25
 40
0.5
 40
0.5
 40
0.5
 40
0.5
 40
0.75
 40
0.75
 40
0.75
 40
0.75
 40
1.0
 40
1.0
 40
1.0
 40
1.0
 10
-3.24159
 20
0.67691
 30
0.0
 10
-3.24861
 20
0.71622
 30
0.0
 10
-3.24907
 20
0.75561
 30
0.0
 10
-3.24953
 20
0.79499
 30
0.0
 10
-3.24953
 20
0.79499
 30
0.0
 10
-3.18438
 20
0.82202
 30
0.0
 10
-3.18438
 20
0.82202
 30
0.0
 10
-3.06663
 20
0.82998
 30
0.0
 10
-3.06663
 20
0.82998
 30
0.0
 10
-3.08574
 20
0.78379
 30
0.0
 10
-3.10484
 20
0.73761
 30
0.0
 10
-3.12394
 20
0.69143
 30
0.0
 10
-3.12394
 20
0.69143
 30
0.0
 10
-3.16319
 20
0.69097
 30
0.0
 10
-3.2024
 20
0.68395
 30
0.0
 10
-3.24159
 20
0.67691
 30
0.0
  0
SPLINE
  5
8B
330
1F
100
AcDbEntity
  8
Layer 1
 62
    22
370
     0
100
AcDbSpline
210
0.0
220
0.0
230
1.0
 70
    11
 71
     3
 72
    28
 73
    24
 74
     0
 42
0.0000000001
 43
0.0000000001
 40
0.0
 40
0.0
 40
0.0
 40
0.0
 40
0.1666666666666667
 40
0.1666666666666667
 40
0.1666666666666667
 40
0.1666666666666667
 40
0.3333333333333333
 40
0.3333333333333333
 40
0.3333333333333333
 40
0.3333333333333333
 40
0.5
 40
0.5
 40
0.5
 40
0.5
 40
0.6666666666666666
 40
0.6666666666666666
 40
0.6666666666666666
 40
0.6666666666666666
 40
0.8333333333333333
 40
0.8333333333333333
 40
0.8333333333333333
 40
0.8333333333333333
 40
1.0
 40
1.0
 40
1.0
 40
1.0
 10
2.32532
 20
0.83578
 30
0.0
 10
2.09846
 20
0.86916
 30
0.0
 10
1.87525
 20
0.89897
 30
0.0
 10
1.65202
 20
0.92879
 30
0.0
 10
1.65202
 20
0.92879
 30
0.0
 10
1.60496
 20
0.95708
 30
0.0
 10
1.60843
 20
0.96794
 30
0.0
 10
1.6009
 20
0.99669
 30
0.0
 10
1.6009
 20
0.99669
 30
0.0
 10
2.32401
 20
0.94752
 30
0.0
 10
3.03849
 20
1.02082
 30
0.0
 10
3.78511
 20
1.11253
 30
0.0
 10
3.78511
 20
1.11253
 30
0.0
 10
3.82106
 20
1.11295
 30
0.0
 10
4.42031
 20
1.20293
 30
0.0
 10
4.51811
 20
1.13919
 30
0.0
 10
4.51811
 20
1.13919
 30
0.0
 10
4.36445
 20
1.06167
 30
0.0
 10
4.15261
 20
1.04115
 30
0.0
 10
4.00202
 20
1.00693
 30
0.0
 10
4.00202
 20
1.00693
 30
0.0
 10
3.42438
 20
0.91361
 30
0.0
 10
2.87138
 20
0.86384
 30
0.0
 10
2.32532
 20
0.83578
 30
0.0
  0
SPLINE
  5
8C
330
1F
100
AcDbEntity
  8
Layer 1
 62
    22
370
     0
100
AcDbSpline
210
0.0
220
0.0
230
1.0
 70
    11
 71
     3
 72
    24
 73
    20
 74
     0
 42
0.0000000001
 43
0.0000000001
 40
0.0
 40
0.0
 40
0.0
 40
0.0
 40
0.2
 40
0.2
 40
0.2
 40
0.2
 40
0.4
 40
0.4
 40
0.4
 40
0.4
 40
0.6000000000000001
 40
0.6000000000000001
 40
0.6000000000000001
 40
0.6000000000000001
 40
0.8
 40
0.8
 40
0.8
 40
0.8
 40
1.0
 40
1.0
 40
1.0
 40
1.0
 10
-3.37186
 20
0.94335
 30
0.0
 10
-3.38509
 20
0.96912
 30
0.0
 10
-3.39832
 20
0.99489
 30
0.0
 10
-3.41148
 20
1.01417
 30
0.0
 10
-3.41148
 20
1.01417
 30
0.0
 10
-3.39886
 20
1.04025
 30
0.0
 10
-3.3797
 20
1.05992
 30
0.0
 10
-3.36055
 20
1.0796
 30
0.0
 10
-3.36055
 20
1.0796
 30
0.0
 10
-3.31539
 20
1.08661
 30
0.0
 10
-3.26369
 20
1.08722
 30
0.0
 10
-3.21199
 20
1.08783
 30
0.0
 10
-3.21199
 20
1.08783
 30
0.0
 10
-3.21176
 20
1.06839
 30
0.0
 10
-3.20507
 20
1.04902
 30
0.0
 10
-3.19839
 20
1.02966
 30
0.0
 10
-3.19839
 20
1.02966
 30
0.0
 10
-3.2814
 20
0.94441
 30
0.0
 10
-3.31394
 20
0.96348
 30
0.0
 10
-3.37186
 20
0.94335
 30
0.0
  0
SPLINE
  5
8D
330
1F
100
AcDbEntity
  8
Layer 1
 62
    22
370
     0
100
AcDbSpline
210
0.0
220
0.0
230
1.0
 70
    11
 71
     3
 72
    32
 73
    28
 74
     0
 42
0.0000000001
 43
0.0000000001
 40
0.0
 40
0.0
 40
0.0
 40
0.0
 40
0.1428571428571428
 40
0.1428571428571428
 40
0.1428571428571428
 40
0.1428571428571428
 40
0.2857142857142857
 40
0.2857142857142857
 40
0.2857142857142857
 40
0.2857142857142857
 40
0.4285714285714285
 40
0.4285714285714285
 40
0.4285714285714285
 40
0.4285714285714285
 40
0.5714285714285714
 40
0.5714285714285714
 40
0.5714285714285714
 40
0.5714285714285714
 40
0.7142857142857142
 40
0.7142857142857142
 40
0.7142857142857142
 40
0.7142857142857142
 40
0.857142857142857
 40
0.857142857142857
 40
0.857142857142857
 40
0.857142857142857
 40
1.0
 40
1.0
 40
1.0
 40
1.0
 10
0.32056
 20
1.05011
 30
0.0
 10
0.10441
 20
1.09083
 30
0.0
 10
0.10441
 20
1.09083
 30
0.0
 10
-0.00748
 20
1.12916
 30
0.0
 10
-0.00748
 20
1.12916
 30
0.0
 10
-0.0084
 20
1.20846
 30
0.0
 10
0.03084
 20
1.23416
 30
0.0
 10
0.06251
 20
1.29222
 30
0.0
 10
0.06251
 20
1.29222
 30
0.0
 10
0.28891
 20
1.29849
 30
0.0
 10
0.53707
 20
1.28699
 30
0.0
 10
0.79915
 20
1.31531
 30
0.0
 10
0.79915
 20
1.31531
 30
0.0
 10
0.99624
 20
1.3681
 30
0.0
 10
1.19337
 20
1.41729
 30
0.0
 10
1.3941
 20
1.46652
 30
0.0
 10
1.3941
 20
1.46652
 30
0.0
 10
1.51571
 20
1.51842
 30
0.0
 10
1.51571
 20
1.51842
 30
0.0
 10
1.5624
 20
1.52257
 30
0.0
 10
1.5624
 20
1.52257
 30
0.0
 10
1.47569
 20
1.25117
 30
0.0
 10
0.89137
 20
1.11451
 30
0.0
 10
0.66912
 20
1.06142
 30
0.0
 10
0.66912
 20
1.06142
 30
0.0
 10
0.55051
 20
1.06003
 30
0.0
 10
0.43554
 20
1.05507
 30
0.0
 10
0.32056
 20
1.05011
 30
0.0
  0
SPLINE
  5
8E
330
1F
100
AcDbEntity
  8
Layer 1
 62
    22
370
     0
100
AcDbSpline
210
0.0
220
0.0
230
1.0
 70
    11
 71
     3
 72
    24
 73
    20
 74
     0
 42
0.0000000001
 43
0.0000000001
 40
0.0
 40
0.0
 40
0.0
 40
0.0
 40
0.2
 40
0.2
 40
0.2
 40
0.2
 40
0.4
 40
0.4
 40
0.4
 40
0.4
 40
0.6000000000000001
 40
0.6000000000000001
 40
0.6000000000000001
 40
0.6000000000000001
 40
0.8
 40
0.8
 40
0.8
 40
0.8
 40
1.0
 40
1.0
 40
1.0
 40
1.0
 10
1.78184
 20
1.2007
 30
0.0
 10
1.74214
 20
1.21465
 30
0.0
 10
1.70249
 20
1.225
 30
0.0
 10
1.66281
 20
1.23535
 30
0.0
 10
1.66281
 20
1.23535
 30
0.0
 10
1.77618
 20
1.37728
 30
0.0
 10
1.82904
 20
1.46803
 30
0.0
 10
1.89184
 20
1.631
 30
0.0
 10
1.89184
 20
1.631
 30
0.0
 10
1.98101
 20
1.68973
 30
0.0
 10
2.39735
 20
1.7451
 30
0.0
 10
2.50644
 20
1.63824
 30
0.0
 10
2.50644
 20
1.63824
 30
0.0
 10
2.50994
 20
1.33906
 30
0.0
 10
2.37754
 20
1.28703
 30
0.0
 10
2.10523
 20
1.21172
 30
0.0
 10
2.10523
 20
1.21172
 30
0.0
 10
1.99741
 20
1.21045
 30
0.0
 10
1.88963
 20
1.20558
 30
0.0
 10
1.78184
 20
1.2007
 30
0.0
  0
SPLINE
  5
8F
330
1F
100
AcDbEntity
  8
Layer 1
 62
    22
370
     0
100
AcDbSpline
210
0.0
220
0.0
230
1.0
 70
    11
 71
     3
 72
    28
 73
    24
 74
     0
 42
0.0000000001
 43
0.0000000001
 40
0.0
 40
0.0
 40
0.0
 40
0.0
 40
0.1666666666666667
 40
0.1666666666666667
 40
0.1666666666666667
 40
0.1666666666666667
 40
0.3333333333333333
 40
0.3333333333333333
 40
0.3333333333333333
 40
0.3333333333333333
 40
0.5
 40
0.5
 40
0.5
 40
0.5
 40
0.6666666666666666
 40
0.6666666666666666
 40
0.6666666666666666
 40
0.6666666666666666
 40
0.8333333333333333
 40
0.8333333333333333
 40
0.8333333333333333
 40
0.8333333333333333
 40
1.0
 40
1.0
 40
1.0
 40
1.0
 10
2.69045
 20
1.27269
 30
0.0
 10
2.71434
 20
1.38112
 30
0.0
 10
2.77068
 20
1.48272
 30
0.0
 10
2.79465
 20
1.58395
 30
0.0
 10
2.79465
 20
1.58395
 30
0.0
 10
3.48782
 20
1.63537
 30
0.0
 10
3.48782
 20
1.63537
 30
0.0
 10
4.529
 20
1.74497
 30
0.0
 10
4.529
 20
1.74497
 30
0.0
 10
4.67974
 20
1.76477
 30
0.0
 10
4.79432
 20
1.80217
 30
0.0
 10
4.96707
 20
1.78617
 30
0.0
 10
4.96707
 20
1.78617
 30
0.0
 10
4.96714
 20
1.77897
 30
0.0
 10
4.96723
 20
1.77176
 30
0.0
 10
4.96732
 20
1.76455
 30
0.0
 10
4.96732
 20
1.76455
 30
0.0
 10
4.38091
 20
1.49808
 30
0.0
 10
3.65954
 20
1.39946
 30
0.0
 10
3.04953
 20
1.30575
 30
0.0
 10
3.04953
 20
1.30575
 30
0.0
 10
2.9274
 20
1.29711
 30
0.0
 10
2.80894
 20
1.2849
 30
0.0
 10
2.69045
 20
1.27269
 30
0.0
  0
SPLINE
  5
90
330
1F
100
AcDbEntity
  8
Layer 1
 62
    22
370
     0
100
AcDbSpline
210
0.0
220
0.0
230
1.0
 70
    11
 71
     3
 72
    16
 73
    12
 74
     0
 42
0.0000000001
 43
0.0000000001
 40
0.0
 40
0.0
 40
0.0
 40
0.0
 40
0.3333333333333333
 40
0.3333333333333333
 40
0.3333333333333333
 40
0.3333333333333333
 40
0.6666666666666666
 40
0.6666666666666666
 40
0.6666666666666666
 40
0.6666666666666666
 40
1.0
 40
1.0
 40
1.0
 40
1.0
 10
-3.53099
 20
1.26678
 30
0.0
 10
-3.53718
 20
1.31207
 30
0.0
 10
-3.5433
 20
1.35168
 30
0.0
 10
-3.54376
 20
1.39138
 30
0.0
 10
-3.54376
 20
1.39138
 30
0.0
 10
-3.49874
 20
1.40891
 30
0.0
 10
-3.49874
 20
1.40891
 30
0.0
 10
-3.35742
 20
1.41058
 30
0.0
 10
-3.35742
 20
1.41058
 30
0.0
 10
-3.35622
 20
1.30853
 30
0.0
 10
-3.44641
 20
1.28478
 30
0.0
 10
-3.53099
 20
1.26678
 30
0.0
  0
SPLINE
  5
91
330
1F
100
AcDbEntity
  8
Layer 1
 62
    22
370
     0
100
AcDbSpline
210
0.0
220
0.0
230
1.0
 70
    11
 71
     3
 72
    20
 73
    16
 74
     0
 42
0.0000000001
 43
0.0000000001
 40
0.0
 40
0.0
 40
0.0
 40
0.0
 40
0.25
 40
0.25
 40
0.25
 40
0.25
 40
0.5
 40
0.5
 40
0.5
 40
0.5
 40
0.75
 40
0.75
 40
0.75
 40
0.75
 40
1.0
 40
1.0
 40
1.0
 40
1.0
 10
0.3408
 20
1.47214
 30
0.0
 10
0.2903
 20
1.48597
 30
0.0
 10
0.23986
 20
1.49619
 30
0.0
 10
0.193
 20
1.50645
 30
0.0
 10
0.193
 20
1.50645
 30
0.0
 10
0.1921
 20
1.58575
 30
0.0
 10
0.19919
 20
1.59305
 30
0.0
 10
0.22734
 20
1.64385
 30
0.0
 10
0.22734
 20
1.64385
 30
0.0
 10
0.4537
 20
1.65372
 30
0.0
 10
0.76372
 20
1.57806
 30
0.0
 10
1.04077
 20
1.55609
 30
0.0
 10
1.04077
 20
1.55609
 30
0.0
 10
0.80813
 20
1.47043
 30
0.0
 10
0.55995
 20
1.48193
 30
0.0
 10
0.3408
 20
1.47214
 30
0.0
  0
SPLINE
  5
92
330
1F
100
AcDbEntity
  8
Layer 1
 62
    22
370
     0
100
AcDbSpline
210
0.0
220
0.0
230
1.0
 70
    11
 71
     3
 72
    16
 73
    12
 74
     0
 42
0.0000000001
 43
0.0000000001
 40
0.0
 40
0.0
 40
0.0
 40
0.0
 40
0.3333333333333333
 40
0.3333333333333333
 40
0.3333333333333333
 40
0.3333333333333333
 40
0.6666666666666666
 40
0.6666666666666666
 40
0.6666666666666666
 40
0.6666666666666666
 40
1.0
 40
1.0
 40
1.0
 40
1.0
 10
-3.64524
 20
1.54915
 30
0.0
 10
-3.67285
 20
1.58697
 30
0.0
 10
-3.67285
 20
1.58697
 30
0.0
 10
-3.67362
 20
1.65237
 30
0.0
 10
-3.67362
 20
1.65237
 30
0.0
 10
-3.62529
 20
1.70199
 30
0.0
 10
-3.57083
 20
1.69173
 30
0.0
 10
-3.48395
 20
1.6982
 30
0.0
 10
-3.48395
 20
1.6982
 30
0.0
 10
-3.51028
 20
1.62704
 30
0.0
 10
-3.58041
 20
1.58261
 30
0.0
 10
-3.64524
 20
1.54915
 30
0.0
  0
SPLINE
  5
93
330
1F
100
AcDbEntity
  8
Layer 1
 62
    22
370
     0
100
AcDbSpline
210
0.0
220
0.0
230
1.0
 70
    11
 71
     3
 72
    24
 73
    20
 74
     0
 42
0.0000000001
 43
0.0000000001
 40
0.0
 40
0.0
 40
0.0
 40
0.0
 40
0.2
 40
0.2
 40
0.2
 40
0.2
 40
0.4
 40
0.4
 40
0.4
 40
0.4
 40
0.6000000000000001
 40
0.6000000000000001
 40
0.6000000000000001
 40
0.6000000000000001
 40
0.8
 40
0.8
 40
0.8
 40
0.8
 40
1.0
 40
1.0
 40
1.0
 40
1.0
 10
1.18966
 20
1.73449
 30
0.0
 10
0.89092
 20
1.76702
 30
0.0
 10
0.61003
 20
1.81058
 30
0.0
 10
0.34664
 20
1.894
 30
0.0
 10
0.34664
 20
1.894
 30
0.0
 10
0.40254
 20
2.03166
 30
0.0
 10
0.40254
 20
2.03166
 30
0.0
 10
0.42733
 20
2.06439
 30
0.0
 10
0.42733
 20
2.06439
 30
0.0
 10
0.64648
 20
2.07418
 30
0.0
 10
0.88717
 20
2.08783
 30
0.0
 10
1.11293
 20
2.14817
 30
0.0
 10
1.11293
 20
2.14817
 30
0.0
 10
1.40993
 20
2.26343
 30
0.0
 10
1.66559
 20
2.53321
 30
0.0
 10
1.7894
 20
2.09124
 30
0.0
 10
1.7894
 20
2.09124
 30
0.0
 10
1.79356
 20
1.73439
 30
0.0
 10
1.44476
 20
1.7447
 30
0.0
 10
1.18966
 20
1.73449
 30
0.0
  0
SPLINE
  5
94
330
1F
100
AcDbEntity
  8
Layer 1
 62
    22
370
     0
100
AcDbSpline
210
0.0
220
0.0
230
1.0
 70
    11
 71
     3
 72
    16
 73
    12
 74
     0
 42
0.0000000001
 43
0.0000000001
 40
0.0
 40
0.0
 40
0.0
 40
0.0
 40
0.3333333333333333
 40
0.3333333333333333
 40
0.3333333333333333
 40
0.3333333333333333
 40
0.6666666666666666
 40
0.6666666666666666
 40
0.6666666666666666
 40
0.6666666666666666
 40
1.0
 40
1.0
 40
1.0
 40
1.0
 10
-3.79712
 20
1.8237
 30
0.0
 10
-3.80489
 20
1.87405
 30
0.0
 10
-3.81258
 20
1.91718
 30
0.0
 10
-3.81309
 20
1.96041
 30
0.0
 10
-3.81309
 20
1.96041
 30
0.0
 10
-3.7846
 20
1.98236
 30
0.0
 10
-3.7846
 20
1.98236
 30
0.0
 10
-3.67686
 20
1.98363
 30
0.0
 10
-3.67686
 20
1.98363
 30
0.0
 10
-3.67576
 20
1.88998
 30
0.0
 10
-3.72545
 20
1.83895
 30
0.0
 10
-3.79712
 20
1.8237
 30
0.0
  0
SPLINE
  5
95
330
1F
100
AcDbEntity
  8
Layer 1
 62
    22
370
     0
100
AcDbSpline
210
0.0
220
0.0
230
1.0
 70
    11
 71
     3
 72
    28
 73
    24
 74
     0
 42
0.0000000001
 43
0.0000000001
 40
0.0
 40
0.0
 40
0.0
 40
0.0
 40
0.1666666666666667
 40
0.1666666666666667
 40
0.1666666666666667
 40
0.1666666666666667
 40
0.3333333333333333
 40
0.3333333333333333
 40
0.3333333333333333
 40
0.3333333333333333
 40
0.5
 40
0.5
 40
0.5
 40
0.5
 40
0.6666666666666666
 40
0.6666666666666666
 40
0.6666666666666666
 40
0.6666666666666666
 40
0.8333333333333333
 40
0.8333333333333333
 40
0.8333333333333333
 40
0.8333333333333333
 40
1.0
 40
1.0
 40
1.0
 40
1.0
 10
2.07117
 20
1.97199
 30
0.0
 10
2.06928
 20
2.1342
 30
0.0
 10
2.06501
 20
2.19183
 30
0.0
 10
2.02048
 20
2.31027
 30
0.0
 10
2.02048
 20
2.31027
 30
0.0
 10
2.36903
 20
2.32158
 30
0.0
 10
2.70642
 20
2.36521
 30
0.0
 10
3.06145
 20
2.43789
 30
0.0
 10
3.06145
 20
2.43789
 30
0.0
 10
3.16885
 20
2.4752
 30
0.0
 10
3.16885
 20
2.4752
 30
0.0
 10
3.19405
 20
2.4719
 30
0.0
 10
3.19405
 20
2.4719
 30
0.0
 10
3.21617
 20
2.42529
 30
0.0
 10
3.19912
 20
2.34578
 30
0.0
 10
3.17121
 20
2.27335
 30
0.0
 10
3.17121
 20
2.27335
 30
0.0
 10
3.16043
 20
2.27322
 30
0.0
 10
3.15324
 20
2.27314
 30
0.0
 10
3.14605
 20
2.27305
 30
0.0
 10
3.14605
 20
2.27305
 30
0.0
 10
3.0811
 20
1.98749
 30
0.0
 10
2.25083
 20
1.97771
 30
0.0
 10
2.07117
 20
1.97199
 30
0.0
  0
SPLINE
  5
96
330
1F
100
AcDbEntity
  8
Layer 1
 62
    22
370
     0
100
AcDbSpline
210
0.0
220
0.0
230
1.0
 70
    11
 71
     3
 72
    28
 73
    24
 74
     0
 42
0.0000000001
 43
0.0000000001
 40
0.0
 40
0.0
 40
0.0
 40
0.0
 40
0.1666666666666667
 40
0.1666666666666667
 40
0.1666666666666667
 40
0.1666666666666667
 40
0.3333333333333333
 40
0.3333333333333333
 40
0.3333333333333333
 40
0.3333333333333333
 40
0.5
 40
0.5
 40
0.5
 40
0.5
 40
0.6666666666666666
 40
0.6666666666666666
 40
0.6666666666666666
 40
0.6666666666666666
 40
0.8333333333333333
 40
0.8333333333333333
 40
0.8333333333333333
 40
0.8333333333333333
 40
1.0
 40
1.0
 40
1.0
 40
1.0
 10
3.29303
 20
2.0008
 30
0.0
 10
3.31037
 20
2.05508
 30
0.0
 10
3.33903
 20
2.06262
 30
0.0
 10
3.38175
 20
2.09918
 30
0.0
 10
3.38175
 20
2.09918
 30
0.0
 10
3.42399
 20
2.17538
 30
0.0
 10
3.46627
 20
2.24798
 30
0.0
 10
3.51215
 20
2.32062
 30
0.0
 10
3.51215
 20
2.32062
 30
0.0
 10
3.55152
 20
2.33551
 30
0.0
 10
3.55152
 20
2.33551
 30
0.0
 10
5.10556
 20
2.54487
 30
0.0
 10
5.10556
 20
2.54487
 30
0.0
 10
5.181
 20
2.54936
 30
0.0
 10
5.41403
 20
2.60258
 30
0.0
 10
5.48647
 20
2.55657
 30
0.0
 10
5.48647
 20
2.55657
 30
0.0
 10
5.45466
 20
2.50933
 30
0.0
 10
5.34008
 20
2.47193
 30
0.0
 10
5.29373
 20
2.43893
 30
0.0
 10
5.29373
 20
2.43893
 30
0.0
 10
4.6455
 20
2.23302
 30
0.0
 10
3.9574
 20
2.05548
 30
0.0
 10
3.29303
 20
2.0008
 30
0.0
  0
SPLINE
  5
97
330
1F
100
AcDbEntity
  8
Layer 1
 62
    22
370
     0
100
AcDbSpline
210
0.0
220
0.0
230
1.0
 70
    11
 71
     3
 72
    20
 73
    16
 74
     0
 42
0.0000000001
 43
0.0000000001
 40
0.0
 40
0.0
 40
0.0
 40
0.0
 40
0.25
 40
0.25
 40
0.25
 40
0.25
 40
0.5
 40
0.5
 40
0.5
 40
0.5
 40
0.75
 40
0.75
 40
0.75
 40
0.75
 40
1.0
 40
1.0
 40
1.0
 40
1.0
 10
-3.98866
 20
2.06898
 30
0.0
 10
-3.99481
 20
2.10886
 30
0.0
 10
-4.0009
 20
2.14303
 30
0.0
 10
-4.0013
 20
2.17728
 30
0.0
 10
-4.0013
 20
2.17728
 30
0.0
 10
-3.92772
 20
2.21239
 30
0.0
 10
-3.93903
 20
2.20655
 30
0.0
 10
-3.81974
 20
2.22507
 30
0.0
 10
-3.81974
 20
2.22507
 30
0.0
 10
-3.83633
 20
2.18492
 30
0.0
 10
-3.85294
 20
2.14478
 30
0.0
 10
-3.86954
 20
2.10463
 30
0.0
 10
-3.86954
 20
2.10463
 30
0.0
 10
-3.90926
 20
2.09273
 30
0.0
 10
-3.94895
 20
2.08085
 30
0.0
 10
-3.98866
 20
2.06898
 30
0.0
  0
SPLINE
  5
98
330
1F
100
AcDbEntity
  8
Layer 1
 62
    22
370
     0
100
AcDbSpline
210
0.0
220
0.0
230
1.0
 70
    11
 71
     3
 72
    16
 73
    12
 74
     0
 42
0.0000000001
 43
0.0000000001
 40
0.0
 40
0.0
 40
0.0
 40
0.0
 40
0.3333333333333333
 40
0.3333333333333333
 40
0.3333333333333333
 40
0.3333333333333333
 40
0.6666666666666666
 40
0.6666666666666666
 40
0.6666666666666666
 40
0.6666666666666666
 40
1.0
 40
1.0
 40
1.0
 40
1.0
 10
0.55795
 20
2.26782
 30
0.0
 10
0.55574
 20
2.45525
 30
0.0
 10
0.96884
 20
2.78818
 30
0.0
 10
1.12217
 20
2.89453
 30
0.0
 10
1.12217
 20
2.89453
 30
0.0
 10
1.36217
 20
2.96585
 30
0.0
 10
1.55579
 20
3.00779
 30
0.0
 10
1.58865
 20
2.65848
 30
0.0
 10
1.58865
 20
2.65848
 30
0.0
 10
1.41971
 20
2.35006
 30
0.0
 10
0.84899
 20
2.27845
 30
0.0
 10
0.55795
 20
2.26782
 30
0.0
  0
SPLINE
  5
99
330
1F
100
AcDbEntity
  8
Layer 1
 62
    22
370
     0
100
AcDbSpline
210
0.0
220
0.0
230
1.0
 70
    11
 71
     3
 72
    20
 73
    16
 74
     0
 42
0.0000000001
 43
0.0000000001
 40
0.0
 40
0.0
 40
0.0
 40
0.0
 40
0.25
 40
0.25
 40
0.25
 40
0.25
 40
0.5
 40
0.5
 40
0.5
 40
0.5
 40
0.75
 40
0.75
 40
0.75
 40
0.75
 40
1.0
 40
1.0
 40
1.0
 40
1.0
 10
-4.19367
 20
2.28684
 30
0.0
 10
-4.20047
 20
2.32501
 30
0.0
 10
-4.20728
 20
2.36318
 30
0.0
 10
-4.20772
 20
2.40141
 30
0.0
 10
-4.20772
 20
2.40141
 30
0.0
 10
-4.11928
 20
2.44708
 30
0.0
 10
-4.11928
 20
2.44708
 30
0.0
 10
-4.04301
 20
2.44798
 30
0.0
 10
-4.04301
 20
2.44798
 30
0.0
 10
-4.03606
 20
2.39706
 30
0.0
 10
-4.03606
 20
2.39706
 30
0.0
 10
-4.08578
 20
2.30087
 30
0.0
 10
-4.08578
 20
2.30087
 30
0.0
 10
-4.12392
 20
2.30042
 30
0.0
 10
-4.16196
 20
2.2936
 30
0.0
 10
-4.19367
 20
2.28684
 30
0.0
  0
SPLINE
  5
9A
330
1F
100
AcDbEntity
  8
Layer 1
 62
    22
370
     0
100
AcDbSpline
210
0.0
220
0.0
230
1.0
 70
    11
 71
     3
 72
    24
 73
    20
 74
     0
 42
0.0000000001
 43
0.0000000001
 40
0.0
 40
0.0
 40
0.0
 40
0.0
 40
0.2
 40
0.2
 40
0.2
 40
0.2
 40
0.4
 40
0.4
 40
0.4
 40
0.4
 40
0.6000000000000001
 40
0.6000000000000001
 40
0.6000000000000001
 40
0.6000000000000001
 40
0.8
 40
0.8
 40
0.8
 40
0.8
 40
1.0
 40
1.0
 40
1.0
 40
1.0
 10
3.55266
 20
2.54461
 30
0.0
 10
3.49716
 20
2.68095
 30
0.0
 10
3.48219
 20
2.73125
 30
0.0
 10
3.59982
 20
2.81555
 30
0.0
 10
3.59982
 20
2.81555
 30
0.0
 10
4.1406
 20
2.98775
 30
0.0
 10
4.68498
 20
3.15999
 30
0.0
 10
5.22939
 20
3.32863
 30
0.0
 10
5.22939
 20
3.32863
 30
0.0
 10
5.31912
 20
3.3405
 30
0.0
 10
5.41244
 20
3.35242
 30
0.0
 10
5.50581
 20
3.36073
 30
0.0
 10
5.50581
 20
3.36073
 30
0.0
 10
5.33886
 20
3.18932
 30
0.0
 10
5.04195
 20
3.06686
 30
0.0
 10
4.83454
 20
2.97429
 30
0.0
 10
4.83454
 20
2.97429
 30
0.0
 10
4.41207
 20
2.82872
 30
0.0
 10
3.9756
 20
2.65054
 30
0.0
 10
3.55266
 20
2.54461
 30
0.0
  0
SPLINE
  5
9B
330
1F
100
AcDbEntity
  8
Layer 1
 62
    22
370
     0
100
AcDbSpline
210
0.0
220
0.0
230
1.0
 70
    11
 71
     3
 72
    24
 73
    20
 74
     0
 42
0.0000000001
 43
0.0000000001
 40
0.0
 40
0.0
 40
0.0
 40
0.0
 40
0.2
 40
0.2
 40
0.2
 40
0.2
 40
0.4
 40
0.4
 40
0.4
 40
0.4
 40
0.6000000000000001
 40
0.6000000000000001
 40
0.6000000000000001
 40
0.6000000000000001
 40
0.8
 40
0.8
 40
0.8
 40
0.8
 40
1.0
 40
1.0
 40
1.0
 40
1.0
 10
2.13643
 20
2.53876
 30
0.0
 10
2.05716
 20
2.55585
 30
0.0
 10
1.9815
 20
2.56938
 30
0.0
 10
1.90586
 20
2.58291
 30
0.0
 10
1.90586
 20
2.58291
 30
0.0
 10
1.90573
 20
2.59372
 30
0.0
 10
1.90559
 20
2.60453
 30
0.0
 10
1.90552
 20
2.61174
 30
0.0
 10
1.90552
 20
2.61174
 30
0.0
 10
2.33924
 20
2.71779
 30
0.0
 10
2.33924
 20
2.71779
 30
0.0
 10
2.65082
 20
2.81519
 30
0.0
 10
2.65082
 20
2.81519
 30
0.0
 10
2.82259
 20
2.88211
 30
0.0
 10
3.13648
 20
3.09129
 30
0.0
 10
3.3317
 20
2.99625
 30
0.0
 10
3.3317
 20
2.99625
 30
0.0
 10
3.33621
 20
2.61056
 30
0.0
 10
2.35201
 20
2.5485
 30
0.0
 10
2.13643
 20
2.53876
 30
0.0
  0
SPLINE
  5
9C
330
1F
100
AcDbEntity
  8
Layer 1
 62
    22
370
     0
100
AcDbSpline
210
0.0
220
0.0
230
1.0
 70
    11
 71
     3
 72
    20
 73
    16
 74
     0
 42
0.0000000001
 43
0.0000000001
 40
0.0
 40
0.0
 40
0.0
 40
0.0
 40
0.25
 40
0.25
 40
0.25
 40
0.25
 40
0.5
 40
0.5
 40
0.5
 40
0.5
 40
0.75
 40
0.75
 40
0.75
 40
0.75
 40
1.0
 40
1.0
 40
1.0
 40
1.0
 10
-4.40269
 20
2.58377
 30
0.0
 10
-4.42223
 20
2.5965
 30
0.0
 10
-4.44177
 20
2.60924
 30
0.0
 10
-4.45483
 20
2.62205
 30
0.0
 10
-4.45483
 20
2.62205
 30
0.0
 10
-4.45508
 20
2.6415
 30
0.0
 10
-4.4553
 20
2.66094
 30
0.0
 10
-4.45546
 20
2.6739
 30
0.0
 10
-4.45546
 20
2.6739
 30
0.0
 10
-4.3592
 20
2.73338
 30
0.0
 10
-4.3592
 20
2.73338
 30
0.0
 10
-4.27525
 20
2.74086
 30
0.0
 10
-4.27525
 20
2.74086
 30
0.0
 10
-4.2869
 20
2.63051
 30
0.0
 10
-4.31882
 20
2.59772
 30
0.0
 10
-4.40269
 20
2.58377
 30
0.0
  0
SPLINE
  5
9D
330
1F
100
AcDbEntity
  8
Layer 1
 62
    22
370
     0
100
AcDbSpline
210
0.0
220
0.0
230
1.0
 70
    11
 71
     3
 72
    20
 73
    16
 74
     0
 42
0.0000000001
 43
0.0000000001
 40
0.0
 40
0.0
 40
0.0
 40
0.0
 40
0.25
 40
0.25
 40
0.25
 40
0.25
 40
0.5
 40
0.5
 40
0.5
 40
0.5
 40
0.75
 40
0.75
 40
0.75
 40
0.75
 40
1.0
 40
1.0
 40
1.0
 40
1.0
 10
1.91699
 20
2.86063
 30
0.0
 10
1.81457
 20
3.01084
 30
0.0
 10
1.76726
 20
3.06075
 30
0.0
 10
1.767
 20
3.08238
 30
0.0
 10
1.767
 20
3.08238
 30
0.0
 10
2.16444
 20
3.21684
 30
0.0
 10
2.59744
 20
3.38417
 30
0.0
 10
3.03915
 20
3.42181
 30
0.0
 10
3.03915
 20
3.42181
 30
0.0
 10
3.10764
 20
3.40459
 30
0.0
 10
3.12553
 20
3.41201
 30
0.0
 10
3.12684
 20
3.30027
 30
0.0
 10
3.12684
 20
3.30027
 30
0.0
 10
2.7995
 20
3.01162
 30
0.0
 10
2.31142
 20
2.94458
 30
0.0
 10
1.91699
 20
2.86063
 30
0.0
  0
SPLINE
  5
9E
330
1F
100
AcDbEntity
  8
Layer 1
 62
    22
370
     0
100
AcDbSpline
210
0.0
220
0.0
230
1.0
 70
    11
 71
     3
 72
    16
 73
    12
 74
     0
 42
0.0000000001
 43
0.0000000001
 40
0.0
 40
0.0
 40
0.0
 40
0.0
 40
0.3333333333333333
 40
0.3333333333333333
 40
0.3333333333333333
 40
0.3333333333333333
 40
0.6666666666666666
 40
0.6666666666666666
 40
0.6666666666666666
 40
0.6666666666666666
 40
1.0
 40
1.0
 40
1.0
 40
1.0
 10
-4.60907
 20
2.76822
 30
0.0
 10
-4.61075
 20
2.9116
 30
0.0
 10
-4.55754
 20
2.94806
 30
0.0
 10
-4.4687
 20
2.99094
 30
0.0
 10
-4.4687
 20
2.99094
 30
0.0
 10
-4.48454
 20
2.81749
 30
0.0
 10
-4.48454
 20
2.81749
 30
0.0
 10
-4.50794
 20
2.78136
 30
0.0
 10
-4.50794
 20
2.78136
 30
0.0
 10
-4.54368
 20
2.78094
 30
0.0
 10
-4.57935
 20
2.77455
 30
0.0
 10
-4.60907
 20
2.76822
 30
0.0
  0
SPLINE
  5
9F
330
1F
100
AcDbEntity
  8
Layer 1
 62
    22
370
     0
100
AcDbSpline
210
0.0
220
0.0
230
1.0
 70
    11
 71
     3
 72
    20
 73
    16
 74
     0
 42
0.0000000001
 43
0.0000000001
 40
0.0
 40
0.0
 40
0.0
 40
0.0
 40
0.25
 40
0.25
 40
0.25
 40
0.25
 40
0.5
 40
0.5
 40
0.5
 40
0.5
 40
0.75
 40
0.75
 40
0.75
 40
0.75
 40
1.0
 40
1.0
 40
1.0
 40
1.0
 10
-4.8533
 20
2.99698
 30
0.0
 10
-4.87183
 20
3.00294
 30
0.0
 10
-4.88422
 20
3.00897
 30
0.0
 10
-4.89659
 20
3.01499
 30
0.0
 10
-4.89659
 20
3.01499
 30
0.0
 10
-4.89833
 20
3.16312
 30
0.0
 10
-4.89261
 20
3.20022
 30
0.0
 10
-4.76988
 20
3.23253
 30
0.0
 10
-4.76988
 20
3.23253
 30
0.0
 10
-4.76909
 20
3.16464
 30
0.0
 10
-4.76829
 20
3.09675
 30
0.0
 10
-4.7675
 20
3.02886
 30
0.0
 10
-4.7675
 20
3.02886
 30
0.0
 10
-4.79821
 20
3.02233
 30
0.0
 10
-4.82882
 20
3.00962
 30
0.0
 10
-4.8533
 20
2.99698
 30
0.0
  0
SPLINE
  5
A0
330
1F
100
AcDbEntity
  8
Layer 1
 62
    22
370
     0
100
AcDbSpline
210
0.0
220
0.0
230
1.0
 70
    11
 71
     3
 72
    28
 73
    24
 74
     0
 42
0.0000000001
 43
0.0000000001
 40
0.0
 40
0.0
 40
0.0
 40
0.0
 40
0.1666666666666667
 40
0.1666666666666667
 40
0.1666666666666667
 40
0.1666666666666667
 40
0.3333333333333333
 40
0.3333333333333333
 40
0.3333333333333333
 40
0.3333333333333333
 40
0.5
 40
0.5
 40
0.5
 40
0.5
 40
0.6666666666666666
 40
0.6666666666666666
 40
0.6666666666666666
 40
0.6666666666666666
 40
0.8333333333333333
 40
0.8333333333333333
 40
0.8333333333333333
 40
0.8333333333333333
 40
1.0
 40
1.0
 40
1.0
 40
1.0
 10
3.50786
 20
3.30115
 30
0.0
 10
3.54584
 20
3.43499
 30
0.0
 10
3.54584
 20
3.43499
 30
0.0
 10
3.55904
 20
3.53609
 30
0.0
 10
3.55904
 20
3.53609
 30
0.0
 10
4.39729
 20
3.78389
 30
0.0
 10
5.27449
 20
4.08262
 30
0.0
 10
6.11545
 20
4.40617
 30
0.0
 10
6.11545
 20
4.40617
 30
0.0
 10
6.13342
 20
4.40638
 30
0.0
 10
6.1514
 20
4.40659
 30
0.0
 10
6.16936
 20
4.4068
 30
0.0
 10
6.16936
 20
4.4068
 30
0.0
 10
6.16944
 20
4.39959
 30
0.0
 10
6.16953
 20
4.39238
 30
0.0
 10
6.16966
 20
4.38157
 30
0.0
 10
6.16966
 20
4.38157
 30
0.0
 10
5.6885
 20
4.02982
 30
0.0
 10
5.05824
 20
3.82412
 30
0.0
 10
4.52156
 20
3.6087
 30
0.0
 10
4.52156
 20
3.6087
 30
0.0
 10
4.18493
 20
3.50019
 30
0.0
 10
3.83058
 20
3.36984
 30
0.0
 10
3.50786
 20
3.30115
 30
0.0
  0
SPLINE
  5
A1
330
1F
100
AcDbEntity
  8
Layer 1
 62
    22
370
     0
100
AcDbSpline
210
0.0
220
0.0
230
1.0
 70
    11
 71
     3
 72
    20
 73
    16
 74
     0
 42
0.0000000001
 43
0.0000000001
 40
0.0
 40
0.0
 40
0.0
 40
0.0
 40
0.25
 40
0.25
 40
0.25
 40
0.25
 40
0.5
 40
0.5
 40
0.5
 40
0.5
 40
0.75
 40
0.75
 40
0.75
 40
0.75
 40
1.0
 40
1.0
 40
1.0
 40
1.0
 10
-5.08152
 20
3.18051
 30
0.0
 10
-5.11044
 20
3.19387
 30
0.0
 10
-5.13937
 20
3.20724
 30
0.0
 10
-5.16832
 20
3.22059
 30
0.0
 10
-5.16832
 20
3.22059
 30
0.0
 10
-5.17048
 20
3.40553
 30
0.0
 10
-5.15113
 20
3.39206
 30
0.0
 10
-5.05644
 20
3.49594
 30
0.0
 10
-5.05644
 20
3.49594
 30
0.0
 10
-5.00729
 20
3.39376
 30
0.0
 10
-5.00729
 20
3.39376
 30
0.0
 10
-5.01488
 20
3.2224
 30
0.0
 10
-5.01488
 20
3.2224
 30
0.0
 10
-5.04349
 20
3.20836
 30
0.0
 10
-5.0625
 20
3.19443
 30
0.0
 10
-5.08152
 20
3.18051
 30
0.0
  0
SPLINE
  5
A2
330
1F
100
AcDbEntity
  8
Layer 1
 62
    22
370
     0
100
AcDbSpline
210
0.0
220
0.0
230
1.0
 70
    11
 71
     3
 72
    24
 73
    20
 74
     0
 42
0.0000000001
 43
0.0000000001
 40
0.0
 40
0.0
 40
0.0
 40
0.0
 40
0.2
 40
0.2
 40
0.2
 40
0.2
 40
0.4
 40
0.4
 40
0.4
 40
0.4
 40
0.6000000000000001
 40
0.6000000000000001
 40
0.6000000000000001
 40
0.6000000000000001
 40
0.8
 40
0.8
 40
0.8
 40
0.8
 40
1.0
 40
1.0
 40
1.0
 40
1.0
 10
-5.40522
 20
3.3911
 30
0.0
 10
-5.42535
 20
3.41739
 30
0.0
 10
-5.44549
 20
3.44367
 30
0.0
 10
-5.46563
 20
3.46994
 30
0.0
 10
-5.46563
 20
3.46994
 30
0.0
 10
-5.44681
 20
3.55635
 30
0.0
 10
-5.428
 20
3.64273
 30
0.0
 10
-5.4091
 20
3.72251
 30
0.0
 10
-5.4091
 20
3.72251
 30
0.0
 10
-5.39587
 20
3.72267
 30
0.0
 10
-5.38266
 20
3.72282
 30
0.0
 10
-5.36944
 20
3.72298
 30
0.0
 10
-5.36944
 20
3.72298
 30
0.0
 10
-5.33469
 20
3.57755
 30
0.0
 10
-5.33469
 20
3.57755
 30
0.0
 10
-5.33298
 20
3.43174
 30
0.0
 10
-5.33298
 20
3.43174
 30
0.0
 10
-5.35926
 20
3.41817
 30
0.0
 10
-5.38553
 20
3.4046
 30
0.0
 10
-5.40522
 20
3.3911
 30
0.0
  0
SPLINE
  5
A3
330
1F
100
AcDbEntity
  8
Layer 1
 62
    22
370
     0
100
AcDbSpline
210
0.0
220
0.0
230
1.0
 70
    11
 71
     3
 72
    16
 73
    12
 74
     0
 42
0.0000000001
 43
0.0000000001
 40
0.0
 40
0.0
 40
0.0
 40
0.0
 40
0.3333333333333333
 40
0.3333333333333333
 40
0.3333333333333333
 40
0.3333333333333333
 40
0.6666666666666666
 40
0.6666666666666666
 40
0.6666666666666666
 40
0.6666666666666666
 40
1.0
 40
1.0
 40
1.0
 40
1.0
 10
-5.66528
 20
3.7179
 30
0.0
 10
-5.76061
 20
3.85262
 30
0.0
 10
-5.70018
 20
4.03096
 30
0.0
 10
-5.63867
 20
4.11529
 30
0.0
 10
-5.63867
 20
4.11529
 30
0.0
 10
-5.57506
 20
4.02199
 30
0.0
 10
-5.57868
 20
3.88611
 30
0.0
 10
-5.58732
 20
3.73449
 30
0.0
 10
-5.58732
 20
3.73449
 30
0.0
 10
-5.61331
 20
3.72896
 30
0.0
 10
-5.63928
 20
3.72343
 30
0.0
 10
-5.66528
 20
3.7179
 30
0.0
  0
SPLINE
  5
A4
330
1F
100
AcDbEntity
  8
Layer 1
 62
    22
370
     0
100
AcDbSpline
210
0.0
220
0.0
230
1.0
 70
    11
 71
     3
 72
    20
 73
    16
 74
     0
 42
0.0000000001
 43
0.0000000001
 40
0.0
 40
0.0
 40
0.0
 40
0.0
 40
0.25
 40
0.25
 40
0.25
 40
0.25
 40
0.5
 40
0.5
 40
0.5
 40
0.5
 40
0.75
 40
0.75
 40
0.75
 40
0.75
 40
1.0
 40
1.0
 40
1.0
 40
1.0
 10
-6.00511
 20
3.83274
 30
0.0
 10
-6.05637
 20
4.09461
 30
0.0
 10
-6.06528
 20
4.26718
 30
0.0
 10
-6.02655
 20
4.48867
 30
0.0
 10
-6.02655
 20
4.48867
 30
0.0
 10
-6.00597
 20
4.49583
 30
0.0
 10
-5.98531
 20
4.49607
 30
0.0
 10
-5.96465
 20
4.49631
 30
0.0
 10
-5.96465
 20
4.49631
 30
0.0
 10
-5.92804
 20
4.31024
 30
0.0
 10
-5.88406
 20
4.08283
 30
0.0
 10
-5.8813
 20
3.84801
 30
0.0
 10
-5.8813
 20
3.84801
 30
0.0
 10
-5.92262
 20
3.84752
 30
0.0
 10
-5.96386
 20
3.84014
 30
0.0
 10
-6.00511
 20
3.83274
 30
0.0
  0
ENDSEC
  0
SECTION
  2
OBJECTS
  0
DICTIONARY
  5
C
330
0
100
AcDbDictionary
281
     1
  3
ACAD_GROUP
350
D
  3
ACAD_LAYOUT
350
1A
  3
ACAD_MLEADERSTYLE
350
A6
  3
ACAD_MLINESTYLE
350
17
  3
ACAD_PLOTSETTINGS
350
19
  3
ACAD_PLOTSTYLENAME
350
E
  3
ACAD_SCALELIST
350
3B
  3
ACAD_TABLESTYLE
350
A5
  3
ACAD_VISUALSTYLE
350
2A
  0
DICTIONARY
  5
D
102
{ACAD_REACTORS
330
C
102
}
330
C
100
AcDbDictionary
281
     1
  0
DICTIONARY
  5
1A
102
{ACAD_REACTORS
330
C
102
}
330
C
100
AcDbDictionary
281
     1
  3
Layout1
350
1E
  3
Layout2
350
26
  3
Model
350
22
  0
DICTIONARY
  5
A6
102
{ACAD_REACTORS
330
C
102
}
330
C
100
AcDbDictionary
281
     1
  0
DICTIONARY
  5
17
102
{ACAD_REACTORS
330
C
102
}
330
C
100
AcDbDictionary
281
     1
  3
Standard
350
18
  0
DICTIONARY
  5
19
102
{ACAD_REACTORS
330
C
102
}
330
C
100
AcDbDictionary
281
     1
  0
ACDBDICTIONARYWDFLT
  5
E
102
{ACAD_REACTORS
330
C
102
}
330
C
100
AcDbDictionary
281
     1
  3
Normal
350
F
100
AcDbDictionaryWithDefault
340
F
  0
DICTIONARY
  5
3B
102
{ACAD_REACTORS
330
C
102
}
330
C
100
AcDbDictionary
281
     1
  3
A0
350
3C
  3
A1
350
3D
  3
A2
350
3E
  3
A3
350
3F
  3
A4
350
40
  3
A5
350
41
  3
A6
350
42
  3
A7
350
43
  3
A8
350
44
  3
A9
350
45
  3
B0
350
46
  3
B1
350
47
  3
B2
350
48
  3
B3
350
49
  3
B4
350
4A
  3
B5
350
4B
  3
B6
350
4C
  3
B7
350
4D
  3
B8
350
4E
  3
B9
350
4F
  3
C0
350
50
  3
C1
350
51
  3
C2
350
52
  3
C3
350
53
  3
C4
350
54
  3
C5
350
55
  3
C6
350
56
  3
C7
350
57
  3
C8
350
58
  3
C9
350
59
  3
D0
350
5A
  3
D1
350
5B
  3
D2
350
5C
  0
DICTIONARY
  5
A5
102
{ACAD_REACTORS
330
C
102
}
330
C
100
AcDbDictionary
281
     1
  0
DICTIONARY
  5
2A
102
{ACAD_REACTORS
330
C
102
}
330
C
100
AcDbDictionary
281
     1
  3
2dWireframe
350
2F
  3
3D Hidden
350
31
  3
3dWireframe
350
30
  3
Basic
350
32
  3
Brighten
350
36
  3
ColorChange
350
3A
  3
Conceptual
350
34
  3
Dim
350
35
  3
Facepattern
350
39
  3
Flat
350
2B
  3
FlatWithEdges
350
2C
  3
Gouraud
350
2D
  3
GouraudWithEdges
350
2E
  3
Linepattern
350
38
  3
Realistic
350
33
  3
Thicken
350
37
  0
LAYOUT
  5
1E
102
{ACAD_REACTORS
330
1A
102
}
330
1A
100
AcDbPlotSettings
  1

  2
none_device
  4

  6

 40
0.0
 41
0.0
 42
0.0
 43
0.0
 44
0.0
 45
0.0
 46
0.0
 47
0.0
 48
0.0
 49
0.0
140
0.0
141
0.0
142
1.0
143
1.0
 70
   688
 72
     0
 73
     0
 74
     5
  7

 75
    16
 76
     0
 77
     2
 78
   300
147
1.0
148
0.0
149
0.0
100
AcDbLayout
  1
Layout1
 70
     1
 71
     1
 10
0.0
 20
0.0
 11
12.0
 21
9.0
 12
0.0
 22
0.0
 32
0.0
 14
1.000000000000000E+20
 24
1.000000000000000E+20
 34
1.000000000000000E+20
 15
-1.000000000000000E+20
 25
-1.000000000000000E+20
 35
-1.000000000000000E+20
146
0.0
 13
0.0
 23
0.0
 33
0.0
 16
1.0
 26
0.0
 36
0.0
 17
0.0
 27
1.0
 37
0.0
 76
     0
330
1B
  0
LAYOUT
  5
26
102
{ACAD_REACTORS
330
1A
102
}
330
1A
100
AcDbPlotSettings
  1

  2
none_device
  4

  6

 40
0.0
 41
0.0
 42
0.0
 43
0.0
 44
0.0
 45
0.0
 46
0.0
 47
0.0
 48
0.0
 49
0.0
140
0.0
141
0.0
142
1.0
143
1.0
 70
   688
 72
     0
 73
     0
 74
     5
  7

 75
    16
 76
     0
 77
     2
 78
   300
147
1.0
148
0.0
149
0.0
100
AcDbLayout
  1
Layout2
 70
     1
 71
     2
 10
0.0
 20
0.0
 11
0.0
 21
0.0
 12
0.0
 22
0.0
 32
0.0
 14
0.0
 24
0.0
 34
0.0
 15
0.0
 25
0.0
 35
0.0
146
0.0
 13
0.0
 23
0.0
 33
0.0
 16
1.0
 26
0.0
 36
0.0
 17
0.0
 27
1.0
 37
0.0
 76
     0
330
23
  0
LAYOUT
  5
22
102
{ACAD_REACTORS
330
1A
102
}
330
1A
100
AcDbPlotSettings
  1

  2
none_device
  4

  6

 40
0.0
 41
0.0
 42
0.0
 43
0.0
 44
0.0
 45
0.0
 46
0.0
 47
0.0
 48
0.0
 49
0.0
140
0.0
141
0.0
142
1.0
143
1.0
 70
  1712
 72
     0
 73
     0
 74
     0
  7

 75
     0
 76
     0
 77
     2
 78
   300
147
1.0
148
0.0
149
0.0
100
AcDbLayout
  1
Model
 70
     1
 71
     0
 10
0.0
 20
0.0
 11
12.0
 21
9.0
 12
0.0
 22
0.0
 32
0.0
 14
-7.42434
 24
-5.86019
 34
0.0
 15
7.4674
 25
5.86018
 35
0.0
146
0.0
 13
0.0
 23
0.0
 33
0.0
 16
1.0
 26
0.0
 36
0.0
 17
0.0
 27
1.0
 37
0.0
 76
     0
330
1F
331
29
  0
MLINESTYLE
  5
18
102
{ACAD_REACTORS
330
17
102
}
330
17
100
AcDbMlineStyle
  2
Standard
 70
     0
  3

 62
   256
 51
90.0
 52
90.0
 71
     2
 49
0.5
 62
   256
  6
BYLAYER
 49
-0.5
 62
   256
  6
BYLAYER
  0
ACDBPLACEHOLDER
  5
F
102
{ACAD_REACTORS
330
E
102
}
330
E
  0
SCALE
  5
3C
102
{ACAD_REACTORS
330
3B
102
}
330
3B
100
AcDbScale
 70
     0
300
1:1
140
1.0
141
1.0
290
     1
  0
SCALE
  5
3D
102
{ACAD_REACTORS
330
3B
102
}
330
3B
100
AcDbScale
 70
     0
300
1:2
140
1.0
141
2.0
290
     0
  0
SCALE
  5
3E
102
{ACAD_REACTORS
330
3B
102
}
330
3B
100
AcDbScale
 70
     0
300
1:4
140
1.0
141
4.0
290
     0
  0
SCALE
  5
3F
102
{ACAD_REACTORS
330
3B
102
}
330
3B
100
AcDbScale
 70
     0
300
1:5
140
1.0
141
5.0
290
     0
  0
SCALE
  5
40
102
{ACAD_REACTORS
330
3B
102
}
330
3B
100
AcDbScale
 70
     0
300
1:8
140
1.0
141
8.0
290
     0
  0
SCALE
  5
41
102
{ACAD_REACTORS
330
3B
102
}
330
3B
100
AcDbScale
 70
     0
300
1:10
140
1.0
141
10.0
290
     0
  0
SCALE
  5
42
102
{ACAD_REACTORS
330
3B
102
}
330
3B
100
AcDbScale
 70
     0
300
1:16
140
1.0
141
16.0
290
     0
  0
SCALE
  5
43
102
{ACAD_REACTORS
330
3B
102
}
330
3B
100
AcDbScale
 70
     0
300
1:20
140
1.0
141
20.0
290
     0
  0
SCALE
  5
44
102
{ACAD_REACTORS
330
3B
102
}
330
3B
100
AcDbScale
 70
     0
300
1:30
140
1.0
141
30.0
290
     0
  0
SCALE
  5
45
102
{ACAD_REACTORS
330
3B
102
}
330
3B
100
AcDbScale
 70
     0
300
1:40
140
1.0
141
40.0
290
     0
  0
SCALE
  5
46
102
{ACAD_REACTORS
330
3B
102
}
330
3B
100
AcDbScale
 70
     0
300
1:50
140
1.0
141
50.0
290
     0
  0
SCALE
  5
47
102
{ACAD_REACTORS
330
3B
102
}
330
3B
100
AcDbScale
 70
     0
300
1:100
140
1.0
141
100.0
290
     0
  0
SCALE
  5
48
102
{ACAD_REACTORS
330
3B
102
}
330
3B
100
AcDbScale
 70
     0
300
2:1
140
2.0
141
1.0
290
     0
  0
SCALE
  5
49
102
{ACAD_REACTORS
330
3B
102
}
330
3B
100
AcDbScale
 70
     0
300
4:1
140
4.0
141
1.0
290
     0
  0
SCALE
  5
4A
102
{ACAD_REACTORS
330
3B
102
}
330
3B
100
AcDbScale
 70
     0
300
8:1
140
8.0
141
1.0
290
     0
  0
SCALE
  5
4B
102
{ACAD_REACTORS
330
3B
102
}
330
3B
100
AcDbScale
 70
     0
300
10:1
140
10.0
141
1.0
290
     0
  0
SCALE
  5
4C
102
{ACAD_REACTORS
330
3B
102
}
330
3B
100
AcDbScale
 70
     0
300
100:1
140
100.0
141
1.0
290
     0
  0
SCALE
  5
4D
102
{ACAD_REACTORS
330
3B
102
}
330
3B
100
AcDbScale
 70
     0
300
1/128\" = 1\'-0\"
140
0.0078125
141
12.0
290
     0
  0
SCALE
  5
4E
102
{ACAD_REACTORS
330
3B
102
}
330
3B
100
AcDbScale
 70
     0
300
1/64\" = 1\'-0\"
140
0.015625
141
12.0
290
     0
  0
SCALE
  5
4F
102
{ACAD_REACTORS
330
3B
102
}
330
3B
100
AcDbScale
 70
     0
300
1/32\" = 1\'-0\"
140
0.03125
141
12.0
290
     0
  0
SCALE
  5
50
102
{ACAD_REACTORS
330
3B
102
}
330
3B
100
AcDbScale
 70
     0
300
1/16\" = 1\'-0\"
140
0.0625
141
12.0
290
     0
  0
SCALE
  5
51
102
{ACAD_REACTORS
330
3B
102
}
330
3B
100
AcDbScale
 70
     0
300
3/32\" = 1\'-0\"
140
0.09375
141
12.0
290
     0
  0
SCALE
  5
52
102
{ACAD_REACTORS
330
3B
102
}
330
3B
100
AcDbScale
 70
     0
300
1/8\" = 1\'-0\"
140
0.125
141
12.0
290
     0
  0
SCALE
  5
53
102
{ACAD_REACTORS
330
3B
102
}
330
3B
100
AcDbScale
 70
     0
300
3/16\" = 1\'-0\"
140
0.1875
141
12.0
290
     0
  0
SCALE
  5
54
102
{ACAD_REACTORS
330
3B
102
}
330
3B
100
AcDbScale
 70
     0
300
1/4\" = 1\'-0\"
140
0.25
141
12.0
290
     0
  0
SCALE
  5
55
102
{ACAD_REACTORS
330
3B
102
}
330
3B
100
AcDbScale
 70
     0
300
3/8\" = 1\'-0\"
140
0.375
141
12.0
290
     0
  0
SCALE
  5
56
102
{ACAD_REACTORS
330
3B
102
}
330
3B
100
AcDbScale
 70
     0
300
1/2\" = 1\'-0\"
140
0.5
141
12.0
290
     0
  0
SCALE
  5
57
102
{ACAD_REACTORS
330
3B
102
}
330
3B
100
AcDbScale
 70
     0
300
3/4\" = 1\'-0\"
140
0.75
141
12.0
290
     0
  0
SCALE
  5
58
102
{ACAD_REACTORS
330
3B
102
}
330
3B
100
AcDbScale
 70
     0
300
1\" = 1\'-0\"
140
1.0
141
12.0
290
     0
  0
SCALE
  5
59
102
{ACAD_REACTORS
330
3B
102
}
330
3B
100
AcDbScale
 70
     0
300
1-1/2\" = 1\'-0\"
140
1.5
141
12.0
290
     0
  0
SCALE
  5
5A
102
{ACAD_REACTORS
330
3B
102
}
330
3B
100
AcDbScale
 70
     0
300
3\" = 1\'-0\"
140
3.0
141
12.0
290
     0
  0
SCALE
  5
5B
102
{ACAD_REACTORS
330
3B
102
}
330
3B
100
AcDbScale
 70
     0
300
6\" = 1\'-0\"
140
6.0
141
12.0
290
     0
  0
SCALE
  5
5C
102
{ACAD_REACTORS
330
3B
102
}
330
3B
100
AcDbScale
 70
     0
300
1\'-0\" = 1\'-0\"
140
12.0
141
12.0
290
     0
  0
VISUALSTYLE
  5
2F
102
{ACAD_REACTORS
330
2A
102
}
330
2A
100
AcDbVisualStyle
  2
2dWireframe
 70
     4
 71
     0
 72
     2
 73
     0
 90
        0
 40
-0.6
 41
-30.0
 62
     5
 63
     7
421
 16777215
 74
     1
 91
        4
 64
     7
 65
   257
 75
     1
175
     1
 42
1.0
 92
        0
 66
   257
 43
1.0
 76
     1
 77
     6
 78
     2
 67
     7
 79
     5
170
     0
171
     0
290
     0
174
     0
 93
        1
 44
0.0
173
     0
291
     0
 45
0.0
  0
VISUALSTYLE
  5
31
102
{ACAD_REACTORS
330
2A
102
}
330
2A
100
AcDbVisualStyle
  2
3D Hidden
 70
     6
 71
     1
 72
     2
 73
     2
 90
        0
 40
-0.6
 41
-30.0
 62
     5
 63
     7
421
 16777215
 74
     2
 91
        2
 64
     7
 65
   257
 75
     2
175
     1
 42
40.0
 92
        0
 66
   257
 43
1.0
 76
     1
 77
     6
 78
     2
 67
     7
 79
     3
170
     0
171
     0
290
     0
174
     0
 93
        1
 44
0.0
173
     0
291
     0
 45
0.0
  0
VISUALSTYLE
  5
30
102
{ACAD_REACTORS
330
2A
102
}
330
2A
100
AcDbVisualStyle
  2
3dWireframe
 70
     5
 71
     0
 72
     2
 73
     0
 90
        0
 40
-0.6
 41
-30.0
 62
     5
 63
     7
421
 16777215
 74
     1
 91
        4
 64
     7
 65
   257
 75
     1
175
     1
 42
1.0
 92
        0
 66
   257
 43
1.0
 76
     1
 77
     6
 78
     2
 67
     7
 79
     5
170
     0
171
     0
290
     0
174
     0
 93
        1
 44
0.0
173
     0
291
     0
 45
0.0
  0
VISUALSTYLE
  5
32
102
{ACAD_REACTORS
330
2A
102
}
330
2A
100
AcDbVisualStyle
  2
Basic
 70
     7
 71
     1
 72
     0
 73
     1
 90
        0
 40
-0.6
 41
-30.0
 62
     5
 63
     7
421
 16777215
 74
     0
 91
        4
 64
     7
 65
   257
 75
     1
175
     1
 42
1.0
 92
        8
 66
     7
 43
1.0
 76
     1
 77
     6
 78
     2
 67
     7
 79
     5
170
     0
171
     0
290
     0
174
     0
 93
        1
 44
0.0
173
     0
291
     1
 45
0.0
  0
VISUALSTYLE
  5
36
102
{ACAD_REACTORS
330
2A
102
}
330
2A
100
AcDbVisualStyle
  2
Brighten
 70
    12
 71
     2
 72
     2
 73
     0
 90
        0
 40
-0.6
 41
-30.0
 62
     5
 63
     7
421
 16777215
 74
     1
 91
        4
 64
     7
 65
   257
 75
     1
175
     1
 42
1.0
 92
        8
 66
     7
 43
1.0
 76
     1
 77
     6
 78
     2
 67
     7
 79
     5
170
     0
171
     0
290
     0
174
     0
 93
        1
 44
50.0
173
     0
291
     1
 45
0.0
  0
VISUALSTYLE
  5
3A
102
{ACAD_REACTORS
330
2A
102
}
330
2A
100
AcDbVisualStyle
  2
ColorChange
 70
    16
 71
     2
 72
     2
 73
     3
 90
        0
 40
-0.6
 41
-30.0
 62
     5
 63
     8
421
  8421504
 74
     1
 91
        4
 64
     7
 65
   257
 75
     1
175
     1
 42
1.0
 92
        8
 66
     8
424
  8421504
 43
1.0
 76
     1
 77
     6
 78
     2
 67
     7
 79
     5
170
     0
171
     0
290
     0
174
     0
 93
        1
 44
0.0
173
     0
291
     1
 45
0.0
  0
VISUALSTYLE
  5
34
102
{ACAD_REACTORS
330
2A
102
}
330
2A
100
AcDbVisualStyle
  2
Conceptual
 70
     9
 71
     3
 72
     2
 73
     0
 90
        0
 40
-0.6
 41
-30.0
 62
     5
 63
     7
421
 16777215
 74
     2
 91
        2
 64
     7
 65
   257
 75
     1
175
     1
 42
40.0
 92
        8
 66
     7
 43
1.0
 76
     1
 77
     6
 78
     2
 67
     7
 79
     3
170
     0
171
     0
290
     0
174
     0
 93
        1
 44
0.0
173
     0
291
     0
 45
0.0
  0
VISUALSTYLE
  5
35
102
{ACAD_REACTORS
330
2A
102
}
330
2A
100
AcDbVisualStyle
  2
Dim
 70
    11
 71
     2
 72
     2
 73
     0
 90
        0
 40
-0.6
 41
-30.0
 62
     5
 63
     7
421
 16777215
 74
     1
 91
        4
 64
     7
 65
   257
 75
     1
175
     1
 42
1.0
 92
        8
 66
     7
 43
1.0
 76
     1
 77
     6
 78
     2
 67
     7
 79
     5
170
     0
171
     0
290
     0
174
     0
 93
        1
 44
-50.0
173
     0
291
     1
 45
0.0
  0
VISUALSTYLE
  5
39
102
{ACAD_REACTORS
330
2A
102
}
330
2A
100
AcDbVisualStyle
  2
Facepattern
 70
    15
 71
     2
 72
     2
 73
     0
 90
        0
 40
-0.6
 41
-30.0
 62
     5
 63
     7
421
 16777215
 74
     1
 91
        4
 64
     7
 65
   257
 75
     1
175
     1
 42
1.0
 92
        8
 66
     7
 43
1.0
 76
     1
 77
     6
 78
     2
 67
     7
 79
     5
170
     0
171
     0
290
     0
174
     0
 93
        1
 44
0.0
173
     0
291
     1
 45
0.0
  0
VISUALSTYLE
  5
2B
102
{ACAD_REACTORS
330
2A
102
}
330
2A
100
AcDbVisualStyle
  2
Flat
 70
     0
 71
     2
 72
     1
 73
     1
 90
        2
 40
-0.6
 41
30.0
 62
     5
 63
     7
421
 16777215
 74
     0
 91
        4
 64
     7
 65
   257
 75
     1
175
     1
 42
1.0
 92
        8
 66
     7
 43
1.0
 76
     1
 77
     6
 78
     2
 67
     7
 79
     5
170
     0
171
     0
290
     0
174
     0
 93
       13
 44
0.0
173
     0
291
     1
 45
0.0
  0
VISUALSTYLE
  5
2C
102
{ACAD_REACTORS
330
2A
102
}
330
2A
100
AcDbVisualStyle
  2
FlatWithEdges
 70
     1
 71
     2
 72
     1
 73
     1
 90
        2
 40
-0.6
 41
30.0
 62
     5
 63
     7
421
 16777215
 74
     1
 91
        4
 64
     7
 65
   257
 75
     1
175
     1
 42
1.0
 92
        0
 66
   257
 43
1.0
 76
     1
 77
     6
 78
     2
 67
     7
 79
     5
170
     0
171
     0
290
     0
174
     0
 93
       13
 44
0.0
173
     0
291
     1
 45
0.0
  0
VISUALSTYLE
  5
2D
102
{ACAD_REACTORS
330
2A
102
}
330
2A
100
AcDbVisualStyle
  2
Gouraud
 70
     2
 71
     2
 72
     2
 73
     1
 90
        2
 40
-0.6
 41
30.0
 62
     5
 63
     7
421
 16777215
 74
     0
 91
        4
 64
     7
 65
   257
 75
     1
175
     1
 42
1.0
 92
        0
 66
     7
 43
1.0
 76
     1
 77
     6
 78
     2
 67
     7
 79
     5
170
     0
171
     0
290
     0
174
     0
 93
       13
 44
0.0
173
     0
291
     1
 45
0.0
  0
VISUALSTYLE
  5
2E
102
{ACAD_REACTORS
330
2A
102
}
330
2A
100
AcDbVisualStyle
  2
GouraudWithEdges
 70
     3
 71
     2
 72
     2
 73
     1
 90
        2
 40
-0.6
 41
30.0
 62
     5
 63
     7
421
 16777215
 74
     1
 91
        4
 64
     7
 65
   257
 75
     1
175
     1
 42
1.0
 92
        0
 66
   257
 43
1.0
 76
     1
 77
     6
 78
     2
 67
     7
 79
     5
170
     0
171
     0
290
     0
174
     0
 93
       13
 44
0.0
173
     0
291
     1
 45
0.0
  0
VISUALSTYLE
  5
38
102
{ACAD_REACTORS
330
2A
102
}
330
2A
100
AcDbVisualStyle
  2
Linepattern
 70
    14
 71
     2
 72
     2
 73
     0
 90
        0
 40
-0.6
 41
-30.0
 62
     5
 63
     7
421
 16777215
 74
     1
 91
        4
 64
     7
 65
   257
 75
     7
175
     7
 42
1.0
 92
        8
 66
     7
 43
1.0
 76
     1
 77
     6
 78
     2
 67
     7
 79
     5
170
     0
171
     0
290
     0
174
     0
 93
        1
 44
0.0
173
     0
291
     1
 45
0.0
  0
VISUALSTYLE
  5
33
102
{ACAD_REACTORS
330
2A
102
}
330
2A
100
AcDbVisualStyle
  2
Realistic
 70
     8
 71
     2
 72
     2
 73
     0
 90
        0
 40
-0.6
 41
-30.0
 62
     5
 63
     7
421
 16777215
 74
     1
 91
        0
 64
     7
 65
   257
 75
     1
175
     1
 42
1.0
 92
        8
 66
     8
424
  7895160
 43
1.0
 76
     1
 77
     6
 78
     2
 67
     7
 79
     5
170
     0
171
     0
290
     0
174
     0
 93
       13
 44
0.0
173
     0
291
     0
 45
0.0
  0
VISUALSTYLE
  5
37
102
{ACAD_REACTORS
330
2A
102
}
330
2A
100
AcDbVisualStyle
  2
Thicken
 70
    13
 71
     2
 72
     2
 73
     0
 90
        0
 40
-0.6
 41
-30.0
 62
     5
 63
     7
421
 16777215
 74
     1
 91
        4
 64
     7
 65
   257
 75
     1
175
     1
 42
1.0
 92
       12
 66
     7
 43
1.0
 76
     1
 77
     6
 78
     2
 67
     7
 79
     5
170
     0
171
     0
290
     0
174
     0
 93
        1
 44
0.0
173
     0
291
     1
 45
0.0
  0
ENDSEC
  0
EOF
