  0
SECTION
  2
HEADER
  9
$ACADVER
  1
AC1015
  9
$ACADMAINTVER
 70
     6
  9
$DWGCODEPAGE
  3
ANSI_1252
  9
$INSBASE
 10
0.0
 20
0.0
 30
0.0
  9
$EXTMIN
 10
1.000000E+20
 20
1.000000E+20
 30
1.000000E+20
  9
$EXTMAX
 10
-1.000000E+20
 20
-1.000000E+20
 30
-1.000000E+20
  9
$LIMMIN
 10
0.0
 20
0.0
  9
$LIMMAX
 10
420.0
 20
297.0
  9
$ORTHOMODE
 70
     0
  9
$REGENMODE
 70
     1
  9
$FILLMODE
 70
     1
  9
$QTEXTMODE
 70
     0
  9
$MIRRTEXT
 70
     1
  9
$LTSCALE
 40
1.0
  9
$ATTMODE
 70
     1
  9
$TEXTSIZE
 40
2.5
  9
$TRACEWID
 40
1.0
  9
$TEXTSTYLE
  7
Standard
  9
$CLAYER
  8
0
  9
$CELTYPE
  6
ByLayer
  9
$CECOLOR
 62
   256
  9
$CELTSCALE
 40
1.0
  9
$DISPSILH
 70
     0
  9
$DIMSCALE
 40
1.0
  9
$DIMASZ
 40
2.5
  9
$DIMEXO
 40
0.625
  9
$DIMDLI
 40
3.75
  9
$DIMRND
 40
0.0
  9
$DIMDLE
 40
0.0
  9
$DIMEXE
 40
1.25
  9
$DIMTP
 40
0.0
  9
$DIMTM
 40
0.0
  9
$DIMTXT
 40
2.5
  9
$DIMCEN
 40
2.5
  9
$DIMTSZ
 40
0.0
  9
$DIMTOL
 70
     0
  9
$DIMLIM
 70
     0
  9
$DIMTIH
 70
     0
  9
$DIMTOH
 70
     0
  9
$DIMSE1
 70
     0
  9
$DIMSE2
 70
     0
  9
$DIMTAD
 70
     1
  9
$DIMZIN
 70
     8
  9
$DIMBLK
  1

  9
$DIMASO
 70
     1
  9
$DIMSHO
 70
     1
  9
$DIMPOST
  1

  9
$DIMAPOST
  1

  9
$DIMALT
 70
     0
  9
$DIMALTD
 70
     3
  9
$DIMALTF
 40
0.03937
  9
$DIMLFAC
 40
1.0
  9
$DIMTOFL
 70
     1
  9
$DIMTVP
 40
0.0
  9
$DIMTIX
 70
     0
  9
$DIMSOXD
 70
     0
  9
$DIMSAH
 70
     0
  9
$DIMBLK1
  1

  9
$DIMBLK2
  1

  9
$DIMSTYLE
  2
ISO-25
  9
$DIMCLRD
 70
     0
  9
$DIMCLRE
 70
     0
  9
$DIMCLRT
 70
     0
  9
$DIMTFAC
 40
1.0
  9
$DIMGAP
 40
0.625
  9
$DIMJUST
 70
     0
  9
$DIMSD1
 70
     0
  9
$DIMSD2
 70
     0
  9
$DIMTOLJ
 70
     0
  9
$DIMTZIN
 70
     8
  9
$DIMALTZ
 70
     0
  9
$DIMALTTZ
 70
     0
  9
$DIMUPT
 70
     0
  9
$DIMDEC
 70
     2
  9
$DIMTDEC
 70
     2
  9
$DIMALTU
 70
     2
  9
$DIMALTTD
 70
     3
  9
$DIMTXSTY
  7
Standard
  9
$DIMAUNIT
 70
     0
  9
$DIMADEC
 70
     0
  9
$DIMALTRND
 40
0.0
  9
$DIMAZIN
 70
     0
  9
$DIMDSEP
 70
    44
  9
$DIMATFIT
 70
     3
  9
$DIMFRAC
 70
     0
  9
$DIMLDRBLK
  1

  9
$DIMLUNIT
 70
     2
  9
$DIMLWD
 70
    -2
  9
$DIMLWE
 70
    -2
  9
$DIMTMOVE
 70
     0
  9
$LUNITS
 70
     2
  9
$LUPREC
 70
     4
  9
$SKETCHINC
 40
1.0
  9
$FILLETRAD
 40
10.0
  9
$AUNITS
 70
     0
  9
$AUPREC
 70
     0
  9
$MENU
  1
.
  9
$ELEVATION
 40
0.0
  9
$PELEVATION
 40
0.0
  9
$THICKNESS
 40
0.0
  9
$LIMCHECK
 70
     0
  9
$CHAMFERA
 40
10.0
  9
$CHAMFERB
 40
10.0
  9
$CHAMFERC
 40
20.0
  9
$CHAMFERD
 40
0.0
  9
$SKPOLY
 70
     0
  9
$TDCREATE
 40
2454255.922345914
  9
$TDUCREATE
 40
2454255.880679248
  9
$TDUPDATE
 40
2454255.922345926
  9
$TDUUPDATE
 40
2454255.880679259
  9
$TDINDWG
 40
0.0000000116
  9
$TDUSRTIMER
 40
0.0000000116
  9
$USRTIMER
 70
     1
  9
$ANGBASE
 50
0.0
  9
$ANGDIR
 70
     0
  9
$PDMODE
 70
     3
  9
$PDSIZE
 40
-0.7
  9
$PLINEWID
 40
0.0
  9
$SPLFRAME
 70
     0
  9
$SPLINETYPE
 70
     6
  9
$SPLINESEGS
 70
     8
  9
$HANDSEED
  5
58
  9
$SURFTAB1
 70
     6
  9
$SURFTAB2
 70
     6
  9
$SURFTYPE
 70
     6
  9
$SURFU
 70
     6
  9
$SURFV
 70
     6
  9
$UCSBASE
  2

  9
$UCSNAME
  2

  9
$UCSORG
 10
0.0
 20
0.0
 30
0.0
  9
$UCSXDIR
 10
1.0
 20
0.0
 30
0.0
  9
$UCSYDIR
 10
0.0
 20
1.0
 30
0.0
  9
$UCSORTHOREF
  2

  9
$UCSORTHOVIEW
 70
     0
  9
$UCSORGTOP
 10
0.0
 20
0.0
 30
0.0
  9
$UCSORGBOTTOM
 10
0.0
 20
0.0
 30
0.0
  9
$UCSORGLEFT
 10
0.0
 20
0.0
 30
0.0
  9
$UCSORGRIGHT
 10
0.0
 20
0.0
 30
0.0
  9
$UCSORGFRONT
 10
0.0
 20
0.0
 30
0.0
  9
$UCSORGBACK
 10
0.0
 20
0.0
 30
0.0
  9
$PUCSBASE
  2

  9
$PUCSNAME
  2

  9
$PUCSORG
 10
0.0
 20
0.0
 30
0.0
  9
$PUCSXDIR
 10
1.0
 20
0.0
 30
0.0
  9
$PUCSYDIR
 10
0.0
 20
1.0
 30
0.0
  9
$PUCSORTHOREF
  2

  9
$PUCSORTHOVIEW
 70
     0
  9
$PUCSORGTOP
 10
0.0
 20
0.0
 30
0.0
  9
$PUCSORGBOTTOM
 10
0.0
 20
0.0
 30
0.0
  9
$PUCSORGLEFT
 10
0.0
 20
0.0
 30
0.0
  9
$PUCSORGRIGHT
 10
0.0
 20
0.0
 30
0.0
  9
$PUCSORGFRONT
 10
0.0
 20
0.0
 30
0.0
  9
$PUCSORGBACK
 10
0.0
 20
0.0
 30
0.0
  9
$USERI1
 70
     0
  9
$USERI2
 70
     0
  9
$USERI3
 70
     0
  9
$USERI4
 70
     0
  9
$USERI5
 70
     0
  9
$USERR1
 40
0.0
  9
$USERR2
 40
0.0
  9
$USERR3
 40
0.0
  9
$USERR4
 40
0.0
  9
$USERR5
 40
0.0
  9
$WORLDVIEW
 70
     1
  9
$SHADEDGE
 70
     3
  9
$SHADEDIF
 70
    70
  9
$TILEMODE
 70
     1
  9
$MAXACTVP
 70
    64
  9
$PINSBASE
 10
0.0
 20
0.0
 30
0.0
  9
$PLIMCHECK
 70
     0
  9
$PEXTMIN
 10
1.000000E+20
 20
1.000000E+20
 30
1.000000E+20
  9
$PEXTMAX
 10
-1.000000E+20
 20
-1.000000E+20
 30
-1.000000E+20
  9
$PLIMMIN
 10
0.0
 20
0.0
  9
$PLIMMAX
 10
420.0
 20
297.0
  9
$UNITMODE
 70
     0
  9
$VISRETAIN
 70
     1
  9
$PLINEGEN
 70
     0
  9
$PSLTSCALE
 70
     1
  9
$TREEDEPTH
 70
  3020
  9
$CMLSTYLE
  2
Standard
  9
$CMLJUST
 70
     1
  9
$CMLSCALE
 40
1.0
  9
$PROXYGRAPHICS
 70
     1
  9
$MEASUREMENT
 70
     1
  9
$CELWEIGHT
370
    -1
  9
$ENDCAPS
280
     0
  9
$JOINSTYLE
280
     0
  9
$LWDISPLAY
290
     0
  9
$INSUNITS
 70
     4
  9
$HYPERLINKBASE
  1

  9
$STYLESHEET
  1

  9
$XEDIT
290
     1
  9
$CEPSNTYPE
380
     0
  9
$PSTYLEMODE
290
     1
  9
$FINGERPRINTGUID
  2
{FAEB1C30-E019-11D5-929B-00C0DF256EC4}
  9
$VERSIONGUID
  2
{FAEB1C32-E019-11D5-929B-00C0DF256EC4}
  9
$EXTNAMES
290
     1
  9
$PSVPSCALE
 40
0.0
  9
$OLESTARTUP
290
     0
  0
ENDSEC
  0
SECTION
  2
CLASSES
  0
CLASS
  1
ACDBDICTIONARYWDFLT
  2
AcDbDictionaryWithDefault
  3
ObjectDBX Classes
 90
        0
280
     0
281
     0
  0
CLASS
  1
ACDBPLACEHOLDER
  2
AcDbPlaceHolder
  3
ObjectDBX Classes
 90
        0
280
     0
281
     0
  0
CLASS
  1
LAYOUT
  2
AcDbLayout
  3
ObjectDBX Classes
 90
        0
280
     0
281
     0
  0
ENDSEC
  0
SECTION
  2
TABLES
  0
TABLE
  2
VPORT
  5
8
330
0
100
AcDbSymbolTable
 70
     2
  0
VPORT
  5
29
330
8
100
AcDbSymbolTableRecord
100
AcDbViewportTableRecord
  2
*Active
 70
     0
 10
0.0
 20
0.0
 11
1.0
 21
1.0
 12
50.0
 22
50.0
 13
0.0
 23
0.0
 14
10.0
 24
10.0
 15
10.0
 25
10.0
 16
0.0
 26
0.0
 36
1.0
 17
0.0
 27
0.0
 37
0.0
 40
103.921569
 41
1.0
 42
50.0
 43
0.0
 44
0.0
 50
0.0
 51
0.0
 71
     0
 72
   100
 73
     1
 74
     3
 75
     0
 76
     0
 77
     0
 78
     0
281
     0
 65
     1
110
0.0
120
0.0
130
0.0
111
1.0
121
0.0
131
0.0
112
0.0
122
1.0
132
0.0
 79
     0
146
0.0
  0
ENDTAB
  0
TABLE
  2
LTYPE
  5
5
330
0
100
AcDbSymbolTable
 70
     1
  0
LTYPE
  5
14
330
5
100
AcDbSymbolTableRecord
100
AcDbLinetypeTableRecord
  2
ByBlock
 70
     0
  3

 72
    65
 73
     0
 40
0.0
  0
LTYPE
  5
15
330
5
100
AcDbSymbolTableRecord
100
AcDbLinetypeTableRecord
  2
ByLayer
 70
     0
  3

 72
    65
 73
     0
 40
0.0
  0
LTYPE
  5
16
330
5
100
AcDbSymbolTableRecord
100
AcDbLinetypeTableRecord
  2
Continuous
 70
     0
  3

 72
    65
 73
     0
 40
0.0
  0
ENDTAB
  0
TABLE
  2
LAYER
  5
2
330
0
100
AcDbSymbolTable
 70
     1
  0
LAYER
  5
10
330
2
100
AcDbSymbolTableRecord
100
AcDbLayerTableRecord
  2
0
 70
     0
 62
     7
  6
Continuous
370
    -3
390
F
  0
ENDTAB
  0
TABLE
  2
STYLE
  5
3
330
0
100
AcDbSymbolTable
 70
     1
  0
STYLE
  5
11
330
3
100
AcDbSymbolTableRecord
100
AcDbTextStyleTableRecord
  2
Standard
 70
     0
 40
1.0
 41
1.0
 50
0.0
 71
     0
 42
2.5
  3
RomanS
  4

  0
ENDTAB
  0
TABLE
  2
VIEW
  5
6
330
0
100
AcDbSymbolTable
 70
     0
  0
ENDTAB
  0
TABLE
  2
UCS
  5
7
330
0
100
AcDbSymbolTable
 70
     0
  0
ENDTAB
  0
TABLE
  2
APPID
  5
9
330
0
100
AcDbSymbolTable
 70
     1
  0
APPID
  5
12
330
9
100
AcDbSymbolTableRecord
100
AcDbRegAppTableRecord
  2
ACAD
 70
     0
  0
ENDTAB
  0
TABLE
  2
DIMSTYLE
  5
A
330
0
100
AcDbSymbolTable
 70
     1
100
AcDbDimStyleTable
  0
DIMSTYLE
105
27
330
A
100
AcDbSymbolTableRecord
100
AcDbDimStyleTableRecord
  2
ISO-25
 70
     0
 41
2.5
 42
0.625
 44
1.25
 73
     0
 74
     0
 77
     1
 78
     8
 79
     2
140
2.5
141
2.5
146
0.0
147
0.625
271
     2
272
     0
273
     0
274
     0
278
    44
283
     0
289
     0
340
11
  0
ENDTAB
  0
TABLE
  2
BLOCK_RECORD
  5
1
330
0
100
AcDbSymbolTable
 70
     1
  0
BLOCK_RECORD
  5
1F
330
1
100
AcDbSymbolTableRecord
100
AcDbBlockTableRecord
  2
*Model_Space
340
22
  0
BLOCK_RECORD
  5
1B
330
1
100
AcDbSymbolTableRecord
100
AcDbBlockTableRecord
  2
*Paper_Space
340
1E
  0
BLOCK_RECORD
  5
23
330
1
100
AcDbSymbolTableRecord
100
AcDbBlockTableRecord
  2
*Paper_Space0
340
26
  0
ENDTAB
  0
ENDSEC
  0
SECTION
  2
BLOCKS
  0
BLOCK
  5
20
330
1F
100
AcDbEntity
  8
0
100
AcDbBlockBegin
  2
*Model_Space
 70
     0
 71
     0
 10
0.0
 20
0.0
 30
0.0
  3
*Model_Space
  1

  0
ENDBLK
  5
21
330
1F
100
AcDbEntity
  8
0
100
AcDbBlockEnd
  0
BLOCK
  5
1C
330
1B
100
AcDbEntity
 67
     1
  8
0
100
AcDbBlockBegin
  2
*Paper_Space
 70
     0
 71
     0
 10
0.0
 20
0.0
 30
0.0
  3
*Paper_Space
  1

  0
ENDBLK
  5
1D
330
1B
100
AcDbEntity
 67
     1
  8
0
100
AcDbBlockEnd
  0
BLOCK
  5
24
330
23
100
AcDbEntity
  8
0
100
AcDbBlockBegin
  2
*Paper_Space0
 70
     0
 71
     0
 10
0.0
 20
0.0
 30
0.0
  3
*Paper_Space0
  1

  0
ENDBLK
  5
25
330
23
100
AcDbEntity
  8
0
100
AcDbBlockEnd
  0
ENDSEC
  0
SECTION
  2
ENTITIES
  0
LWPOLYLINE
  5
2A
330
1F
100
AcDbEntity
  8
0
100
AcDbPolyline
 90
     1867
 70
   128
 43
0.0
 10
6.475889
 20
5.650634
 10
6.480899
 20
5.666386
 10
6.485666
 20
5.682515
 10
6.490193
 20
5.699003
 10
6.494482
 20
5.715829
 10
6.502359
 20
5.750416
 10
6.509321
 20
5.78612
 10
6.515392
 20
5.822783
 10
6.520597
 20
5.860245
 10
6.524958
 20
5.89835
 10
6.5285
 20
5.936938
 10
6.531247
 20
5.975853
 10
6.533222
 20
6.014936
 10
6.53445
 20
6.054028
 10
6.534954
 20
6.092972
 10
6.534757
 20
6.13161
 10
6.533885
 20
6.169784
 10
6.532361
 20
6.207336
 10
6.530208
 20
6.244107
 10
6.527451
 20
6.279939
 10
6.524113
 20
6.314675
 10
6.520218
 20
6.348157
 10
6.515791
 20
6.380225
 10
6.510854
 20
6.410723
 10
6.505432
 20
6.439493
 10
6.499549
 20
6.466375
 10
6.493229
 20
6.491213
 10
6.486494
 20
6.513847
 10
6.47937
 20
6.534121
 10
6.47567
 20
6.543323
 10
6.47188
 20
6.551875
 10
6.468006
 20
6.559758
 10
6.464048
 20
6.566952
 10
6.460012
 20
6.573438
 10
6.455898
 20
6.579194
 10
6.451711
 20
6.584203
 10
6.447454
 20
6.588443
 10
6.443129
 20
6.591896
 10
6.438739
 20
6.594541
 10
6.434288
 20
6.596358
 10
6.429778
 20
6.597329
 10
6.42339
 20
6.594589
 10
6.417438
 20
6.59163
 10
6.411898
 20
6.588454
 10
6.406749
 20
6.585067
 10
6.401969
 20
6.581474
 10
6.397536
 20
6.57768
 10
6.393428
 20
6.573689
 10
6.389623
 20
6.569505
 10
6.386099
 20
6.565134
 10
6.382834
 20
6.560581
 10
6.376994
 20
6.550944
 10
6.371926
 20
6.540633
 10
6.367456
 20
6.529687
 10
6.363408
 20
6.518141
 10
6.359606
 20
6.506034
 10
6.352037
 20
6.48029
 10
6.34792
 20
6.466727
 10
6.343345
 20
6.452755
 10
6.338139
 20
6.43841
 10
6.332125
 20
6.423732
 10
6.328596
 20
6.433049
 10
6.325371
 20
6.443644
 10
6.322425
 20
6.455405
 10
6.319731
 20
6.468221
 10
6.317267
 20
6.48198
 10
6.315005
 20
6.496572
 10
6.310991
 20
6.527806
 10
6.307489
 20
6.561034
 10
6.304298
 20
6.595365
 10
6.298045
 20
6.663775
 10
6.294582
 20
6.696074
 10
6.290627
 20
6.725915
 10
6.288402
 20
6.739636
 10
6.285979
 20
6.752408
 10
6.283332
 20
6.764121
 10
6.280437
 20
6.774663
 10
6.277269
 20
6.783923
 10
6.273801
 20
6.79179
 10
6.27001
 20
6.798152
 10
6.267985
 20
6.800733
 10
6.26587
 20
6.802897
 10
6.263661
 20
6.80463
 10
6.261356
 20
6.805916
 10
6.258951
 20
6.806743
 10
6.256443
 20
6.807096
 10
6.253829
 20
6.806962
 10
6.251106
 20
6.806326
 10
6.24827
 20
6.805176
 10
6.245319
 20
6.803496
 10
6.2357
 20
6.801039
 10
6.226497
 20
6.798089
 10
6.2177
 20
6.794661
 10
6.209296
 20
6.790768
 10
6.201274
 20
6.786427
 10
6.193621
 20
6.781651
 10
6.186325
 20
6.776457
 10
6.179375
 20
6.770858
 10
6.172759
 20
6.76487
 10
6.166465
 20
6.758507
 10
6.16048
 20
6.751785
 10
6.154793
 20
6.744718
 10
6.149393
 20
6.737321
 10
6.144266
 20
6.729609
 10
6.139402
 20
6.721598
 10
6.134788
 20
6.713301
 10
6.130412
 20
6.704734
 10
6.126263
 20
6.695912
 10
6.118596
 20
6.677562
 10
6.111692
 20
6.658369
 10
6.105456
 20
6.638453
 10
6.099792
 20
6.617932
 10
6.094604
 20
6.596928
 10
6.085278
 20
6.55394
 10
6.083681
 20
6.532093
 10
6.08255
 20
6.508232
 10
6.081253
 20
6.456326
 10
6.080528
 20
6.401941
 10
6.079517
 20
6.348796
 10
6.078636
 20
6.323851
 10
6.077362
 20
6.30061
 10
6.075587
 20
6.279539
 10
6.073203
 20
6.261102
 10
6.07175
 20
6.253017
 10
6.070105
 20
6.245764
 10
6.068254
 20
6.239403
 10
6.066184
 20
6.233991
 10
6.063881
 20
6.229586
 10
6.061333
 20
6.226246
 10
6.058525
 20
6.22403
 10
6.057019
 20
6.223362
 10
6.055444
 20
6.222996
 10
6.053238
 20
6.223059
 10
6.051148
 20
6.223705
 10
6.04917
 20
6.224913
 10
6.0473
 20
6.226665
 10
6.045534
 20
6.228944
 10
6.043866
 20
6.23173
 10
6.040808
 20
6.238749
 10
6.038092
 20
6.247575
 10
6.035682
 20
6.25806
 10
6.033542
 20
6.270055
 10
6.031636
 20
6.283413
 10
6.028384
 20
6.313621
 10
6.02564
 20
6.347499
 10
6.020531
 20
6.42152
 10
6.017595
 20
6.459291
 10
6.014023
 20
6.495987
 10
6.011909
 20
6.513562
 10
6.009529
 20
6.530424
 10
6.006847
 20
6.546423
 10
6.003827
 20
6.561414
 10
6.000434
 20
6.575245
 10
5.996631
 20
6.587771
 10
5.992384
 20
6.598842
 10
5.990082
 20
6.603786
 10
5.987656
 20
6.60831
 10
5.985101
 20
6.612397
 10
5.982412
 20
6.616028
 10
5.979584
 20
6.619183
 10
5.976615
 20
6.621845
 10
5.973498
 20
6.623996
 10
5.97023
 20
6.625616
 10
5.966806
 20
6.626687
 10
5.963222
 20
6.62719
 10
5.953255
 20
6.625614
 10
5.943689
 20
6.623603
 10
5.934512
 20
6.621167
 10
5.925713
 20
6.618318
 10
5.917279
 20
6.615065
 10
5.909199
 20
6.611419
 10
5.90146
 20
6.60739
 10
5.894051
 20
6.60299
 10
5.88696
 20
6.598228
 10
5.880175
 20
6.593114
 10
5.873684
 20
6.58766
 10
5.867475
 20
6.581875
 10
5.861537
 20
6.57577
 10
5.855856
 20
6.569356
 10
5.850422
 20
6.562643
 10
5.845222
 20
6.555641
 10
5.840245
 20
6.548361
 10
5.835478
 20
6.540814
 10
5.826528
 20
6.524957
 10
5.818278
 20
6.508155
 10
5.810632
 20
6.490491
 10
5.803495
 20
6.472048
 10
5.79677
 20
6.45291
 10
5.790364
 20
6.433161
 10
5.78418
 20
6.412884
 10
5.783414
 20
6.393949
 10
5.783067
 20
6.373926
 10
5.783142
 20
6.331602
 10
5.783439
 20
6.287881
 10
5.783368
 20
6.266112
 10
5.782989
 20
6.244732
 10
5.782182
 20
6.223986
 10
5.780825
 20
6.204121
 10
5.778797
 20
6.185383
 10
5.775977
 20
6.168017
 10
5.774233
 20
6.159926
 10
5.772245
 20
6.152271
 10
5.769999
 20
6.145081
 10
5.767479
 20
6.138389
 10
5.76467
 20
6.132224
 10
5.761558
 20
6.126618
 10
5.758126
 20
6.121601
 10
5.754361
 20
6.117204
 10
5.750795
 20
6.123623
 10
5.747375
 20
6.130714
 10
5.74089
 20
6.146678
 10
5.734742
 20
6.16463
 10
5.728767
 20
6.184103
 10
5.716674
 20
6.22575
 10
5.710227
 20
6.246991
 10
5.703295
 20
6.267888
 10
5.695712
 20
6.287976
 10
5.691625
 20
6.29757
 10
5.687313
 20
6.306788
 10
5.682757
 20
6.31557
 10
5.677935
 20
6.323858
 10
5.672827
 20
6.331594
 10
5.667412
 20
6.338719
 10
5.66167
 20
6.345177
 10
5.65558
 20
6.350907
 10
5.649121
 20
6.355852
 10
5.642274
 20
6.359953
 10
5.635017
 20
6.363153
 10
5.62733
 20
6.365393
 10
5.619192
 20
6.366614
 10
5.610583
 20
6.366759
 10
5.597516
 20
6.363172
 10
5.584789
 20
6.358748
 10
5.572454
 20
6.353569
 10
5.560566
 20
6.347719
 10
5.549178
 20
6.341282
 10
5.538344
 20
6.334341
 10
5.528116
 20
6.326979
 10
5.51855
 20
6.31928
 10
5.509698
 20
6.311327
 10
5.501614
 20
6.303204
 10
5.494351
 20
6.294993
 10
5.487964
 20
6.286779
 10
5.482505
 20
6.278644
 10
5.478028
 20
6.270672
 10
5.474587
 20
6.262947
 10
5.472236
 20
6.255551
 10
5.46971
 20
6.241649
 10
5.467932
 20
6.226874
 10
5.466851
 20
6.211312
 10
5.466412
 20
6.19505
 10
5.466564
 20
6.178176
 10
5.467252
 20
6.160775
 10
5.468426
 20
6.142934
 10
5.470031
 20
6.124741
 10
5.474325
 20
6.087645
 10
5.479712
 20
6.050179
 10
5.485769
 20
6.013038
 10
5.492074
 20
5.976917
 10
5.503739
 20
5.910512
 10
5.508252
 20
5.881616
 10
5.511324
 20
5.856518
 10
5.512187
 20
5.845609
 10
5.51253
 20
5.835911
 10
5.512302
 20
5.827508
 10
5.51145
 20
5.820489
 10
5.50992
 20
5.81494
 10
5.508884
 20
5.812744
 10
5.507659
 20
5.810948
 10
5.506238
 20
5.809563
 10
5.504615
 20
5.8086
 10
5.502783
 20
5.808069
 10
5.500736
 20
5.807982
 10
5.499979
 20
5.806908
 10
5.499035
 20
5.806332
 10
5.49791
 20
5.806237
 10
5.496605
 20
5.806608
 10
5.493471
 20
5.808685
 10
5.489659
 20
5.812441
 10
5.485196
 20
5.817751
 10
5.480107
 20
5.824492
 10
5.46816
 20
5.841773
 10
5.437913
 20
5.888069
 10
5.420034
 20
5.915106
 10
5.400595
 20
5.943417
 10
5.379808
 20
5.972015
 10
5.368974
 20
5.986111
 10
5.357881
 20
5.999909
 10
5.346555
 20
6.013283
 10
5.335023
 20
6.026111
 10
5.323311
 20
6.038268
 10
5.311445
 20
6.049632
 10
5.299451
 20
6.060078
 10
5.287355
 20
6.069484
 10
5.275184
 20
6.077725
 10
5.269078
 20
6.08137
 10
5.262963
 20
6.084677
 10
5.256843
 20
6.087632
 10
5.250719
 20
6.090218
 10
5.244597
 20
6.092421
 10
5.238479
 20
6.094224
 10
5.232368
 20
6.095612
 10
5.226267
 20
6.09657
 10
5.22018
 20
6.097083
 10
5.214111
 20
6.097134
 10
5.205073
 20
6.096483
 10
5.196256
 20
6.095403
 10
5.187666
 20
6.09391
 10
5.179308
 20
6.092022
 10
5.171187
 20
6.089754
 10
5.163307
 20
6.087124
 10
5.155674
 20
6.084149
 10
5.148293
 20
6.080844
 10
5.14117
 20
6.077228
 10
5.134308
 20
6.073316
 10
5.127713
 20
6.069125
 10
5.121391
 20
6.064672
 10
5.115346
 20
6.059973
 10
5.109583
 20
6.055047
 10
5.104108
 20
6.049908
 10
5.098925
 20
6.044574
 10
5.09404
 20
6.039061
 10
5.089457
 20
6.033387
 10
5.085183
 20
6.027567
 10
5.08122
 20
6.021619
 10
5.077576
 20
6.01556
 10
5.074255
 20
6.009405
 10
5.071261
 20
6.003173
 10
5.068601
 20
5.996879
 10
5.066279
 20
5.99054
 10
5.0643
 20
5.984172
 10
5.062669
 20
5.977794
 10
5.061392
 20
5.971421
 10
5.060473
 20
5.965069
 10
5.059917
 20
5.958757
 10
5.05973
 20
5.9525
 10
5.059916
 20
5.946315
 10
5.060554
 20
5.9382
 10
5.061674
 20
5.929811
 10
5.063233
 20
5.921182
 10
5.065191
 20
5.91235
 10
5.070132
 20
5.894215
 10
5.076163
 20
5.875687
 10
5.082948
 20
5.857048
 10
5.090152
 20
5.83858
 10
5.104474
 20
5.803282
 10
5.110922
 20
5.787016
 10
5.116448
 20
5.772047
 10
5.120716
 20
5.758658
 10
5.122273
 20
5.752643
 10
5.123391
 20
5.747129
 10
5.124027
 20
5.742151
 10
5.124138
 20
5.737744
 10
5.123684
 20
5.733942
 10
5.122622
 20
5.730782
 10
5.12091
 20
5.728299
 10
5.118507
 20
5.726527
 10
5.11537
 20
5.725502
 10
5.111458
 20
5.725259
 10
5.088275
 20
5.74393
 10
5.065663
 20
5.761194
 10
5.04363
 20
5.777078
 10
5.022183
 20
5.791613
 10
5.001331
 20
5.804827
 10
4.98108
 20
5.816748
 10
4.961439
 20
5.827405
 10
4.942416
 20
5.836828
 10
4.924017
 20
5.845045
 10
4.906251
 20
5.852084
 10
4.889125
 20
5.857974
 10
4.872647
 20
5.862745
 10
4.856825
 20
5.866424
 10
4.841666
 20
5.869041
 10
4.827179
 20
5.870625
 10
4.81337
 20
5.871204
 10
4.800247
 20
5.870807
 10
4.787818
 20
5.869462
 10
4.776092
 20
5.867199
 10
4.765074
 20
5.864046
 10
4.754774
 20
5.860032
 10
4.745199
 20
5.855185
 10
4.736356
 20
5.849536
 10
4.728253
 20
5.843111
 10
4.720898
 20
5.83594
 10
4.714299
 20
5.828052
 10
4.708463
 20
5.819476
 10
4.703398
 20
5.81024
 10
4.699111
 20
5.800373
 10
4.695611
 20
5.789904
 10
4.692904
 20
5.778861
 10
4.691
 20
5.767273
 10
4.688291
 20
5.658773
 10
4.670622
 20
5.65888
 10
4.653847
 20
5.658462
 10
4.637938
 20
5.657528
 10
4.622869
 20
5.656084
 10
4.608614
 20
5.654138
 10
4.595145
 20
5.651698
 10
4.582436
 20
5.64877
 10
4.57046
 20
5.645364
 10
4.55919
 20
5.641485
 10
4.548599
 20
5.637141
 10
4.538661
 20
5.63234
 10
4.529349
 20
5.627089
 10
4.520636
 20
5.621395
 10
4.512496
 20
5.615267
 10
4.504901
 20
5.608711
 10
4.497824
 20
5.601735
 10
4.49124
 20
5.594346
 10
4.485121
 20
5.586552
 10
4.47944
 20
5.578361
 10
4.474171
 20
5.569779
 10
4.469287
 20
5.560814
 10
4.464761
 20
5.551473
 10
4.460566
 20
5.541764
 10
4.456676
 20
5.531695
 10
4.453064
 20
5.521273
 10
4.449702
 20
5.510505
 10
4.443625
 20
5.487961
 10
4.438231
 20
5.464123
 10
4.433305
 20
5.439051
 10
4.42155
 20
5.435031
 10
4.41025
 20
5.43078
 10
4.399391
 20
5.426306
 10
4.38896
 20
5.421616
 10
4.378944
 20
5.416718
 10
4.369329
 20
5.411619
 10
4.360101
 20
5.406326
 10
4.351249
 20
5.400848
 10
4.342757
 20
5.39519
 10
4.334613
 20
5.389362
 10
4.326803
 20
5.38337
 10
4.319314
 20
5.377221
 10
4.305246
 20
5.364486
 10
4.2923
 20
5.351214
 10
4.28037
 20
5.337467
 10
4.269349
 20
5.323302
 10
4.259129
 20
5.308781
 10
4.249604
 20
5.293961
 10
4.240666
 20
5.278904
 10
4.232209
 20
5.263668
 10
4.216305
 20
5.232898
 10
4.201426
 20
5.222796
 10
4.186249
 20
5.212102
 10
4.170973
 20
5.200815
 10
4.155795
 20
5.188935
 10
4.140915
 20
5.17646
 10
4.126529
 20
5.163388
 10
4.112838
 20
5.14972
 10
4.100038
 20
5.135452
 10
4.094035
 20
5.128094
 10
4.088328
 20
5.120585
 10
4.082944
 20
5.112926
 10
4.077907
 20
5.105117
 10
4.073242
 20
5.097157
 10
4.068973
 20
5.089047
 10
4.065125
 20
5.080785
 10
4.061723
 20
5.072373
 10
4.058792
 20
5.063809
 10
4.056357
 20
5.055095
 10
4.054442
 20
5.046228
 10
4.053073
 20
5.037211
 10
4.052273
 20
5.028041
 10
4.052068
 20
5.01872
 10
4.052483
 20
5.009246
 10
4.053541
 20
4.999621
 10
4.042867
 20
4.992764
 10
4.032609
 20
4.985607
 10
4.022762
 20
4.978164
 10
4.013323
 20
4.970454
 10
4.004286
 20
4.962492
 10
3.995648
 20
4.954294
 10
3.987403
 20
4.945877
 10
3.979548
 20
4.937257
 10
3.972078
 20
4.92845
 10
3.964988
 20
4.919474
 10
3.958274
 20
4.910343
 10
3.951932
 20
4.901076
 10
3.945956
 20
4.891687
 10
3.940343
 20
4.882194
 10
3.935089
 20
4.872612
 10
3.930187
 20
4.862959
 10
3.925635
 20
4.85325
 10
3.921428
 20
4.843502
 10
3.91756
 20
4.833731
 10
3.914029
 20
4.823954
 10
3.910829
 20
4.814186
 10
3.907955
 20
4.804445
 10
3.90317
 20
4.785107
 10
3.899639
 20
4.76607
 10
3.897325
 20
4.747466
 10
3.896194
 20
4.729425
 10
3.896208
 20
4.712079
 10
3.875104
 20
4.698002
 10
3.854016
 20
4.683577
 10
3.832961
 20
4.668805
 10
3.811955
 20
4.653688
 10
3.791015
 20
4.638228
 10
3.770156
 20
4.622425
 10
3.749396
 20
4.606282
 10
3.72875
 20
4.589799
 10
3.708236
 20
4.572979
 10
3.687869
 20
4.555822
 10
3.667666
 20
4.538331
 10
3.647643
 20
4.520507
 10
3.627817
 20
4.50235
 10
3.608204
 20
4.483864
 10
3.58882
 20
4.465048
 10
3.569682
 20
4.445905
 10
3.550806
 20
4.426437
 10
3.53221
 20
4.406644
 10
3.513908
 20
4.386528
 10
3.495917
 20
4.36609
 10
3.478255
 20
4.345333
 10
3.460936
 20
4.324258
 10
3.443978
 20
4.302865
 10
3.427398
 20
4.281157
 10
3.41121
 20
4.259135
 10
3.395433
 20
4.236801
 10
3.380081
 20
4.214155
 10
3.365173
 20
4.1912
 10
3.350723
 20
4.167937
 10
3.336748
 20
4.144368
 10
3.323266
 20
4.120493
 10
3.310291
 20
4.096315
 10
3.293929
 20
4.090876
 10
3.278064
 20
4.084911
 10
3.262683
 20
4.078432
 10
3.247775
 20
4.071452
 10
3.233328
 20
4.063986
 10
3.21933
 20
4.056046
 10
3.205769
 20
4.047647
 10
3.192633
 20
4.038801
 10
3.179911
 20
4.029522
 10
3.16759
 20
4.019823
 10
3.155658
 20
4.009718
 10
3.144104
 20
3.99922
 10
3.132915
 20
3.988342
 10
3.12208
 20
3.977098
 10
3.111587
 20
3.965502
 10
3.101423
 20
3.953567
 10
3.091578
 20
3.941305
 10
3.082038
 20
3.928732
 10
3.072792
 20
3.915859
 10
3.063829
 20
3.902701
 10
3.055135
 20
3.889271
 10
3.0467
 20
3.875582
 10
3.038511
 20
3.861647
 10
3.030557
 20
3.847481
 10
3.015304
 20
3.818506
 10
3.000845
 20
3.788765
 10
2.987086
 20
3.758365
 10
2.97393
 20
3.727412
 10
2.959153
 20
3.71635
 10
2.944825
 20
3.704462
 10
2.930936
 20
3.69178
 10
2.917479
 20
3.678337
 10
2.904444
 20
3.664166
 10
2.891824
 20
3.649298
 10
2.879608
 20
3.633766
 10
2.86779
 20
3.617604
 10
2.856361
 20
3.600842
 10
2.845311
 20
3.583513
 10
2.834632
 20
3.56565
 10
2.824316
 20
3.547286
 10
2.814355
 20
3.528452
 10
2.804738
 20
3.509181
 10
2.795459
 20
3.489506
 10
2.786508
 20
3.469459
 10
2.777878
 20
3.449071
 10
2.769558
 20
3.428377
 10
2.761541
 20
3.407407
 10
2.753818
 20
3.386196
 10
2.746381
 20
3.364773
 10
2.739221
 20
3.343174
 10
2.725698
 20
3.299571
 10
2.71318
 20
3.255646
 10
2.701599
 20
3.211659
 10
2.690885
 20
3.167868
 10
2.680972
 20
3.124534
 10
2.67179
 20
3.081914
 10
2.66327
 20
3.04027
 10
2.647944
 20
2.960941
 10
2.634446
 20
2.888621
 10
2.622227
 20
2.825385
 10
2.616426
 20
2.797821
 10
2.61074
 20
2.773306
 10
2.605099
 20
2.7521
 10
2.602274
 20
2.742818
 10
2.599435
 20
2.73446
 10
2.596573
 20
2.727059
 10
2.59368
 20
2.720647
 10
2.590746
 20
2.715256
 10
2.587765
 20
2.71092
 10
2.584726
 20
2.707669
 10
2.581621
 20
2.705537
 10
2.578442
 20
2.704557
 10
2.57518
 20
2.704759
 10
2.572906
 20
2.703582
 10
2.57011
 20
2.702852
 10
2.56681
 20
2.702552
 10
2.563021
 20
2.702668
 10
2.558759
 20
2.703186
 10
2.55404
 20
2.704091
 10
2.543292
 20
2.706999
 10
2.530906
 20
2.711274
 10
2.517007
 20
2.716797
 10
2.501722
 20
2.723449
 10
2.485179
 20
2.73111
 10
2.44882
 20
2.748983
 10
2.408945
 20
2.769464
 10
2.322698
 20
2.81443
 10
2.278352
 20
2.837008
 10
2.234543
 20
2.858379
 10
2.213156
 20
2.868313
 10
2.192283
 20
2.877588
 10
2.172051
 20
2.886083
 10
2.152587
 20
2.893681
 10
2.134016
 20
2.900262
 10
2.116466
 20
2.905706
 10
2.100064
 20
2.909894
 10
2.084935
 20
2.912708
 10
2.077888
 20
2.913562
 10
2.071207
 20
2.914027
 10
2.064908
 20
2.914089
 10
2.059007
 20
2.913733
 10
2.053519
 20
2.912944
 10
2.04846
 20
2.911707
 10
2.043847
 20
2.910007
 10
2.039694
 20
2.907829
 10
2.026325
 20
2.905217
 10
2.013508
 20
2.902312
 10
2.001225
 20
2.899123
 10
1.989455
 20
2.895659
 10
1.97818
 20
2.891928
 10
1.967381
 20
2.88794
 10
1.957037
 20
2.883704
 10
1.94713
 20
2.879228
 10
1.93764
 20
2.874521
 10
1.928548
 20
2.869593
 10
1.919834
 20
2.864453
 10
1.911479
 20
2.859109
 10
1.903464
 20
2.85357
 10
1.89577
 20
2.847845
 10
1.888376
 20
2.841943
 10
1.881264
 20
2.835874
 10
1.867807
 20
2.823267
 10
1.855243
 20
2.810096
 10
1.843419
 20
2.796433
 10
1.832179
 20
2.782348
 10
1.821367
 20
2.767914
 10
1.81083
 20
2.753203
 10
1.789958
 20
2.723232
 10
1.77509
 20
2.72346
 10
1.76067
 20
2.723145
 10
1.746683
 20
2.722301
 10
1.733118
 20
2.72094
 10
1.71996
 20
2.719078
 10
1.707195
 20
2.716726
 10
1.694812
 20
2.713898
 10
1.682795
 20
2.710608
 10
1.671132
 20
2.706868
 10
1.659809
 20
2.702694
 10
1.648813
 20
2.698097
 10
1.638131
 20
2.693091
 10
1.627749
 20
2.68769
 10
1.617653
 20
2.681907
 10
1.60783
 20
2.675756
 10
1.598267
 20
2.669249
 10
1.588951
 20
2.662401
 10
1.579867
 20
2.655224
 10
1.571003
 20
2.647733
 10
1.562345
 20
2.63994
 10
1.553879
 20
2.631858
 10
1.545593
 20
2.623503
 10
1.529505
 20
2.606021
 10
1.513973
 20
2.587601
 10
1.498889
 20
2.568351
 10
1.484147
 20
2.548377
 10
1.469639
 20
2.527787
 10
1.448257
 20
2.521921
 10
1.426487
 20
2.515042
 10
1.404625
 20
2.507177
 10
1.382967
 20
2.498352
 10
1.361811
 20
2.488591
 10
1.351514
 20
2.483368
 10
1.341454
 20
2.477922
 10
1.331667
 20
2.472254
 10
1.322191
 20
2.466369
 10
1.313062
 20
2.46027
 10
1.304319
 20
2.453959
 10
1.295998
 20
2.447441
 10
1.288136
 20
2.440718
 10
1.28077
 20
2.433793
 10
1.273937
 20
2.42667
 10
1.267675
 20
2.419353
 10
1.26202
 20
2.411843
 10
1.25701
 20
2.404145
 10
1.252682
 20
2.396262
 10
1.249072
 20
2.388196
 10
1.246218
 20
2.379952
 10
1.244156
 20
2.371532
 10
1.242925
 20
2.36294
 10
1.242561
 20
2.354179
 10
1.243101
 20
2.345252
 10
1.244582
 20
2.336162
 10
1.247041
 20
2.326912
 10
1.213437
 20
2.314299
 10
1.182114
 20
2.301857
 10
1.153
 20
2.289502
 10
1.126023
 20
2.277152
 10
1.101113
 20
2.264722
 10
1.078197
 20
2.25213
 10
1.067465
 20
2.245746
 10
1.057205
 20
2.239291
 10
1.047407
 20
2.232753
 10
1.038064
 20
2.226122
 10
1.029166
 20
2.219388
 10
1.020703
 20
2.21254
 10
1.012668
 20
2.205568
 10
1.005051
 20
2.198462
 10
0.997843
 20
2.19121
 10
0.991036
 20
2.183803
 10
0.98462
 20
2.17623
 10
0.978586
 20
2.168481
 10
0.972926
 20
2.160544
 10
0.967631
 20
2.152411
 10
0.962691
 20
2.14407
 10
0.958098
 20
2.135511
 10
0.953843
 20
2.126723
 10
0.949916
 20
2.117696
 10
0.946309
 20
2.10842
 10
0.943014
 20
2.098884
 10
0.922577
 20
2.091475
 10
0.903659
 20
2.083516
 10
0.88625
 20
2.075034
 10
0.870343
 20
2.06605
 10
0.86295
 20
2.061378
 10
0.85593
 20
2.05659
 10
0.849282
 20
2.051688
 10
0.843003
 20
2.046676
 10
0.837095
 20
2.041557
 10
0.831555
 20
2.036334
 10
0.826382
 20
2.031009
 10
0.821576
 20
2.025586
 10
0.817136
 20
2.020067
 10
0.81306
 20
2.014456
 10
0.809348
 20
2.008756
 10
0.805998
 20
2.002969
 10
0.80301
 20
1.997099
 10
0.800382
 20
1.991148
 10
0.798114
 20
1.98512
 10
0.796205
 20
1.979017
 10
0.794653
 20
1.972843
 10
0.793458
 20
1.9666
 10
0.792619
 20
1.960292
 10
0.792134
 20
1.953921
 10
0.792003
 20
1.94749
 10
0.792225
 20
1.941003
 10
0.792798
 20
1.934462
 10
0.793722
 20
1.927871
 10
0.773086
 20
1.920683
 10
0.752225
 20
1.914248
 10
0.710688
 20
1.902747
 10
0.690446
 20
1.897235
 10
0.670842
 20
1.891585
 10
0.652094
 20
1.885576
 10
0.634418
 20
1.878983
 10
0.62605
 20
1.875399
 10
0.61803
 20
1.871586
 10
0.610386
 20
1.867516
 10
0.603146
 20
1.863161
 10
0.596335
 20
1.858493
 10
0.589982
 20
1.853486
 10
0.584113
 20
1.848109
 10
0.578755
 20
1.842337
 10
0.573936
 20
1.836141
 10
0.569681
 20
1.829494
 10
0.56602
 20
1.822367
 10
0.562977
 20
1.814732
 10
0.560581
 20
1.806563
 10
0.558858
 20
1.79783
 10
0.557836
 20
1.788507
 10
0.557541
 20
1.778565
 10
0.562388
 20
1.775738
 10
0.567416
 20
1.773184
 10
0.577982
 20
1.768841
 10
0.589167
 20
1.765428
 10
0.600901
 20
1.762837
 10
0.613111
 20
1.760961
 10
0.625727
 20
1.759694
 10
0.638676
 20
1.758927
 10
0.651887
 20
1.758553
 10
0.678809
 20
1.758556
 10
0.705922
 20
1.758844
 10
0.732653
 20
1.758559
 10
0.745697
 20
1.757934
 10
0.75843
 20
1.756843
 10
0.758819
 20
1.75513
 10
0.758895
 20
1.753466
 10
0.758144
 20
1.750279
 10
0.756248
 20
1.747262
 10
0.753279
 20
1.744398
 10
0.749309
 20
1.741668
 10
0.74441
 20
1.739056
 10
0.738652
 20
1.736543
 10
0.732107
 20
1.734112
 10
0.716943
 20
1.729421
 10
0.699491
 20
1.724842
 10
0.660008
 20
1.715443
 10
0.639123
 20
1.710339
 10
0.618238
 20
1.704773
 10
0.597925
 20
1.698603
 10
0.588162
 20
1.695247
 10
0.578757
 20
1.691687
 10
0.56978
 20
1.687903
 10
0.561305
 20
1.68388
 10
0.553402
 20
1.679598
 10
0.546142
 20
1.67504
 10
0.539598
 20
1.670188
 10
0.53384
 20
1.665025
 10
0.528941
 20
1.659531
 10
0.524972
 20
1.65369
 10
0.52974
 20
1.650664
 10
0.534853
 20
1.648156
 10
0.540276
 20
1.646112
 10
0.545974
 20
1.644479
 10
0.551909
 20
1.643202
 10
0.558046
 20
1.642229
 10
0.570786
 20
1.640978
 10
0.597122
 20
1.639764
 10
0.610147
 20
1.638944
 10
0.622694
 20
1.637412
 10
0.594738
 20
1.628687
 10
0.566385
 20
1.618789
 10
0.539014
 20
1.608192
 10
0.52613
 20
1.602781
 10
0.514008
 20
1.597374
 10
0.502824
 20
1.59203
 10
0.492748
 20
1.586809
 10
0.483954
 20
1.581771
 10
0.476614
 20
1.576975
 10
0.470901
 20
1.57248
 10
0.466988
 20
1.568346
 10
0.46576
 20
1.566433
 10
0.465046
 20
1.564632
 10
0.464869
 20
1.562951
 10
0.46525
 20
1.561398
 10
0.477636
 20
1.558738
 10
0.490158
 20
1.556942
 10
0.502764
 20
1.555892
 10
0.5154
 20
1.55547
 10
0.528012
 20
1.555555
 10
0.540546
 20
1.556029
 10
0.565168
 20
1.557667
 10
0.588838
 20
1.559433
 10
0.600182
 20
1.560066
 10
0.611127
 20
1.560373
 10
0.621619
 20
1.560236
 10
0.631606
 20
1.559535
 10
0.641033
 20
1.558152
 10
0.649847
 20
1.555968
 10
0.65207
 20
1.553902
 10
0.654864
 20
1.551867
 10
0.662036
 20
1.547901
 10
0.671097
 20
1.544091
 10
0.681781
 20
1.540456
 10
0.693822
 20
1.537017
 10
0.706955
 20
1.533795
 10
0.720913
 20
1.53081
 10
0.735432
 20
1.528082
 10
0.765087
 20
1.52348
 10
0.793794
 20
1.520151
 10
0.807128
 20
1.519016
 10
0.819427
 20
1.51826
 10
0.830427
 20
1.517903
 10
0.839861
 20
1.517968
 10
0.848753
 20
1.510274
 10
0.861486
 20
1.499897
 10
0.869144
 20
1.494254
 10
0.877584
 20
1.488601
 10
0.886746
 20
1.483157
 10
0.896571
 20
1.478145
 10
0.906999
 20
1.473783
 10
0.91797
 20
1.470292
 10
0.923641
 20
1.468942
 10
0.929425
 20
1.467892
 10
0.935315
 20
1.46717
 10
0.941304
 20
1.466804
 10
0.947385
 20
1.46682
 10
0.953549
 20
1.467247
 10
0.959789
 20
1.468112
 10
0.966098
 20
1.469442
 10
0.972469
 20
1.471265
 10
0.978893
 20
1.473609
 10
0.985365
 20
1.4765
 10
0.991875
 20
1.479968
 10
0.998432
 20
1.480676
 10
1.005284
 20
1.481772
 10
1.019833
 20
1.485069
 10
1.035438
 20
1.489745
 10
1.052015
 20
1.495686
 10
1.06948
 20
1.502779
 10
1.08775
 20
1.510911
 10
1.10674
 20
1.51997
 10
1.126365
 20
1.529841
 10
1.16719
 20
1.551567
 10
1.209553
 20
1.575185
 10
1.252782
 20
1.599788
 10
1.296206
 20
1.624471
 10
1.339154
 20
1.648328
 10
1.360239
 20
1.659663
 10
1.380953
 20
1.670451
 10
1.401212
 20
1.680581
 10
1.420932
 20
1.689937
 10
1.440029
 20
1.698407
 10
1.45842
 20
1.705878
 10
1.47602
 20
1.712236
 10
1.492745
 20
1.717369
 10
1.508511
 20
1.721162
 10
1.516009
 20
1.722521
 10
1.523235
 20
1.723503
 10
1.53018
 20
1.724093
 10
1.536833
 20
1.724278
 10
1.543183
 20
1.724044
 10
1.54922
 20
1.723375
 10
1.554934
 20
1.722258
 10
1.560313
 20
1.72068
 10
1.565348
 20
1.718624
 10
1.570028
 20
1.716079
 10
1.546306
 20
1.692219
 10
1.523355
 20
1.668463
 10
1.501247
 20
1.644786
 10
1.480053
 20
1.621165
 10
1.459845
 20
1.597576
 10
1.440694
 20
1.573995
 10
1.422671
 20
1.550398
 10
1.405849
 20
1.526761
 10
1.390298
 20
1.503061
 10
1.383022
 20
1.491179
 10
1.37609
 20
1.479273
 10
1.369512
 20
1.467338
 10
1.363297
 20
1.455373
 10
1.357454
 20
1.443374
 10
1.35199
 20
1.431339
 10
1.346917
 20
1.419263
 10
1.342241
 20
1.407145
 10
1.337973
 20
1.394981
 10
1.334121
 20
1.382768
 10
1.330695
 20
1.370504
 10
1.327702
 20
1.358185
 10
1.325153
 20
1.345808
 10
1.323055
 20
1.333371
 10
1.312786
 20
1.326548
 10
1.302685
 20
1.319014
 10
1.292778
 20
1.310818
 10
1.28309
 20
1.302011
 10
1.273647
 20
1.292643
 10
1.264473
 20
1.282766
 10
1.255595
 20
1.27243
 10
1.247037
 20
1.261686
 10
1.238824
 20
1.250584
 10
1.230983
 20
1.239175
 10
1.223538
 20
1.22751
 10
1.216515
 20
1.215639
 10
1.209939
 20
1.203613
 10
1.203835
 20
1.191483
 10
1.198229
 20
1.179299
 10
1.193146
 20
1.167112
 10
1.188611
 20
1.154973
 10
1.18465
 20
1.142932
 10
1.181288
 20
1.13104
 10
1.17855
 20
1.119347
 10
1.176462
 20
1.107905
 10
1.175049
 20
1.096764
 10
1.174336
 20
1.085975
 10
1.174348
 20
1.075587
 10
1.175112
 20
1.065653
 10
1.176652
 20
1.056222
 10
1.178993
 20
1.047346
 10
1.182162
 20
1.039074
 10
1.186182
 20
1.031459
 10
1.191081
 20
1.024549
 10
1.193867
 20
1.021375
 10
1.196882
 20
1.018396
 10
1.200129
 20
1.01562
 10
1.203611
 20
1.013051
 10
1.205707
 20
1.007292
 10
1.20712
 20
1.001877
 10
1.207898
 20
0.996799
 10
1.208088
 20
0.992052
 10
1.207739
 20
0.987631
 10
1.206897
 20
0.983529
 10
1.205611
 20
0.979741
 10
1.203929
 20
0.976259
 10
1.201897
 20
0.97308
 10
1.199563
 20
0.970195
 10
1.196976
 20
0.967601
 10
1.194183
 20
0.965289
 10
1.188169
 20
0.961493
 10
1.181903
 20
0.958759
 10
1.16518
 20
0.957702
 10
1.14907
 20
0.955653
 10
1.13357
 20
0.952666
 10
1.118672
 20
0.948797
 10
1.104374
 20
0.944099
 10
1.09067
 20
0.938627
 10
1.077554
 20
0.932436
 10
1.065023
 20
0.925581
 10
1.05307
 20
0.918116
 10
1.041692
 20
0.910095
 10
1.030884
 20
0.901573
 10
1.020639
 20
0.892606
 10
1.010955
 20
0.883246
 10
1.001824
 20
0.87355
 10
0.993244
 20
0.863571
 10
0.985208
 20
0.853364
 10
0.977712
 20
0.842983
 10
0.970751
 20
0.832484
 10
0.964321
 20
0.821921
 10
0.958415
 20
0.811348
 10
0.953029
 20
0.80082
 10
0.948159
 20
0.790392
 10
0.9438
 20
0.780118
 10
0.939946
 20
0.770052
 10
0.936592
 20
0.76025
 10
0.933734
 20
0.750766
 10
0.931367
 20
0.741654
 10
0.929486
 20
0.73297
 10
0.928086
 20
0.724766
 10
0.927162
 20
0.7171
 10
0.926709
 20
0.710023
 10
0.926722
 20
0.703593
 10
0.917845
 20
0.698384
 10
0.909943
 20
0.693227
 10
0.902971
 20
0.688124
 10
0.896885
 20
0.683078
 10
0.891641
 20
0.678089
 10
0.887195
 20
0.673161
 10
0.883503
 20
0.668294
 10
0.88052
 20
0.663492
 10
0.878203
 20
0.658756
 10
0.876506
 20
0.654088
 10
0.875387
 20
0.64949
 10
0.874801
 20
0.644964
 10
0.874703
 20
0.640512
 10
0.875049
 20
0.636136
 10
0.875796
 20
0.631838
 10
0.876899
 20
0.627621
 10
0.879997
 20
0.619433
 10
0.883988
 20
0.61159
 10
0.893242
 20
0.596999
 10
0.897796
 20
0.590284
 10
0.901831
 20
0.583976
 10
0.904994
 20
0.578092
 10
0.906137
 20
0.575314
 10
0.90693
 20
0.572648
 10
0.895325
 20
0.564578
 10
0.884548
 20
0.556464
 10
0.874567
 20
0.548294
 10
0.865355
 20
0.540056
 10
0.85688
 20
0.531738
 10
0.849114
 20
0.523329
 10
0.842026
 20
0.514817
 10
0.835587
 20
0.50619
 10
0.829766
 20
0.497436
 10
0.824535
 20
0.488543
 10
0.819862
 20
0.479499
 10
0.815719
 20
0.470293
 10
0.812076
 20
0.460912
 10
0.808903
 20
0.451346
 10
0.80617
 20
0.441581
 10
0.803847
 20
0.431607
 10
0.800334
 20
0.419463
 10
0.797728
 20
0.408584
 10
0.796019
 20
0.398937
 10
0.795195
 20
0.390483
 10
0.795243
 20
0.383189
 10
0.796151
 20
0.377018
 10
0.797909
 20
0.371934
 10
0.799102
 20
0.369789
 10
0.800503
 20
0.367902
 10
0.802111
 20
0.366269
 10
0.803923
 20
0.364886
 10
0.805939
 20
0.363747
 10
0.808156
 20
0.36285
 10
0.813191
 20
0.361758
 10
0.819015
 20
0.361575
 10
0.825617
 20
0.362266
 10
0.832985
 20
0.363793
 10
0.841107
 20
0.366123
 10
0.849972
 20
0.369218
 10
0.858766
 20
0.372046
 10
0.868478
 20
0.376053
 10
0.879061
 20
0.381166
 10
0.890464
 20
0.38731
 10
0.902639
 20
0.394409
 10
0.915537
 20
0.402391
 10
0.943303
 20
0.420702
 10
0.973371
 20
0.441649
 10
1.005348
 20
0.464635
 10
1.073455
 20
0.514344
 10
1.1088
 20
0.539878
 10
1.144482
 20
0.565071
 10
1.180109
 20
0.589327
 10
1.19778
 20
0.600918
 10
1.215288
 20
0.612052
 10
1.232587
 20
0.622654
 10
1.249626
 20
0.63265
 10
1.266357
 20
0.641965
 10
1.282731
 20
0.650526
 10
1.298697
 20
0.658257
 10
1.314208
 20
0.665085
 10
1.329214
 20
0.670935
 10
1.343666
 20
0.675732
 10
1.308144
 20
0.653577
 10
1.273344
 20
0.630749
 10
1.239385
 20
0.607338
 10
1.206387
 20
0.583434
 10
1.174468
 20
0.559125
 10
1.143747
 20
0.5345
 10
1.114343
 20
0.50965
 10
1.086377
 20
0.484662
 10
1.059965
 20
0.459627
 10
1.035228
 20
0.434634
 10
1.023525
 20
0.422181
 10
1.012285
 20
0.409772
 10
1.001523
 20
0.397418
 10
0.991254
 20
0.38513
 10
0.981493
 20
0.37292
 10
0.972255
 20
0.360798
 10
0.963555
 20
0.348776
 10
0.955407
 20
0.336864
 10
0.947827
 20
0.325075
 10
0.940828
 20
0.313419
 10
0.934428
 20
0.301907
 10
0.928639
 20
0.290551
 10
0.919091
 20
0.27566
 10
0.915139
 20
0.268727
 10
0.91172
 20
0.26213
 10
0.908827
 20
0.255864
 10
0.906449
 20
0.249925
 10
0.904576
 20
0.244308
 10
0.903199
 20
0.239009
 10
0.902308
 20
0.234024
 10
0.901893
 20
0.229347
 10
0.901946
 20
0.224975
 10
0.902455
 20
0.220903
 10
0.903412
 20
0.217127
 10
0.904806
 20
0.213642
 10
0.906629
 20
0.210443
 10
0.90887
 20
0.207527
 10
0.911519
 20
0.204888
 10
0.914568
 20
0.202523
 10
0.918006
 20
0.200427
 10
0.921824
 20
0.198594
 10
0.926012
 20
0.197022
 10
0.93056
 20
0.195706
 10
0.935459
 20
0.19464
 10
0.940699
 20
0.193821
 10
0.952164
 20
0.192904
 10
0.964876
 20
0.19292
 10
0.978759
 20
0.193833
 10
0.993736
 20
0.195607
 10
1.017169
 20
0.220463
 10
1.040199
 20
0.243643
 10
1.062868
 20
0.265343
 10
1.085217
 20
0.285759
 10
1.107289
 20
0.305088
 10
1.129124
 20
0.323527
 10
1.172253
 20
0.358516
 10
1.214938
 20
0.3923
 10
1.257513
 20
0.42645
 10
1.278864
 20
0.444154
 10
1.300311
 20
0.462538
 10
1.321898
 20
0.481799
 10
1.343666
 20
0.502134
 10
1.317536
 20
0.474095
 10
1.295755
 20
0.450167
 10
1.277848
 20
0.429635
 10
1.263337
 20
0.411787
 10
1.257206
 20
0.403646
 10
1.251746
 20
0.395908
 10
1.246897
 20
0.388483
 10
1.2426
 20
0.381283
 10
1.238795
 20
0.374218
 10
1.235422
 20
0.367198
 10
1.232422
 20
0.360136
 10
1.229736
 20
0.35294
 10
1.223776
 20
0.338897
 10
1.21879
 20
0.324267
 10
1.214832
 20
0.309383
 10
1.211955
 20
0.294578
 10
1.210213
 20
0.280186
 10
1.20966
 20
0.26654
 10
1.209846
 20
0.260101
 10
1.210349
 20
0.253973
 10
1.211176
 20
0.248198
 10
1.212333
 20
0.242818
 10
1.213828
 20
0.237875
 10
1.215666
 20
0.23341
 10
1.217855
 20
0.229464
 10
1.220402
 20
0.22608
 10
1.223312
 20
0.223299
 10
1.226593
 20
0.221163
 10
1.230252
 20
0.219713
 10
1.234294
 20
0.218991
 10
1.238728
 20
0.219039
 10
1.243559
 20
0.219898
 10
1.248793
 20
0.22161
 10
1.254439
 20
0.224217
 10
1.260502
 20
0.227761
 10
1.26699
 20
0.232282
 10
1.273908
 20
0.237824
 10
1.281264
 20
0.244426
 10
1.290199
 20
0.253955
 10
1.30065
 20
0.264482
 10
1.312544
 20
0.275893
 10
1.325812
 20
0.288076
 10
1.340381
 20
0.300918
 10
1.356179
 20
0.314306
 10
1.373136
 20
0.328126
 10
1.39118
 20
0.342265
 10
1.41024
 20
0.35661
 10
1.430244
 20
0.371048
 10
1.451121
 20
0.385467
 10
1.472799
 20
0.399752
 10
1.495207
 20
0.413791
 10
1.518274
 20
0.427471
 10
1.541927
 20
0.440679
 10
1.566097
 20
0.453301
 10
1.60983
 20
0.470364
 10
1.653219
 20
0.488109
 10
1.696271
 20
0.506488
 10
1.738992
 20
0.525455
 10
1.781387
 20
0.544961
 10
1.823463
 20
0.564959
 10
1.865225
 20
0.585401
 10
1.90668
 20
0.60624
 10
1.947834
 20
0.627428
 10
1.988692
 20
0.648918
 10
2.029261
 20
0.670662
 10
2.069546
 20
0.692612
 10
2.14929
 20
0.73694
 10
2.227972
 20
0.781523
 10
2.247549
 20
0.783135
 10
2.267545
 20
0.785336
 10
2.287899
 20
0.788087
 10
2.30855
 20
0.791352
 10
2.329439
 20
0.795091
 10
2.350503
 20
0.799268
 10
2.371684
 20
0.803844
 10
2.39292
 20
0.808782
 10
2.435316
 20
0.819588
 10
2.477207
 20
0.831385
 10
2.518109
 20
0.843869
 10
2.557536
 20
0.856735
 10
2.595006
 20
0.869681
 10
2.630033
 20
0.882404
 10
2.662133
 20
0.8946
 10
2.690822
 20
0.905965
 10
2.715615
 20
0.916196
 10
2.736028
 20
0.92499
 10
2.751577
 20
0.932042
 10
2.761778
 20
0.937051
 10
2.764684
 20
0.939753
 10
2.767032
 20
0.942448
 10
2.768837
 20
0.945136
 10
2.770118
 20
0.947816
 10
2.770892
 20
0.950487
 10
2.771177
 20
0.953149
 10
2.770988
 20
0.9558
 10
2.770346
 20
0.958441
 10
2.769265
 20
0.961069
 10
2.767764
 20
0.963686
 10
2.765861
 20
0.96629
 10
2.763572
 20
0.96888
 10
2.757907
 20
0.974016
 10
2.75091
 20
0.979089
 10
2.742718
 20
0.984093
 10
2.733472
 20
0.989023
 10
2.723309
 20
0.993873
 10
2.71237
 20
0.998638
 10
2.688718
 20
1.007887
 10
2.663627
 20
1.016728
 10
2.613579
 20
1.033002
 10
2.590847
 20
1.040346
 10
2.571127
 20
1.047102
 10
2.555531
 20
1.053224
 10
2.549627
 20
1.056034
 10
2.545171
 20
1.058668
 10
2.542303
 20
1.061122
 10
2.541507
 20
1.062279
 10
2.54116
 20
1.063389
 10
2.54128
 20
1.064451
 10
2.541883
 20
1.065465
 10
2.542988
 20
1.066429
 10
2.544611
 20
1.067343
 10
2.554417
 20
1.074844
 10
2.564662
 20
1.081891
 10
2.575081
 20
1.088221
 10
2.585413
 20
1.093572
 10
2.595395
 20
1.09768
 10
2.600172
 20
1.099187
 10
2.604763
 20
1.100284
 10
2.609136
 20
1.10094
 10
2.613256
 20
1.10112
 10
2.617092
 20
1.100793
 10
2.620611
 20
1.099926
 10
2.637976
 20
1.086654
 10
2.655453
 20
1.073865
 10
2.673031
 20
1.061582
 10
2.690705
 20
1.049829
 10
2.708464
 20
1.038628
 10
2.726302
 20
1.028004
 10
2.744209
 20
1.017978
 10
2.762178
 20
1.008573
 10
2.780201
 20
0.999814
 10
2.798269
 20
0.991722
 10
2.816374
 20
0.984321
 10
2.834509
 20
0.977635
 10
2.852664
 20
0.971685
 10
2.870831
 20
0.966495
 10
2.889003
 20
0.962089
 10
2.907172
 20
0.958489
 10
2.925328
 20
0.955718
 10
2.943464
 20
0.953799
 10
2.961572
 20
0.952756
 10
2.979644
 20
0.952611
 10
2.997671
 20
0.953387
 10
3.015645
 20
0.955109
 10
3.033558
 20
0.957797
 10
3.051402
 20
0.961477
 10
3.069168
 20
0.96617
 10
3.086849
 20
0.9719
 10
3.104437
 20
0.97869
 10
3.121922
 20
0.986562
 10
3.139297
 20
0.995541
 10
3.156554
 20
1.005648
 10
3.173685
 20
1.016908
 10
3.19068
 20
1.029343
 10
3.219187
 20
1.064172
 10
3.233833
 20
1.08214
 10
3.248392
 20
1.100493
 10
3.262602
 20
1.119243
 10
3.276201
 20
1.138402
 10
3.288927
 20
1.157982
 10
3.294881
 20
1.167933
 10
3.300519
 20
1.177994
 10
3.305807
 20
1.188166
 10
3.310714
 20
1.19845
 10
3.315206
 20
1.208849
 10
3.31925
 20
1.219364
 10
3.322814
 20
1.229995
 10
3.325866
 20
1.240745
 10
3.328372
 20
1.251615
 10
3.330299
 20
1.262606
 10
3.331616
 20
1.273721
 10
3.332289
 20
1.28496
 10
3.332285
 20
1.296325
 10
3.331572
 20
1.307818
 10
3.330117
 20
1.319439
 10
3.327887
 20
1.331191
 10
3.32485
 20
1.343075
 10
3.320972
 20
1.355093
 10
3.320747
 20
1.356996
 10
3.320895
 20
1.358572
 10
3.321393
 20
1.359841
 10
3.322215
 20
1.360827
 10
3.32334
 20
1.361549
 10
3.324742
 20
1.36203
 10
3.328284
 20
1.362355
 10
3.332652
 20
1.361974
 10
3.337654
 20
1.361059
 10
3.348802
 20
1.358318
 10
3.360204
 20
1.355514
 10
3.365523
 20
1.354519
 10
3.370335
 20
1.354026
 10
3.374449
 20
1.354208
 10
3.376184
 20
1.354605
 10
3.377673
 20
1.355236
 10
3.378893
 20
1.356122
 10
3.379819
 20
1.357284
 10
3.380427
 20
1.358744
 10
3.380694
 20
1.360523
 10
3.382349
 20
1.364515
 10
3.383016
 20
1.368968
 10
3.382849
 20
1.373807
 10
3.382004
 20
1.378953
 10
3.378897
 20
1.389858
 10
3.374932
 20
1.401065
 10
3.371348
 20
1.411954
 10
3.370086
 20
1.417086
 10
3.369384
 20
1.421906
 10
3.369395
 20
1.426337
 10
3.370276
 20
1.430302
 10
3.371091
 20
1.432086
 10
3.372181
 20
1.433723
 10
3.373565
 20
1.435206
 10
3.375264
 20
1.436523
 10
3.385162
 20
1.432842
 10
3.394773
 20
1.430447
 10
3.404111
 20
1.429274
 10
3.41319
 20
1.429261
 10
3.422024
 20
1.430344
 10
3.430627
 20
1.432459
 10
3.439013
 20
1.435544
 10
3.447196
 20
1.439536
 10
3.455192
 20
1.444371
 10
3.463013
 20
1.449985
 10
3.470673
 20
1.456316
 10
3.478188
 20
1.463301
 10
3.485571
 20
1.470876
 10
3.492836
 20
1.478978
 10
3.499997
 20
1.487543
 10
3.507069
 20
1.496509
 10
3.521001
 20
1.51539
 10
3.534745
 20
1.535114
 10
3.562119
 20
1.575066
 10
3.575976
 20
1.594284
 10
3.582997
 20
1.603481
 10
3.590097
 20
1.61232
 10
3.597292
 20
1.620738
 10
3.604595
 20
1.628671
 10
3.612021
 20
1.636056
 10
3.619583
 20
1.642829
 10
3.636375
 20
1.678907
 10
3.653022
 20
1.713077
 10
3.669592
 20
1.745417
 10
3.686156
 20
1.776007
 10
3.702783
 20
1.804926
 10
3.719543
 20
1.832252
 10
3.736505
 20
1.858065
 10
3.753739
 20
1.882443
 10
3.771314
 20
1.905467
 10
3.789301
 20
1.927214
 10
3.807768
 20
1.947764
 10
3.826785
 20
1.967195
 10
3.846422
 20
1.985587
 10
3.866748
 20
2.003019
 10
3.887833
 20
2.01957
 10
3.909746
 20
2.035318
 10
3.932558
 20
2.050344
 10
3.956337
 20
2.064725
 10
3.981153
 20
2.078541
 10
4.007076
 20
2.09187
 10
4.034176
 20
2.104793
 10
4.062521
 20
2.117387
 10
4.092182
 20
2.129732
 10
4.123228
 20
2.141907
 10
4.155728
 20
2.153991
 10
4.189753
 20
2.166062
 10
4.225371
 20
2.178201
 10
4.262653
 20
2.190485
 10
4.342485
 20
2.215808
 10
4.429805
 20
2.242662
 10
4.351286
 20
2.214228
 10
4.277362
 20
2.186754
 10
4.242085
 20
2.173229
 10
4.207912
 20
2.159766
 10
4.174828
 20
2.146307
 10
4.142817
 20
2.132791
 10
4.111865
 20
2.11916
 10
4.081957
 20
2.105354
 10
4.053077
 20
2.091314
 10
4.025211
 20
2.07698
 10
3.998343
 20
2.062294
 10
3.972458
 20
2.047196
 10
3.947542
 20
2.031627
 10
3.92358
 20
2.015527
 10
3.900555
 20
1.998837
 10
3.878455
 20
1.981499
 10
3.857262
 20
1.963452
 10
3.836963
 20
1.944637
 10
3.827144
 20
1.934924
 10
3.817542
 20
1.924996
 10
3.808156
 20
1.914847
 10
3.798985
 20
1.904468
 10
3.790025
 20
1.893854
 10
3.781275
 20
1.882995
 10
3.772734
 20
1.871886
 10
3.764399
 20
1.860518
 10
3.756269
 20
1.848884
 10
3.748341
 20
1.836976
 10
3.740614
 20
1.824788
 10
3.733086
 20
1.812311
 10
3.725756
 20
1.799539
 10
3.71862
 20
1.786463
 10
3.711677
 20
1.773078
 10
3.704926
 20
1.759374
 10
3.698365
 20
1.745345
 10
3.691991
 20
1.730983
 10
3.685803
 20
1.716282
 10
3.679799
 20
1.701232
 10
3.668334
 20
1.670062
 10
3.657583
 20
1.637412
 10
3.695211
 20
1.635479
 10
3.732431
 20
1.634234
 10
3.769233
 20
1.633651
 10
3.805606
 20
1.633703
 10
3.84154
 20
1.634363
 10
3.877025
 20
1.635604
 10
3.91205
 20
1.637399
 10
3.946604
 20
1.639722
 10
3.980678
 20
1.642546
 10
4.01426
 20
1.645843
 10
4.047341
 20
1.649588
 10
4.07991
 20
1.653753
 10
4.111956
 20
1.658311
 10
4.14347
 20
1.663236
 10
4.17444
 20
1.668501
 10
4.204856
 20
1.674079
 10
4.234708
 20
1.679943
 10
4.263985
 20
1.686066
 10
4.292677
 20
1.692422
 10
4.320773
 20
1.698983
 10
4.375138
 20
1.712615
 10
4.426995
 20
1.726748
 10
4.476262
 20
1.741167
 10
4.522853
 20
1.755658
 10
4.566688
 20
1.770006
 10
4.60768
 20
1.783996
 10
4.630865
 20
1.78963
 10
4.654093
 20
1.794679
 10
4.677344
 20
1.799159
 10
4.700597
 20
1.803089
 10
4.723833
 20
1.806487
 10
4.74703
 20
1.80937
 10
4.770169
 20
1.811757
 10
4.793229
 20
1.813664
 10
4.816189
 20
1.815111
 10
4.83903
 20
1.816115
 10
4.861731
 20
1.816694
 10
4.884271
 20
1.816865
 10
4.906631
 20
1.816647
 10
4.92879
 20
1.816058
 10
4.950727
 20
1.815115
 10
4.972422
 20
1.813836
 10
4.993855
 20
1.812239
 10
5.015005
 20
1.810342
 10
5.056376
 20
1.805721
 10
5.096372
 20
1.800113
 10
5.134831
 20
1.793664
 10
5.171588
 20
1.786514
 10
5.206482
 20
1.778809
 10
5.23935
 20
1.77069
 10
5.270028
 20
1.762301
 10
5.303038
 20
1.746279
 10
5.334919
 20
1.729871
 10
5.365685
 20
1.713101
 10
5.39535
 20
1.695992
 10
5.42393
 20
1.678569
 10
5.451438
 20
1.660857
 10
5.477889
 20
1.642879
 10
5.503298
 20
1.62466
 10
5.52768
 20
1.606225
 10
5.55105
 20
1.587596
 10
5.573421
 20
1.568799
 10
5.594809
 20
1.549858
 10
5.615228
 20
1.530796
 10
5.634693
 20
1.511639
 10
5.653218
 20
1.49241
 10
5.670819
 20
1.473134
 10
5.681684
 20
1.461416
 10
5.693213
 20
1.449726
 10
5.717078
 20
1.426322
 10
5.728823
 20
1.414553
 10
5.740048
 20
1.402703
 10
5.750458
 20
1.390743
 10
5.759757
 20
1.378647
 10
5.763897
 20
1.372539
 10
5.767649
 20
1.366386
 10
5.770974
 20
1.360186
 10
5.773838
 20
1.353934
 10
5.776201
 20
1.347627
 10
5.778028
 20
1.341262
 10
5.779282
 20
1.334835
 10
5.779925
 20
1.328343
 10
5.77992
 20
1.321783
 10
5.779231
 20
1.31515
 10
5.777821
 20
1.308442
 10
5.775652
 20
1.301655
 10
5.772687
 20
1.294786
 10
5.768891
 20
1.28783
 10
5.764225
 20
1.280786
 10
5.758653
 20
1.273648
 10
5.769779
 20
1.27751
 10
5.780115
 20
1.281626
 10
5.789696
 20
1.285996
 10
5.798557
 20
1.29062
 10
5.806735
 20
1.295499
 10
5.814266
 20
1.300631
 10
5.821184
 20
1.306019
 10
5.827526
 20
1.31166
 10
5.833327
 20
1.317557
 10
5.838624
 20
1.323707
 10
5.843452
 20
1.330112
 10
5.847846
 20
1.336771
 10
5.851843
 20
1.343685
 10
5.855478
 20
1.350854
 10
5.858787
 20
1.358276
 10
5.861805
 20
1.365954
 10
5.863335
 20
1.38723
 10
5.864535
 20
1.408473
 10
5.865394
 20
1.429685
 10
5.8659
 20
1.450866
 10
5.866041
 20
1.472014
 10
5.865805
 20
1.49313
 10
5.86518
 20
1.514215
 10
5.864154
 20
1.535268
 10
5.862716
 20
1.556289
 10
5.860854
 20
1.577279
 10
5.858555
 20
1.598237
 10
5.855807
 20
1.619163
 10
5.8526
 20
1.640057
 10
5.84892
 20
1.66092
 10
5.844757
 20
1.681751
 10
5.840097
 20
1.702551
 10
5.838342
 20
1.713443
 10
5.837258
 20
1.722993
 10
5.83677
 20
1.731343
 10
5.836804
 20
1.738634
 10
5.837285
 20
1.745007
 10
5.838141
 20
1.750602
 10
5.839296
 20
1.755562
 10
5.840677
 20
1.760027
 10
5.843818
 20
1.768036
 10
5.846972
 20
1.775758
 10
5.848368
 20
1.779864
 10
5.849545
 20
1.784322
 10
5.850428
 20
1.789273
 10
5.850944
 20
1.794857
 10
5.856166
 20
1.808363
 10
5.860515
 20
1.822357
 10
5.864038
 20
1.836757
 10
5.866783
 20
1.851478
 10
5.868798
 20
1.866437
 10
5.87013
 20
1.881551
 10
5.870826
 20
1.896737
 10
5.870936
 20
1.91191
 10
5.870505
 20
1.926989
 10
5.869582
 20
1.941889
 10
5.868215
 20
1.956527
 10
5.86645
 20
1.97082
 10
5.864336
 20
1.984684
 10
5.861921
 20
1.998036
 10
5.859251
 20
2.010792
 10
5.856375
 20
2.022871
 10
5.854628
 20
2.031127
 10
5.852414
 20
2.039522
 10
5.849741
 20
2.048053
 10
5.846617
 20
2.056716
 10
5.843051
 20
2.065507
 10
5.839051
 20
2.074425
 10
5.834626
 20
2.083464
 10
5.829783
 20
2.092623
 10
5.818883
 20
2.111282
 10
5.806416
 20
2.130376
 10
5.792451
 20
2.149877
 10
5.777056
 20
2.169759
 10
5.760298
 20
2.189995
 10
5.742245
 20
2.210558
 10
5.722966
 20
2.23142
 10
5.702527
 20
2.252555
 10
5.680996
 20
2.273936
 10
5.658441
 20
2.295536
 10
5.63493
 20
2.317327
 10
5.610531
 20
2.339284
 10
5.585311
 20
2.361378
 10
5.559338
 20
2.383584
 10
5.53268
 20
2.405873
 10
5.505404
 20
2.428219
 10
5.449271
 20
2.472975
 10
5.39148
 20
2.517636
 10
5.332574
 20
2.561986
 10
5.273095
 20
2.605808
 10
5.213584
 20
2.648888
 10
5.154583
 20
2.691009
 10
5.151863
 20
2.693194
 10
5.149488
 20
2.695604
 10
5.147435
 20
2.698203
 10
5.145682
 20
2.700957
 10
5.142981
 20
2.706784
 10
5.141198
 20
2.712799
 10
5.140148
 20
2.718718
 10
5.139646
 20
2.724254
 10
5.139541
 20
2.733037
 10
5.140232
 20
2.745531
 10
5.140145
 20
2.757657
 10
5.139329
 20
2.769422
 10
5.137833
 20
2.780834
 10
5.135707
 20
2.791901
 10
5.133
 20
2.802631
 10
5.129761
 20
2.813032
 10
5.126038
 20
2.823112
 10
5.121883
 20
2.832878
 10
5.117343
 20
2.842339
 10
5.112468
 20
2.851503
 10
5.107307
 20
2.860377
 10
5.096324
 20
2.877288
 10
5.084788
 20
2.893134
 10
5.061633
 20
2.921889
 10
5.050801
 20
2.934923
 10
5.040991
 20
2.947147
 10
5.032597
 20
2.958622
 10
5.029054
 20
2.964098
 10
5.026012
 20
2.969412
 10
5.023522
 20
2.97457
 10
5.021631
 20
2.97958
 10
5.02039
 20
2.984451
 10
5.019847
 20
2.98919
 10
5.008986
 20
3.244357
 10
5.007666
 20
3.250456
 10
5.005992
 20
3.256535
 10
5.001696
 20
3.268614
 10
4.996315
 20
3.280559
 10
4.990072
 20
3.292332
 10
4.983186
 20
3.3039
 10
4.975877
 20
3.315225
 10
4.960873
 20
3.337006
 10
4.946821
 20
3.35739
 10
4.940703
 20
3.366969
 10
4.935484
 20
3.376091
 10
4.931384
 20
3.384721
 10
4.929822
 20
3.38884
 10
4.928623
 20
3.392823
 10
4.927813
 20
3.396665
 10
4.927421
 20
3.400362
 10
4.927474
 20
3.403909
 10
4.928
 20
3.407301
 10
4.930876
 20
3.413555
 10
4.934503
 20
3.419303
 10
4.938772
 20
3.424611
 10
4.943576
 20
3.429543
 10
4.948809
 20
3.434167
 10
4.954362
 20
3.438546
 10
4.966005
 20
3.446834
 10
4.977647
 20
3.454931
 10
4.9832
 20
3.459072
 10
4.988431
 20
3.463362
 10
4.993234
 20
3.467865
 10
4.997501
 20
3.472648
 10
5.001126
 20
3.477776
 10
5.004
 20
3.483315
 10
5.007364
 20
3.489315
 10
5.010233
 20
3.496661
 10
5.012713
 20
3.505173
 10
5.014911
 20
3.514673
 10
5.018889
 20
3.535924
 10
5.023026
 20
3.558985
 10
5.025421
 20
3.570748
 10
5.028177
 20
3.582427
 10
5.031402
 20
3.593845
 10
5.035201
 20
3.604823
 10
5.039682
 20
3.615182
 10
5.044953
 20
3.624743
 10
5.047918
 20
3.629169
 10
5.051121
 20
3.633328
 10
5.054574
 20
3.637199
 10
5.058291
 20
3.640759
 10
5.072753
 20
3.654211
 10
5.08696
 20
3.668394
 10
5.100912
 20
3.683243
 10
5.11461
 20
3.698694
 10
5.128054
 20
3.714685
 10
5.141244
 20
3.731149
 10
5.154179
 20
3.748024
 10
5.166859
 20
3.765245
 10
5.179286
 20
3.782748
 10
5.191458
 20
3.800469
 10
5.215038
 20
3.83631
 10
5.237602
 20
3.872254
 10
5.259147
 20
3.907789
 10
5.299187
 20
3.975581
 10
5.31768
 20
4.006813
 10
5.335157
 20
4.035586
 10
5.351616
 20
4.061386
 10
5.359464
 20
4.073012
 10
5.367057
 20
4.083702
 10
5.374397
 20
4.093393
 10
5.381482
 20
4.10202
 10
5.388312
 20
4.10952
 10
5.394889
 20
4.115829
 10
5.402262
 20
4.129288
 10
5.410588
 20
4.142859
 10
5.419803
 20
4.156541
 10
5.429843
 20
4.170334
 10
5.440644
 20
4.184239
 10
5.452143
 20
4.198255
 10
5.464273
 20
4.212382
 10
5.476973
 20
4.226621
 10
5.503822
 20
4.255432
 10
5.532177
 20
4.284688
 10
5.591356
 20
4.344537
 10
5.621153
 20
4.37513
 10
5.650407
 20
4.406167
 10
5.664669
 20
4.421853
 10
5.678603
 20
4.43765
 10
5.692145
 20
4.453559
 10
5.70523
 20
4.469579
 10
5.717795
 20
4.48571
 10
5.729775
 20
4.501953
 10
5.741107
 20
4.518306
 10
5.751726
 20
4.534772
 10
5.761567
 20
4.551348
 10
5.770568
 20
4.568036
 10
5.778664
 20
4.584835
 10
5.785791
 20
4.601746
 10
5.802638
 20
4.615546
 10
5.819405
 20
4.629943
 10
5.836059
 20
4.644894
 10
5.852566
 20
4.660361
 10
5.868895
 20
4.676302
 10
5.885012
 20
4.692678
 10
5.900885
 20
4.709448
 10
5.916481
 20
4.726573
 10
5.931767
 20
4.744011
 10
5.94671
 20
4.761724
 10
5.961277
 20
4.779669
 10
5.975437
 20
4.797808
 10
5.989155
 20
4.8161
 10
6.0024
 20
4.834504
 10
6.015138
 20
4.852981
 10
6.027337
 20
4.87149
 10
6.038963
 20
4.889992
 10
6.049984
 20
4.908445
 10
6.060368
 20
4.92681
 10
6.070081
 20
4.945046
 10
6.079091
 20
4.963113
 10
6.087365
 20
4.980971
 10
6.09487
 20
4.99858
 10
6.101573
 20
5.0159
 10
6.107441
 20
5.032889
 10
6.112443
 20
5.049509
 10
6.116544
 20
5.065718
 10
6.119713
 20
5.081477
 10
6.121915
 20
5.096746
 10
6.12312
 20
5.111483
 10
6.123293
 20
5.125649
 10
6.122403
 20
5.139204
 10
6.132155
 20
5.146973
 10
6.142348
 20
5.1556
 10
6.152948
 20
5.165053
 10
6.163917
 20
5.175297
 10
6.17522
 20
5.186301
 10
6.186821
 20
5.198032
 10
6.210775
 20
5.223543
 10
6.235493
 20
5.251566
 10
6.260688
 20
5.28184
 10
6.286074
 20
5.314103
 10
6.311364
 20
5.348091
 10
6.323884
 20
5.36565
 10
6.336273
 20
5.383543
 10
6.348494
 20
5.401735
 10
6.360513
 20
5.420195
 10
6.372293
 20
5.43889
 10
6.383799
 20
5.457786
 10
6.394994
 20
5.476852
 10
6.405844
 20
5.496053
 10
6.416312
 20
5.515359
 10
6.426362
 20
5.534734
 10
6.435958
 20
5.554148
 10
6.445066
 20
5.573566
 10
6.453649
 20
5.592957
 10
6.46167
 20
5.612287
 10
6.469096
 20
5.631524
 10
6.475889
 20
5.650634
  0
LWPOLYLINE
  5
2B
330
1F
100
AcDbEntity
  8
0
100
AcDbPolyline
 90
     1867
 70
   128
 43
0.0
 10
6.475889
 20
5.650634
 10
6.480899
 20
5.666386
 10
6.485666
 20
5.682515
 10
6.490193
 20
5.699003
 10
6.494482
 20
5.715829
 10
6.502359
 20
5.750416
 10
6.509321
 20
5.78612
 10
6.515392
 20
5.822783
 10
6.520597
 20
5.860245
 10
6.524958
 20
5.89835
 10
6.5285
 20
5.936938
 10
6.531247
 20
5.975853
 10
6.533222
 20
6.014936
 10
6.53445
 20
6.054028
 10
6.534954
 20
6.092972
 10
6.534757
 20
6.13161
 10
6.533885
 20
6.169784
 10
6.532361
 20
6.207336
 10
6.530208
 20
6.244107
 10
6.527451
 20
6.279939
 10
6.524113
 20
6.314675
 10
6.520218
 20
6.348157
 10
6.515791
 20
6.380225
 10
6.510854
 20
6.410723
 10
6.505432
 20
6.439493
 10
6.499549
 20
6.466375
 10
6.493229
 20
6.491213
 10
6.486494
 20
6.513847
 10
6.47937
 20
6.534121
 10
6.47567
 20
6.543323
 10
6.47188
 20
6.551875
 10
6.468006
 20
6.559758
 10
6.464048
 20
6.566952
 10
6.460012
 20
6.573438
 10
6.455898
 20
6.579194
 10
6.451711
 20
6.584203
 10
6.447454
 20
6.588443
 10
6.443129
 20
6.591896
 10
6.438739
 20
6.594541
 10
6.434288
 20
6.596358
 10
6.429778
 20
6.597329
 10
6.42339
 20
6.594589
 10
6.417438
 20
6.59163
 10
6.411898
 20
6.588454
 10
6.406749
 20
6.585067
 10
6.401969
 20
6.581474
 10
6.397536
 20
6.57768
 10
6.393428
 20
6.573689
 10
6.389623
 20
6.569505
 10
6.386099
 20
6.565134
 10
6.382834
 20
6.560581
 10
6.376994
 20
6.550944
 10
6.371926
 20
6.540633
 10
6.367456
 20
6.529687
 10
6.363408
 20
6.518141
 10
6.359606
 20
6.506034
 10
6.352037
 20
6.48029
 10
6.34792
 20
6.466727
 10
6.343345
 20
6.452755
 10
6.338139
 20
6.43841
 10
6.332125
 20
6.423732
 10
6.328596
 20
6.433049
 10
6.325371
 20
6.443644
 10
6.322425
 20
6.455405
 10
6.319731
 20
6.468221
 10
6.317267
 20
6.48198
 10
6.315005
 20
6.496572
 10
6.310991
 20
6.527806
 10
6.307489
 20
6.561034
 10
6.304298
 20
6.595365
 10
6.298045
 20
6.663775
 10
6.294582
 20
6.696074
 10
6.290627
 20
6.725915
 10
6.288402
 20
6.739636
 10
6.285979
 20
6.752408
 10
6.283332
 20
6.764121
 10
6.280437
 20
6.774663
 10
6.277269
 20
6.783923
 10
6.273801
 20
6.79179
 10
6.27001
 20
6.798152
 10
6.267985
 20
6.800733
 10
6.26587
 20
6.802897
 10
6.263661
 20
6.80463
 10
6.261356
 20
6.805916
 10
6.258951
 20
6.806743
 10
6.256443
 20
6.807096
 10
6.253829
 20
6.806962
 10
6.251106
 20
6.806326
 10
6.24827
 20
6.805176
 10
6.245319
 20
6.803496
 10
6.2357
 20
6.801039
 10
6.226497
 20
6.798089
 10
6.2177
 20
6.794661
 10
6.209296
 20
6.790768
 10
6.201274
 20
6.786427
 10
6.193621
 20
6.781651
 10
6.186325
 20
6.776457
 10
6.179375
 20
6.770858
 10
6.172759
 20
6.76487
 10
6.166465
 20
6.758507
 10
6.16048
 20
6.751785
 10
6.154793
 20
6.744718
 10
6.149393
 20
6.737321
 10
6.144266
 20
6.729609
 10
6.139402
 20
6.721598
 10
6.134788
 20
6.713301
 10
6.130412
 20
6.704734
 10
6.126263
 20
6.695912
 10
6.118596
 20
6.677562
 10
6.111692
 20
6.658369
 10
6.105456
 20
6.638453
 10
6.099792
 20
6.617932
 10
6.094604
 20
6.596928
 10
6.085278
 20
6.55394
 10
6.083681
 20
6.532093
 10
6.08255
 20
6.508232
 10
6.081253
 20
6.456326
 10
6.080528
 20
6.401941
 10
6.079517
 20
6.348796
 10
6.078636
 20
6.323851
 10
6.077362
 20
6.30061
 10
6.075587
 20
6.279539
 10
6.073203
 20
6.261102
 10
6.07175
 20
6.253017
 10
6.070105
 20
6.245764
 10
6.068254
 20
6.239403
 10
6.066184
 20
6.233991
 10
6.063881
 20
6.229586
 10
6.061333
 20
6.226246
 10
6.058525
 20
6.22403
 10
6.057019
 20
6.223362
 10
6.055444
 20
6.222996
 10
6.053238
 20
6.223059
 10
6.051148
 20
6.223705
 10
6.04917
 20
6.224913
 10
6.0473
 20
6.226665
 10
6.045534
 20
6.228944
 10
6.043866
 20
6.23173
 10
6.040808
 20
6.238749
 10
6.038092
 20
6.247575
 10
6.035682
 20
6.25806
 10
6.033542
 20
6.270055
 10
6.031636
 20
6.283413
 10
6.028384
 20
6.313621
 10
6.02564
 20
6.347499
 10
6.020531
 20
6.42152
 10
6.017595
 20
6.459291
 10
6.014023
 20
6.495987
 10
6.011909
 20
6.513562
 10
6.009529
 20
6.530424
 10
6.006847
 20
6.546423
 10
6.003827
 20
6.561414
 10
6.000434
 20
6.575245
 10
5.996631
 20
6.587771
 10
5.992384
 20
6.598842
 10
5.990082
 20
6.603786
 10
5.987656
 20
6.60831
 10
5.985101
 20
6.612397
 10
5.982412
 20
6.616028
 10
5.979584
 20
6.619183
 10
5.976615
 20
6.621845
 10
5.973498
 20
6.623996
 10
5.97023
 20
6.625616
 10
5.966806
 20
6.626687
 10
5.963222
 20
6.62719
 10
5.953255
 20
6.625614
 10
5.943689
 20
6.623603
 10
5.934512
 20
6.621167
 10
5.925713
 20
6.618318
 10
5.917279
 20
6.615065
 10
5.909199
 20
6.611419
 10
5.90146
 20
6.60739
 10
5.894051
 20
6.60299
 10
5.88696
 20
6.598228
 10
5.880175
 20
6.593114
 10
5.873684
 20
6.58766
 10
5.867475
 20
6.581875
 10
5.861537
 20
6.57577
 10
5.855856
 20
6.569356
 10
5.850422
 20
6.562643
 10
5.845222
 20
6.555641
 10
5.840245
 20
6.548361
 10
5.835478
 20
6.540814
 10
5.826528
 20
6.524957
 10
5.818278
 20
6.508155
 10
5.810632
 20
6.490491
 10
5.803495
 20
6.472048
 10
5.79677
 20
6.45291
 10
5.790364
 20
6.433161
 10
5.78418
 20
6.412884
 10
5.783414
 20
6.393949
 10
5.783067
 20
6.373926
 10
5.783142
 20
6.331602
 10
5.783439
 20
6.287881
 10
5.783368
 20
6.266112
 10
5.782989
 20
6.244732
 10
5.782182
 20
6.223986
 10
5.780825
 20
6.204121
 10
5.778797
 20
6.185383
 10
5.775977
 20
6.168017
 10
5.774233
 20
6.159926
 10
5.772245
 20
6.152271
 10
5.769999
 20
6.145081
 10
5.767479
 20
6.138389
 10
5.76467
 20
6.132224
 10
5.761558
 20
6.126618
 10
5.758126
 20
6.121601
 10
5.754361
 20
6.117204
 10
5.750795
 20
6.123623
 10
5.747375
 20
6.130714
 10
5.74089
 20
6.146678
 10
5.734742
 20
6.16463
 10
5.728767
 20
6.184103
 10
5.716674
 20
6.22575
 10
5.710227
 20
6.246991
 10
5.703295
 20
6.267888
 10
5.695712
 20
6.287976
 10
5.691625
 20
6.29757
 10
5.687313
 20
6.306788
 10
5.682757
 20
6.31557
 10
5.677935
 20
6.323858
 10
5.672827
 20
6.331594
 10
5.667412
 20
6.338719
 10
5.66167
 20
6.345177
 10
5.65558
 20
6.350907
 10
5.649121
 20
6.355852
 10
5.642274
 20
6.359953
 10
5.635017
 20
6.363153
 10
5.62733
 20
6.365393
 10
5.619192
 20
6.366614
 10
5.610583
 20
6.366759
 10
5.597516
 20
6.363172
 10
5.584789
 20
6.358748
 10
5.572454
 20
6.353569
 10
5.560566
 20
6.347719
 10
5.549178
 20
6.341282
 10
5.538344
 20
6.334341
 10
5.528116
 20
6.326979
 10
5.51855
 20
6.31928
 10
5.509698
 20
6.311327
 10
5.501614
 20
6.303204
 10
5.494351
 20
6.294993
 10
5.487964
 20
6.286779
 10
5.482505
 20
6.278644
 10
5.478028
 20
6.270672
 10
5.474587
 20
6.262947
 10
5.472236
 20
6.255551
 10
5.46971
 20
6.241649
 10
5.467932
 20
6.226874
 10
5.466851
 20
6.211312
 10
5.466412
 20
6.19505
 10
5.466564
 20
6.178176
 10
5.467252
 20
6.160775
 10
5.468426
 20
6.142934
 10
5.470031
 20
6.124741
 10
5.474325
 20
6.087645
 10
5.479712
 20
6.050179
 10
5.485769
 20
6.013038
 10
5.492074
 20
5.976917
 10
5.503739
 20
5.910512
 10
5.508252
 20
5.881616
 10
5.511324
 20
5.856518
 10
5.512187
 20
5.845609
 10
5.51253
 20
5.835911
 10
5.512302
 20
5.827508
 10
5.51145
 20
5.820489
 10
5.50992
 20
5.81494
 10
5.508884
 20
5.812744
 10
5.507659
 20
5.810948
 10
5.506238
 20
5.809563
 10
5.504615
 20
5.8086
 10
5.502783
 20
5.808069
 10
5.500736
 20
5.807982
 10
5.499979
 20
5.806908
 10
5.499035
 20
5.806332
 10
5.49791
 20
5.806237
 10
5.496605
 20
5.806608
 10
5.493471
 20
5.808685
 10
5.489659
 20
5.812441
 10
5.485196
 20
5.817751
 10
5.480107
 20
5.824492
 10
5.46816
 20
5.841773
 10
5.437913
 20
5.888069
 10
5.420034
 20
5.915106
 10
5.400595
 20
5.943417
 10
5.379808
 20
5.972015
 10
5.368974
 20
5.986111
 10
5.357881
 20
5.999909
 10
5.346555
 20
6.013283
 10
5.335023
 20
6.026111
 10
5.323311
 20
6.038268
 10
5.311445
 20
6.049632
 10
5.299451
 20
6.060078
 10
5.287355
 20
6.069484
 10
5.275184
 20
6.077725
 10
5.269078
 20
6.08137
 10
5.262963
 20
6.084677
 10
5.256843
 20
6.087632
 10
5.250719
 20
6.090218
 10
5.244597
 20
6.092421
 10
5.238479
 20
6.094224
 10
5.232368
 20
6.095612
 10
5.226267
 20
6.09657
 10
5.22018
 20
6.097083
 10
5.214111
 20
6.097134
 10
5.205073
 20
6.096483
 10
5.196256
 20
6.095403
 10
5.187666
 20
6.09391
 10
5.179308
 20
6.092022
 10
5.171187
 20
6.089754
 10
5.163307
 20
6.087124
 10
5.155674
 20
6.084149
 10
5.148293
 20
6.080844
 10
5.14117
 20
6.077228
 10
5.134308
 20
6.073316
 10
5.127713
 20
6.069125
 10
5.121391
 20
6.064672
 10
5.115346
 20
6.059973
 10
5.109583
 20
6.055047
 10
5.104108
 20
6.049908
 10
5.098925
 20
6.044574
 10
5.09404
 20
6.039061
 10
5.089457
 20
6.033387
 10
5.085183
 20
6.027567
 10
5.08122
 20
6.021619
 10
5.077576
 20
6.01556
 10
5.074255
 20
6.009405
 10
5.071261
 20
6.003173
 10
5.068601
 20
5.996879
 10
5.066279
 20
5.99054
 10
5.0643
 20
5.984172
 10
5.062669
 20
5.977794
 10
5.061392
 20
5.971421
 10
5.060473
 20
5.965069
 10
5.059917
 20
5.958757
 10
5.05973
 20
5.9525
 10
5.059916
 20
5.946315
 10
5.060554
 20
5.9382
 10
5.061674
 20
5.929811
 10
5.063233
 20
5.921182
 10
5.065191
 20
5.91235
 10
5.070132
 20
5.894215
 10
5.076163
 20
5.875687
 10
5.082948
 20
5.857048
 10
5.090152
 20
5.83858
 10
5.104474
 20
5.803282
 10
5.110922
 20
5.787016
 10
5.116448
 20
5.772047
 10
5.120716
 20
5.758658
 10
5.122273
 20
5.752643
 10
5.123391
 20
5.747129
 10
5.124027
 20
5.742151
 10
5.124138
 20
5.737744
 10
5.123684
 20
5.733942
 10
5.122622
 20
5.730782
 10
5.12091
 20
5.728299
 10
5.118507
 20
5.726527
 10
5.11537
 20
5.725502
 10
5.111458
 20
5.725259
 10
5.088275
 20
5.74393
 10
5.065663
 20
5.761194
 10
5.04363
 20
5.777078
 10
5.022183
 20
5.791613
 10
5.001331
 20
5.804827
 10
4.98108
 20
5.816748
 10
4.961439
 20
5.827405
 10
4.942416
 20
5.836828
 10
4.924017
 20
5.845045
 10
4.906251
 20
5.852084
 10
4.889125
 20
5.857974
 10
4.872647
 20
5.862745
 10
4.856825
 20
5.866424
 10
4.841666
 20
5.869041
 10
4.827179
 20
5.870625
 10
4.81337
 20
5.871204
 10
4.800247
 20
5.870807
 10
4.787818
 20
5.869462
 10
4.776092
 20
5.867199
 10
4.765074
 20
5.864046
 10
4.754774
 20
5.860032
 10
4.745199
 20
5.855185
 10
4.736356
 20
5.849536
 10
4.728253
 20
5.843111
 10
4.720898
 20
5.83594
 10
4.714299
 20
5.828052
 10
4.708463
 20
5.819476
 10
4.703398
 20
5.81024
 10
4.699111
 20
5.800373
 10
4.695611
 20
5.789904
 10
4.692904
 20
5.778861
 10
4.691
 20
5.767273
 10
4.688291
 20
5.658773
 10
4.670622
 20
5.65888
 10
4.653847
 20
5.658462
 10
4.637938
 20
5.657528
 10
4.622869
 20
5.656084
 10
4.608614
 20
5.654138
 10
4.595145
 20
5.651698
 10
4.582436
 20
5.64877
 10
4.57046
 20
5.645364
 10
4.55919
 20
5.641485
 10
4.548599
 20
5.637141
 10
4.538661
 20
5.63234
 10
4.529349
 20
5.627089
 10
4.520636
 20
5.621395
 10
4.512496
 20
5.615267
 10
4.504901
 20
5.608711
 10
4.497824
 20
5.601735
 10
4.49124
 20
5.594346
 10
4.485121
 20
5.586552
 10
4.47944
 20
5.578361
 10
4.474171
 20
5.569779
 10
4.469287
 20
5.560814
 10
4.464761
 20
5.551473
 10
4.460566
 20
5.541764
 10
4.456676
 20
5.531695
 10
4.453064
 20
5.521273
 10
4.449702
 20
5.510505
 10
4.443625
 20
5.487961
 10
4.438231
 20
5.464123
 10
4.433305
 20
5.439051
 10
4.42155
 20
5.435031
 10
4.41025
 20
5.43078
 10
4.399391
 20
5.426306
 10
4.38896
 20
5.421616
 10
4.378944
 20
5.416718
 10
4.369329
 20
5.411619
 10
4.360101
 20
5.406326
 10
4.351249
 20
5.400848
 10
4.342757
 20
5.39519
 10
4.334613
 20
5.389362
 10
4.326803
 20
5.38337
 10
4.319314
 20
5.377221
 10
4.305246
 20
5.364486
 10
4.2923
 20
5.351214
 10
4.28037
 20
5.337467
 10
4.269349
 20
5.323302
 10
4.259129
 20
5.308781
 10
4.249604
 20
5.293961
 10
4.240666
 20
5.278904
 10
4.232209
 20
5.263668
 10
4.216305
 20
5.232898
 10
4.201426
 20
5.222796
 10
4.186249
 20
5.212102
 10
4.170973
 20
5.200815
 10
4.155795
 20
5.188935
 10
4.140915
 20
5.17646
 10
4.126529
 20
5.163388
 10
4.112838
 20
5.14972
 10
4.100038
 20
5.135452
 10
4.094035
 20
5.128094
 10
4.088328
 20
5.120585
 10
4.082944
 20
5.112926
 10
4.077907
 20
5.105117
 10
4.073242
 20
5.097157
 10
4.068973
 20
5.089047
 10
4.065125
 20
5.080785
 10
4.061723
 20
5.072373
 10
4.058792
 20
5.063809
 10
4.056357
 20
5.055095
 10
4.054442
 20
5.046228
 10
4.053073
 20
5.037211
 10
4.052273
 20
5.028041
 10
4.052068
 20
5.01872
 10
4.052483
 20
5.009246
 10
4.053541
 20
4.999621
 10
4.042867
 20
4.992764
 10
4.032609
 20
4.985607
 10
4.022762
 20
4.978164
 10
4.013323
 20
4.970454
 10
4.004286
 20
4.962492
 10
3.995648
 20
4.954294
 10
3.987403
 20
4.945877
 10
3.979548
 20
4.937257
 10
3.972078
 20
4.92845
 10
3.964988
 20
4.919474
 10
3.958274
 20
4.910343
 10
3.951932
 20
4.901076
 10
3.945956
 20
4.891687
 10
3.940343
 20
4.882194
 10
3.935089
 20
4.872612
 10
3.930187
 20
4.862959
 10
3.925635
 20
4.85325
 10
3.921428
 20
4.843502
 10
3.91756
 20
4.833731
 10
3.914029
 20
4.823954
 10
3.910829
 20
4.814186
 10
3.907955
 20
4.804445
 10
3.90317
 20
4.785107
 10
3.899639
 20
4.76607
 10
3.897325
 20
4.747466
 10
3.896194
 20
4.729425
 10
3.896208
 20
4.712079
 10
3.875104
 20
4.698002
 10
3.854016
 20
4.683577
 10
3.832961
 20
4.668805
 10
3.811955
 20
4.653688
 10
3.791015
 20
4.638228
 10
3.770156
 20
4.622425
 10
3.749396
 20
4.606282
 10
3.72875
 20
4.589799
 10
3.708236
 20
4.572979
 10
3.687869
 20
4.555822
 10
3.667666
 20
4.538331
 10
3.647643
 20
4.520507
 10
3.627817
 20
4.50235
 10
3.608204
 20
4.483864
 10
3.58882
 20
4.465048
 10
3.569682
 20
4.445905
 10
3.550806
 20
4.426437
 10
3.53221
 20
4.406644
 10
3.513908
 20
4.386528
 10
3.495917
 20
4.36609
 10
3.478255
 20
4.345333
 10
3.460936
 20
4.324258
 10
3.443978
 20
4.302865
 10
3.427398
 20
4.281157
 10
3.41121
 20
4.259135
 10
3.395433
 20
4.236801
 10
3.380081
 20
4.214155
 10
3.365173
 20
4.1912
 10
3.350723
 20
4.167937
 10
3.336748
 20
4.144368
 10
3.323266
 20
4.120493
 10
3.310291
 20
4.096315
 10
3.293929
 20
4.090876
 10
3.278064
 20
4.084911
 10
3.262683
 20
4.078432
 10
3.247775
 20
4.071452
 10
3.233328
 20
4.063986
 10
3.21933
 20
4.056046
 10
3.205769
 20
4.047647
 10
3.192633
 20
4.038801
 10
3.179911
 20
4.029522
 10
3.16759
 20
4.019823
 10
3.155658
 20
4.009718
 10
3.144104
 20
3.99922
 10
3.132915
 20
3.988342
 10
3.12208
 20
3.977098
 10
3.111587
 20
3.965502
 10
3.101423
 20
3.953567
 10
3.091578
 20
3.941305
 10
3.082038
 20
3.928732
 10
3.072792
 20
3.915859
 10
3.063829
 20
3.902701
 10
3.055135
 20
3.889271
 10
3.0467
 20
3.875582
 10
3.038511
 20
3.861647
 10
3.030557
 20
3.847481
 10
3.015304
 20
3.818506
 10
3.000845
 20
3.788765
 10
2.987086
 20
3.758365
 10
2.97393
 20
3.727412
 10
2.959153
 20
3.71635
 10
2.944825
 20
3.704462
 10
2.930936
 20
3.69178
 10
2.917479
 20
3.678337
 10
2.904444
 20
3.664166
 10
2.891824
 20
3.649298
 10
2.879608
 20
3.633766
 10
2.86779
 20
3.617604
 10
2.856361
 20
3.600842
 10
2.845311
 20
3.583513
 10
2.834632
 20
3.56565
 10
2.824316
 20
3.547286
 10
2.814355
 20
3.528452
 10
2.804738
 20
3.509181
 10
2.795459
 20
3.489506
 10
2.786508
 20
3.469459
 10
2.777878
 20
3.449071
 10
2.769558
 20
3.428377
 10
2.761541
 20
3.407407
 10
2.753818
 20
3.386196
 10
2.746381
 20
3.364773
 10
2.739221
 20
3.343174
 10
2.725698
 20
3.299571
 10
2.71318
 20
3.255646
 10
2.701599
 20
3.211659
 10
2.690885
 20
3.167868
 10
2.680972
 20
3.124534
 10
2.67179
 20
3.081914
 10
2.66327
 20
3.04027
 10
2.647944
 20
2.960941
 10
2.634446
 20
2.888621
 10
2.622227
 20
2.825385
 10
2.616426
 20
2.797821
 10
2.61074
 20
2.773306
 10
2.605099
 20
2.7521
 10
2.602274
 20
2.742818
 10
2.599435
 20
2.73446
 10
2.596573
 20
2.727059
 10
2.59368
 20
2.720647
 10
2.590746
 20
2.715256
 10
2.587765
 20
2.71092
 10
2.584726
 20
2.707669
 10
2.581621
 20
2.705537
 10
2.578442
 20
2.704557
 10
2.57518
 20
2.704759
 10
2.572906
 20
2.703582
 10
2.57011
 20
2.702852
 10
2.56681
 20
2.702552
 10
2.563021
 20
2.702668
 10
2.558759
 20
2.703186
 10
2.55404
 20
2.704091
 10
2.543292
 20
2.706999
 10
2.530906
 20
2.711274
 10
2.517007
 20
2.716797
 10
2.501722
 20
2.723449
 10
2.485179
 20
2.73111
 10
2.44882
 20
2.748983
 10
2.408945
 20
2.769464
 10
2.322698
 20
2.81443
 10
2.278352
 20
2.837008
 10
2.234543
 20
2.858379
 10
2.213156
 20
2.868313
 10
2.192283
 20
2.877588
 10
2.172051
 20
2.886083
 10
2.152587
 20
2.893681
 10
2.134016
 20
2.900262
 10
2.116466
 20
2.905706
 10
2.100064
 20
2.909894
 10
2.084935
 20
2.912708
 10
2.077888
 20
2.913562
 10
2.071207
 20
2.914027
 10
2.064908
 20
2.914089
 10
2.059007
 20
2.913733
 10
2.053519
 20
2.912944
 10
2.04846
 20
2.911707
 10
2.043847
 20
2.910007
 10
2.039694
 20
2.907829
 10
2.026325
 20
2.905217
 10
2.013508
 20
2.902312
 10
2.001225
 20
2.899123
 10
1.989455
 20
2.895659
 10
1.97818
 20
2.891928
 10
1.967381
 20
2.88794
 10
1.957037
 20
2.883704
 10
1.94713
 20
2.879228
 10
1.93764
 20
2.874521
 10
1.928548
 20
2.869593
 10
1.919834
 20
2.864453
 10
1.911479
 20
2.859109
 10
1.903464
 20
2.85357
 10
1.89577
 20
2.847845
 10
1.888376
 20
2.841943
 10
1.881264
 20
2.835874
 10
1.867807
 20
2.823267
 10
1.855243
 20
2.810096
 10
1.843419
 20
2.796433
 10
1.832179
 20
2.782348
 10
1.821367
 20
2.767914
 10
1.81083
 20
2.753203
 10
1.789958
 20
2.723232
 10
1.77509
 20
2.72346
 10
1.76067
 20
2.723145
 10
1.746683
 20
2.722301
 10
1.733118
 20
2.72094
 10
1.71996
 20
2.719078
 10
1.707195
 20
2.716726
 10
1.694812
 20
2.713898
 10
1.682795
 20
2.710608
 10
1.671132
 20
2.706868
 10
1.659809
 20
2.702694
 10
1.648813
 20
2.698097
 10
1.638131
 20
2.693091
 10
1.627749
 20
2.68769
 10
1.617653
 20
2.681907
 10
1.60783
 20
2.675756
 10
1.598267
 20
2.669249
 10
1.588951
 20
2.662401
 10
1.579867
 20
2.655224
 10
1.571003
 20
2.647733
 10
1.562345
 20
2.63994
 10
1.553879
 20
2.631858
 10
1.545593
 20
2.623503
 10
1.529505
 20
2.606021
 10
1.513973
 20
2.587601
 10
1.498889
 20
2.568351
 10
1.484147
 20
2.548377
 10
1.469639
 20
2.527787
 10
1.448257
 20
2.521921
 10
1.426487
 20
2.515042
 10
1.404625
 20
2.507177
 10
1.382967
 20
2.498352
 10
1.361811
 20
2.488591
 10
1.351514
 20
2.483368
 10
1.341454
 20
2.477922
 10
1.331667
 20
2.472254
 10
1.322191
 20
2.466369
 10
1.313062
 20
2.46027
 10
1.304319
 20
2.453959
 10
1.295998
 20
2.447441
 10
1.288136
 20
2.440718
 10
1.28077
 20
2.433793
 10
1.273937
 20
2.42667
 10
1.267675
 20
2.419353
 10
1.26202
 20
2.411843
 10
1.25701
 20
2.404145
 10
1.252682
 20
2.396262
 10
1.249072
 20
2.388196
 10
1.246218
 20
2.379952
 10
1.244156
 20
2.371532
 10
1.242925
 20
2.36294
 10
1.242561
 20
2.354179
 10
1.243101
 20
2.345252
 10
1.244582
 20
2.336162
 10
1.247041
 20
2.326912
 10
1.213437
 20
2.314299
 10
1.182114
 20
2.301857
 10
1.153
 20
2.289502
 10
1.126023
 20
2.277152
 10
1.101113
 20
2.264722
 10
1.078197
 20
2.25213
 10
1.067465
 20
2.245746
 10
1.057205
 20
2.239291
 10
1.047407
 20
2.232753
 10
1.038064
 20
2.226122
 10
1.029166
 20
2.219388
 10
1.020703
 20
2.21254
 10
1.012668
 20
2.205568
 10
1.005051
 20
2.198462
 10
0.997843
 20
2.19121
 10
0.991036
 20
2.183803
 10
0.98462
 20
2.17623
 10
0.978586
 20
2.168481
 10
0.972926
 20
2.160544
 10
0.967631
 20
2.152411
 10
0.962691
 20
2.14407
 10
0.958098
 20
2.135511
 10
0.953843
 20
2.126723
 10
0.949916
 20
2.117696
 10
0.946309
 20
2.10842
 10
0.943014
 20
2.098884
 10
0.922577
 20
2.091475
 10
0.903659
 20
2.083516
 10
0.88625
 20
2.075034
 10
0.870343
 20
2.06605
 10
0.86295
 20
2.061378
 10
0.85593
 20
2.05659
 10
0.849282
 20
2.051688
 10
0.843003
 20
2.046676
 10
0.837095
 20
2.041557
 10
0.831555
 20
2.036334
 10
0.826382
 20
2.031009
 10
0.821576
 20
2.025586
 10
0.817136
 20
2.020067
 10
0.81306
 20
2.014456
 10
0.809348
 20
2.008756
 10
0.805998
 20
2.002969
 10
0.80301
 20
1.997099
 10
0.800382
 20
1.991148
 10
0.798114
 20
1.98512
 10
0.796205
 20
1.979017
 10
0.794653
 20
1.972843
 10
0.793458
 20
1.9666
 10
0.792619
 20
1.960292
 10
0.792134
 20
1.953921
 10
0.792003
 20
1.94749
 10
0.792225
 20
1.941003
 10
0.792798
 20
1.934462
 10
0.793722
 20
1.927871
 10
0.773086
 20
1.920683
 10
0.752225
 20
1.914248
 10
0.710688
 20
1.902747
 10
0.690446
 20
1.897235
 10
0.670842
 20
1.891585
 10
0.652094
 20
1.885576
 10
0.634418
 20
1.878983
 10
0.62605
 20
1.875399
 10
0.61803
 20
1.871586
 10
0.610386
 20
1.867516
 10
0.603146
 20
1.863161
 10
0.596335
 20
1.858493
 10
0.589982
 20
1.853486
 10
0.584113
 20
1.848109
 10
0.578755
 20
1.842337
 10
0.573936
 20
1.836141
 10
0.569681
 20
1.829494
 10
0.56602
 20
1.822367
 10
0.562977
 20
1.814732
 10
0.560581
 20
1.806563
 10
0.558858
 20
1.79783
 10
0.557836
 20
1.788507
 10
0.557541
 20
1.778565
 10
0.562388
 20
1.775738
 10
0.567416
 20
1.773184
 10
0.577982
 20
1.768841
 10
0.589167
 20
1.765428
 10
0.600901
 20
1.762837
 10
0.613111
 20
1.760961
 10
0.625727
 20
1.759694
 10
0.638676
 20
1.758927
 10
0.651887
 20
1.758553
 10
0.678809
 20
1.758556
 10
0.705922
 20
1.758844
 10
0.732653
 20
1.758559
 10
0.745697
 20
1.757934
 10
0.75843
 20
1.756843
 10
0.758819
 20
1.75513
 10
0.758895
 20
1.753466
 10
0.758144
 20
1.750279
 10
0.756248
 20
1.747262
 10
0.753279
 20
1.744398
 10
0.749309
 20
1.741668
 10
0.74441
 20
1.739056
 10
0.738652
 20
1.736543
 10
0.732107
 20
1.734112
 10
0.716943
 20
1.729421
 10
0.699491
 20
1.724842
 10
0.660008
 20
1.715443
 10
0.639123
 20
1.710339
 10
0.618238
 20
1.704773
 10
0.597925
 20
1.698603
 10
0.588162
 20
1.695247
 10
0.578757
 20
1.691687
 10
0.56978
 20
1.687903
 10
0.561305
 20
1.68388
 10
0.553402
 20
1.679598
 10
0.546142
 20
1.67504
 10
0.539598
 20
1.670188
 10
0.53384
 20
1.665025
 10
0.528941
 20
1.659531
 10
0.524972
 20
1.65369
 10
0.52974
 20
1.650664
 10
0.534853
 20
1.648156
 10
0.540276
 20
1.646112
 10
0.545974
 20
1.644479
 10
0.551909
 20
1.643202
 10
0.558046
 20
1.642229
 10
0.570786
 20
1.640978
 10
0.597122
 20
1.639764
 10
0.610147
 20
1.638944
 10
0.622694
 20
1.637412
 10
0.594738
 20
1.628687
 10
0.566385
 20
1.618789
 10
0.539014
 20
1.608192
 10
0.52613
 20
1.602781
 10
0.514008
 20
1.597374
 10
0.502824
 20
1.59203
 10
0.492748
 20
1.586809
 10
0.483954
 20
1.581771
 10
0.476614
 20
1.576975
 10
0.470901
 20
1.57248
 10
0.466988
 20
1.568346
 10
0.46576
 20
1.566433
 10
0.465046
 20
1.564632
 10
0.464869
 20
1.562951
 10
0.46525
 20
1.561398
 10
0.477636
 20
1.558738
 10
0.490158
 20
1.556942
 10
0.502764
 20
1.555892
 10
0.5154
 20
1.55547
 10
0.528012
 20
1.555555
 10
0.540546
 20
1.556029
 10
0.565168
 20
1.557667
 10
0.588838
 20
1.559433
 10
0.600182
 20
1.560066
 10
0.611127
 20
1.560373
 10
0.621619
 20
1.560236
 10
0.631606
 20
1.559535
 10
0.641033
 20
1.558152
 10
0.649847
 20
1.555968
 10
0.65207
 20
1.553902
 10
0.654864
 20
1.551867
 10
0.662036
 20
1.547901
 10
0.671097
 20
1.544091
 10
0.681781
 20
1.540456
 10
0.693822
 20
1.537017
 10
0.706955
 20
1.533795
 10
0.720913
 20
1.53081
 10
0.735432
 20
1.528082
 10
0.765087
 20
1.52348
 10
0.793794
 20
1.520151
 10
0.807128
 20
1.519016
 10
0.819427
 20
1.51826
 10
0.830427
 20
1.517903
 10
0.839861
 20
1.517968
 10
0.848753
 20
1.510274
 10
0.861486
 20
1.499897
 10
0.869144
 20
1.494254
 10
0.877584
 20
1.488601
 10
0.886746
 20
1.483157
 10
0.896571
 20
1.478145
 10
0.906999
 20
1.473783
 10
0.91797
 20
1.470292
 10
0.923641
 20
1.468942
 10
0.929425
 20
1.467892
 10
0.935315
 20
1.46717
 10
0.941304
 20
1.466804
 10
0.947385
 20
1.46682
 10
0.953549
 20
1.467247
 10
0.959789
 20
1.468112
 10
0.966098
 20
1.469442
 10
0.972469
 20
1.471265
 10
0.978893
 20
1.473609
 10
0.985365
 20
1.4765
 10
0.991875
 20
1.479968
 10
0.998432
 20
1.480676
 10
1.005284
 20
1.481772
 10
1.019833
 20
1.485069
 10
1.035438
 20
1.489745
 10
1.052015
 20
1.495686
 10
1.06948
 20
1.502779
 10
1.08775
 20
1.510911
 10
1.10674
 20
1.51997
 10
1.126365
 20
1.529841
 10
1.16719
 20
1.551567
 10
1.209553
 20
1.575185
 10
1.252782
 20
1.599788
 10
1.296206
 20
1.624471
 10
1.339154
 20
1.648328
 10
1.360239
 20
1.659663
 10
1.380953
 20
1.670451
 10
1.401212
 20
1.680581
 10
1.420932
 20
1.689937
 10
1.440029
 20
1.698407
 10
1.45842
 20
1.705878
 10
1.47602
 20
1.712236
 10
1.492745
 20
1.717369
 10
1.508511
 20
1.721162
 10
1.516009
 20
1.722521
 10
1.523235
 20
1.723503
 10
1.53018
 20
1.724093
 10
1.536833
 20
1.724278
 10
1.543183
 20
1.724044
 10
1.54922
 20
1.723375
 10
1.554934
 20
1.722258
 10
1.560313
 20
1.72068
 10
1.565348
 20
1.718624
 10
1.570028
 20
1.716079
 10
1.546306
 20
1.692219
 10
1.523355
 20
1.668463
 10
1.501247
 20
1.644786
 10
1.480053
 20
1.621165
 10
1.459845
 20
1.597576
 10
1.440694
 20
1.573995
 10
1.422671
 20
1.550398
 10
1.405849
 20
1.526761
 10
1.390298
 20
1.503061
 10
1.383022
 20
1.491179
 10
1.37609
 20
1.479273
 10
1.369512
 20
1.467338
 10
1.363297
 20
1.455373
 10
1.357454
 20
1.443374
 10
1.35199
 20
1.431339
 10
1.346917
 20
1.419263
 10
1.342241
 20
1.407145
 10
1.337973
 20
1.394981
 10
1.334121
 20
1.382768
 10
1.330695
 20
1.370504
 10
1.327702
 20
1.358185
 10
1.325153
 20
1.345808
 10
1.323055
 20
1.333371
 10
1.312786
 20
1.326548
 10
1.302685
 20
1.319014
 10
1.292778
 20
1.310818
 10
1.28309
 20
1.302011
 10
1.273647
 20
1.292643
 10
1.264473
 20
1.282766
 10
1.255595
 20
1.27243
 10
1.247037
 20
1.261686
 10
1.238824
 20
1.250584
 10
1.230983
 20
1.239175
 10
1.223538
 20
1.22751
 10
1.216515
 20
1.215639
 10
1.209939
 20
1.203613
 10
1.203835
 20
1.191483
 10
1.198229
 20
1.179299
 10
1.193146
 20
1.167112
 10
1.188611
 20
1.154973
 10
1.18465
 20
1.142932
 10
1.181288
 20
1.13104
 10
1.17855
 20
1.119347
 10
1.176462
 20
1.107905
 10
1.175049
 20
1.096764
 10
1.174336
 20
1.085975
 10
1.174348
 20
1.075587
 10
1.175112
 20
1.065653
 10
1.176652
 20
1.056222
 10
1.178993
 20
1.047346
 10
1.182162
 20
1.039074
 10
1.186182
 20
1.031459
 10
1.191081
 20
1.024549
 10
1.193867
 20
1.021375
 10
1.196882
 20
1.018396
 10
1.200129
 20
1.01562
 10
1.203611
 20
1.013051
 10
1.205707
 20
1.007292
 10
1.20712
 20
1.001877
 10
1.207898
 20
0.996799
 10
1.208088
 20
0.992052
 10
1.207739
 20
0.987631
 10
1.206897
 20
0.983529
 10
1.205611
 20
0.979741
 10
1.203929
 20
0.976259
 10
1.201897
 20
0.97308
 10
1.199563
 20
0.970195
 10
1.196976
 20
0.967601
 10
1.194183
 20
0.965289
 10
1.188169
 20
0.961493
 10
1.181903
 20
0.958759
 10
1.16518
 20
0.957702
 10
1.14907
 20
0.955653
 10
1.13357
 20
0.952666
 10
1.118672
 20
0.948797
 10
1.104374
 20
0.944099
 10
1.09067
 20
0.938627
 10
1.077554
 20
0.932436
 10
1.065023
 20
0.925581
 10
1.05307
 20
0.918116
 10
1.041692
 20
0.910095
 10
1.030884
 20
0.901573
 10
1.020639
 20
0.892606
 10
1.010955
 20
0.883246
 10
1.001824
 20
0.87355
 10
0.993244
 20
0.863571
 10
0.985208
 20
0.853364
 10
0.977712
 20
0.842983
 10
0.970751
 20
0.832484
 10
0.964321
 20
0.821921
 10
0.958415
 20
0.811348
 10
0.953029
 20
0.80082
 10
0.948159
 20
0.790392
 10
0.9438
 20
0.780118
 10
0.939946
 20
0.770052
 10
0.936592
 20
0.76025
 10
0.933734
 20
0.750766
 10
0.931367
 20
0.741654
 10
0.929486
 20
0.73297
 10
0.928086
 20
0.724766
 10
0.927162
 20
0.7171
 10
0.926709
 20
0.710023
 10
0.926722
 20
0.703593
 10
0.917845
 20
0.698384
 10
0.909943
 20
0.693227
 10
0.902971
 20
0.688124
 10
0.896885
 20
0.683078
 10
0.891641
 20
0.678089
 10
0.887195
 20
0.673161
 10
0.883503
 20
0.668294
 10
0.88052
 20
0.663492
 10
0.878203
 20
0.658756
 10
0.876506
 20
0.654088
 10
0.875387
 20
0.64949
 10
0.874801
 20
0.644964
 10
0.874703
 20
0.640512
 10
0.875049
 20
0.636136
 10
0.875796
 20
0.631838
 10
0.876899
 20
0.627621
 10
0.879997
 20
0.619433
 10
0.883988
 20
0.61159
 10
0.893242
 20
0.596999
 10
0.897796
 20
0.590284
 10
0.901831
 20
0.583976
 10
0.904994
 20
0.578092
 10
0.906137
 20
0.575314
 10
0.90693
 20
0.572648
 10
0.895325
 20
0.564578
 10
0.884548
 20
0.556464
 10
0.874567
 20
0.548294
 10
0.865355
 20
0.540056
 10
0.85688
 20
0.531738
 10
0.849114
 20
0.523329
 10
0.842026
 20
0.514817
 10
0.835587
 20
0.50619
 10
0.829766
 20
0.497436
 10
0.824535
 20
0.488543
 10
0.819862
 20
0.479499
 10
0.815719
 20
0.470293
 10
0.812076
 20
0.460912
 10
0.808903
 20
0.451346
 10
0.80617
 20
0.441581
 10
0.803847
 20
0.431607
 10
0.800334
 20
0.419463
 10
0.797728
 20
0.408584
 10
0.796019
 20
0.398937
 10
0.795195
 20
0.390483
 10
0.795243
 20
0.383189
 10
0.796151
 20
0.377018
 10
0.797909
 20
0.371934
 10
0.799102
 20
0.369789
 10
0.800503
 20
0.367902
 10
0.802111
 20
0.366269
 10
0.803923
 20
0.364886
 10
0.805939
 20
0.363747
 10
0.808156
 20
0.36285
 10
0.813191
 20
0.361758
 10
0.819015
 20
0.361575
 10
0.825617
 20
0.362266
 10
0.832985
 20
0.363793
 10
0.841107
 20
0.366123
 10
0.849972
 20
0.369218
 10
0.858766
 20
0.372046
 10
0.868478
 20
0.376053
 10
0.879061
 20
0.381166
 10
0.890464
 20
0.38731
 10
0.902639
 20
0.394409
 10
0.915537
 20
0.402391
 10
0.943303
 20
0.420702
 10
0.973371
 20
0.441649
 10
1.005348
 20
0.464635
 10
1.073455
 20
0.514344
 10
1.1088
 20
0.539878
 10
1.144482
 20
0.565071
 10
1.180109
 20
0.589327
 10
1.19778
 20
0.600918
 10
1.215288
 20
0.612052
 10
1.232587
 20
0.622654
 10
1.249626
 20
0.63265
 10
1.266357
 20
0.641965
 10
1.282731
 20
0.650526
 10
1.298697
 20
0.658257
 10
1.314208
 20
0.665085
 10
1.329214
 20
0.670935
 10
1.343666
 20
0.675732
 10
1.308144
 20
0.653577
 10
1.273344
 20
0.630749
 10
1.239385
 20
0.607338
 10
1.206387
 20
0.583434
 10
1.174468
 20
0.559125
 10
1.143747
 20
0.5345
 10
1.114343
 20
0.50965
 10
1.086377
 20
0.484662
 10
1.059965
 20
0.459627
 10
1.035228
 20
0.434634
 10
1.023525
 20
0.422181
 10
1.012285
 20
0.409772
 10
1.001523
 20
0.397418
 10
0.991254
 20
0.38513
 10
0.981493
 20
0.37292
 10
0.972255
 20
0.360798
 10
0.963555
 20
0.348776
 10
0.955407
 20
0.336864
 10
0.947827
 20
0.325075
 10
0.940828
 20
0.313419
 10
0.934428
 20
0.301907
 10
0.928639
 20
0.290551
 10
0.919091
 20
0.27566
 10
0.915139
 20
0.268727
 10
0.91172
 20
0.26213
 10
0.908827
 20
0.255864
 10
0.906449
 20
0.249925
 10
0.904576
 20
0.244308
 10
0.903199
 20
0.239009
 10
0.902308
 20
0.234024
 10
0.901893
 20
0.229347
 10
0.901946
 20
0.224975
 10
0.902455
 20
0.220903
 10
0.903412
 20
0.217127
 10
0.904806
 20
0.213642
 10
0.906629
 20
0.210443
 10
0.90887
 20
0.207527
 10
0.911519
 20
0.204888
 10
0.914568
 20
0.202523
 10
0.918006
 20
0.200427
 10
0.921824
 20
0.198594
 10
0.926012
 20
0.197022
 10
0.93056
 20
0.195706
 10
0.935459
 20
0.19464
 10
0.940699
 20
0.193821
 10
0.952164
 20
0.192904
 10
0.964876
 20
0.19292
 10
0.978759
 20
0.193833
 10
0.993736
 20
0.195607
 10
1.017169
 20
0.220463
 10
1.040199
 20
0.243643
 10
1.062868
 20
0.265343
 10
1.085217
 20
0.285759
 10
1.107289
 20
0.305088
 10
1.129124
 20
0.323527
 10
1.172253
 20
0.358516
 10
1.214938
 20
0.3923
 10
1.257513
 20
0.42645
 10
1.278864
 20
0.444154
 10
1.300311
 20
0.462538
 10
1.321898
 20
0.481799
 10
1.343666
 20
0.502134
 10
1.317536
 20
0.474095
 10
1.295755
 20
0.450167
 10
1.277848
 20
0.429635
 10
1.263337
 20
0.411787
 10
1.257206
 20
0.403646
 10
1.251746
 20
0.395908
 10
1.246897
 20
0.388483
 10
1.2426
 20
0.381283
 10
1.238795
 20
0.374218
 10
1.235422
 20
0.367198
 10
1.232422
 20
0.360136
 10
1.229736
 20
0.35294
 10
1.223776
 20
0.338897
 10
1.21879
 20
0.324267
 10
1.214832
 20
0.309383
 10
1.211955
 20
0.294578
 10
1.210213
 20
0.280186
 10
1.20966
 20
0.26654
 10
1.209846
 20
0.260101
 10
1.210349
 20
0.253973
 10
1.211176
 20
0.248198
 10
1.212333
 20
0.242818
 10
1.213828
 20
0.237875
 10
1.215666
 20
0.23341
 10
1.217855
 20
0.229464
 10
1.220402
 20
0.22608
 10
1.223312
 20
0.223299
 10
1.226593
 20
0.221163
 10
1.230252
 20
0.219713
 10
1.234294
 20
0.218991
 10
1.238728
 20
0.219039
 10
1.243559
 20
0.219898
 10
1.248793
 20
0.22161
 10
1.254439
 20
0.224217
 10
1.260502
 20
0.227761
 10
1.26699
 20
0.232282
 10
1.273908
 20
0.237824
 10
1.281264
 20
0.244426
 10
1.290199
 20
0.253955
 10
1.30065
 20
0.264482
 10
1.312544
 20
0.275893
 10
1.325812
 20
0.288076
 10
1.340381
 20
0.300918
 10
1.356179
 20
0.314306
 10
1.373136
 20
0.328126
 10
1.39118
 20
0.342265
 10
1.41024
 20
0.35661
 10
1.430244
 20
0.371048
 10
1.451121
 20
0.385467
 10
1.472799
 20
0.399752
 10
1.495207
 20
0.413791
 10
1.518274
 20
0.427471
 10
1.541927
 20
0.440679
 10
1.566097
 20
0.453301
 10
1.60983
 20
0.470364
 10
1.653219
 20
0.488109
 10
1.696271
 20
0.506488
 10
1.738992
 20
0.525455
 10
1.781387
 20
0.544961
 10
1.823463
 20
0.564959
 10
1.865225
 20
0.585401
 10
1.90668
 20
0.60624
 10
1.947834
 20
0.627428
 10
1.988692
 20
0.648918
 10
2.029261
 20
0.670662
 10
2.069546
 20
0.692612
 10
2.14929
 20
0.73694
 10
2.227972
 20
0.781523
 10
2.247549
 20
0.783135
 10
2.267545
 20
0.785336
 10
2.287899
 20
0.788087
 10
2.30855
 20
0.791352
 10
2.329439
 20
0.795091
 10
2.350503
 20
0.799268
 10
2.371684
 20
0.803844
 10
2.39292
 20
0.808782
 10
2.435316
 20
0.819588
 10
2.477207
 20
0.831385
 10
2.518109
 20
0.843869
 10
2.557536
 20
0.856735
 10
2.595006
 20
0.869681
 10
2.630033
 20
0.882404
 10
2.662133
 20
0.8946
 10
2.690822
 20
0.905965
 10
2.715615
 20
0.916196
 10
2.736028
 20
0.92499
 10
2.751577
 20
0.932042
 10
2.761778
 20
0.937051
 10
2.764684
 20
0.939753
 10
2.767032
 20
0.942448
 10
2.768837
 20
0.945136
 10
2.770118
 20
0.947816
 10
2.770892
 20
0.950487
 10
2.771177
 20
0.953149
 10
2.770988
 20
0.9558
 10
2.770346
 20
0.958441
 10
2.769265
 20
0.961069
 10
2.767764
 20
0.963686
 10
2.765861
 20
0.96629
 10
2.763572
 20
0.96888
 10
2.757907
 20
0.974016
 10
2.75091
 20
0.979089
 10
2.742718
 20
0.984093
 10
2.733472
 20
0.989023
 10
2.723309
 20
0.993873
 10
2.71237
 20
0.998638
 10
2.688718
 20
1.007887
 10
2.663627
 20
1.016728
 10
2.613579
 20
1.033002
 10
2.590847
 20
1.040346
 10
2.571127
 20
1.047102
 10
2.555531
 20
1.053224
 10
2.549627
 20
1.056034
 10
2.545171
 20
1.058668
 10
2.542303
 20
1.061122
 10
2.541507
 20
1.062279
 10
2.54116
 20
1.063389
 10
2.54128
 20
1.064451
 10
2.541883
 20
1.065465
 10
2.542988
 20
1.066429
 10
2.544611
 20
1.067343
 10
2.554417
 20
1.074844
 10
2.564662
 20
1.081891
 10
2.575081
 20
1.088221
 10
2.585413
 20
1.093572
 10
2.595395
 20
1.09768
 10
2.600172
 20
1.099187
 10
2.604763
 20
1.100284
 10
2.609136
 20
1.10094
 10
2.613256
 20
1.10112
 10
2.617092
 20
1.100793
 10
2.620611
 20
1.099926
 10
2.637976
 20
1.086654
 10
2.655453
 20
1.073865
 10
2.673031
 20
1.061582
 10
2.690705
 20
1.049829
 10
2.708464
 20
1.038628
 10
2.726302
 20
1.028004
 10
2.744209
 20
1.017978
 10
2.762178
 20
1.008573
 10
2.780201
 20
0.999814
 10
2.798269
 20
0.991722
 10
2.816374
 20
0.984321
 10
2.834509
 20
0.977635
 10
2.852664
 20
0.971685
 10
2.870831
 20
0.966495
 10
2.889003
 20
0.962089
 10
2.907172
 20
0.958489
 10
2.925328
 20
0.955718
 10
2.943464
 20
0.953799
 10
2.961572
 20
0.952756
 10
2.979644
 20
0.952611
 10
2.997671
 20
0.953387
 10
3.015645
 20
0.955109
 10
3.033558
 20
0.957797
 10
3.051402
 20
0.961477
 10
3.069168
 20
0.96617
 10
3.086849
 20
0.9719
 10
3.104437
 20
0.97869
 10
3.121922
 20
0.986562
 10
3.139297
 20
0.995541
 10
3.156554
 20
1.005648
 10
3.173685
 20
1.016908
 10
3.19068
 20
1.029343
 10
3.219187
 20
1.064172
 10
3.233833
 20
1.08214
 10
3.248392
 20
1.100493
 10
3.262602
 20
1.119243
 10
3.276201
 20
1.138402
 10
3.288927
 20
1.157982
 10
3.294881
 20
1.167933
 10
3.300519
 20
1.177994
 10
3.305807
 20
1.188166
 10
3.310714
 20
1.19845
 10
3.315206
 20
1.208849
 10
3.31925
 20
1.219364
 10
3.322814
 20
1.229995
 10
3.325866
 20
1.240745
 10
3.328372
 20
1.251615
 10
3.330299
 20
1.262606
 10
3.331616
 20
1.273721
 10
3.332289
 20
1.28496
 10
3.332285
 20
1.296325
 10
3.331572
 20
1.307818
 10
3.330117
 20
1.319439
 10
3.327887
 20
1.331191
 10
3.32485
 20
1.343075
 10
3.320972
 20
1.355093
 10
3.320747
 20
1.356996
 10
3.320895
 20
1.358572
 10
3.321393
 20
1.359841
 10
3.322215
 20
1.360827
 10
3.32334
 20
1.361549
 10
3.324742
 20
1.36203
 10
3.328284
 20
1.362355
 10
3.332652
 20
1.361974
 10
3.337654
 20
1.361059
 10
3.348802
 20
1.358318
 10
3.360204
 20
1.355514
 10
3.365523
 20
1.354519
 10
3.370335
 20
1.354026
 10
3.374449
 20
1.354208
 10
3.376184
 20
1.354605
 10
3.377673
 20
1.355236
 10
3.378893
 20
1.356122
 10
3.379819
 20
1.357284
 10
3.380427
 20
1.358744
 10
3.380694
 20
1.360523
 10
3.382349
 20
1.364515
 10
3.383016
 20
1.368968
 10
3.382849
 20
1.373807
 10
3.382004
 20
1.378953
 10
3.378897
 20
1.389858
 10
3.374932
 20
1.401065
 10
3.371348
 20
1.411954
 10
3.370086
 20
1.417086
 10
3.369384
 20
1.421906
 10
3.369395
 20
1.426337
 10
3.370276
 20
1.430302
 10
3.371091
 20
1.432086
 10
3.372181
 20
1.433723
 10
3.373565
 20
1.435206
 10
3.375264
 20
1.436523
 10
3.385162
 20
1.432842
 10
3.394773
 20
1.430447
 10
3.404111
 20
1.429274
 10
3.41319
 20
1.429261
 10
3.422024
 20
1.430344
 10
3.430627
 20
1.432459
 10
3.439013
 20
1.435544
 10
3.447196
 20
1.439536
 10
3.455192
 20
1.444371
 10
3.463013
 20
1.449985
 10
3.470673
 20
1.456316
 10
3.478188
 20
1.463301
 10
3.485571
 20
1.470876
 10
3.492836
 20
1.478978
 10
3.499997
 20
1.487543
 10
3.507069
 20
1.496509
 10
3.521001
 20
1.51539
 10
3.534745
 20
1.535114
 10
3.562119
 20
1.575066
 10
3.575976
 20
1.594284
 10
3.582997
 20
1.603481
 10
3.590097
 20
1.61232
 10
3.597292
 20
1.620738
 10
3.604595
 20
1.628671
 10
3.612021
 20
1.636056
 10
3.619583
 20
1.642829
 10
3.636375
 20
1.678907
 10
3.653022
 20
1.713077
 10
3.669592
 20
1.745417
 10
3.686156
 20
1.776007
 10
3.702783
 20
1.804926
 10
3.719543
 20
1.832252
 10
3.736505
 20
1.858065
 10
3.753739
 20
1.882443
 10
3.771314
 20
1.905467
 10
3.789301
 20
1.927214
 10
3.807768
 20
1.947764
 10
3.826785
 20
1.967195
 10
3.846422
 20
1.985587
 10
3.866748
 20
2.003019
 10
3.887833
 20
2.01957
 10
3.909746
 20
2.035318
 10
3.932558
 20
2.050344
 10
3.956337
 20
2.064725
 10
3.981153
 20
2.078541
 10
4.007076
 20
2.09187
 10
4.034176
 20
2.104793
 10
4.062521
 20
2.117387
 10
4.092182
 20
2.129732
 10
4.123228
 20
2.141907
 10
4.155728
 20
2.153991
 10
4.189753
 20
2.166062
 10
4.225371
 20
2.178201
 10
4.262653
 20
2.190485
 10
4.342485
 20
2.215808
 10
4.429805
 20
2.242662
 10
4.351286
 20
2.214228
 10
4.277362
 20
2.186754
 10
4.242085
 20
2.173229
 10
4.207912
 20
2.159766
 10
4.174828
 20
2.146307
 10
4.142817
 20
2.132791
 10
4.111865
 20
2.11916
 10
4.081957
 20
2.105354
 10
4.053077
 20
2.091314
 10
4.025211
 20
2.07698
 10
3.998343
 20
2.062294
 10
3.972458
 20
2.047196
 10
3.947542
 20
2.031627
 10
3.92358
 20
2.015527
 10
3.900555
 20
1.998837
 10
3.878455
 20
1.981499
 10
3.857262
 20
1.963452
 10
3.836963
 20
1.944637
 10
3.827144
 20
1.934924
 10
3.817542
 20
1.924996
 10
3.808156
 20
1.914847
 10
3.798985
 20
1.904468
 10
3.790025
 20
1.893854
 10
3.781275
 20
1.882995
 10
3.772734
 20
1.871886
 10
3.764399
 20
1.860518
 10
3.756269
 20
1.848884
 10
3.748341
 20
1.836976
 10
3.740614
 20
1.824788
 10
3.733086
 20
1.812311
 10
3.725756
 20
1.799539
 10
3.71862
 20
1.786463
 10
3.711677
 20
1.773078
 10
3.704926
 20
1.759374
 10
3.698365
 20
1.745345
 10
3.691991
 20
1.730983
 10
3.685803
 20
1.716282
 10
3.679799
 20
1.701232
 10
3.668334
 20
1.670062
 10
3.657583
 20
1.637412
 10
3.695211
 20
1.635479
 10
3.732431
 20
1.634234
 10
3.769233
 20
1.633651
 10
3.805606
 20
1.633703
 10
3.84154
 20
1.634363
 10
3.877025
 20
1.635604
 10
3.91205
 20
1.637399
 10
3.946604
 20
1.639722
 10
3.980678
 20
1.642546
 10
4.01426
 20
1.645843
 10
4.047341
 20
1.649588
 10
4.07991
 20
1.653753
 10
4.111956
 20
1.658311
 10
4.14347
 20
1.663236
 10
4.17444
 20
1.668501
 10
4.204856
 20
1.674079
 10
4.234708
 20
1.679943
 10
4.263985
 20
1.686066
 10
4.292677
 20
1.692422
 10
4.320773
 20
1.698983
 10
4.375138
 20
1.712615
 10
4.426995
 20
1.726748
 10
4.476262
 20
1.741167
 10
4.522853
 20
1.755658
 10
4.566688
 20
1.770006
 10
4.60768
 20
1.783996
 10
4.630865
 20
1.78963
 10
4.654093
 20
1.794679
 10
4.677344
 20
1.799159
 10
4.700597
 20
1.803089
 10
4.723833
 20
1.806487
 10
4.74703
 20
1.80937
 10
4.770169
 20
1.811757
 10
4.793229
 20
1.813664
 10
4.816189
 20
1.815111
 10
4.83903
 20
1.816115
 10
4.861731
 20
1.816694
 10
4.884271
 20
1.816865
 10
4.906631
 20
1.816647
 10
4.92879
 20
1.816058
 10
4.950727
 20
1.815115
 10
4.972422
 20
1.813836
 10
4.993855
 20
1.812239
 10
5.015005
 20
1.810342
 10
5.056376
 20
1.805721
 10
5.096372
 20
1.800113
 10
5.134831
 20
1.793664
 10
5.171588
 20
1.786514
 10
5.206482
 20
1.778809
 10
5.23935
 20
1.77069
 10
5.270028
 20
1.762301
 10
5.303038
 20
1.746279
 10
5.334919
 20
1.729871
 10
5.365685
 20
1.713101
 10
5.39535
 20
1.695992
 10
5.42393
 20
1.678569
 10
5.451438
 20
1.660857
 10
5.477889
 20
1.642879
 10
5.503298
 20
1.62466
 10
5.52768
 20
1.606225
 10
5.55105
 20
1.587596
 10
5.573421
 20
1.568799
 10
5.594809
 20
1.549858
 10
5.615228
 20
1.530796
 10
5.634693
 20
1.511639
 10
5.653218
 20
1.49241
 10
5.670819
 20
1.473134
 10
5.681684
 20
1.461416
 10
5.693213
 20
1.449726
 10
5.717078
 20
1.426322
 10
5.728823
 20
1.414553
 10
5.740048
 20
1.402703
 10
5.750458
 20
1.390743
 10
5.759757
 20
1.378647
 10
5.763897
 20
1.372539
 10
5.767649
 20
1.366386
 10
5.770974
 20
1.360186
 10
5.773838
 20
1.353934
 10
5.776201
 20
1.347627
 10
5.778028
 20
1.341262
 10
5.779282
 20
1.334835
 10
5.779925
 20
1.328343
 10
5.77992
 20
1.321783
 10
5.779231
 20
1.31515
 10
5.777821
 20
1.308442
 10
5.775652
 20
1.301655
 10
5.772687
 20
1.294786
 10
5.768891
 20
1.28783
 10
5.764225
 20
1.280786
 10
5.758653
 20
1.273648
 10
5.769779
 20
1.27751
 10
5.780115
 20
1.281626
 10
5.789696
 20
1.285996
 10
5.798557
 20
1.29062
 10
5.806735
 20
1.295499
 10
5.814266
 20
1.300631
 10
5.821184
 20
1.306019
 10
5.827526
 20
1.31166
 10
5.833327
 20
1.317557
 10
5.838624
 20
1.323707
 10
5.843452
 20
1.330112
 10
5.847846
 20
1.336771
 10
5.851843
 20
1.343685
 10
5.855478
 20
1.350854
 10
5.858787
 20
1.358276
 10
5.861805
 20
1.365954
 10
5.863335
 20
1.38723
 10
5.864535
 20
1.408473
 10
5.865394
 20
1.429685
 10
5.8659
 20
1.450866
 10
5.866041
 20
1.472014
 10
5.865805
 20
1.49313
 10
5.86518
 20
1.514215
 10
5.864154
 20
1.535268
 10
5.862716
 20
1.556289
 10
5.860854
 20
1.577279
 10
5.858555
 20
1.598237
 10
5.855807
 20
1.619163
 10
5.8526
 20
1.640057
 10
5.84892
 20
1.66092
 10
5.844757
 20
1.681751
 10
5.840097
 20
1.702551
 10
5.838342
 20
1.713443
 10
5.837258
 20
1.722993
 10
5.83677
 20
1.731343
 10
5.836804
 20
1.738634
 10
5.837285
 20
1.745007
 10
5.838141
 20
1.750602
 10
5.839296
 20
1.755562
 10
5.840677
 20
1.760027
 10
5.843818
 20
1.768036
 10
5.846972
 20
1.775758
 10
5.848368
 20
1.779864
 10
5.849545
 20
1.784322
 10
5.850428
 20
1.789273
 10
5.850944
 20
1.794857
 10
5.856166
 20
1.808363
 10
5.860515
 20
1.822357
 10
5.864038
 20
1.836757
 10
5.866783
 20
1.851478
 10
5.868798
 20
1.866437
 10
5.87013
 20
1.881551
 10
5.870826
 20
1.896737
 10
5.870936
 20
1.91191
 10
5.870505
 20
1.926989
 10
5.869582
 20
1.941889
 10
5.868215
 20
1.956527
 10
5.86645
 20
1.97082
 10
5.864336
 20
1.984684
 10
5.861921
 20
1.998036
 10
5.859251
 20
2.010792
 10
5.856375
 20
2.022871
 10
5.854628
 20
2.031127
 10
5.852414
 20
2.039522
 10
5.849741
 20
2.048053
 10
5.846617
 20
2.056716
 10
5.843051
 20
2.065507
 10
5.839051
 20
2.074425
 10
5.834626
 20
2.083464
 10
5.829783
 20
2.092623
 10
5.818883
 20
2.111282
 10
5.806416
 20
2.130376
 10
5.792451
 20
2.149877
 10
5.777056
 20
2.169759
 10
5.760298
 20
2.189995
 10
5.742245
 20
2.210558
 10
5.722966
 20
2.23142
 10
5.702527
 20
2.252555
 10
5.680996
 20
2.273936
 10
5.658441
 20
2.295536
 10
5.63493
 20
2.317327
 10
5.610531
 20
2.339284
 10
5.585311
 20
2.361378
 10
5.559338
 20
2.383584
 10
5.53268
 20
2.405873
 10
5.505404
 20
2.428219
 10
5.449271
 20
2.472975
 10
5.39148
 20
2.517636
 10
5.332574
 20
2.561986
 10
5.273095
 20
2.605808
 10
5.213584
 20
2.648888
 10
5.154583
 20
2.691009
 10
5.151863
 20
2.693194
 10
5.149488
 20
2.695604
 10
5.147435
 20
2.698203
 10
5.145682
 20
2.700957
 10
5.142981
 20
2.706784
 10
5.141198
 20
2.712799
 10
5.140148
 20
2.718718
 10
5.139646
 20
2.724254
 10
5.139541
 20
2.733037
 10
5.140232
 20
2.745531
 10
5.140145
 20
2.757657
 10
5.139329
 20
2.769422
 10
5.137833
 20
2.780834
 10
5.135707
 20
2.791901
 10
5.133
 20
2.802631
 10
5.129761
 20
2.813032
 10
5.126038
 20
2.823112
 10
5.121883
 20
2.832878
 10
5.117343
 20
2.842339
 10
5.112468
 20
2.851503
 10
5.107307
 20
2.860377
 10
5.096324
 20
2.877288
 10
5.084788
 20
2.893134
 10
5.061633
 20
2.921889
 10
5.050801
 20
2.934923
 10
5.040991
 20
2.947147
 10
5.032597
 20
2.958622
 10
5.029054
 20
2.964098
 10
5.026012
 20
2.969412
 10
5.023522
 20
2.97457
 10
5.021631
 20
2.97958
 10
5.02039
 20
2.984451
 10
5.019847
 20
2.98919
 10
5.008986
 20
3.244357
 10
5.007666
 20
3.250456
 10
5.005992
 20
3.256535
 10
5.001696
 20
3.268614
 10
4.996315
 20
3.280559
 10
4.990072
 20
3.292332
 10
4.983186
 20
3.3039
 10
4.975877
 20
3.315225
 10
4.960873
 20
3.337006
 10
4.946821
 20
3.35739
 10
4.940703
 20
3.366969
 10
4.935484
 20
3.376091
 10
4.931384
 20
3.384721
 10
4.929822
 20
3.38884
 10
4.928623
 20
3.392823
 10
4.927813
 20
3.396665
 10
4.927421
 20
3.400362
 10
4.927474
 20
3.403909
 10
4.928
 20
3.407301
 10
4.930876
 20
3.413555
 10
4.934503
 20
3.419303
 10
4.938772
 20
3.424611
 10
4.943576
 20
3.429543
 10
4.948809
 20
3.434167
 10
4.954362
 20
3.438546
 10
4.966005
 20
3.446834
 10
4.977647
 20
3.454931
 10
4.9832
 20
3.459072
 10
4.988431
 20
3.463362
 10
4.993234
 20
3.467865
 10
4.997501
 20
3.472648
 10
5.001126
 20
3.477776
 10
5.004
 20
3.483315
 10
5.007364
 20
3.489315
 10
5.010233
 20
3.496661
 10
5.012713
 20
3.505173
 10
5.014911
 20
3.514673
 10
5.018889
 20
3.535924
 10
5.023026
 20
3.558985
 10
5.025421
 20
3.570748
 10
5.028177
 20
3.582427
 10
5.031402
 20
3.593845
 10
5.035201
 20
3.604823
 10
5.039682
 20
3.615182
 10
5.044953
 20
3.624743
 10
5.047918
 20
3.629169
 10
5.051121
 20
3.633328
 10
5.054574
 20
3.637199
 10
5.058291
 20
3.640759
 10
5.072753
 20
3.654211
 10
5.08696
 20
3.668394
 10
5.100912
 20
3.683243
 10
5.11461
 20
3.698694
 10
5.128054
 20
3.714685
 10
5.141244
 20
3.731149
 10
5.154179
 20
3.748024
 10
5.166859
 20
3.765245
 10
5.179286
 20
3.782748
 10
5.191458
 20
3.800469
 10
5.215038
 20
3.83631
 10
5.237602
 20
3.872254
 10
5.259147
 20
3.907789
 10
5.299187
 20
3.975581
 10
5.31768
 20
4.006813
 10
5.335157
 20
4.035586
 10
5.351616
 20
4.061386
 10
5.359464
 20
4.073012
 10
5.367057
 20
4.083702
 10
5.374397
 20
4.093393
 10
5.381482
 20
4.10202
 10
5.388312
 20
4.10952
 10
5.394889
 20
4.115829
 10
5.402262
 20
4.129288
 10
5.410588
 20
4.142859
 10
5.419803
 20
4.156541
 10
5.429843
 20
4.170334
 10
5.440644
 20
4.184239
 10
5.452143
 20
4.198255
 10
5.464273
 20
4.212382
 10
5.476973
 20
4.226621
 10
5.503822
 20
4.255432
 10
5.532177
 20
4.284688
 10
5.591356
 20
4.344537
 10
5.621153
 20
4.37513
 10
5.650407
 20
4.406167
 10
5.664669
 20
4.421853
 10
5.678603
 20
4.43765
 10
5.692145
 20
4.453559
 10
5.70523
 20
4.469579
 10
5.717795
 20
4.48571
 10
5.729775
 20
4.501953
 10
5.741107
 20
4.518306
 10
5.751726
 20
4.534772
 10
5.761567
 20
4.551348
 10
5.770568
 20
4.568036
 10
5.778664
 20
4.584835
 10
5.785791
 20
4.601746
 10
5.802638
 20
4.615546
 10
5.819405
 20
4.629943
 10
5.836059
 20
4.644894
 10
5.852566
 20
4.660361
 10
5.868895
 20
4.676302
 10
5.885012
 20
4.692678
 10
5.900885
 20
4.709448
 10
5.916481
 20
4.726573
 10
5.931767
 20
4.744011
 10
5.94671
 20
4.761724
 10
5.961277
 20
4.779669
 10
5.975437
 20
4.797808
 10
5.989155
 20
4.8161
 10
6.0024
 20
4.834504
 10
6.015138
 20
4.852981
 10
6.027337
 20
4.87149
 10
6.038963
 20
4.889992
 10
6.049984
 20
4.908445
 10
6.060368
 20
4.92681
 10
6.070081
 20
4.945046
 10
6.079091
 20
4.963113
 10
6.087365
 20
4.980971
 10
6.09487
 20
4.99858
 10
6.101573
 20
5.0159
 10
6.107441
 20
5.032889
 10
6.112443
 20
5.049509
 10
6.116544
 20
5.065718
 10
6.119713
 20
5.081477
 10
6.121915
 20
5.096746
 10
6.12312
 20
5.111483
 10
6.123293
 20
5.125649
 10
6.122403
 20
5.139204
 10
6.132155
 20
5.146973
 10
6.142348
 20
5.1556
 10
6.152948
 20
5.165053
 10
6.163917
 20
5.175297
 10
6.17522
 20
5.186301
 10
6.186821
 20
5.198032
 10
6.210775
 20
5.223543
 10
6.235493
 20
5.251566
 10
6.260688
 20
5.28184
 10
6.286074
 20
5.314103
 10
6.311364
 20
5.348091
 10
6.323884
 20
5.36565
 10
6.336273
 20
5.383543
 10
6.348494
 20
5.401735
 10
6.360513
 20
5.420195
 10
6.372293
 20
5.43889
 10
6.383799
 20
5.457786
 10
6.394994
 20
5.476852
 10
6.405844
 20
5.496053
 10
6.416312
 20
5.515359
 10
6.426362
 20
5.534734
 10
6.435958
 20
5.554148
 10
6.445066
 20
5.573566
 10
6.453649
 20
5.592957
 10
6.46167
 20
5.612287
 10
6.469096
 20
5.631524
 10
6.475889
 20
5.650634
  0
LWPOLYLINE
  5
2C
330
1F
100
AcDbEntity
  8
0
100
AcDbPolyline
 90
       89
 70
   128
 43
0.0
 10
5.29918
 20
2.013662
 10
5.309625
 20
2.008137
 10
5.319766
 20
2.002312
 10
5.329611
 20
1.99621
 10
5.339165
 20
1.989853
 10
5.348435
 20
1.983267
 10
5.357428
 20
1.976473
 10
5.374604
 20
1.962356
 10
5.390745
 20
1.947689
 10
5.405899
 20
1.932657
 10
5.420116
 20
1.917447
 10
5.433448
 20
1.902244
 10
5.445943
 20
1.887234
 10
5.457652
 20
1.872603
 10
5.478911
 20
1.845223
 10
5.497625
 20
1.821589
 10
5.506153
 20
1.811642
 10
5.514194
 20
1.80319
 10
5.518941
 20
1.798337
 10
5.523148
 20
1.794032
 10
5.527548
 20
1.790212
 10
5.532875
 20
1.786818
 10
5.53986
 20
1.783791
 10
5.549237
 20
1.781069
 10
5.561739
 20
1.778592
 10
5.578097
 20
1.776301
 10
5.575763
 20
1.773822
 10
5.573267
 20
1.771713
 10
5.570624
 20
1.769948
 10
5.567852
 20
1.768505
 10
5.561985
 20
1.766483
 10
5.555797
 20
1.765452
 10
5.549417
 20
1.765218
 10
5.542978
 20
1.765584
 10
5.530444
 20
1.767343
 10
5.51387
 20
1.772864
 10
5.506589
 20
1.775759
 10
5.499842
 20
1.778801
 10
5.493528
 20
1.782031
 10
5.487544
 20
1.785492
 10
5.481788
 20
1.789226
 10
5.476158
 20
1.793277
 10
5.464868
 20
1.802495
 10
5.452856
 20
1.813487
 10
5.423403
 20
1.842148
 10
5.42608
 20
1.848493
 10
5.427933
 20
1.854867
 10
5.428993
 20
1.861214
 10
5.429288
 20
1.867474
 10
5.428849
 20
1.873589
 10
5.427705
 20
1.879502
 10
5.425886
 20
1.885152
 10
5.423422
 20
1.890483
 10
5.420342
 20
1.895436
 10
5.416677
 20
1.899953
 10
5.412456
 20
1.903975
 10
5.407709
 20
1.907443
 10
5.402466
 20
1.9103
 10
5.396756
 20
1.912488
 10
5.390609
 20
1.913947
 10
5.384055
 20
1.914621
 10
5.388436
 20
1.909286
 10
5.391909
 20
1.904429
 10
5.39456
 20
1.900001
 10
5.396476
 20
1.895954
 10
5.397746
 20
1.892241
 10
5.398456
 20
1.888815
 10
5.398694
 20
1.885627
 10
5.398547
 20
1.882631
 10
5.397447
 20
1.877021
 10
5.395854
 20
1.871605
 10
5.394468
 20
1.866001
 10
5.39407
 20
1.86301
 10
5.393986
 20
1.859829
 10
5.384462
 20
1.871303
 10
5.376743
 20
1.881667
 10
5.370546
 20
1.891105
 10
5.365585
 20
1.899803
 10
5.361577
 20
1.907944
 10
5.358238
 20
1.915715
 10
5.352432
 20
1.930881
 10
5.349397
 20
1.938647
 10
5.345895
 20
1.94678
 10
5.341642
 20
1.955467
 10
5.336355
 20
1.964891
 10
5.329749
 20
1.975238
 10
5.321541
 20
1.986692
 10
5.311446
 20
1.999439
 10
5.29918
 20
2.013662
  0
LWPOLYLINE
  5
2D
330
1F
100
AcDbEntity
  8
0
100
AcDbPolyline
 90
       89
 70
   128
 43
0.0
 10
5.29918
 20
2.013662
 10
5.309625
 20
2.008137
 10
5.319766
 20
2.002312
 10
5.329611
 20
1.99621
 10
5.339165
 20
1.989853
 10
5.348435
 20
1.983267
 10
5.357428
 20
1.976473
 10
5.374604
 20
1.962356
 10
5.390745
 20
1.947689
 10
5.405899
 20
1.932657
 10
5.420116
 20
1.917447
 10
5.433448
 20
1.902244
 10
5.445943
 20
1.887234
 10
5.457652
 20
1.872603
 10
5.478911
 20
1.845223
 10
5.497625
 20
1.821589
 10
5.506153
 20
1.811642
 10
5.514194
 20
1.80319
 10
5.518941
 20
1.798337
 10
5.523148
 20
1.794032
 10
5.527548
 20
1.790212
 10
5.532875
 20
1.786818
 10
5.53986
 20
1.783791
 10
5.549237
 20
1.781069
 10
5.561739
 20
1.778592
 10
5.578097
 20
1.776301
 10
5.575763
 20
1.773822
 10
5.573267
 20
1.771713
 10
5.570624
 20
1.769948
 10
5.567852
 20
1.768505
 10
5.561985
 20
1.766483
 10
5.555797
 20
1.765452
 10
5.549417
 20
1.765218
 10
5.542978
 20
1.765584
 10
5.530444
 20
1.767343
 10
5.51387
 20
1.772864
 10
5.506589
 20
1.775759
 10
5.499842
 20
1.778801
 10
5.493528
 20
1.782031
 10
5.487544
 20
1.785492
 10
5.481788
 20
1.789226
 10
5.476158
 20
1.793277
 10
5.464868
 20
1.802495
 10
5.452856
 20
1.813487
 10
5.423403
 20
1.842148
 10
5.42608
 20
1.848493
 10
5.427933
 20
1.854867
 10
5.428993
 20
1.861214
 10
5.429288
 20
1.867474
 10
5.428849
 20
1.873589
 10
5.427705
 20
1.879502
 10
5.425886
 20
1.885152
 10
5.423422
 20
1.890483
 10
5.420342
 20
1.895436
 10
5.416677
 20
1.899953
 10
5.412456
 20
1.903975
 10
5.407709
 20
1.907443
 10
5.402466
 20
1.9103
 10
5.396756
 20
1.912488
 10
5.390609
 20
1.913947
 10
5.384055
 20
1.914621
 10
5.388436
 20
1.909286
 10
5.391909
 20
1.904429
 10
5.39456
 20
1.900001
 10
5.396476
 20
1.895954
 10
5.397746
 20
1.892241
 10
5.398456
 20
1.888815
 10
5.398694
 20
1.885627
 10
5.398547
 20
1.882631
 10
5.397447
 20
1.877021
 10
5.395854
 20
1.871605
 10
5.394468
 20
1.866001
 10
5.39407
 20
1.86301
 10
5.393986
 20
1.859829
 10
5.384462
 20
1.871303
 10
5.376743
 20
1.881667
 10
5.370546
 20
1.891105
 10
5.365585
 20
1.899803
 10
5.361577
 20
1.907944
 10
5.358238
 20
1.915715
 10
5.352432
 20
1.930881
 10
5.349397
 20
1.938647
 10
5.345895
 20
1.94678
 10
5.341642
 20
1.955467
 10
5.336355
 20
1.964891
 10
5.329749
 20
1.975238
 10
5.321541
 20
1.986692
 10
5.311446
 20
1.999439
 10
5.29918
 20
2.013662
  0
LWPOLYLINE
  5
2E
330
1F
100
AcDbEntity
  8
0
100
AcDbPolyline
 90
       30
 70
   128
 43
0.0
 10
5.755389
 20
1.572093
 10
5.752825
 20
1.59222
 10
5.751757
 20
1.599284
 10
5.751127
 20
1.605145
 10
5.751156
 20
1.6104
 10
5.752066
 20
1.615647
 10
5.754079
 20
1.621485
 10
5.757416
 20
1.628509
 10
5.75067
 20
1.626029
 10
5.743654
 20
1.62449
 10
5.729764
 20
1.622897
 10
5.723367
 20
1.622172
 10
5.717655
 20
1.62105
 10
5.71513
 20
1.620236
 10
5.712865
 20
1.619196
 10
5.71089
 20
1.617889
 10
5.709236
 20
1.616273
 10
5.710934
 20
1.613314
 10
5.713324
 20
1.610611
 10
5.71629
 20
1.608115
 10
5.719719
 20
1.605776
 10
5.727507
 20
1.601376
 10
5.735776
 20
1.597016
 10
5.743612
 20
1.592302
 10
5.747082
 20
1.589689
 10
5.750101
 20
1.58684
 10
5.752556
 20
1.583705
 10
5.754331
 20
1.580235
 10
5.755314
 20
1.57638
 10
5.755389
 20
1.572093
  0
LWPOLYLINE
  5
2F
330
1F
100
AcDbEntity
  8
0
100
AcDbPolyline
 90
       30
 70
   128
 43
0.0
 10
5.755389
 20
1.572093
 10
5.752825
 20
1.59222
 10
5.751757
 20
1.599284
 10
5.751127
 20
1.605145
 10
5.751156
 20
1.6104
 10
5.752066
 20
1.615647
 10
5.754079
 20
1.621485
 10
5.757416
 20
1.628509
 10
5.75067
 20
1.626029
 10
5.743654
 20
1.62449
 10
5.729764
 20
1.622897
 10
5.723367
 20
1.622172
 10
5.717655
 20
1.62105
 10
5.71513
 20
1.620236
 10
5.712865
 20
1.619196
 10
5.71089
 20
1.617889
 10
5.709236
 20
1.616273
 10
5.710934
 20
1.613314
 10
5.713324
 20
1.610611
 10
5.71629
 20
1.608115
 10
5.719719
 20
1.605776
 10
5.727507
 20
1.601376
 10
5.735776
 20
1.597016
 10
5.743612
 20
1.592302
 10
5.747082
 20
1.589689
 10
5.750101
 20
1.58684
 10
5.752556
 20
1.583705
 10
5.754331
 20
1.580235
 10
5.755314
 20
1.57638
 10
5.755389
 20
1.572093
  0
LWPOLYLINE
  5
30
330
1F
100
AcDbEntity
  8
0
100
AcDbPolyline
 90
      303
 70
   128
 43
0.0
 10
5.111458
 20
2.699329
 10
5.093569
 20
2.699922
 10
5.079232
 20
2.699979
 10
5.067726
 20
2.699585
 10
5.058328
 20
2.698829
 10
5.042968
 20
2.696575
 10
5.027375
 20
2.693912
 10
5.03254
 20
2.684894
 10
5.034453
 20
2.680707
 10
5.035943
 20
2.676702
 10
5.037029
 20
2.672857
 10
5.037728
 20
2.669146
 10
5.038057
 20
2.665547
 10
5.038036
 20
2.662035
 10
5.037682
 20
2.658587
 10
5.037012
 20
2.655179
 10
5.034799
 20
2.648387
 10
5.031538
 20
2.641468
 10
5.027375
 20
2.634232
 10
5.023667
 20
2.637228
 10
5.019969
 20
2.639796
 10
5.016219
 20
2.641961
 10
5.012354
 20
2.643747
 10
5.008312
 20
2.64518
 10
5.00403
 20
2.646284
 10
4.999444
 20
2.647084
 10
4.994493
 20
2.647605
 10
4.983243
 20
2.64791
 10
4.969777
 20
2.647398
 10
4.934194
 20
2.644718
 10
4.949641
 20
2.635965
 10
4.961788
 20
2.628069
 10
4.966742
 20
2.624353
 10
4.971015
 20
2.620744
 10
4.974652
 20
2.617206
 10
4.977703
 20
2.613704
 10
4.980214
 20
2.610202
 10
4.982233
 20
2.606664
 10
4.983807
 20
2.603055
 10
4.984985
 20
2.599339
 10
4.985814
 20
2.59548
 10
4.986341
 20
2.591443
 10
4.98668
 20
2.58269
 10
4.97914
 20
2.588291
 10
4.971925
 20
2.593255
 10
4.965011
 20
2.597612
 10
4.958375
 20
2.60139
 10
4.951992
 20
2.604622
 10
4.94584
 20
2.607335
 10
4.939894
 20
2.609559
 10
4.93413
 20
2.611325
 10
4.928525
 20
2.612663
 10
4.923055
 20
2.613601
 10
4.917696
 20
2.614171
 10
4.912424
 20
2.614401
 10
4.902048
 20
2.613962
 10
4.891736
 20
2.612523
 10
4.900834
 20
2.605351
 10
4.908868
 20
2.598116
 10
4.915918
 20
2.59088
 10
4.922062
 20
2.583709
 10
4.927382
 20
2.576665
 10
4.931955
 20
2.56981
 10
4.935861
 20
2.56321
 10
4.93918
 20
2.556926
 10
4.921862
 20
2.564275
 10
4.914004
 20
2.567137
 10
4.906624
 20
2.569481
 10
4.89968
 20
2.571325
 10
4.893132
 20
2.572686
 10
4.886936
 20
2.573583
 10
4.881052
 20
2.574034
 10
4.875438
 20
2.574055
 10
4.870052
 20
2.573666
 10
4.864852
 20
2.572884
 10
4.859798
 20
2.571727
 10
4.854846
 20
2.570212
 10
4.849956
 20
2.568358
 10
4.840194
 20
2.563704
 10
4.848307
 20
2.560381
 10
4.855408
 20
2.556789
 10
4.86155
 20
2.552942
 10
4.866784
 20
2.548857
 10
4.871164
 20
2.544548
 10
4.87474
 20
2.540032
 10
4.877566
 20
2.535324
 10
4.879693
 20
2.53044
 10
4.881173
 20
2.525395
 10
4.882058
 20
2.520205
 10
4.882401
 20
2.514886
 10
4.882253
 20
2.509453
 10
4.881666
 20
2.503922
 10
4.880693
 20
2.498308
 10
4.877797
 20
2.486895
 10
4.873979
 20
2.475339
 10
4.869658
 20
2.463765
 10
4.865249
 20
2.452298
 10
4.861169
 20
2.441063
 10
4.857835
 20
2.430185
 10
4.856577
 20
2.424919
 10
4.855663
 20
2.419788
 10
4.855143
 20
2.41481
 10
4.85507
 20
2.409998
 10
4.855495
 20
2.40537
 10
4.856472
 20
2.40094
 10
4.851938
 20
2.40495
 10
4.847406
 20
2.40819
 10
4.842699
 20
2.410618
 10
4.83764
 20
2.412192
 10
4.832054
 20
2.412867
 10
4.825763
 20
2.412602
 10
4.818591
 20
2.411354
 10
4.810361
 20
2.409079
 10
4.815312
 20
2.404963
 10
4.819539
 20
2.400794
 10
4.823077
 20
2.396576
 10
4.825958
 20
2.392311
 10
4.828215
 20
2.388002
 10
4.829879
 20
2.383652
 10
4.830986
 20
2.379264
 10
4.831566
 20
2.374841
 10
4.831653
 20
2.370386
 10
4.831279
 20
2.365902
 10
4.830478
 20
2.361392
 10
4.829283
 20
2.356858
 10
4.825838
 20
2.347733
 10
4.821208
 20
2.338551
 10
4.817743
 20
2.342701
 10
4.813435
 20
2.34615
 10
4.808522
 20
2.348898
 10
4.803243
 20
2.350945
 10
4.797836
 20
2.352291
 10
4.79254
 20
2.352936
 10
4.787594
 20
2.352879
 10
4.783236
 20
2.352121
 10
4.791909
 20
2.34089
 10
4.798732
 20
2.330391
 10
4.803853
 20
2.320595
 10
4.807421
 20
2.311472
 10
4.809585
 20
2.302992
 10
4.810493
 20
2.295124
 10
4.810294
 20
2.287841
 10
4.809137
 20
2.28111
 10
4.80717
 20
2.274903
 10
4.804543
 20
2.269191
 10
4.801404
 20
2.263942
 10
4.797902
 20
2.259128
 10
4.790403
 20
2.250684
 10
4.783236
 20
2.243621
 10
4.781896
 20
2.246394
 10
4.780261
 20
2.248962
 10
4.776202
 20
2.253553
 10
4.771252
 20
2.257539
 10
4.765602
 20
2.261063
 10
4.752968
 20
2.26731
 10
4.739833
 20
2.273454
 10
4.742618
 20
2.266008
 10
4.744583
 20
2.258932
 10
4.745815
 20
2.252215
 10
4.746399
 20
2.245844
 10
4.746422
 20
2.239809
 10
4.745971
 20
2.234095
 10
4.745133
 20
2.228693
 10
4.743993
 20
2.223589
 10
4.741155
 20
2.21423
 10
4.73815
 20
2.205923
 10
4.735668
 20
2.198571
 10
4.73484
 20
2.195223
 10
4.734403
 20
2.192079
 10
4.731599
 20
2.190644
 10
4.728457
 20
2.189611
 10
4.725002
 20
2.18892
 10
4.721262
 20
2.188512
 10
4.713032
 20
2.188306
 10
4.703982
 20
2.188515
 10
4.694327
 20
2.18866
 10
4.684281
 20
2.188264
 10
4.679179
 20
2.187715
 10
4.674059
 20
2.18685
 10
4.668949
 20
2.185612
 10
4.663875
 20
2.18394
 10
4.669
 20
2.176235
 10
4.67338
 20
2.168402
 10
4.677035
 20
2.16047
 10
4.679982
 20
2.152468
 10
4.682238
 20
2.144427
 10
4.683822
 20
2.136376
 10
4.684751
 20
2.128345
 10
4.685043
 20
2.120364
 10
4.684716
 20
2.112462
 10
4.683789
 20
2.104669
 10
4.682278
 20
2.097015
 10
4.680201
 20
2.08953
 10
4.677577
 20
2.082243
 10
4.674423
 20
2.075184
 10
4.670757
 20
2.068384
 10
4.666597
 20
2.061871
 10
4.65867
 20
2.067443
 10
4.652152
 20
2.07086
 10
4.649252
 20
2.071878
 10
4.646502
 20
2.0725
 10
4.64118
 20
2.072742
 10
4.635645
 20
2.071965
 10
4.629355
 20
2.070546
 10
4.621769
 20
2.068866
 10
4.612347
 20
2.067301
 10
4.618905
 20
2.06196
 10
4.624874
 20
2.056622
 10
4.630268
 20
2.051288
 10
4.635101
 20
2.04596
 10
4.639387
 20
2.04064
 10
4.64314
 20
2.03533
 10
4.646373
 20
2.030033
 10
4.6491
 20
2.024749
 10
4.651336
 20
2.019481
 10
4.653094
 20
2.014231
 10
4.654387
 20
2.009001
 10
4.65523
 20
2.003793
 10
4.655636
 20
1.998609
 10
4.65562
 20
1.99345
 10
4.655195
 20
1.988319
 10
4.654375
 20
1.983218
 10
4.646001
 20
1.985931
 10
4.637291
 20
1.988463
 10
4.628193
 20
1.990594
 10
4.618654
 20
1.9921
 10
4.608621
 20
1.992759
 10
4.598041
 20
1.992351
 10
4.592529
 20
1.991676
 10
4.586861
 20
1.990651
 10
4.581029
 20
1.989249
 10
4.575028
 20
1.98744
 10
4.578119
 20
1.981877
 10
4.580578
 20
1.975451
 10
4.582469
 20
1.968251
 10
4.583859
 20
1.960366
 10
4.584812
 20
1.951887
 10
4.585394
 20
1.942901
 10
4.585706
 20
1.923768
 10
4.585321
 20
1.903683
 10
4.58476
 20
1.88336
 10
4.584548
 20
1.863513
 10
4.584736
 20
1.853991
 10
4.585208
 20
1.844857
 10
4.591
 20
1.865803
 10
4.595372
 20
1.885332
 10
4.601517
 20
1.919334
 10
4.604122
 20
1.933407
 10
4.60697
 20
1.945261
 10
4.608614
 20
1.950293
 10
4.610476
 20
1.954695
 10
4.612605
 20
1.958442
 10
4.615055
 20
1.961509
 10
4.61634
 20
1.962659
 10
4.617652
 20
1.963421
 10
4.618996
 20
1.96383
 10
4.620375
 20
1.963919
 10
4.623252
 20
1.963271
 10
4.626315
 20
1.961743
 10
4.633113
 20
1.957124
 10
4.636908
 20
1.954568
 10
4.641007
 20
1.952204
 10
4.645439
 20
1.9503
 10
4.650234
 20
1.949125
 10
4.655422
 20
1.948945
 10
4.658172
 20
1.949312
 10
4.661032
 20
1.950029
 10
4.664005
 20
1.951128
 10
4.667094
 20
1.952644
 10
4.670304
 20
1.95461
 10
4.673639
 20
1.957059
 10
4.677101
 20
1.960024
 10
4.680694
 20
1.96354
 10
4.684423
 20
1.96764
 10
4.688291
 20
1.972357
 10
4.692525
 20
1.991078
 10
4.697793
 20
2.010652
 10
4.704049
 20
2.031019
 10
4.711248
 20
2.052121
 10
4.719345
 20
2.073897
 10
4.728294
 20
2.096288
 10
4.73805
 20
2.119234
 10
4.748567
 20
2.142677
 10
4.759801
 20
2.166555
 10
4.771706
 20
2.190811
 10
4.784235
 20
2.215384
 10
4.797345
 20
2.240215
 10
4.81099
 20
2.265244
 10
4.825123
 20
2.290412
 10
4.839701
 20
2.315659
 10
4.854677
 20
2.340926
 10
4.870006
 20
2.366153
 10
4.885643
 20
2.391282
 10
4.917658
 20
2.441002
 10
4.95036
 20
2.489612
 10
4.983385
 20
2.536634
 10
5.016371
 20
2.581593
 10
5.032735
 20
2.60315
 10
5.048953
 20
2.624013
 10
5.06498
 20
2.644121
 10
5.08077
 20
2.663417
 10
5.096278
 20
2.681839
 10
5.111458
 20
2.699329
  0
LWPOLYLINE
  5
31
330
1F
100
AcDbEntity
  8
0
100
AcDbPolyline
 90
      303
 70
   128
 43
0.0
 10
5.111458
 20
2.699329
 10
5.093569
 20
2.699922
 10
5.079232
 20
2.699979
 10
5.067726
 20
2.699585
 10
5.058328
 20
2.698829
 10
5.042968
 20
2.696575
 10
5.027375
 20
2.693912
 10
5.03254
 20
2.684894
 10
5.034453
 20
2.680707
 10
5.035943
 20
2.676702
 10
5.037029
 20
2.672857
 10
5.037728
 20
2.669146
 10
5.038057
 20
2.665547
 10
5.038036
 20
2.662035
 10
5.037682
 20
2.658587
 10
5.037012
 20
2.655179
 10
5.034799
 20
2.648387
 10
5.031538
 20
2.641468
 10
5.027375
 20
2.634232
 10
5.023667
 20
2.637228
 10
5.019969
 20
2.639796
 10
5.016219
 20
2.641961
 10
5.012354
 20
2.643747
 10
5.008312
 20
2.64518
 10
5.00403
 20
2.646284
 10
4.999444
 20
2.647084
 10
4.994493
 20
2.647605
 10
4.983243
 20
2.64791
 10
4.969777
 20
2.647398
 10
4.934194
 20
2.644718
 10
4.949641
 20
2.635965
 10
4.961788
 20
2.628069
 10
4.966742
 20
2.624353
 10
4.971015
 20
2.620744
 10
4.974652
 20
2.617206
 10
4.977703
 20
2.613704
 10
4.980214
 20
2.610202
 10
4.982233
 20
2.606664
 10
4.983807
 20
2.603055
 10
4.984985
 20
2.599339
 10
4.985814
 20
2.59548
 10
4.986341
 20
2.591443
 10
4.98668
 20
2.58269
 10
4.97914
 20
2.588291
 10
4.971925
 20
2.593255
 10
4.965011
 20
2.597612
 10
4.958375
 20
2.60139
 10
4.951992
 20
2.604622
 10
4.94584
 20
2.607335
 10
4.939894
 20
2.609559
 10
4.93413
 20
2.611325
 10
4.928525
 20
2.612663
 10
4.923055
 20
2.613601
 10
4.917696
 20
2.614171
 10
4.912424
 20
2.614401
 10
4.902048
 20
2.613962
 10
4.891736
 20
2.612523
 10
4.900834
 20
2.605351
 10
4.908868
 20
2.598116
 10
4.915918
 20
2.59088
 10
4.922062
 20
2.583709
 10
4.927382
 20
2.576665
 10
4.931955
 20
2.56981
 10
4.935861
 20
2.56321
 10
4.93918
 20
2.556926
 10
4.921862
 20
2.564275
 10
4.914004
 20
2.567137
 10
4.906624
 20
2.569481
 10
4.89968
 20
2.571325
 10
4.893132
 20
2.572686
 10
4.886936
 20
2.573583
 10
4.881052
 20
2.574034
 10
4.875438
 20
2.574055
 10
4.870052
 20
2.573666
 10
4.864852
 20
2.572884
 10
4.859798
 20
2.571727
 10
4.854846
 20
2.570212
 10
4.849956
 20
2.568358
 10
4.840194
 20
2.563704
 10
4.848307
 20
2.560381
 10
4.855408
 20
2.556789
 10
4.86155
 20
2.552942
 10
4.866784
 20
2.548857
 10
4.871164
 20
2.544548
 10
4.87474
 20
2.540032
 10
4.877566
 20
2.535324
 10
4.879693
 20
2.53044
 10
4.881173
 20
2.525395
 10
4.882058
 20
2.520205
 10
4.882401
 20
2.514886
 10
4.882253
 20
2.509453
 10
4.881666
 20
2.503922
 10
4.880693
 20
2.498308
 10
4.877797
 20
2.486895
 10
4.873979
 20
2.475339
 10
4.869658
 20
2.463765
 10
4.865249
 20
2.452298
 10
4.861169
 20
2.441063
 10
4.857835
 20
2.430185
 10
4.856577
 20
2.424919
 10
4.855663
 20
2.419788
 10
4.855143
 20
2.41481
 10
4.85507
 20
2.409998
 10
4.855495
 20
2.40537
 10
4.856472
 20
2.40094
 10
4.851938
 20
2.40495
 10
4.847406
 20
2.40819
 10
4.842699
 20
2.410618
 10
4.83764
 20
2.412192
 10
4.832054
 20
2.412867
 10
4.825763
 20
2.412602
 10
4.818591
 20
2.411354
 10
4.810361
 20
2.409079
 10
4.815312
 20
2.404963
 10
4.819539
 20
2.400794
 10
4.823077
 20
2.396576
 10
4.825958
 20
2.392311
 10
4.828215
 20
2.388002
 10
4.829879
 20
2.383652
 10
4.830986
 20
2.379264
 10
4.831566
 20
2.374841
 10
4.831653
 20
2.370386
 10
4.831279
 20
2.365902
 10
4.830478
 20
2.361392
 10
4.829283
 20
2.356858
 10
4.825838
 20
2.347733
 10
4.821208
 20
2.338551
 10
4.817743
 20
2.342701
 10
4.813435
 20
2.34615
 10
4.808522
 20
2.348898
 10
4.803243
 20
2.350945
 10
4.797836
 20
2.352291
 10
4.79254
 20
2.352936
 10
4.787594
 20
2.352879
 10
4.783236
 20
2.352121
 10
4.791909
 20
2.34089
 10
4.798732
 20
2.330391
 10
4.803853
 20
2.320595
 10
4.807421
 20
2.311472
 10
4.809585
 20
2.302992
 10
4.810493
 20
2.295124
 10
4.810294
 20
2.287841
 10
4.809137
 20
2.28111
 10
4.80717
 20
2.274903
 10
4.804543
 20
2.269191
 10
4.801404
 20
2.263942
 10
4.797902
 20
2.259128
 10
4.790403
 20
2.250684
 10
4.783236
 20
2.243621
 10
4.781896
 20
2.246394
 10
4.780261
 20
2.248962
 10
4.776202
 20
2.253553
 10
4.771252
 20
2.257539
 10
4.765602
 20
2.261063
 10
4.752968
 20
2.26731
 10
4.739833
 20
2.273454
 10
4.742618
 20
2.266008
 10
4.744583
 20
2.258932
 10
4.745815
 20
2.252215
 10
4.746399
 20
2.245844
 10
4.746422
 20
2.239809
 10
4.745971
 20
2.234095
 10
4.745133
 20
2.228693
 10
4.743993
 20
2.223589
 10
4.741155
 20
2.21423
 10
4.73815
 20
2.205923
 10
4.735668
 20
2.198571
 10
4.73484
 20
2.195223
 10
4.734403
 20
2.192079
 10
4.731599
 20
2.190644
 10
4.728457
 20
2.189611
 10
4.725002
 20
2.18892
 10
4.721262
 20
2.188512
 10
4.713032
 20
2.188306
 10
4.703982
 20
2.188515
 10
4.694327
 20
2.18866
 10
4.684281
 20
2.188264
 10
4.679179
 20
2.187715
 10
4.674059
 20
2.18685
 10
4.668949
 20
2.185612
 10
4.663875
 20
2.18394
 10
4.669
 20
2.176235
 10
4.67338
 20
2.168402
 10
4.677035
 20
2.16047
 10
4.679982
 20
2.152468
 10
4.682238
 20
2.144427
 10
4.683822
 20
2.136376
 10
4.684751
 20
2.128345
 10
4.685043
 20
2.120364
 10
4.684716
 20
2.112462
 10
4.683789
 20
2.104669
 10
4.682278
 20
2.097015
 10
4.680201
 20
2.08953
 10
4.677577
 20
2.082243
 10
4.674423
 20
2.075184
 10
4.670757
 20
2.068384
 10
4.666597
 20
2.061871
 10
4.65867
 20
2.067443
 10
4.652152
 20
2.07086
 10
4.649252
 20
2.071878
 10
4.646502
 20
2.0725
 10
4.64118
 20
2.072742
 10
4.635645
 20
2.071965
 10
4.629355
 20
2.070546
 10
4.621769
 20
2.068866
 10
4.612347
 20
2.067301
 10
4.618905
 20
2.06196
 10
4.624874
 20
2.056622
 10
4.630268
 20
2.051288
 10
4.635101
 20
2.04596
 10
4.639387
 20
2.04064
 10
4.64314
 20
2.03533
 10
4.646373
 20
2.030033
 10
4.6491
 20
2.024749
 10
4.651336
 20
2.019481
 10
4.653094
 20
2.014231
 10
4.654387
 20
2.009001
 10
4.65523
 20
2.003793
 10
4.655636
 20
1.998609
 10
4.65562
 20
1.99345
 10
4.655195
 20
1.988319
 10
4.654375
 20
1.983218
 10
4.646001
 20
1.985931
 10
4.637291
 20
1.988463
 10
4.628193
 20
1.990594
 10
4.618654
 20
1.9921
 10
4.608621
 20
1.992759
 10
4.598041
 20
1.992351
 10
4.592529
 20
1.991676
 10
4.586861
 20
1.990651
 10
4.581029
 20
1.989249
 10
4.575028
 20
1.98744
 10
4.578119
 20
1.981877
 10
4.580578
 20
1.975451
 10
4.582469
 20
1.968251
 10
4.583859
 20
1.960366
 10
4.584812
 20
1.951887
 10
4.585394
 20
1.942901
 10
4.585706
 20
1.923768
 10
4.585321
 20
1.903683
 10
4.58476
 20
1.88336
 10
4.584548
 20
1.863513
 10
4.584736
 20
1.853991
 10
4.585208
 20
1.844857
 10
4.591
 20
1.865803
 10
4.595372
 20
1.885332
 10
4.601517
 20
1.919334
 10
4.604122
 20
1.933407
 10
4.60697
 20
1.945261
 10
4.608614
 20
1.950293
 10
4.610476
 20
1.954695
 10
4.612605
 20
1.958442
 10
4.615055
 20
1.961509
 10
4.61634
 20
1.962659
 10
4.617652
 20
1.963421
 10
4.618996
 20
1.96383
 10
4.620375
 20
1.963919
 10
4.623252
 20
1.963271
 10
4.626315
 20
1.961743
 10
4.633113
 20
1.957124
 10
4.636908
 20
1.954568
 10
4.641007
 20
1.952204
 10
4.645439
 20
1.9503
 10
4.650234
 20
1.949125
 10
4.655422
 20
1.948945
 10
4.658172
 20
1.949312
 10
4.661032
 20
1.950029
 10
4.664005
 20
1.951128
 10
4.667094
 20
1.952644
 10
4.670304
 20
1.95461
 10
4.673639
 20
1.957059
 10
4.677101
 20
1.960024
 10
4.680694
 20
1.96354
 10
4.684423
 20
1.96764
 10
4.688291
 20
1.972357
 10
4.692525
 20
1.991078
 10
4.697793
 20
2.010652
 10
4.704049
 20
2.031019
 10
4.711248
 20
2.052121
 10
4.719345
 20
2.073897
 10
4.728294
 20
2.096288
 10
4.73805
 20
2.119234
 10
4.748567
 20
2.142677
 10
4.759801
 20
2.166555
 10
4.771706
 20
2.190811
 10
4.784235
 20
2.215384
 10
4.797345
 20
2.240215
 10
4.81099
 20
2.265244
 10
4.825123
 20
2.290412
 10
4.839701
 20
2.315659
 10
4.854677
 20
2.340926
 10
4.870006
 20
2.366153
 10
4.885643
 20
2.391282
 10
4.917658
 20
2.441002
 10
4.95036
 20
2.489612
 10
4.983385
 20
2.536634
 10
5.016371
 20
2.581593
 10
5.032735
 20
2.60315
 10
5.048953
 20
2.624013
 10
5.06498
 20
2.644121
 10
5.08077
 20
2.663417
 10
5.096278
 20
2.681839
 10
5.111458
 20
2.699329
  0
LWPOLYLINE
  5
32
330
1F
100
AcDbEntity
  8
0
100
AcDbPolyline
 90
       65
 70
   128
 43
0.0
 10
3.296736
 20
1.334898
 10
3.294301
 20
1.322177
 10
3.291148
 20
1.309426
 10
3.287322
 20
1.296672
 10
3.282871
 20
1.28394
 10
3.277841
 20
1.271257
 10
3.272279
 20
1.258648
 10
3.26623
 20
1.246139
 10
3.259743
 20
1.233756
 10
3.252862
 20
1.221526
 10
3.245636
 20
1.209474
 10
3.238109
 20
1.197626
 10
3.23033
 20
1.186008
 10
3.214198
 20
1.163567
 10
3.197613
 20
1.142357
 10
3.180946
 20
1.122586
 10
3.164571
 20
1.104463
 10
3.148859
 20
1.088194
 10
3.134183
 20
1.073988
 10
3.120916
 20
1.062052
 10
3.10943
 20
1.052593
 10
3.100098
 20
1.04582
 10
3.096356
 20
1.043506
 10
3.093291
 20
1.04194
 10
3.087656
 20
1.040086
 10
3.081694
 20
1.039214
 10
3.075552
 20
1.039259
 10
3.069381
 20
1.040155
 10
3.063329
 20
1.041837
 10
3.057545
 20
1.04424
 10
3.052177
 20
1.047297
 10
3.047375
 20
1.050943
 10
3.043287
 20
1.055114
 10
3.040061
 20
1.059742
 10
3.037848
 20
1.064763
 10
3.037167
 20
1.067401
 10
3.036795
 20
1.070112
 10
3.036751
 20
1.072888
 10
3.037052
 20
1.075722
 10
3.037718
 20
1.078605
 10
3.038767
 20
1.081528
 10
3.040218
 20
1.084485
 10
3.042089
 20
1.087465
 10
3.044399
 20
1.090463
 10
3.047166
 20
1.093468
 10
3.061545
 20
1.101237
 10
3.076475
 20
1.109648
 10
3.091873
 20
1.118774
 10
3.107656
 20
1.128685
 10
3.12374
 20
1.139454
 10
3.140042
 20
1.151151
 10
3.156478
 20
1.163847
 10
3.172967
 20
1.177615
 10
3.189423
 20
1.192526
 10
3.205765
 20
1.208651
 10
3.221908
 20
1.226062
 10
3.23777
 20
1.244829
 10
3.245569
 20
1.254744
 10
3.253267
 20
1.265025
 10
3.260852
 20
1.275681
 10
3.268316
 20
1.286721
 10
3.275646
 20
1.298154
 10
3.282833
 20
1.309988
 10
3.289867
 20
1.322233
 10
3.296736
 20
1.334898
  0
LWPOLYLINE
  5
33
330
1F
100
AcDbEntity
  8
0
100
AcDbPolyline
 90
       65
 70
   128
 43
0.0
 10
3.296736
 20
1.334898
 10
3.294301
 20
1.322177
 10
3.291148
 20
1.309426
 10
3.287322
 20
1.296672
 10
3.282871
 20
1.28394
 10
3.277841
 20
1.271257
 10
3.272279
 20
1.258648
 10
3.26623
 20
1.246139
 10
3.259743
 20
1.233756
 10
3.252862
 20
1.221526
 10
3.245636
 20
1.209474
 10
3.238109
 20
1.197626
 10
3.23033
 20
1.186008
 10
3.214198
 20
1.163567
 10
3.197613
 20
1.142357
 10
3.180946
 20
1.122586
 10
3.164571
 20
1.104463
 10
3.148859
 20
1.088194
 10
3.134183
 20
1.073988
 10
3.120916
 20
1.062052
 10
3.10943
 20
1.052593
 10
3.100098
 20
1.04582
 10
3.096356
 20
1.043506
 10
3.093291
 20
1.04194
 10
3.087656
 20
1.040086
 10
3.081694
 20
1.039214
 10
3.075552
 20
1.039259
 10
3.069381
 20
1.040155
 10
3.063329
 20
1.041837
 10
3.057545
 20
1.04424
 10
3.052177
 20
1.047297
 10
3.047375
 20
1.050943
 10
3.043287
 20
1.055114
 10
3.040061
 20
1.059742
 10
3.037848
 20
1.064763
 10
3.037167
 20
1.067401
 10
3.036795
 20
1.070112
 10
3.036751
 20
1.072888
 10
3.037052
 20
1.075722
 10
3.037718
 20
1.078605
 10
3.038767
 20
1.081528
 10
3.040218
 20
1.084485
 10
3.042089
 20
1.087465
 10
3.044399
 20
1.090463
 10
3.047166
 20
1.093468
 10
3.061545
 20
1.101237
 10
3.076475
 20
1.109648
 10
3.091873
 20
1.118774
 10
3.107656
 20
1.128685
 10
3.12374
 20
1.139454
 10
3.140042
 20
1.151151
 10
3.156478
 20
1.163847
 10
3.172967
 20
1.177615
 10
3.189423
 20
1.192526
 10
3.205765
 20
1.208651
 10
3.221908
 20
1.226062
 10
3.23777
 20
1.244829
 10
3.245569
 20
1.254744
 10
3.253267
 20
1.265025
 10
3.260852
 20
1.275681
 10
3.268316
 20
1.286721
 10
3.275646
 20
1.298154
 10
3.282833
 20
1.309988
 10
3.289867
 20
1.322233
 10
3.296736
 20
1.334898
  0
LWPOLYLINE
  5
34
330
1F
100
AcDbEntity
  8
0
100
AcDbPolyline
 90
       56
 70
   128
 43
0.0
 10
3.209625
 20
1.413454
 10
3.196995
 20
1.390234
 10
3.183266
 20
1.367392
 10
3.168545
 20
1.344986
 10
3.15294
 20
1.323076
 10
3.136556
 20
1.301721
 10
3.119502
 20
1.280981
 10
3.101884
 20
1.260916
 10
3.083811
 20
1.241584
 10
3.065388
 20
1.223046
 10
3.046723
 20
1.205361
 10
3.027923
 20
1.188588
 10
3.009095
 20
1.172788
 10
2.990348
 20
1.158019
 10
2.971786
 20
1.144341
 10
2.953519
 20
1.131813
 10
2.935653
 20
1.120496
 10
2.927004
 20
1.117654
 10
2.918424
 20
1.116004
 10
2.910041
 20
1.115468
 10
2.901987
 20
1.11597
 10
2.894393
 20
1.117432
 10
2.887391
 20
1.119777
 10
2.88111
 20
1.122927
 10
2.875682
 20
1.126805
 10
2.871238
 20
1.131333
 10
2.869426
 20
1.133817
 10
2.867909
 20
1.136435
 10
2.866704
 20
1.139177
 10
2.865826
 20
1.142033
 10
2.865292
 20
1.144994
 10
2.865119
 20
1.14805
 10
2.865323
 20
1.151192
 10
2.865921
 20
1.154409
 10
2.866928
 20
1.157692
 10
2.868361
 20
1.161031
 10
2.870236
 20
1.164417
 10
2.87257
 20
1.167841
 10
2.875379
 20
1.171291
 10
2.87868
 20
1.174759
 10
2.897684
 20
1.183934
 10
2.917328
 20
1.193818
 10
2.937524
 20
1.204425
 10
2.958181
 20
1.215766
 10
2.979212
 20
1.227854
 10
3.000526
 20
1.240699
 10
3.022034
 20
1.254314
 10
3.043647
 20
1.268711
 10
3.065276
 20
1.283901
 10
3.086832
 20
1.299897
 10
3.108225
 20
1.316711
 10
3.129366
 20
1.334353
 10
3.150166
 20
1.352837
 10
3.170535
 20
1.372174
 10
3.190384
 20
1.392375
 10
3.209625
 20
1.413454
  0
LWPOLYLINE
  5
35
330
1F
100
AcDbEntity
  8
0
100
AcDbPolyline
 90
       56
 70
   128
 43
0.0
 10
3.209625
 20
1.413454
 10
3.196995
 20
1.390234
 10
3.183266
 20
1.367392
 10
3.168545
 20
1.344986
 10
3.15294
 20
1.323076
 10
3.136556
 20
1.301721
 10
3.119502
 20
1.280981
 10
3.101884
 20
1.260916
 10
3.083811
 20
1.241584
 10
3.065388
 20
1.223046
 10
3.046723
 20
1.205361
 10
3.027923
 20
1.188588
 10
3.009095
 20
1.172788
 10
2.990348
 20
1.158019
 10
2.971786
 20
1.144341
 10
2.953519
 20
1.131813
 10
2.935653
 20
1.120496
 10
2.927004
 20
1.117654
 10
2.918424
 20
1.116004
 10
2.910041
 20
1.115468
 10
2.901987
 20
1.11597
 10
2.894393
 20
1.117432
 10
2.887391
 20
1.119777
 10
2.88111
 20
1.122927
 10
2.875682
 20
1.126805
 10
2.871238
 20
1.131333
 10
2.869426
 20
1.133817
 10
2.867909
 20
1.136435
 10
2.866704
 20
1.139177
 10
2.865826
 20
1.142033
 10
2.865292
 20
1.144994
 10
2.865119
 20
1.14805
 10
2.865323
 20
1.151192
 10
2.865921
 20
1.154409
 10
2.866928
 20
1.157692
 10
2.868361
 20
1.161031
 10
2.870236
 20
1.164417
 10
2.87257
 20
1.167841
 10
2.875379
 20
1.171291
 10
2.87868
 20
1.174759
 10
2.897684
 20
1.183934
 10
2.917328
 20
1.193818
 10
2.937524
 20
1.204425
 10
2.958181
 20
1.215766
 10
2.979212
 20
1.227854
 10
3.000526
 20
1.240699
 10
3.022034
 20
1.254314
 10
3.043647
 20
1.268711
 10
3.065276
 20
1.283901
 10
3.086832
 20
1.299897
 10
3.108225
 20
1.316711
 10
3.129366
 20
1.334353
 10
3.150166
 20
1.352837
 10
3.170535
 20
1.372174
 10
3.190384
 20
1.392375
 10
3.209625
 20
1.413454
  0
LWPOLYLINE
  5
36
330
1F
100
AcDbEntity
  8
0
100
AcDbPolyline
 90
       57
 70
   128
 43
0.0
 10
3.066153
 20
1.446107
 10
3.053113
 20
1.427315
 10
3.039165
 20
1.408767
 10
3.024414
 20
1.390516
 10
3.00897
 20
1.372616
 10
2.992938
 20
1.35512
 10
2.976426
 20
1.338083
 10
2.95954
 20
1.321557
 10
2.942389
 20
1.305596
 10
2.925078
 20
1.290254
 10
2.907716
 20
1.275585
 10
2.89041
 20
1.261642
 10
2.873266
 20
1.248478
 10
2.856392
 20
1.236147
 10
2.839894
 20
1.224703
 10
2.823881
 20
1.2142
 10
2.808458
 20
1.20469
 10
2.804455
 20
1.203294
 10
2.800417
 20
1.202225
 10
2.792327
 20
1.201006
 10
2.784359
 20
1.200914
 10
2.776687
 20
1.201829
 10
2.769483
 20
1.203633
 10
2.762919
 20
1.206207
 10
2.757169
 20
1.209432
 10
2.752404
 20
1.213188
 10
2.748798
 20
1.217357
 10
2.747483
 20
1.219559
 10
2.746523
 20
1.22182
 10
2.745938
 20
1.224124
 10
2.745751
 20
1.226457
 10
2.745983
 20
1.228803
 10
2.746655
 20
1.231149
 10
2.74779
 20
1.233479
 10
2.749408
 20
1.235778
 10
2.751532
 20
1.238031
 10
2.754183
 20
1.240224
 10
2.757382
 20
1.242342
 10
2.761151
 20
1.244369
 10
2.765512
 20
1.246291
 10
2.770486
 20
1.248093
 10
2.789025
 20
1.256928
 10
2.807667
 20
1.266291
 10
2.826389
 20
1.27617
 10
2.845166
 20
1.286552
 10
2.863976
 20
1.297426
 10
2.882793
 20
1.30878
 10
2.901594
 20
1.320602
 10
2.920356
 20
1.332881
 10
2.939054
 20
1.345604
 10
2.957664
 20
1.358759
 10
2.976163
 20
1.372335
 10
2.994527
 20
1.386319
 10
3.012732
 20
1.400701
 10
3.030753
 20
1.415467
 10
3.048568
 20
1.430606
 10
3.066153
 20
1.446107
  0
LWPOLYLINE
  5
37
330
1F
100
AcDbEntity
  8
0
100
AcDbPolyline
 90
       57
 70
   128
 43
0.0
 10
3.066153
 20
1.446107
 10
3.053113
 20
1.427315
 10
3.039165
 20
1.408767
 10
3.024414
 20
1.390516
 10
3.00897
 20
1.372616
 10
2.992938
 20
1.35512
 10
2.976426
 20
1.338083
 10
2.95954
 20
1.321557
 10
2.942389
 20
1.305596
 10
2.925078
 20
1.290254
 10
2.907716
 20
1.275585
 10
2.89041
 20
1.261642
 10
2.873266
 20
1.248478
 10
2.856392
 20
1.236147
 10
2.839894
 20
1.224703
 10
2.823881
 20
1.2142
 10
2.808458
 20
1.20469
 10
2.804455
 20
1.203294
 10
2.800417
 20
1.202225
 10
2.792327
 20
1.201006
 10
2.784359
 20
1.200914
 10
2.776687
 20
1.201829
 10
2.769483
 20
1.203633
 10
2.762919
 20
1.206207
 10
2.757169
 20
1.209432
 10
2.752404
 20
1.213188
 10
2.748798
 20
1.217357
 10
2.747483
 20
1.219559
 10
2.746523
 20
1.22182
 10
2.745938
 20
1.224124
 10
2.745751
 20
1.226457
 10
2.745983
 20
1.228803
 10
2.746655
 20
1.231149
 10
2.74779
 20
1.233479
 10
2.749408
 20
1.235778
 10
2.751532
 20
1.238031
 10
2.754183
 20
1.240224
 10
2.757382
 20
1.242342
 10
2.761151
 20
1.244369
 10
2.765512
 20
1.246291
 10
2.770486
 20
1.248093
 10
2.789025
 20
1.256928
 10
2.807667
 20
1.266291
 10
2.826389
 20
1.27617
 10
2.845166
 20
1.286552
 10
2.863976
 20
1.297426
 10
2.882793
 20
1.30878
 10
2.901594
 20
1.320602
 10
2.920356
 20
1.332881
 10
2.939054
 20
1.345604
 10
2.957664
 20
1.358759
 10
2.976163
 20
1.372335
 10
2.994527
 20
1.386319
 10
3.012732
 20
1.400701
 10
3.030753
 20
1.415467
 10
3.048568
 20
1.430606
 10
3.066153
 20
1.446107
  0
LWPOLYLINE
  5
38
330
1F
100
AcDbEntity
  8
0
100
AcDbPolyline
 90
       52
 70
   128
 43
0.0
 10
2.938666
 20
1.44069
 10
2.926469
 20
1.424222
 10
2.913201
 20
1.408217
 10
2.899001
 20
1.392692
 10
2.884005
 20
1.377664
 10
2.86835
 20
1.363152
 10
2.852173
 20
1.349174
 10
2.83561
 20
1.335747
 10
2.8188
 20
1.32289
 10
2.801879
 20
1.310619
 10
2.784983
 20
1.298953
 10
2.76825
 20
1.287911
 10
2.751817
 20
1.277508
 10
2.720397
 20
1.258697
 10
2.691819
 20
1.242662
 10
2.687929
 20
1.2417
 10
2.683186
 20
1.24117
 10
2.677816
 20
1.241061
 10
2.672044
 20
1.241361
 10
2.666098
 20
1.242057
 10
2.660204
 20
1.243139
 10
2.654587
 20
1.244593
 10
2.649474
 20
1.246409
 10
2.645091
 20
1.248574
 10
2.641664
 20
1.251076
 10
2.640379
 20
1.25245
 10
2.639419
 20
1.253904
 10
2.638811
 20
1.255436
 10
2.638583
 20
1.257045
 10
2.638764
 20
1.25873
 10
2.639381
 20
1.260488
 10
2.640464
 20
1.262319
 10
2.642041
 20
1.264221
 10
2.644139
 20
1.266193
 10
2.646787
 20
1.268232
 10
2.653847
 20
1.272509
 10
2.671218
 20
1.279956
 10
2.688729
 20
1.287867
 10
2.706363
 20
1.29623
 10
2.724102
 20
1.305034
 10
2.741928
 20
1.314265
 10
2.759824
 20
1.323914
 10
2.777771
 20
1.333967
 10
2.795752
 20
1.344412
 10
2.813748
 20
1.355239
 10
2.831742
 20
1.366434
 10
2.849717
 20
1.377987
 10
2.867654
 20
1.389884
 10
2.885535
 20
1.402116
 10
2.903343
 20
1.414668
 10
2.921059
 20
1.42753
 10
2.938666
 20
1.44069
  0
LWPOLYLINE
  5
39
330
1F
100
AcDbEntity
  8
0
100
AcDbPolyline
 90
       52
 70
   128
 43
0.0
 10
2.938666
 20
1.44069
 10
2.926469
 20
1.424222
 10
2.913201
 20
1.408217
 10
2.899001
 20
1.392692
 10
2.884005
 20
1.377664
 10
2.86835
 20
1.363152
 10
2.852173
 20
1.349174
 10
2.83561
 20
1.335747
 10
2.8188
 20
1.32289
 10
2.801879
 20
1.310619
 10
2.784983
 20
1.298953
 10
2.76825
 20
1.287911
 10
2.751817
 20
1.277508
 10
2.720397
 20
1.258697
 10
2.691819
 20
1.242662
 10
2.687929
 20
1.2417
 10
2.683186
 20
1.24117
 10
2.677816
 20
1.241061
 10
2.672044
 20
1.241361
 10
2.666098
 20
1.242057
 10
2.660204
 20
1.243139
 10
2.654587
 20
1.244593
 10
2.649474
 20
1.246409
 10
2.645091
 20
1.248574
 10
2.641664
 20
1.251076
 10
2.640379
 20
1.25245
 10
2.639419
 20
1.253904
 10
2.638811
 20
1.255436
 10
2.638583
 20
1.257045
 10
2.638764
 20
1.25873
 10
2.639381
 20
1.260488
 10
2.640464
 20
1.262319
 10
2.642041
 20
1.264221
 10
2.644139
 20
1.266193
 10
2.646787
 20
1.268232
 10
2.653847
 20
1.272509
 10
2.671218
 20
1.279956
 10
2.688729
 20
1.287867
 10
2.706363
 20
1.29623
 10
2.724102
 20
1.305034
 10
2.741928
 20
1.314265
 10
2.759824
 20
1.323914
 10
2.777771
 20
1.333967
 10
2.795752
 20
1.344412
 10
2.813748
 20
1.355239
 10
2.831742
 20
1.366434
 10
2.849717
 20
1.377987
 10
2.867654
 20
1.389884
 10
2.885535
 20
1.402116
 10
2.903343
 20
1.414668
 10
2.921059
 20
1.42753
 10
2.938666
 20
1.44069
  0
LWPOLYLINE
  5
3A
330
1F
100
AcDbEntity
  8
0
100
AcDbPolyline
 90
       59
 70
   128
 43
0.0
 10
2.832875
 20
1.481371
 10
2.823057
 20
1.470249
 10
2.812329
 20
1.459437
 10
2.800801
 20
1.448958
 10
2.788577
 20
1.438836
 10
2.775767
 20
1.429094
 10
2.762476
 20
1.419757
 10
2.748812
 20
1.410849
 10
2.734882
 20
1.402393
 10
2.720793
 20
1.394413
 10
2.706652
 20
1.386933
 10
2.692567
 20
1.379977
 10
2.678644
 20
1.373568
 10
2.664991
 20
1.36773
 10
2.651715
 20
1.362488
 10
2.638923
 20
1.357865
 10
2.626722
 20
1.353884
 10
2.621439
 20
1.353966
 10
2.616348
 20
1.354359
 10
2.606788
 20
1.356
 10
2.598125
 20
1.358641
 10
2.590441
 20
1.362115
 10
2.583821
 20
1.366255
 10
2.578348
 20
1.370896
 10
2.574105
 20
1.375869
 10
2.572471
 20
1.378429
 10
2.571175
 20
1.381009
 10
2.570229
 20
1.38359
 10
2.569642
 20
1.38615
 10
2.569425
 20
1.388668
 10
2.569589
 20
1.391123
 10
2.570143
 20
1.393495
 10
2.571099
 20
1.395764
 10
2.572466
 20
1.397907
 10
2.574255
 20
1.399904
 10
2.576477
 20
1.401735
 10
2.579142
 20
1.403378
 10
2.58226
 20
1.404813
 10
2.585841
 20
1.406019
 10
2.589897
 20
1.406975
 10
2.594438
 20
1.40766
 10
2.599473
 20
1.408053
 10
2.605014
 20
1.408134
 10
2.615491
 20
1.408308
 10
2.626998
 20
1.40929
 10
2.639421
 20
1.411035
 10
2.652648
 20
1.413494
 10
2.666566
 20
1.416619
 10
2.681061
 20
1.420363
 10
2.69602
 20
1.424679
 10
2.71133
 20
1.429518
 10
2.726878
 20
1.434833
 10
2.742551
 20
1.440577
 10
2.758235
 20
1.446702
 10
2.773818
 20
1.45316
 10
2.789187
 20
1.459903
 10
2.804228
 20
1.466885
 10
2.818828
 20
1.474056
 10
2.832875
 20
1.481371
  0
LWPOLYLINE
  5
3B
330
1F
100
AcDbEntity
  8
0
100
AcDbPolyline
 90
       59
 70
   128
 43
0.0
 10
2.832875
 20
1.481371
 10
2.823057
 20
1.470249
 10
2.812329
 20
1.459437
 10
2.800801
 20
1.448958
 10
2.788577
 20
1.438836
 10
2.775767
 20
1.429094
 10
2.762476
 20
1.419757
 10
2.748812
 20
1.410849
 10
2.734882
 20
1.402393
 10
2.720793
 20
1.394413
 10
2.706652
 20
1.386933
 10
2.692567
 20
1.379977
 10
2.678644
 20
1.373568
 10
2.664991
 20
1.36773
 10
2.651715
 20
1.362488
 10
2.638923
 20
1.357865
 10
2.626722
 20
1.353884
 10
2.621439
 20
1.353966
 10
2.616348
 20
1.354359
 10
2.606788
 20
1.356
 10
2.598125
 20
1.358641
 10
2.590441
 20
1.362115
 10
2.583821
 20
1.366255
 10
2.578348
 20
1.370896
 10
2.574105
 20
1.375869
 10
2.572471
 20
1.378429
 10
2.571175
 20
1.381009
 10
2.570229
 20
1.38359
 10
2.569642
 20
1.38615
 10
2.569425
 20
1.388668
 10
2.569589
 20
1.391123
 10
2.570143
 20
1.393495
 10
2.571099
 20
1.395764
 10
2.572466
 20
1.397907
 10
2.574255
 20
1.399904
 10
2.576477
 20
1.401735
 10
2.579142
 20
1.403378
 10
2.58226
 20
1.404813
 10
2.585841
 20
1.406019
 10
2.589897
 20
1.406975
 10
2.594438
 20
1.40766
 10
2.599473
 20
1.408053
 10
2.605014
 20
1.408134
 10
2.615491
 20
1.408308
 10
2.626998
 20
1.40929
 10
2.639421
 20
1.411035
 10
2.652648
 20
1.413494
 10
2.666566
 20
1.416619
 10
2.681061
 20
1.420363
 10
2.69602
 20
1.424679
 10
2.71133
 20
1.429518
 10
2.726878
 20
1.434833
 10
2.742551
 20
1.440577
 10
2.758235
 20
1.446702
 10
2.773818
 20
1.45316
 10
2.789187
 20
1.459903
 10
2.804228
 20
1.466885
 10
2.818828
 20
1.474056
 10
2.832875
 20
1.481371
  0
LWPOLYLINE
  5
3C
330
1F
100
AcDbEntity
  8
0
100
AcDbPolyline
 90
       70
 70
   128
 43
0.0
 10
6.169375
 20
5.696718
 10
6.159778
 20
5.729096
 10
6.155037
 20
5.744386
 10
6.150216
 20
5.758992
 10
6.145227
 20
5.772852
 10
6.139983
 20
5.785904
 10
6.134395
 20
5.798084
 10
6.128375
 20
5.809331
 10
6.121834
 20
5.81958
 10
6.118342
 20
5.824312
 10
6.114686
 20
5.828771
 10
6.110856
 20
5.832949
 10
6.10684
 20
5.836839
 10
6.102629
 20
5.840434
 10
6.098211
 20
5.843724
 10
6.093574
 20
5.846702
 10
6.088708
 20
5.849361
 10
6.083602
 20
5.851692
 10
6.078245
 20
5.853688
 10
6.072625
 20
5.855341
 10
6.066733
 20
5.856643
 10
6.060556
 20
5.857586
 10
6.054083
 20
5.858162
 10
6.048085
 20
5.855973
 10
6.042844
 20
5.853412
 10
6.038317
 20
5.850497
 10
6.034459
 20
5.847244
 10
6.031228
 20
5.84367
 10
6.028579
 20
5.839793
 10
6.026467
 20
5.83563
 10
6.02485
 20
5.831198
 10
6.023684
 20
5.826514
 10
6.022923
 20
5.821595
 10
6.022526
 20
5.816458
 10
6.022447
 20
5.811121
 10
6.023069
 20
5.799912
 10
6.024439
 20
5.788107
 10
6.028018
 20
5.763251
 10
6.029525
 20
5.750476
 10
6.030374
 20
5.73765
 10
6.030443
 20
5.731262
 10
6.030216
 20
5.724913
 10
6.029649
 20
5.718619
 10
6.028698
 20
5.712399
 10
6.02732
 20
5.706269
 10
6.02547
 20
5.700247
 10
6.023105
 20
5.694349
 10
6.02018
 20
5.688593
 10
6.0186
 20
5.687024
 10
6.018197
 20
5.685618
 10
6.018892
 20
5.68437
 10
6.02061
 20
5.683275
 10
6.023271
 20
5.682329
 10
6.0268
 20
5.681527
 10
6.036148
 20
5.680339
 10
6.048036
 20
5.679675
 10
6.061844
 20
5.679499
 10
6.076954
 20
5.679775
 10
6.092746
 20
5.680468
 10
6.108602
 20
5.681542
 10
6.123902
 20
5.68296
 10
6.138028
 20
5.684689
 10
6.15036
 20
5.68669
 10
6.16028
 20
5.68893
 10
6.164142
 20
5.690128
 10
6.167168
 20
5.691372
 10
6.169282
 20
5.692657
 10
6.170406
 20
5.693979
 10
6.170463
 20
5.695335
 10
6.169375
 20
5.696718
  0
LWPOLYLINE
  5
3D
330
1F
100
AcDbEntity
  8
0
100
AcDbPolyline
 90
       70
 70
   128
 43
0.0
 10
6.169375
 20
5.696718
 10
6.159778
 20
5.729096
 10
6.155037
 20
5.744386
 10
6.150216
 20
5.758992
 10
6.145227
 20
5.772852
 10
6.139983
 20
5.785904
 10
6.134395
 20
5.798084
 10
6.128375
 20
5.809331
 10
6.121834
 20
5.81958
 10
6.118342
 20
5.824312
 10
6.114686
 20
5.828771
 10
6.110856
 20
5.832949
 10
6.10684
 20
5.836839
 10
6.102629
 20
5.840434
 10
6.098211
 20
5.843724
 10
6.093574
 20
5.846702
 10
6.088708
 20
5.849361
 10
6.083602
 20
5.851692
 10
6.078245
 20
5.853688
 10
6.072625
 20
5.855341
 10
6.066733
 20
5.856643
 10
6.060556
 20
5.857586
 10
6.054083
 20
5.858162
 10
6.048085
 20
5.855973
 10
6.042844
 20
5.853412
 10
6.038317
 20
5.850497
 10
6.034459
 20
5.847244
 10
6.031228
 20
5.84367
 10
6.028579
 20
5.839793
 10
6.026467
 20
5.83563
 10
6.02485
 20
5.831198
 10
6.023684
 20
5.826514
 10
6.022923
 20
5.821595
 10
6.022526
 20
5.816458
 10
6.022447
 20
5.811121
 10
6.023069
 20
5.799912
 10
6.024439
 20
5.788107
 10
6.028018
 20
5.763251
 10
6.029525
 20
5.750476
 10
6.030374
 20
5.73765
 10
6.030443
 20
5.731262
 10
6.030216
 20
5.724913
 10
6.029649
 20
5.718619
 10
6.028698
 20
5.712399
 10
6.02732
 20
5.706269
 10
6.02547
 20
5.700247
 10
6.023105
 20
5.694349
 10
6.02018
 20
5.688593
 10
6.0186
 20
5.687024
 10
6.018197
 20
5.685618
 10
6.018892
 20
5.68437
 10
6.02061
 20
5.683275
 10
6.023271
 20
5.682329
 10
6.0268
 20
5.681527
 10
6.036148
 20
5.680339
 10
6.048036
 20
5.679675
 10
6.061844
 20
5.679499
 10
6.076954
 20
5.679775
 10
6.092746
 20
5.680468
 10
6.108602
 20
5.681542
 10
6.123902
 20
5.68296
 10
6.138028
 20
5.684689
 10
6.15036
 20
5.68669
 10
6.16028
 20
5.68893
 10
6.164142
 20
5.690128
 10
6.167168
 20
5.691372
 10
6.169282
 20
5.692657
 10
6.170406
 20
5.693979
 10
6.170463
 20
5.695335
 10
6.169375
 20
5.696718
  0
LWPOLYLINE
  5
3E
330
1F
100
AcDbEntity
  8
0
100
AcDbPolyline
 90
       69
 70
   128
 43
0.0
 10
5.963111
 20
5.701509
 10
5.960159
 20
5.722045
 10
5.956944
 20
5.741665
 10
5.953305
 20
5.760315
 10
5.949079
 20
5.777936
 10
5.944103
 20
5.794473
 10
5.941284
 20
5.802318
 10
5.938217
 20
5.80987
 10
5.934881
 20
5.817123
 10
5.931256
 20
5.82407
 10
5.927323
 20
5.830703
 10
5.923061
 20
5.837016
 10
5.918449
 20
5.843002
 10
5.913467
 20
5.848653
 10
5.908095
 20
5.853962
 10
5.902313
 20
5.858923
 10
5.8961
 20
5.863528
 10
5.889436
 20
5.86777
 10
5.882302
 20
5.871643
 10
5.874675
 20
5.875138
 10
5.866537
 20
5.87825
 10
5.857868
 20
5.880971
 10
5.848645
 20
5.883294
 10
5.838851
 20
5.885211
 10
5.828463
 20
5.886717
 10
5.817463
 20
5.887803
 10
5.805829
 20
5.888463
 10
5.793541
 20
5.88869
 10
5.790763
 20
5.887597
 10
5.78842
 20
5.88572
 10
5.786485
 20
5.883101
 10
5.784932
 20
5.879782
 10
5.783737
 20
5.875804
 10
5.782873
 20
5.87121
 10
5.782315
 20
5.86604
 10
5.782036
 20
5.860336
 10
5.782215
 20
5.847495
 10
5.783203
 20
5.833019
 10
5.786781
 20
5.800496
 10
5.791121
 20
5.765433
 10
5.793061
 20
5.747783
 10
5.794573
 20
5.730499
 10
5.795449
 20
5.713912
 10
5.795485
 20
5.698357
 10
5.795123
 20
5.691071
 10
5.794473
 20
5.684168
 10
5.79351
 20
5.677689
 10
5.792208
 20
5.671676
 10
5.792948
 20
5.670316
 10
5.794602
 20
5.669188
 10
5.79711
 20
5.668284
 10
5.800408
 20
5.667595
 10
5.809132
 20
5.66683
 10
5.820279
 20
5.666826
 10
5.833355
 20
5.667514
 10
5.847865
 20
5.668828
 10
5.863315
 20
5.6707
 10
5.879212
 20
5.673062
 10
5.895059
 20
5.675846
 10
5.910364
 20
5.678986
 10
5.924632
 20
5.682414
 10
5.937368
 20
5.686063
 10
5.948079
 20
5.689864
 10
5.95252
 20
5.691801
 10
5.956269
 20
5.69375
 10
5.959264
 20
5.695705
 10
5.961444
 20
5.697655
 10
5.962747
 20
5.699593
 10
5.963111
 20
5.701509
  0
LWPOLYLINE
  5
3F
330
1F
100
AcDbEntity
  8
0
100
AcDbPolyline
 90
       69
 70
   128
 43
0.0
 10
5.963111
 20
5.701509
 10
5.960159
 20
5.722045
 10
5.956944
 20
5.741665
 10
5.953305
 20
5.760315
 10
5.949079
 20
5.777936
 10
5.944103
 20
5.794473
 10
5.941284
 20
5.802318
 10
5.938217
 20
5.80987
 10
5.934881
 20
5.817123
 10
5.931256
 20
5.82407
 10
5.927323
 20
5.830703
 10
5.923061
 20
5.837016
 10
5.918449
 20
5.843002
 10
5.913467
 20
5.848653
 10
5.908095
 20
5.853962
 10
5.902313
 20
5.858923
 10
5.8961
 20
5.863528
 10
5.889436
 20
5.86777
 10
5.882302
 20
5.871643
 10
5.874675
 20
5.875138
 10
5.866537
 20
5.87825
 10
5.857868
 20
5.880971
 10
5.848645
 20
5.883294
 10
5.838851
 20
5.885211
 10
5.828463
 20
5.886717
 10
5.817463
 20
5.887803
 10
5.805829
 20
5.888463
 10
5.793541
 20
5.88869
 10
5.790763
 20
5.887597
 10
5.78842
 20
5.88572
 10
5.786485
 20
5.883101
 10
5.784932
 20
5.879782
 10
5.783737
 20
5.875804
 10
5.782873
 20
5.87121
 10
5.782315
 20
5.86604
 10
5.782036
 20
5.860336
 10
5.782215
 20
5.847495
 10
5.783203
 20
5.833019
 10
5.786781
 20
5.800496
 10
5.791121
 20
5.765433
 10
5.793061
 20
5.747783
 10
5.794573
 20
5.730499
 10
5.795449
 20
5.713912
 10
5.795485
 20
5.698357
 10
5.795123
 20
5.691071
 10
5.794473
 20
5.684168
 10
5.79351
 20
5.677689
 10
5.792208
 20
5.671676
 10
5.792948
 20
5.670316
 10
5.794602
 20
5.669188
 10
5.79711
 20
5.668284
 10
5.800408
 20
5.667595
 10
5.809132
 20
5.66683
 10
5.820279
 20
5.666826
 10
5.833355
 20
5.667514
 10
5.847865
 20
5.668828
 10
5.863315
 20
5.6707
 10
5.879212
 20
5.673062
 10
5.895059
 20
5.675846
 10
5.910364
 20
5.678986
 10
5.924632
 20
5.682414
 10
5.937368
 20
5.686063
 10
5.948079
 20
5.689864
 10
5.95252
 20
5.691801
 10
5.956269
 20
5.69375
 10
5.959264
 20
5.695705
 10
5.961444
 20
5.697655
 10
5.962747
 20
5.699593
 10
5.963111
 20
5.701509
  0
LWPOLYLINE
  5
40
330
1F
100
AcDbEntity
  8
0
100
AcDbPolyline
 90
       86
 70
   128
 43
0.0
 10
5.7435
 20
5.623509
 10
5.73736
 20
5.644848
 10
5.733011
 20
5.658913
 10
5.727459
 20
5.674438
 10
5.724148
 20
5.68256
 10
5.720438
 20
5.690821
 10
5.716295
 20
5.699144
 10
5.711686
 20
5.707456
 10
5.706578
 20
5.715681
 10
5.700938
 20
5.723743
 10
5.694733
 20
5.731567
 10
5.68793
 20
5.739077
 10
5.680497
 20
5.746199
 10
5.672399
 20
5.752856
 10
5.663605
 20
5.758973
 10
5.654081
 20
5.764476
 10
5.643794
 20
5.769288
 10
5.632712
 20
5.773334
 10
5.6208
 20
5.776539
 10
5.608027
 20
5.778828
 10
5.594359
 20
5.780124
 10
5.579764
 20
5.780354
 10
5.564207
 20
5.77944
 10
5.547657
 20
5.777308
 10
5.530081
 20
5.773883
 10
5.511444
 20
5.769089
 10
5.491715
 20
5.762851
 10
5.470861
 20
5.755093
 10
5.467015
 20
5.752652
 10
5.464387
 20
5.749843
 10
5.462903
 20
5.746679
 10
5.462488
 20
5.743172
 10
5.463067
 20
5.739337
 10
5.464564
 20
5.735185
 10
5.466906
 20
5.730729
 10
5.470017
 20
5.725983
 10
5.473823
 20
5.720958
 10
5.478247
 20
5.715669
 10
5.488656
 20
5.704349
 10
5.513611
 20
5.679096
 10
5.526959
 20
5.665371
 10
5.540089
 20
5.651051
 10
5.546385
 20
5.6437
 10
5.552402
 20
5.636239
 10
5.558065
 20
5.628681
 10
5.563298
 20
5.621038
 10
5.568028
 20
5.613324
 10
5.572179
 20
5.605552
 10
5.575676
 20
5.597734
 10
5.578445
 20
5.589883
 10
5.58041
 20
5.582013
 10
5.581497
 20
5.574136
 10
5.58163
 20
5.566265
 10
5.580736
 20
5.558412
 10
5.580533
 20
5.553205
 10
5.581386
 20
5.548733
 10
5.583223
 20
5.54497
 10
5.585973
 20
5.541888
 10
5.589563
 20
5.53946
 10
5.593924
 20
5.53766
 10
5.598982
 20
5.536462
 10
5.604668
 20
5.535838
 10
5.610909
 20
5.535761
 10
5.617634
 20
5.536205
 10
5.624771
 20
5.537143
 10
5.63225
 20
5.538548
 10
5.639999
 20
5.540393
 10
5.647946
 20
5.542653
 10
5.65602
 20
5.545299
 10
5.664149
 20
5.548305
 10
5.672263
 20
5.551644
 10
5.680289
 20
5.55529
 10
5.688157
 20
5.559215
 10
5.695794
 20
5.563393
 10
5.70313
 20
5.567798
 10
5.710093
 20
5.572401
 10
5.716612
 20
5.577178
 10
5.722615
 20
5.5821
 10
5.72803
 20
5.587141
 10
5.732788
 20
5.592274
 10
5.736815
 20
5.597473
 10
5.74004
 20
5.60271
 10
5.742393
 20
5.607959
 10
5.743801
 20
5.613193
 10
5.744194
 20
5.618386
 10
5.7435
 20
5.623509
  0
LWPOLYLINE
  5
41
330
1F
100
AcDbEntity
  8
0
100
AcDbPolyline
 90
       86
 70
   128
 43
0.0
 10
5.7435
 20
5.623509
 10
5.73736
 20
5.644848
 10
5.733011
 20
5.658913
 10
5.727459
 20
5.674438
 10
5.724148
 20
5.68256
 10
5.720438
 20
5.690821
 10
5.716295
 20
5.699144
 10
5.711686
 20
5.707456
 10
5.706578
 20
5.715681
 10
5.700938
 20
5.723743
 10
5.694733
 20
5.731567
 10
5.68793
 20
5.739077
 10
5.680497
 20
5.746199
 10
5.672399
 20
5.752856
 10
5.663605
 20
5.758973
 10
5.654081
 20
5.764476
 10
5.643794
 20
5.769288
 10
5.632712
 20
5.773334
 10
5.6208
 20
5.776539
 10
5.608027
 20
5.778828
 10
5.594359
 20
5.780124
 10
5.579764
 20
5.780354
 10
5.564207
 20
5.77944
 10
5.547657
 20
5.777308
 10
5.530081
 20
5.773883
 10
5.511444
 20
5.769089
 10
5.491715
 20
5.762851
 10
5.470861
 20
5.755093
 10
5.467015
 20
5.752652
 10
5.464387
 20
5.749843
 10
5.462903
 20
5.746679
 10
5.462488
 20
5.743172
 10
5.463067
 20
5.739337
 10
5.464564
 20
5.735185
 10
5.466906
 20
5.730729
 10
5.470017
 20
5.725983
 10
5.473823
 20
5.720958
 10
5.478247
 20
5.715669
 10
5.488656
 20
5.704349
 10
5.513611
 20
5.679096
 10
5.526959
 20
5.665371
 10
5.540089
 20
5.651051
 10
5.546385
 20
5.6437
 10
5.552402
 20
5.636239
 10
5.558065
 20
5.628681
 10
5.563298
 20
5.621038
 10
5.568028
 20
5.613324
 10
5.572179
 20
5.605552
 10
5.575676
 20
5.597734
 10
5.578445
 20
5.589883
 10
5.58041
 20
5.582013
 10
5.581497
 20
5.574136
 10
5.58163
 20
5.566265
 10
5.580736
 20
5.558412
 10
5.580533
 20
5.553205
 10
5.581386
 20
5.548733
 10
5.583223
 20
5.54497
 10
5.585973
 20
5.541888
 10
5.589563
 20
5.53946
 10
5.593924
 20
5.53766
 10
5.598982
 20
5.536462
 10
5.604668
 20
5.535838
 10
5.610909
 20
5.535761
 10
5.617634
 20
5.536205
 10
5.624771
 20
5.537143
 10
5.63225
 20
5.538548
 10
5.639999
 20
5.540393
 10
5.647946
 20
5.542653
 10
5.65602
 20
5.545299
 10
5.664149
 20
5.548305
 10
5.672263
 20
5.551644
 10
5.680289
 20
5.55529
 10
5.688157
 20
5.559215
 10
5.695794
 20
5.563393
 10
5.70313
 20
5.567798
 10
5.710093
 20
5.572401
 10
5.716612
 20
5.577178
 10
5.722615
 20
5.5821
 10
5.72803
 20
5.587141
 10
5.732788
 20
5.592274
 10
5.736815
 20
5.597473
 10
5.74004
 20
5.60271
 10
5.742393
 20
5.607959
 10
5.743801
 20
5.613193
 10
5.744194
 20
5.618386
 10
5.7435
 20
5.623509
  0
LWPOLYLINE
  5
42
330
1F
100
AcDbEntity
  8
0
100
AcDbPolyline
 90
       93
 70
   128
 43
0.0
 10
5.510208
 20
5.533996
 10
5.505175
 20
5.545206
 10
5.499043
 20
5.556529
 10
5.491886
 20
5.567917
 10
5.48378
 20
5.579322
 10
5.4748
 20
5.590699
 10
5.465021
 20
5.602001
 10
5.454519
 20
5.613179
 10
5.443368
 20
5.624189
 10
5.431643
 20
5.634982
 10
5.419421
 20
5.645512
 10
5.406775
 20
5.655732
 10
5.393781
 20
5.665595
 10
5.380515
 20
5.675055
 10
5.367051
 20
5.684064
 10
5.353464
 20
5.692575
 10
5.33983
 20
5.700542
 10
5.326223
 20
5.707918
 10
5.31272
 20
5.714656
 10
5.299394
 20
5.720709
 10
5.286322
 20
5.72603
 10
5.273578
 20
5.730573
 10
5.261237
 20
5.73429
 10
5.249376
 20
5.737135
 10
5.238067
 20
5.73906
 10
5.227388
 20
5.740019
 10
5.217413
 20
5.739965
 10
5.208217
 20
5.738852
 10
5.203935
 20
5.737883
 10
5.199876
 20
5.736632
 10
5.196049
 20
5.735092
 10
5.192463
 20
5.733258
 10
5.189129
 20
5.731123
 10
5.186056
 20
5.728683
 10
5.183252
 20
5.725931
 10
5.180728
 20
5.722861
 10
5.178493
 20
5.719468
 10
5.176555
 20
5.715746
 10
5.174972
 20
5.714601
 10
5.1738
 20
5.713297
 10
5.173027
 20
5.711838
 10
5.172641
 20
5.710227
 10
5.172628
 20
5.708467
 10
5.172976
 20
5.706562
 10
5.174704
 20
5.702331
 10
5.177722
 20
5.697563
 10
5.181928
 20
5.692285
 10
5.187221
 20
5.686526
 10
5.193499
 20
5.680314
 10
5.208601
 20
5.666646
 10
5.226418
 20
5.651505
 10
5.266939
 20
5.617713
 10
5.288012
 20
5.599513
 10
5.308538
 20
5.580746
 10
5.318342
 20
5.571221
 10
5.327704
 20
5.561638
 10
5.336522
 20
5.552027
 10
5.344694
 20
5.542415
 10
5.352118
 20
5.532832
 10
5.358692
 20
5.523304
 10
5.364314
 20
5.51386
 10
5.368883
 20
5.50453
 10
5.372296
 20
5.49534
 10
5.373538
 20
5.490807
 10
5.374452
 20
5.486319
 10
5.375026
 20
5.481881
 10
5.375248
 20
5.477496
 10
5.375105
 20
5.473167
 10
5.374583
 20
5.468898
 10
5.374605
 20
5.466058
 10
5.375546
 20
5.46386
 10
5.377341
 20
5.462271
 10
5.379927
 20
5.461258
 10
5.383237
 20
5.460789
 10
5.387208
 20
5.460831
 10
5.391775
 20
5.461351
 10
5.396872
 20
5.462316
 10
5.408401
 20
5.465452
 10
5.421277
 20
5.469976
 10
5.434983
 20
5.475628
 10
5.449
 20
5.482145
 10
5.46281
 20
5.489265
 10
5.475897
 20
5.496726
 10
5.487741
 20
5.504267
 10
5.497825
 20
5.511625
 10
5.502046
 20
5.515154
 10
5.505632
 20
5.518539
 10
5.50852
 20
5.521747
 10
5.510643
 20
5.524746
 10
5.511939
 20
5.527504
 10
5.512341
 20
5.529986
 10
5.511786
 20
5.532161
 10
5.510208
 20
5.533996
  0
LWPOLYLINE
  5
43
330
1F
100
AcDbEntity
  8
0
100
AcDbPolyline
 90
       93
 70
   128
 43
0.0
 10
5.510208
 20
5.533996
 10
5.505175
 20
5.545206
 10
5.499043
 20
5.556529
 10
5.491886
 20
5.567917
 10
5.48378
 20
5.579322
 10
5.4748
 20
5.590699
 10
5.465021
 20
5.602001
 10
5.454519
 20
5.613179
 10
5.443368
 20
5.624189
 10
5.431643
 20
5.634982
 10
5.419421
 20
5.645512
 10
5.406775
 20
5.655732
 10
5.393781
 20
5.665595
 10
5.380515
 20
5.675055
 10
5.367051
 20
5.684064
 10
5.353464
 20
5.692575
 10
5.33983
 20
5.700542
 10
5.326223
 20
5.707918
 10
5.31272
 20
5.714656
 10
5.299394
 20
5.720709
 10
5.286322
 20
5.72603
 10
5.273578
 20
5.730573
 10
5.261237
 20
5.73429
 10
5.249376
 20
5.737135
 10
5.238067
 20
5.73906
 10
5.227388
 20
5.740019
 10
5.217413
 20
5.739965
 10
5.208217
 20
5.738852
 10
5.203935
 20
5.737883
 10
5.199876
 20
5.736632
 10
5.196049
 20
5.735092
 10
5.192463
 20
5.733258
 10
5.189129
 20
5.731123
 10
5.186056
 20
5.728683
 10
5.183252
 20
5.725931
 10
5.180728
 20
5.722861
 10
5.178493
 20
5.719468
 10
5.176555
 20
5.715746
 10
5.174972
 20
5.714601
 10
5.1738
 20
5.713297
 10
5.173027
 20
5.711838
 10
5.172641
 20
5.710227
 10
5.172628
 20
5.708467
 10
5.172976
 20
5.706562
 10
5.174704
 20
5.702331
 10
5.177722
 20
5.697563
 10
5.181928
 20
5.692285
 10
5.187221
 20
5.686526
 10
5.193499
 20
5.680314
 10
5.208601
 20
5.666646
 10
5.226418
 20
5.651505
 10
5.266939
 20
5.617713
 10
5.288012
 20
5.599513
 10
5.308538
 20
5.580746
 10
5.318342
 20
5.571221
 10
5.327704
 20
5.561638
 10
5.336522
 20
5.552027
 10
5.344694
 20
5.542415
 10
5.352118
 20
5.532832
 10
5.358692
 20
5.523304
 10
5.364314
 20
5.51386
 10
5.368883
 20
5.50453
 10
5.372296
 20
5.49534
 10
5.373538
 20
5.490807
 10
5.374452
 20
5.486319
 10
5.375026
 20
5.481881
 10
5.375248
 20
5.477496
 10
5.375105
 20
5.473167
 10
5.374583
 20
5.468898
 10
5.374605
 20
5.466058
 10
5.375546
 20
5.46386
 10
5.377341
 20
5.462271
 10
5.379927
 20
5.461258
 10
5.383237
 20
5.460789
 10
5.387208
 20
5.460831
 10
5.391775
 20
5.461351
 10
5.396872
 20
5.462316
 10
5.408401
 20
5.465452
 10
5.421277
 20
5.469976
 10
5.434983
 20
5.475628
 10
5.449
 20
5.482145
 10
5.46281
 20
5.489265
 10
5.475897
 20
5.496726
 10
5.487741
 20
5.504267
 10
5.497825
 20
5.511625
 10
5.502046
 20
5.515154
 10
5.505632
 20
5.518539
 10
5.50852
 20
5.521747
 10
5.510643
 20
5.524746
 10
5.511939
 20
5.527504
 10
5.512341
 20
5.529986
 10
5.511786
 20
5.532161
 10
5.510208
 20
5.533996
  0
LWPOLYLINE
  5
44
330
1F
100
AcDbEntity
  8
0
100
AcDbPolyline
 90
       91
 70
   128
 43
0.0
 10
5.352875
 20
5.39294
 10
5.350853
 20
5.396679
 10
5.348295
 20
5.400601
 10
5.341629
 20
5.408955
 10
5.332994
 20
5.417926
 10
5.32251
 20
5.427437
 10
5.310297
 20
5.437411
 10
5.296472
 20
5.447772
 10
5.281155
 20
5.458442
 10
5.264465
 20
5.469346
 10
5.246521
 20
5.480407
 10
5.227443
 20
5.491548
 10
5.207348
 20
5.502692
 10
5.186357
 20
5.513763
 10
5.164588
 20
5.524685
 10
5.142161
 20
5.53538
 10
5.119193
 20
5.545771
 10
5.095805
 20
5.555784
 10
5.072116
 20
5.56534
 10
5.048244
 20
5.574363
 10
5.024308
 20
5.582776
 10
5.000428
 20
5.590503
 10
4.976722
 20
5.597468
 10
4.95331
 20
5.603593
 10
4.930311
 20
5.608802
 10
4.907844
 20
5.613018
 10
4.886027
 20
5.616165
 10
4.864979
 20
5.618166
 10
4.854782
 20
5.618713
 10
4.844821
 20
5.618944
 10
4.835112
 20
5.618851
 10
4.825671
 20
5.618423
 10
4.81651
 20
5.617652
 10
4.807647
 20
5.616527
 10
4.799095
 20
5.615038
 10
4.790869
 20
5.613177
 10
4.782985
 20
5.610934
 10
4.775456
 20
5.608299
 10
4.768299
 20
5.605263
 10
4.761528
 20
5.601815
 10
4.760652
 20
5.600949
 10
4.760446
 20
5.59985
 10
4.760889
 20
5.598523
 10
4.761963
 20
5.596973
 10
4.765922
 20
5.593226
 10
4.772169
 20
5.588649
 10
4.780547
 20
5.583284
 10
4.790901
 20
5.577171
 10
4.816916
 20
5.562866
 10
4.885818
 20
5.527085
 10
4.926218
 20
5.506264
 10
4.968925
 20
5.483924
 10
5.012695
 20
5.460395
 10
5.056285
 20
5.436002
 10
5.077624
 20
5.423585
 10
5.09845
 20
5.411074
 10
5.11861
 20
5.398512
 10
5.137947
 20
5.385938
 10
5.156307
 20
5.373394
 10
5.173532
 20
5.360921
 10
5.189469
 20
5.348559
 10
5.203961
 20
5.33635
 10
5.216853
 20
5.324334
 10
5.22799
 20
5.312553
 10
5.232851
 20
5.306763
 10
5.237216
 20
5.301047
 10
5.241063
 20
5.29541
 10
5.244375
 20
5.289857
 10
5.245883
 20
5.287055
 10
5.247914
 20
5.285125
 10
5.250428
 20
5.28402
 10
5.253385
 20
5.283689
 10
5.256745
 20
5.284086
 10
5.260467
 20
5.285161
 10
5.264511
 20
5.286867
 10
5.268838
 20
5.289155
 10
5.278176
 20
5.295283
 10
5.288162
 20
5.303159
 10
5.298472
 20
5.312396
 10
5.308786
 20
5.322607
 10
5.318783
 20
5.333405
 10
5.328141
 20
5.344403
 10
5.336538
 20
5.355215
 10
5.343654
 20
5.365454
 10
5.349167
 20
5.374733
 10
5.351222
 20
5.378891
 10
5.352756
 20
5.382665
 10
5.353728
 20
5.386005
 10
5.354099
 20
5.388863
 10
5.353828
 20
5.391191
 10
5.352875
 20
5.39294
  0
LWPOLYLINE
  5
45
330
1F
100
AcDbEntity
  8
0
100
AcDbPolyline
 90
       91
 70
   128
 43
0.0
 10
5.352875
 20
5.39294
 10
5.350853
 20
5.396679
 10
5.348295
 20
5.400601
 10
5.341629
 20
5.408955
 10
5.332994
 20
5.417926
 10
5.32251
 20
5.427437
 10
5.310297
 20
5.437411
 10
5.296472
 20
5.447772
 10
5.281155
 20
5.458442
 10
5.264465
 20
5.469346
 10
5.246521
 20
5.480407
 10
5.227443
 20
5.491548
 10
5.207348
 20
5.502692
 10
5.186357
 20
5.513763
 10
5.164588
 20
5.524685
 10
5.142161
 20
5.53538
 10
5.119193
 20
5.545771
 10
5.095805
 20
5.555784
 10
5.072116
 20
5.56534
 10
5.048244
 20
5.574363
 10
5.024308
 20
5.582776
 10
5.000428
 20
5.590503
 10
4.976722
 20
5.597468
 10
4.95331
 20
5.603593
 10
4.930311
 20
5.608802
 10
4.907844
 20
5.613018
 10
4.886027
 20
5.616165
 10
4.864979
 20
5.618166
 10
4.854782
 20
5.618713
 10
4.844821
 20
5.618944
 10
4.835112
 20
5.618851
 10
4.825671
 20
5.618423
 10
4.81651
 20
5.617652
 10
4.807647
 20
5.616527
 10
4.799095
 20
5.615038
 10
4.790869
 20
5.613177
 10
4.782985
 20
5.610934
 10
4.775456
 20
5.608299
 10
4.768299
 20
5.605263
 10
4.761528
 20
5.601815
 10
4.760652
 20
5.600949
 10
4.760446
 20
5.59985
 10
4.760889
 20
5.598523
 10
4.761963
 20
5.596973
 10
4.765922
 20
5.593226
 10
4.772169
 20
5.588649
 10
4.780547
 20
5.583284
 10
4.790901
 20
5.577171
 10
4.816916
 20
5.562866
 10
4.885818
 20
5.527085
 10
4.926218
 20
5.506264
 10
4.968925
 20
5.483924
 10
5.012695
 20
5.460395
 10
5.056285
 20
5.436002
 10
5.077624
 20
5.423585
 10
5.09845
 20
5.411074
 10
5.11861
 20
5.398512
 10
5.137947
 20
5.385938
 10
5.156307
 20
5.373394
 10
5.173532
 20
5.360921
 10
5.189469
 20
5.348559
 10
5.203961
 20
5.33635
 10
5.216853
 20
5.324334
 10
5.22799
 20
5.312553
 10
5.232851
 20
5.306763
 10
5.237216
 20
5.301047
 10
5.241063
 20
5.29541
 10
5.244375
 20
5.289857
 10
5.245883
 20
5.287055
 10
5.247914
 20
5.285125
 10
5.250428
 20
5.28402
 10
5.253385
 20
5.283689
 10
5.256745
 20
5.284086
 10
5.260467
 20
5.285161
 10
5.264511
 20
5.286867
 10
5.268838
 20
5.289155
 10
5.278176
 20
5.295283
 10
5.288162
 20
5.303159
 10
5.298472
 20
5.312396
 10
5.308786
 20
5.322607
 10
5.318783
 20
5.333405
 10
5.328141
 20
5.344403
 10
5.336538
 20
5.355215
 10
5.343654
 20
5.365454
 10
5.349167
 20
5.374733
 10
5.351222
 20
5.378891
 10
5.352756
 20
5.382665
 10
5.353728
 20
5.386005
 10
5.354099
 20
5.388863
 10
5.353828
 20
5.391191
 10
5.352875
 20
5.39294
  0
LWPOLYLINE
  5
46
330
1F
100
AcDbEntity
  8
0
100
AcDbPolyline
 90
      111
 70
   128
 43
0.0
 10
5.219958
 20
5.238329
 10
5.191172
 20
5.258515
 10
5.159911
 20
5.279047
 10
5.143411
 20
5.289342
 10
5.126364
 20
5.299603
 10
5.108793
 20
5.309789
 10
5.090722
 20
5.319861
 10
5.072175
 20
5.329779
 10
5.053175
 20
5.339501
 10
5.033747
 20
5.348989
 10
5.013915
 20
5.358201
 10
4.993701
 20
5.367098
 10
4.973131
 20
5.37564
 10
4.952227
 20
5.383786
 10
4.931014
 20
5.391496
 10
4.909515
 20
5.398729
 10
4.887754
 20
5.405447
 10
4.865755
 20
5.411608
 10
4.843542
 20
5.417172
 10
4.821139
 20
5.4221
 10
4.798569
 20
5.426351
 10
4.775856
 20
5.429885
 10
4.753025
 20
5.432661
 10
4.730098
 20
5.43464
 10
4.707099
 20
5.435781
 10
4.684053
 20
5.436044
 10
4.660984
 20
5.43539
 10
4.637914
 20
5.433777
 10
4.614869
 20
5.431165
 10
4.591871
 20
5.427516
 10
4.568944
 20
5.422787
 10
4.565351
 20
5.42053
 10
4.562697
 20
5.418177
 10
4.560956
 20
5.415728
 10
4.560099
 20
5.413183
 10
4.560098
 20
5.410544
 10
4.560926
 20
5.407811
 10
4.562553
 20
5.404985
 10
4.564953
 20
5.402066
 10
4.568097
 20
5.399055
 10
4.571957
 20
5.395953
 10
4.581714
 20
5.389477
 10
4.594
 20
5.382644
 10
4.608591
 20
5.375458
 10
4.625263
 20
5.367925
 10
4.643792
 20
5.36005
 10
4.685526
 20
5.343296
 10
4.732001
 20
5.325236
 10
4.781427
 20
5.305912
 10
4.832011
 20
5.285367
 10
4.857178
 20
5.274649
 10
4.881962
 20
5.263641
 10
4.90614
 20
5.252348
 10
4.929489
 20
5.240776
 10
4.951783
 20
5.22893
 10
4.9728
 20
5.216815
 10
4.992314
 20
5.204435
 10
5.001439
 20
5.198148
 10
5.010103
 20
5.191797
 10
5.018281
 20
5.185383
 10
5.025942
 20
5.178906
 10
5.033061
 20
5.172367
 10
5.039608
 20
5.165766
 10
5.045556
 20
5.159105
 10
5.050876
 20
5.152383
 10
5.055541
 20
5.145603
 10
5.059523
 20
5.138763
 10
5.062793
 20
5.131865
 10
5.065324
 20
5.12491
 10
5.067087
 20
5.117897
 10
5.068055
 20
5.110829
 10
5.068526
 20
5.107538
 10
5.069248
 20
5.104593
 10
5.070211
 20
5.101986
 10
5.071406
 20
5.099708
 10
5.072824
 20
5.09775
 10
5.074456
 20
5.096105
 10
5.076293
 20
5.094762
 10
5.078325
 20
5.093715
 10
5.080543
 20
5.092953
 10
5.082939
 20
5.092468
 10
5.088224
 20
5.092296
 10
5.094106
 20
5.09313
 10
5.100513
 20
5.094899
 10
5.10737
 20
5.097536
 10
5.114603
 20
5.10097
 10
5.122139
 20
5.105133
 10
5.129905
 20
5.109955
 10
5.137826
 20
5.115367
 10
5.14583
 20
5.121301
 10
5.153841
 20
5.127686
 10
5.161788
 20
5.134454
 10
5.169596
 20
5.141535
 10
5.177191
 20
5.148861
 10
5.184499
 20
5.156362
 10
5.191448
 20
5.163969
 10
5.197964
 20
5.171612
 10
5.203972
 20
5.179223
 10
5.2094
 20
5.186732
 10
5.214173
 20
5.194071
 10
5.218217
 20
5.20117
 10
5.221461
 20
5.207959
 10
5.223828
 20
5.21437
 10
5.225247
 20
5.220334
 10
5.225643
 20
5.225781
 10
5.225434
 20
5.228289
 10
5.224943
 20
5.230641
 10
5.224158
 20
5.232831
 10
5.223072
 20
5.234847
 10
5.221675
 20
5.236683
 10
5.219958
 20
5.238329
  0
LWPOLYLINE
  5
47
330
1F
100
AcDbEntity
  8
0
100
AcDbPolyline
 90
      111
 70
   128
 43
0.0
 10
5.219958
 20
5.238329
 10
5.191172
 20
5.258515
 10
5.159911
 20
5.279047
 10
5.143411
 20
5.289342
 10
5.126364
 20
5.299603
 10
5.108793
 20
5.309789
 10
5.090722
 20
5.319861
 10
5.072175
 20
5.329779
 10
5.053175
 20
5.339501
 10
5.033747
 20
5.348989
 10
5.013915
 20
5.358201
 10
4.993701
 20
5.367098
 10
4.973131
 20
5.37564
 10
4.952227
 20
5.383786
 10
4.931014
 20
5.391496
 10
4.909515
 20
5.398729
 10
4.887754
 20
5.405447
 10
4.865755
 20
5.411608
 10
4.843542
 20
5.417172
 10
4.821139
 20
5.4221
 10
4.798569
 20
5.426351
 10
4.775856
 20
5.429885
 10
4.753025
 20
5.432661
 10
4.730098
 20
5.43464
 10
4.707099
 20
5.435781
 10
4.684053
 20
5.436044
 10
4.660984
 20
5.43539
 10
4.637914
 20
5.433777
 10
4.614869
 20
5.431165
 10
4.591871
 20
5.427516
 10
4.568944
 20
5.422787
 10
4.565351
 20
5.42053
 10
4.562697
 20
5.418177
 10
4.560956
 20
5.415728
 10
4.560099
 20
5.413183
 10
4.560098
 20
5.410544
 10
4.560926
 20
5.407811
 10
4.562553
 20
5.404985
 10
4.564953
 20
5.402066
 10
4.568097
 20
5.399055
 10
4.571957
 20
5.395953
 10
4.581714
 20
5.389477
 10
4.594
 20
5.382644
 10
4.608591
 20
5.375458
 10
4.625263
 20
5.367925
 10
4.643792
 20
5.36005
 10
4.685526
 20
5.343296
 10
4.732001
 20
5.325236
 10
4.781427
 20
5.305912
 10
4.832011
 20
5.285367
 10
4.857178
 20
5.274649
 10
4.881962
 20
5.263641
 10
4.90614
 20
5.252348
 10
4.929489
 20
5.240776
 10
4.951783
 20
5.22893
 10
4.9728
 20
5.216815
 10
4.992314
 20
5.204435
 10
5.001439
 20
5.198148
 10
5.010103
 20
5.191797
 10
5.018281
 20
5.185383
 10
5.025942
 20
5.178906
 10
5.033061
 20
5.172367
 10
5.039608
 20
5.165766
 10
5.045556
 20
5.159105
 10
5.050876
 20
5.152383
 10
5.055541
 20
5.145603
 10
5.059523
 20
5.138763
 10
5.062793
 20
5.131865
 10
5.065324
 20
5.12491
 10
5.067087
 20
5.117897
 10
5.068055
 20
5.110829
 10
5.068526
 20
5.107538
 10
5.069248
 20
5.104593
 10
5.070211
 20
5.101986
 10
5.071406
 20
5.099708
 10
5.072824
 20
5.09775
 10
5.074456
 20
5.096105
 10
5.076293
 20
5.094762
 10
5.078325
 20
5.093715
 10
5.080543
 20
5.092953
 10
5.082939
 20
5.092468
 10
5.088224
 20
5.092296
 10
5.094106
 20
5.09313
 10
5.100513
 20
5.094899
 10
5.10737
 20
5.097536
 10
5.114603
 20
5.10097
 10
5.122139
 20
5.105133
 10
5.129905
 20
5.109955
 10
5.137826
 20
5.115367
 10
5.14583
 20
5.121301
 10
5.153841
 20
5.127686
 10
5.161788
 20
5.134454
 10
5.169596
 20
5.141535
 10
5.177191
 20
5.148861
 10
5.184499
 20
5.156362
 10
5.191448
 20
5.163969
 10
5.197964
 20
5.171612
 10
5.203972
 20
5.179223
 10
5.2094
 20
5.186732
 10
5.214173
 20
5.194071
 10
5.218217
 20
5.20117
 10
5.221461
 20
5.207959
 10
5.223828
 20
5.21437
 10
5.225247
 20
5.220334
 10
5.225643
 20
5.225781
 10
5.225434
 20
5.228289
 10
5.224943
 20
5.230641
 10
5.224158
 20
5.232831
 10
5.223072
 20
5.234847
 10
5.221675
 20
5.236683
 10
5.219958
 20
5.238329
  0
LWPOLYLINE
  5
48
330
1F
100
AcDbEntity
  8
0
100
AcDbPolyline
 90
       78
 70
   128
 43
0.0
 10
6.210055
 20
5.322412
 10
6.216452
 20
5.329534
 10
6.223075
 20
5.337694
 10
6.229886
 20
5.346811
 10
6.23685
 20
5.356806
 10
6.24393
 20
5.367597
 10
6.25109
 20
5.379104
 10
6.265502
 20
5.403944
 10
6.279795
 20
5.43068
 10
6.293677
 20
5.458669
 10
6.306857
 20
5.487264
 10
6.319043
 20
5.515822
 10
6.329944
 20
5.543698
 10
6.339267
 20
5.570246
 10
6.343246
 20
5.582821
 10
6.346721
 20
5.594823
 10
6.349656
 20
5.60617
 10
6.352014
 20
5.616783
 10
6.35376
 20
5.626581
 10
6.354856
 20
5.635482
 10
6.355266
 20
5.643408
 10
6.354953
 20
5.650276
 10
6.353882
 20
5.656006
 10
6.35305
 20
5.658419
 10
6.352015
 20
5.660518
 10
6.350772
 20
5.662292
 10
6.349317
 20
5.663731
 10
6.347644
 20
5.664826
 10
6.34575
 20
5.665565
 10
6.344745
 20
5.66622
 10
6.343607
 20
5.66651
 10
6.342338
 20
5.666447
 10
6.340942
 20
5.66604
 10
6.337782
 20
5.664238
 10
6.334153
 20
5.66119
 10
6.330081
 20
5.656979
 10
6.325591
 20
5.651689
 10
6.315463
 20
5.638213
 10
6.303979
 20
5.621436
 10
6.291346
 20
5.602032
 10
6.263469
 20
5.558042
 10
6.24864
 20
5.534806
 10
6.233496
 20
5.511641
 10
6.218244
 20
5.489222
 10
6.203094
 20
5.468223
 10
6.195621
 20
5.458467
 10
6.188252
 20
5.44932
 10
6.181013
 20
5.440865
 10
6.173929
 20
5.433186
 10
6.167026
 20
5.426369
 10
6.16033
 20
5.420497
 10
6.153869
 20
5.415654
 10
6.147666
 20
5.411926
 10
6.145973
 20
5.411228
 10
6.144605
 20
5.409934
 10
6.143551
 20
5.408088
 10
6.142804
 20
5.405738
 10
6.142355
 20
5.40293
 10
6.142194
 20
5.39971
 10
6.142702
 20
5.392217
 10
6.144257
 20
5.383628
 10
6.146788
 20
5.374314
 10
6.150223
 20
5.364642
 10
6.154491
 20
5.354982
 10
6.159521
 20
5.345702
 10
6.165241
 20
5.337173
 10
6.168337
 20
5.333305
 10
6.171579
 20
5.329763
 10
6.174958
 20
5.326592
 10
6.178465
 20
5.32384
 10
6.182091
 20
5.321552
 10
6.185827
 20
5.319775
 10
6.189664
 20
5.318554
 10
6.193594
 20
5.317936
 10
6.197607
 20
5.317966
 10
6.201694
 20
5.318692
 10
6.205846
 20
5.320158
 10
6.210055
 20
5.322412
  0
LWPOLYLINE
  5
49
330
1F
100
AcDbEntity
  8
0
100
AcDbPolyline
 90
       78
 70
   128
 43
0.0
 10
6.210055
 20
5.322412
 10
6.216452
 20
5.329534
 10
6.223075
 20
5.337694
 10
6.229886
 20
5.346811
 10
6.23685
 20
5.356806
 10
6.24393
 20
5.367597
 10
6.25109
 20
5.379104
 10
6.265502
 20
5.403944
 10
6.279795
 20
5.43068
 10
6.293677
 20
5.458669
 10
6.306857
 20
5.487264
 10
6.319043
 20
5.515822
 10
6.329944
 20
5.543698
 10
6.339267
 20
5.570246
 10
6.343246
 20
5.582821
 10
6.346721
 20
5.594823
 10
6.349656
 20
5.60617
 10
6.352014
 20
5.616783
 10
6.35376
 20
5.626581
 10
6.354856
 20
5.635482
 10
6.355266
 20
5.643408
 10
6.354953
 20
5.650276
 10
6.353882
 20
5.656006
 10
6.35305
 20
5.658419
 10
6.352015
 20
5.660518
 10
6.350772
 20
5.662292
 10
6.349317
 20
5.663731
 10
6.347644
 20
5.664826
 10
6.34575
 20
5.665565
 10
6.344745
 20
5.66622
 10
6.343607
 20
5.66651
 10
6.342338
 20
5.666447
 10
6.340942
 20
5.66604
 10
6.337782
 20
5.664238
 10
6.334153
 20
5.66119
 10
6.330081
 20
5.656979
 10
6.325591
 20
5.651689
 10
6.315463
 20
5.638213
 10
6.303979
 20
5.621436
 10
6.291346
 20
5.602032
 10
6.263469
 20
5.558042
 10
6.24864
 20
5.534806
 10
6.233496
 20
5.511641
 10
6.218244
 20
5.489222
 10
6.203094
 20
5.468223
 10
6.195621
 20
5.458467
 10
6.188252
 20
5.44932
 10
6.181013
 20
5.440865
 10
6.173929
 20
5.433186
 10
6.167026
 20
5.426369
 10
6.16033
 20
5.420497
 10
6.153869
 20
5.415654
 10
6.147666
 20
5.411926
 10
6.145973
 20
5.411228
 10
6.144605
 20
5.409934
 10
6.143551
 20
5.408088
 10
6.142804
 20
5.405738
 10
6.142355
 20
5.40293
 10
6.142194
 20
5.39971
 10
6.142702
 20
5.392217
 10
6.144257
 20
5.383628
 10
6.146788
 20
5.374314
 10
6.150223
 20
5.364642
 10
6.154491
 20
5.354982
 10
6.159521
 20
5.345702
 10
6.165241
 20
5.337173
 10
6.168337
 20
5.333305
 10
6.171579
 20
5.329763
 10
6.174958
 20
5.326592
 10
6.178465
 20
5.32384
 10
6.182091
 20
5.321552
 10
6.185827
 20
5.319775
 10
6.189664
 20
5.318554
 10
6.193594
 20
5.317936
 10
6.197607
 20
5.317966
 10
6.201694
 20
5.318692
 10
6.205846
 20
5.320158
 10
6.210055
 20
5.322412
  0
LWPOLYLINE
  5
4A
330
1F
100
AcDbEntity
  8
0
100
AcDbPolyline
 90
       76
 70
   128
 43
0.0
 10
6.093416
 20
5.645218
 10
6.089809
 20
5.64451
 10
6.08659
 20
5.642788
 10
6.083728
 20
5.640105
 10
6.08119
 20
5.636519
 10
6.078945
 20
5.632084
 10
6.07696
 20
5.626857
 10
6.075204
 20
5.620894
 10
6.073645
 20
5.61425
 10
6.070988
 20
5.599143
 10
6.068735
 20
5.581982
 10
6.064411
 20
5.543287
 10
6.06183
 20
5.522645
 10
6.058628
 20
5.501735
 10
6.054548
 20
5.481004
 10
6.0521
 20
5.470845
 10
6.049336
 20
5.460897
 10
6.046226
 20
5.451218
 10
6.042736
 20
5.441862
 10
6.038834
 20
5.432886
 10
6.03449
 20
5.424345
 10
6.029671
 20
5.416295
 10
6.024344
 20
5.408791
 10
6.018478
 20
5.401891
 10
6.012041
 20
5.395648
 10
6.009374
 20
5.393321
 10
6.007513
 20
5.390843
 10
6.006414
 20
5.388235
 10
6.006035
 20
5.385523
 10
6.006332
 20
5.382727
 10
6.007263
 20
5.379873
 10
6.008784
 20
5.376982
 10
6.010852
 20
5.374078
 10
6.013424
 20
5.371183
 10
6.016456
 20
5.368322
 10
6.02373
 20
5.36279
 10
6.03233
 20
5.357667
 10
6.04191
 20
5.353136
 10
6.052124
 20
5.349383
 10
6.062628
 20
5.346592
 10
6.06788
 20
5.345615
 10
6.073076
 20
5.344948
 10
6.078171
 20
5.344613
 10
6.083123
 20
5.344635
 10
6.087889
 20
5.345035
 10
6.092425
 20
5.345837
 10
6.096688
 20
5.347064
 10
6.100636
 20
5.34874
 10
6.104224
 20
5.350887
 10
6.10741
 20
5.353527
 10
6.11015
 20
5.356686
 10
6.112403
 20
5.360384
 10
6.115942
 20
5.372303
 10
6.119117
 20
5.384392
 10
6.121939
 20
5.396614
 10
6.124417
 20
5.408932
 10
6.126561
 20
5.421312
 10
6.12838
 20
5.433715
 10
6.131082
 20
5.458448
 10
6.132603
 20
5.48284
 10
6.133018
 20
5.506599
 10
6.132405
 20
5.529433
 10
6.130842
 20
5.551051
 10
6.128406
 20
5.571161
 10
6.125175
 20
5.589472
 10
6.121225
 20
5.605692
 10
6.119005
 20
5.612926
 10
6.116635
 20
5.619529
 10
6.114124
 20
5.625463
 10
6.111482
 20
5.630692
 10
6.108718
 20
5.635179
 10
6.105843
 20
5.638888
 10
6.102865
 20
5.641784
 10
6.099795
 20
5.643828
 10
6.096642
 20
5.644985
 10
6.093416
 20
5.645218
  0
LWPOLYLINE
  5
4B
330
1F
100
AcDbEntity
  8
0
100
AcDbPolyline
 90
       76
 70
   128
 43
0.0
 10
6.093416
 20
5.645218
 10
6.089809
 20
5.64451
 10
6.08659
 20
5.642788
 10
6.083728
 20
5.640105
 10
6.08119
 20
5.636519
 10
6.078945
 20
5.632084
 10
6.07696
 20
5.626857
 10
6.075204
 20
5.620894
 10
6.073645
 20
5.61425
 10
6.070988
 20
5.599143
 10
6.068735
 20
5.581982
 10
6.064411
 20
5.543287
 10
6.06183
 20
5.522645
 10
6.058628
 20
5.501735
 10
6.054548
 20
5.481004
 10
6.0521
 20
5.470845
 10
6.049336
 20
5.460897
 10
6.046226
 20
5.451218
 10
6.042736
 20
5.441862
 10
6.038834
 20
5.432886
 10
6.03449
 20
5.424345
 10
6.029671
 20
5.416295
 10
6.024344
 20
5.408791
 10
6.018478
 20
5.401891
 10
6.012041
 20
5.395648
 10
6.009374
 20
5.393321
 10
6.007513
 20
5.390843
 10
6.006414
 20
5.388235
 10
6.006035
 20
5.385523
 10
6.006332
 20
5.382727
 10
6.007263
 20
5.379873
 10
6.008784
 20
5.376982
 10
6.010852
 20
5.374078
 10
6.013424
 20
5.371183
 10
6.016456
 20
5.368322
 10
6.02373
 20
5.36279
 10
6.03233
 20
5.357667
 10
6.04191
 20
5.353136
 10
6.052124
 20
5.349383
 10
6.062628
 20
5.346592
 10
6.06788
 20
5.345615
 10
6.073076
 20
5.344948
 10
6.078171
 20
5.344613
 10
6.083123
 20
5.344635
 10
6.087889
 20
5.345035
 10
6.092425
 20
5.345837
 10
6.096688
 20
5.347064
 10
6.100636
 20
5.34874
 10
6.104224
 20
5.350887
 10
6.10741
 20
5.353527
 10
6.11015
 20
5.356686
 10
6.112403
 20
5.360384
 10
6.115942
 20
5.372303
 10
6.119117
 20
5.384392
 10
6.121939
 20
5.396614
 10
6.124417
 20
5.408932
 10
6.126561
 20
5.421312
 10
6.12838
 20
5.433715
 10
6.131082
 20
5.458448
 10
6.132603
 20
5.48284
 10
6.133018
 20
5.506599
 10
6.132405
 20
5.529433
 10
6.130842
 20
5.551051
 10
6.128406
 20
5.571161
 10
6.125175
 20
5.589472
 10
6.121225
 20
5.605692
 10
6.119005
 20
5.612926
 10
6.116635
 20
5.619529
 10
6.114124
 20
5.625463
 10
6.111482
 20
5.630692
 10
6.108718
 20
5.635179
 10
6.105843
 20
5.638888
 10
6.102865
 20
5.641784
 10
6.099795
 20
5.643828
 10
6.096642
 20
5.644985
 10
6.093416
 20
5.645218
  0
LWPOLYLINE
  5
4C
330
1F
100
AcDbEntity
  8
0
100
AcDbPolyline
 90
       72
 70
   128
 43
0.0
 10
5.976778
 20
5.387523
 10
5.976698
 20
5.397851
 10
5.976307
 20
5.40839
 10
5.974648
 20
5.429954
 10
5.971914
 20
5.451932
 10
5.968218
 20
5.474036
 10
5.963673
 20
5.495982
 10
5.958391
 20
5.517484
 10
5.952487
 20
5.538255
 10
5.946073
 20
5.558011
 10
5.939262
 20
5.576466
 10
5.932167
 20
5.593334
 10
5.924901
 20
5.608329
 10
5.917578
 20
5.621166
 10
5.913931
 20
5.626686
 10
5.910311
 20
5.631559
 10
5.906733
 20
5.63575
 10
5.903212
 20
5.639222
 10
5.899761
 20
5.641941
 10
5.896395
 20
5.643871
 10
5.893127
 20
5.644975
 10
5.889972
 20
5.645218
 10
5.886721
 20
5.645716
 10
5.885316
 20
5.645504
 10
5.884051
 20
5.644995
 10
5.881917
 20
5.643122
 10
5.880274
 20
5.640161
 10
5.879077
 20
5.63618
 10
5.87828
 20
5.631244
 10
5.877837
 20
5.62542
 10
5.877704
 20
5.618774
 10
5.878183
 20
5.60328
 10
5.879355
 20
5.585293
 10
5.882324
 20
5.543957
 10
5.883396
 20
5.521668
 10
5.883707
 20
5.499003
 10
5.883465
 20
5.487695
 10
5.882896
 20
5.476493
 10
5.881956
 20
5.465461
 10
5.880599
 20
5.454667
 10
5.87878
 20
5.444176
 10
5.876453
 20
5.434055
 10
5.873573
 20
5.42437
 10
5.870095
 20
5.415187
 10
5.865973
 20
5.406573
 10
5.861162
 20
5.398593
 10
5.855617
 20
5.391313
 10
5.849291
 20
5.384801
 10
5.844254
 20
5.38185
 10
5.840669
 20
5.379169
 10
5.838449
 20
5.376752
 10
5.837507
 20
5.374589
 10
5.837758
 20
5.372674
 10
5.839112
 20
5.371
 10
5.841484
 20
5.369559
 10
5.844785
 20
5.368344
 10
5.84893
 20
5.367346
 10
5.853832
 20
5.36656
 10
5.865554
 20
5.365589
 10
5.879257
 20
5.365372
 10
5.894243
 20
5.36585
 10
5.909816
 20
5.366962
 10
5.92528
 20
5.368649
 10
5.939939
 20
5.370853
 10
5.953096
 20
5.373512
 10
5.964055
 20
5.376568
 10
5.968492
 20
5.378227
 10
5.972119
 20
5.379962
 10
5.974848
 20
5.381767
 10
5.976592
 20
5.383633
 10
5.977264
 20
5.385555
 10
5.976778
 20
5.387523
  0
LWPOLYLINE
  5
4D
330
1F
100
AcDbEntity
  8
0
100
AcDbPolyline
 90
       72
 70
   128
 43
0.0
 10
5.976778
 20
5.387523
 10
5.976698
 20
5.397851
 10
5.976307
 20
5.40839
 10
5.974648
 20
5.429954
 10
5.971914
 20
5.451932
 10
5.968218
 20
5.474036
 10
5.963673
 20
5.495982
 10
5.958391
 20
5.517484
 10
5.952487
 20
5.538255
 10
5.946073
 20
5.558011
 10
5.939262
 20
5.576466
 10
5.932167
 20
5.593334
 10
5.924901
 20
5.608329
 10
5.917578
 20
5.621166
 10
5.913931
 20
5.626686
 10
5.910311
 20
5.631559
 10
5.906733
 20
5.63575
 10
5.903212
 20
5.639222
 10
5.899761
 20
5.641941
 10
5.896395
 20
5.643871
 10
5.893127
 20
5.644975
 10
5.889972
 20
5.645218
 10
5.886721
 20
5.645716
 10
5.885316
 20
5.645504
 10
5.884051
 20
5.644995
 10
5.881917
 20
5.643122
 10
5.880274
 20
5.640161
 10
5.879077
 20
5.63618
 10
5.87828
 20
5.631244
 10
5.877837
 20
5.62542
 10
5.877704
 20
5.618774
 10
5.878183
 20
5.60328
 10
5.879355
 20
5.585293
 10
5.882324
 20
5.543957
 10
5.883396
 20
5.521668
 10
5.883707
 20
5.499003
 10
5.883465
 20
5.487695
 10
5.882896
 20
5.476493
 10
5.881956
 20
5.465461
 10
5.880599
 20
5.454667
 10
5.87878
 20
5.444176
 10
5.876453
 20
5.434055
 10
5.873573
 20
5.42437
 10
5.870095
 20
5.415187
 10
5.865973
 20
5.406573
 10
5.861162
 20
5.398593
 10
5.855617
 20
5.391313
 10
5.849291
 20
5.384801
 10
5.844254
 20
5.38185
 10
5.840669
 20
5.379169
 10
5.838449
 20
5.376752
 10
5.837507
 20
5.374589
 10
5.837758
 20
5.372674
 10
5.839112
 20
5.371
 10
5.841484
 20
5.369559
 10
5.844785
 20
5.368344
 10
5.84893
 20
5.367346
 10
5.853832
 20
5.36656
 10
5.865554
 20
5.365589
 10
5.879257
 20
5.365372
 10
5.894243
 20
5.36585
 10
5.909816
 20
5.366962
 10
5.92528
 20
5.368649
 10
5.939939
 20
5.370853
 10
5.953096
 20
5.373512
 10
5.964055
 20
5.376568
 10
5.968492
 20
5.378227
 10
5.972119
 20
5.379962
 10
5.974848
 20
5.381767
 10
5.976592
 20
5.383633
 10
5.977264
 20
5.385555
 10
5.976778
 20
5.387523
  0
LWPOLYLINE
  5
4E
330
1F
100
AcDbEntity
  8
0
100
AcDbPolyline
 90
       78
 70
   128
 43
0.0
 10
1.164625
 20
1.606148
 10
1.186374
 20
1.62617
 10
1.209089
 20
1.64591
 10
1.232848
 20
1.665403
 10
1.257729
 20
1.684686
 10
1.283807
 20
1.703794
 10
1.311161
 20
1.722763
 10
1.339869
 20
1.741629
 10
1.370007
 20
1.760428
 10
1.401652
 20
1.779195
 10
1.434883
 20
1.797965
 10
1.469777
 20
1.816776
 10
1.50641
 20
1.835662
 10
1.54486
 20
1.854659
 10
1.585205
 20
1.873804
 10
1.627522
 20
1.893131
 10
1.671889
 20
1.912676
 10
1.621712
 20
1.896477
 10
1.571217
 20
1.879759
 10
1.520406
 20
1.862508
 10
1.469277
 20
1.844714
 10
1.41783
 20
1.826364
 10
1.366066
 20
1.807446
 10
1.313985
 20
1.78795
 10
1.261587
 20
1.767862
 10
1.208871
 20
1.747171
 10
1.155837
 20
1.725865
 10
1.102486
 20
1.703933
 10
1.048818
 20
1.681362
 10
0.994833
 20
1.65814
 10
0.94053
 20
1.634256
 10
0.88591
 20
1.609698
 10
0.830972
 20
1.584454
 10
0.829468
 20
1.58255
 10
0.829308
 20
1.581843
 10
0.829527
 20
1.581292
 10
0.831052
 20
1.580634
 10
0.833949
 20
1.580532
 10
0.843475
 20
1.581821
 10
0.85734
 20
1.584804
 10
0.895039
 20
1.594432
 10
0.940939
 20
1.606579
 10
0.965056
 20
1.612711
 10
0.988933
 20
1.618408
 10
1.011808
 20
1.623317
 10
1.032915
 20
1.627083
 10
1.042568
 20
1.628426
 10
1.051494
 20
1.629351
 10
1.059595
 20
1.629812
 10
1.066779
 20
1.629766
 10
1.072948
 20
1.629168
 10
1.078007
 20
1.627974
 10
1.081862
 20
1.62614
 10
1.083308
 20
1.624968
 10
1.084416
 20
1.623621
 10
1.091196
 20
1.633645
 10
1.09429
 20
1.637481
 10
1.097206
 20
1.640589
 10
1.099958
 20
1.643012
 10
1.10256
 20
1.644793
 10
1.105027
 20
1.645975
 10
1.107373
 20
1.646601
 10
1.109612
 20
1.646714
 10
1.111759
 20
1.646356
 10
1.113828
 20
1.645571
 10
1.115834
 20
1.644401
 10
1.119711
 20
1.641077
 10
1.123505
 20
1.636728
 10
1.131303
 20
1.626325
 10
1.135536
 20
1.620956
 10
1.140145
 20
1.615933
 10
1.145244
 20
1.611598
 10
1.148012
 20
1.609795
 10
1.150947
 20
1.608294
 10
1.154061
 20
1.607135
 10
1.157369
 20
1.606363
 10
1.160885
 20
1.60602
 10
1.164625
 20
1.606148
  0
LWPOLYLINE
  5
4F
330
1F
100
AcDbEntity
  8
0
100
AcDbPolyline
 90
       78
 70
   128
 43
0.0
 10
1.164625
 20
1.606148
 10
1.186374
 20
1.62617
 10
1.209089
 20
1.64591
 10
1.232848
 20
1.665403
 10
1.257729
 20
1.684686
 10
1.283807
 20
1.703794
 10
1.311161
 20
1.722763
 10
1.339869
 20
1.741629
 10
1.370007
 20
1.760428
 10
1.401652
 20
1.779195
 10
1.434883
 20
1.797965
 10
1.469777
 20
1.816776
 10
1.50641
 20
1.835662
 10
1.54486
 20
1.854659
 10
1.585205
 20
1.873804
 10
1.627522
 20
1.893131
 10
1.671889
 20
1.912676
 10
1.621712
 20
1.896477
 10
1.571217
 20
1.879759
 10
1.520406
 20
1.862508
 10
1.469277
 20
1.844714
 10
1.41783
 20
1.826364
 10
1.366066
 20
1.807446
 10
1.313985
 20
1.78795
 10
1.261587
 20
1.767862
 10
1.208871
 20
1.747171
 10
1.155837
 20
1.725865
 10
1.102486
 20
1.703933
 10
1.048818
 20
1.681362
 10
0.994833
 20
1.65814
 10
0.94053
 20
1.634256
 10
0.88591
 20
1.609698
 10
0.830972
 20
1.584454
 10
0.829468
 20
1.58255
 10
0.829308
 20
1.581843
 10
0.829527
 20
1.581292
 10
0.831052
 20
1.580634
 10
0.833949
 20
1.580532
 10
0.843475
 20
1.581821
 10
0.85734
 20
1.584804
 10
0.895039
 20
1.594432
 10
0.940939
 20
1.606579
 10
0.965056
 20
1.612711
 10
0.988933
 20
1.618408
 10
1.011808
 20
1.623317
 10
1.032915
 20
1.627083
 10
1.042568
 20
1.628426
 10
1.051494
 20
1.629351
 10
1.059595
 20
1.629812
 10
1.066779
 20
1.629766
 10
1.072948
 20
1.629168
 10
1.078007
 20
1.627974
 10
1.081862
 20
1.62614
 10
1.083308
 20
1.624968
 10
1.084416
 20
1.623621
 10
1.091196
 20
1.633645
 10
1.09429
 20
1.637481
 10
1.097206
 20
1.640589
 10
1.099958
 20
1.643012
 10
1.10256
 20
1.644793
 10
1.105027
 20
1.645975
 10
1.107373
 20
1.646601
 10
1.109612
 20
1.646714
 10
1.111759
 20
1.646356
 10
1.113828
 20
1.645571
 10
1.115834
 20
1.644401
 10
1.119711
 20
1.641077
 10
1.123505
 20
1.636728
 10
1.131303
 20
1.626325
 10
1.135536
 20
1.620956
 10
1.140145
 20
1.615933
 10
1.145244
 20
1.611598
 10
1.148012
 20
1.609795
 10
1.150947
 20
1.608294
 10
1.154061
 20
1.607135
 10
1.157369
 20
1.606363
 10
1.160885
 20
1.60602
 10
1.164625
 20
1.606148
  0
LWPOLYLINE
  5
50
330
1F
100
AcDbEntity
  8
0
100
AcDbPolyline
 90
       51
 70
   128
 43
0.0
 10
1.677305
 20
1.953371
 10
1.620775
 20
1.933561
 10
1.563581
 20
1.913123
 10
1.505912
 20
1.892127
 10
1.447954
 20
1.870644
 10
1.389896
 20
1.848745
 10
1.331926
 20
1.826502
 10
1.274233
 20
1.803984
 10
1.217003
 20
1.781265
 10
1.160426
 20
1.758413
 10
1.104688
 20
1.735501
 10
1.049979
 20
1.712599
 10
0.996485
 20
1.689779
 10
0.944395
 20
1.667111
 10
0.893898
 20
1.644666
 10
0.84518
 20
1.622516
 10
0.79843
 20
1.600732
 10
0.791843
 20
1.599528
 10
0.785185
 20
1.598778
 10
0.778548
 20
1.598456
 10
0.77202
 20
1.59854
 10
0.765691
 20
1.599004
 10
0.759649
 20
1.599826
 10
0.753984
 20
1.600982
 10
0.748785
 20
1.602447
 10
0.744141
 20
1.604198
 10
0.740142
 20
1.606211
 10
0.736876
 20
1.608462
 10
0.734434
 20
1.610927
 10
0.732904
 20
1.613583
 10
0.732376
 20
1.616405
 10
0.732938
 20
1.61937
 10
0.73468
 20
1.622454
 10
0.79489
 20
1.643305
 10
0.857788
 20
1.665929
 10
0.922761
 20
1.689942
 10
0.989196
 20
1.714958
 10
1.124
 20
1.766463
 10
1.257295
 20
1.817365
 10
1.321844
 20
1.841628
 10
1.384177
 20
1.864586
 10
1.443681
 20
1.885853
 10
1.499743
 20
1.905046
 10
1.526291
 20
1.913744
 10
1.551749
 20
1.921779
 10
1.57604
 20
1.929102
 10
1.599087
 20
1.935667
 10
1.620814
 20
1.941424
 10
1.641143
 20
1.946326
 10
1.659999
 20
1.950324
 10
1.677305
 20
1.953371
  0
LWPOLYLINE
  5
51
330
1F
100
AcDbEntity
  8
0
100
AcDbPolyline
 90
       51
 70
   128
 43
0.0
 10
1.677305
 20
1.953371
 10
1.620775
 20
1.933561
 10
1.563581
 20
1.913123
 10
1.505912
 20
1.892127
 10
1.447954
 20
1.870644
 10
1.389896
 20
1.848745
 10
1.331926
 20
1.826502
 10
1.274233
 20
1.803984
 10
1.217003
 20
1.781265
 10
1.160426
 20
1.758413
 10
1.104688
 20
1.735501
 10
1.049979
 20
1.712599
 10
0.996485
 20
1.689779
 10
0.944395
 20
1.667111
 10
0.893898
 20
1.644666
 10
0.84518
 20
1.622516
 10
0.79843
 20
1.600732
 10
0.791843
 20
1.599528
 10
0.785185
 20
1.598778
 10
0.778548
 20
1.598456
 10
0.77202
 20
1.59854
 10
0.765691
 20
1.599004
 10
0.759649
 20
1.599826
 10
0.753984
 20
1.600982
 10
0.748785
 20
1.602447
 10
0.744141
 20
1.604198
 10
0.740142
 20
1.606211
 10
0.736876
 20
1.608462
 10
0.734434
 20
1.610927
 10
0.732904
 20
1.613583
 10
0.732376
 20
1.616405
 10
0.732938
 20
1.61937
 10
0.73468
 20
1.622454
 10
0.79489
 20
1.643305
 10
0.857788
 20
1.665929
 10
0.922761
 20
1.689942
 10
0.989196
 20
1.714958
 10
1.124
 20
1.766463
 10
1.257295
 20
1.817365
 10
1.321844
 20
1.841628
 10
1.384177
 20
1.864586
 10
1.443681
 20
1.885853
 10
1.499743
 20
1.905046
 10
1.526291
 20
1.913744
 10
1.551749
 20
1.921779
 10
1.57604
 20
1.929102
 10
1.599087
 20
1.935667
 10
1.620814
 20
1.941424
 10
1.641143
 20
1.946326
 10
1.659999
 20
1.950324
 10
1.677305
 20
1.953371
  0
LWPOLYLINE
  5
52
330
1F
100
AcDbEntity
  8
0
100
AcDbPolyline
 90
       55
 70
   128
 43
0.0
 10
1.579653
 20
2.07544
 10
1.536649
 20
2.059119
 10
1.49426
 20
2.04255
 10
1.452497
 20
2.02574
 10
1.411373
 20
2.008693
 10
1.3709
 20
1.991417
 10
1.331089
 20
1.973917
 10
1.291952
 20
1.956199
 10
1.253502
 20
1.938268
 10
1.215749
 20
1.920131
 10
1.178707
 20
1.901795
 10
1.142386
 20
1.883263
 10
1.106799
 20
1.864543
 10
1.071958
 20
1.845641
 10
1.037874
 20
1.826562
 10
1.00456
 20
1.807313
 10
0.972028
 20
1.787898
 10
0.970028
 20
1.786964
 10
0.967615
 20
1.786266
 10
0.961709
 20
1.785547
 10
0.954624
 20
1.785669
 10
0.946676
 20
1.786561
 10
0.93818
 20
1.788151
 10
0.929452
 20
1.790368
 10
0.920807
 20
1.79314
 10
0.912561
 20
1.796397
 10
0.905028
 20
1.800066
 10
0.898525
 20
1.804076
 10
0.893367
 20
1.808356
 10
0.891391
 20
1.810574
 10
0.889869
 20
1.812834
 10
0.888842
 20
1.815125
 10
0.888348
 20
1.817439
 10
0.888426
 20
1.819767
 10
0.889117
 20
1.822099
 10
0.890459
 20
1.824428
 10
0.892493
 20
1.826744
 10
0.895257
 20
1.829038
 10
0.898791
 20
1.831301
 10
0.939783
 20
1.84949
 10
0.981177
 20
1.867427
 10
1.022933
 20
1.885082
 10
1.065008
 20
1.902426
 10
1.107361
 20
1.919429
 10
1.14995
 20
1.936062
 10
1.192734
 20
1.952293
 10
1.23567
 20
1.968094
 10
1.278717
 20
1.983436
 10
1.321834
 20
1.998287
 10
1.364978
 20
2.012619
 10
1.408108
 20
2.026401
 10
1.451182
 20
2.039604
 10
1.494159
 20
2.052198
 10
1.536996
 20
2.064153
 10
1.579653
 20
2.07544
  0
LWPOLYLINE
  5
53
330
1F
100
AcDbEntity
  8
0
100
AcDbPolyline
 90
       55
 70
   128
 43
0.0
 10
1.579653
 20
2.07544
 10
1.536649
 20
2.059119
 10
1.49426
 20
2.04255
 10
1.452497
 20
2.02574
 10
1.411373
 20
2.008693
 10
1.3709
 20
1.991417
 10
1.331089
 20
1.973917
 10
1.291952
 20
1.956199
 10
1.253502
 20
1.938268
 10
1.215749
 20
1.920131
 10
1.178707
 20
1.901795
 10
1.142386
 20
1.883263
 10
1.106799
 20
1.864543
 10
1.071958
 20
1.845641
 10
1.037874
 20
1.826562
 10
1.00456
 20
1.807313
 10
0.972028
 20
1.787898
 10
0.970028
 20
1.786964
 10
0.967615
 20
1.786266
 10
0.961709
 20
1.785547
 10
0.954624
 20
1.785669
 10
0.946676
 20
1.786561
 10
0.93818
 20
1.788151
 10
0.929452
 20
1.790368
 10
0.920807
 20
1.79314
 10
0.912561
 20
1.796397
 10
0.905028
 20
1.800066
 10
0.898525
 20
1.804076
 10
0.893367
 20
1.808356
 10
0.891391
 20
1.810574
 10
0.889869
 20
1.812834
 10
0.888842
 20
1.815125
 10
0.888348
 20
1.817439
 10
0.888426
 20
1.819767
 10
0.889117
 20
1.822099
 10
0.890459
 20
1.824428
 10
0.892493
 20
1.826744
 10
0.895257
 20
1.829038
 10
0.898791
 20
1.831301
 10
0.939783
 20
1.84949
 10
0.981177
 20
1.867427
 10
1.022933
 20
1.885082
 10
1.065008
 20
1.902426
 10
1.107361
 20
1.919429
 10
1.14995
 20
1.936062
 10
1.192734
 20
1.952293
 10
1.23567
 20
1.968094
 10
1.278717
 20
1.983436
 10
1.321834
 20
1.998287
 10
1.364978
 20
2.012619
 10
1.408108
 20
2.026401
 10
1.451182
 20
2.039604
 10
1.494159
 20
2.052198
 10
1.536996
 20
2.064153
 10
1.579653
 20
2.07544
  0
LWPOLYLINE
  5
54
330
1F
100
AcDbEntity
  8
0
100
AcDbPolyline
 90
       57
 70
   128
 43
0.0
 10
1.726139
 20
2.259884
 10
1.676896
 20
2.238809
 10
1.628625
 20
2.218547
 10
1.534833
 20
2.179809
 10
1.444432
 20
2.142368
 10
1.400399
 20
2.123726
 10
1.35709
 20
2.104919
 10
1.314463
 20
2.085784
 10
1.272478
 20
2.066157
 10
1.231092
 20
2.045877
 10
1.190264
 20
2.024779
 10
1.149953
 20
2.002701
 10
1.129978
 20
1.991243
 10
1.110117
 20
1.979479
 10
1.090365
 20
1.967389
 10
1.070716
 20
1.954951
 10
1.051166
 20
1.942146
 10
1.031708
 20
1.928954
 10
1.028822
 20
1.927536
 10
1.025788
 20
1.926533
 10
1.022629
 20
1.925922
 10
1.019365
 20
1.925683
 10
1.016019
 20
1.925793
 10
1.012611
 20
1.92623
 10
1.005694
 20
1.927997
 10
0.998785
 20
1.93081
 10
0.992055
 20
1.934492
 10
0.985673
 20
1.938867
 10
0.979811
 20
1.943761
 10
0.974637
 20
1.948998
 10
0.970324
 20
1.954401
 10
0.96704
 20
1.959796
 10
0.964956
 20
1.965007
 10
0.964418
 20
1.967488
 10
0.964243
 20
1.969858
 10
0.964453
 20
1.972093
 10
0.96507
 20
1.974173
 10
0.966115
 20
1.976075
 10
0.967608
 20
1.977778
 10
0.969572
 20
1.979258
 10
0.972028
 20
1.980496
 10
1.013707
 20
2.001356
 10
1.055725
 20
2.021875
 10
1.098163
 20
2.042027
 10
1.141105
 20
2.061791
 10
1.184636
 20
2.081141
 10
1.228837
 20
2.100053
 10
1.273794
 20
2.118505
 10
1.319588
 20
2.136471
 10
1.366305
 20
2.153929
 10
1.414026
 20
2.170854
 10
1.462836
 20
2.187223
 10
1.512819
 20
2.203011
 10
1.564056
 20
2.218195
 10
1.616633
 20
2.232752
 10
1.670633
 20
2.246656
 10
1.726139
 20
2.259884
  0
LWPOLYLINE
  5
55
330
1F
100
AcDbEntity
  8
0
100
AcDbPolyline
 90
       57
 70
   128
 43
0.0
 10
1.726139
 20
2.259884
 10
1.676896
 20
2.238809
 10
1.628625
 20
2.218547
 10
1.534833
 20
2.179809
 10
1.444432
 20
2.142368
 10
1.400399
 20
2.123726
 10
1.35709
 20
2.104919
 10
1.314463
 20
2.085784
 10
1.272478
 20
2.066157
 10
1.231092
 20
2.045877
 10
1.190264
 20
2.024779
 10
1.149953
 20
2.002701
 10
1.129978
 20
1.991243
 10
1.110117
 20
1.979479
 10
1.090365
 20
1.967389
 10
1.070716
 20
1.954951
 10
1.051166
 20
1.942146
 10
1.031708
 20
1.928954
 10
1.028822
 20
1.927536
 10
1.025788
 20
1.926533
 10
1.022629
 20
1.925922
 10
1.019365
 20
1.925683
 10
1.016019
 20
1.925793
 10
1.012611
 20
1.92623
 10
1.005694
 20
1.927997
 10
0.998785
 20
1.93081
 10
0.992055
 20
1.934492
 10
0.985673
 20
1.938867
 10
0.979811
 20
1.943761
 10
0.974637
 20
1.948998
 10
0.970324
 20
1.954401
 10
0.96704
 20
1.959796
 10
0.964956
 20
1.965007
 10
0.964418
 20
1.967488
 10
0.964243
 20
1.969858
 10
0.964453
 20
1.972093
 10
0.96507
 20
1.974173
 10
0.966115
 20
1.976075
 10
0.967608
 20
1.977778
 10
0.969572
 20
1.979258
 10
0.972028
 20
1.980496
 10
1.013707
 20
2.001356
 10
1.055725
 20
2.021875
 10
1.098163
 20
2.042027
 10
1.141105
 20
2.061791
 10
1.184636
 20
2.081141
 10
1.228837
 20
2.100053
 10
1.273794
 20
2.118505
 10
1.319588
 20
2.136471
 10
1.366305
 20
2.153929
 10
1.414026
 20
2.170854
 10
1.462836
 20
2.187223
 10
1.512819
 20
2.203011
 10
1.564056
 20
2.218195
 10
1.616633
 20
2.232752
 10
1.670633
 20
2.246656
 10
1.726139
 20
2.259884
  0
LWPOLYLINE
  5
56
330
1F
100
AcDbEntity
  8
0
100
AcDbPolyline
 90
       65
 70
   128
 43
0.0
 10
1.633903
 20
2.297871
 10
1.594649
 20
2.289045
 10
1.554053
 20
2.278834
 10
1.512498
 20
2.267411
 10
1.470366
 20
2.254955
 10
1.428039
 20
2.24164
 10
1.385898
 20
2.227644
 10
1.344327
 20
2.213143
 10
1.303706
 20
2.198313
 10
1.264419
 20
2.183331
 10
1.226847
 20
2.168372
 10
1.191372
 20
2.153614
 10
1.158377
 20
2.139232
 10
1.128244
 20
2.125403
 10
1.101354
 20
2.112303
 10
1.078089
 20
2.100108
 10
1.058833
 20
2.088996
 10
1.050531
 20
2.084103
 10
1.042746
 20
2.079916
 10
1.03548
 20
2.076407
 10
1.028731
 20
2.073544
 10
1.022501
 20
2.0713
 10
1.016789
 20
2.069646
 10
1.011596
 20
2.068551
 10
1.006921
 20
2.067987
 10
1.002765
 20
2.067925
 10
0.999128
 20
2.068335
 10
0.99601
 20
2.069189
 10
0.993411
 20
2.070456
 10
0.991332
 20
2.072109
 10
0.989772
 20
2.074117
 10
0.988732
 20
2.076452
 10
0.988212
 20
2.079084
 10
0.988211
 20
2.081984
 10
0.988731
 20
2.085124
 10
0.989771
 20
2.088473
 10
0.991331
 20
2.092003
 10
0.993412
 20
2.095684
 10
0.996013
 20
2.099488
 10
0.999135
 20
2.103385
 10
1.002778
 20
2.107345
 10
1.006943
 20
2.11134
 10
1.011628
 20
2.115341
 10
1.016835
 20
2.119319
 10
1.022563
 20
2.123243
 10
1.028813
 20
2.127085
 10
1.035585
 20
2.130817
 10
1.042878
 20
2.134408
 10
1.050694
 20
2.137829
 10
1.06895
 20
2.145065
 10
1.091185
 20
2.15337
 10
1.117065
 20
2.162594
 10
1.146258
 20
2.172587
 10
1.178431
 20
2.1832
 10
1.213252
 20
2.194281
 10
1.250388
 20
2.205682
 10
1.289507
 20
2.217251
 10
1.330275
 20
2.228839
 10
1.37236
 20
2.240295
 10
1.41543
 20
2.25147
 10
1.459151
 20
2.262214
 10
1.503192
 20
2.272376
 10
1.547219
 20
2.281806
 10
1.5909
 20
2.290354
 10
1.633903
 20
2.297871
  0
LWPOLYLINE
  5
57
330
1F
100
AcDbEntity
  8
0
100
AcDbPolyline
 90
       65
 70
   128
 43
0.0
 10
1.633903
 20
2.297871
 10
1.594649
 20
2.289045
 10
1.554053
 20
2.278834
 10
1.512498
 20
2.267411
 10
1.470366
 20
2.254955
 10
1.428039
 20
2.24164
 10
1.385898
 20
2.227644
 10
1.344327
 20
2.213143
 10
1.303706
 20
2.198313
 10
1.264419
 20
2.183331
 10
1.226847
 20
2.168372
 10
1.191372
 20
2.153614
 10
1.158377
 20
2.139232
 10
1.128244
 20
2.125403
 10
1.101354
 20
2.112303
 10
1.078089
 20
2.100108
 10
1.058833
 20
2.088996
 10
1.050531
 20
2.084103
 10
1.042746
 20
2.079916
 10
1.03548
 20
2.076407
 10
1.028731
 20
2.073544
 10
1.022501
 20
2.0713
 10
1.016789
 20
2.069646
 10
1.011596
 20
2.068551
 10
1.006921
 20
2.067987
 10
1.002765
 20
2.067925
 10
0.999128
 20
2.068335
 10
0.99601
 20
2.069189
 10
0.993411
 20
2.070456
 10
0.991332
 20
2.072109
 10
0.989772
 20
2.074117
 10
0.988732
 20
2.076452
 10
0.988212
 20
2.079084
 10
0.988211
 20
2.081984
 10
0.988731
 20
2.085124
 10
0.989771
 20
2.088473
 10
0.991331
 20
2.092003
 10
0.993412
 20
2.095684
 10
0.996013
 20
2.099488
 10
0.999135
 20
2.103385
 10
1.002778
 20
2.107345
 10
1.006943
 20
2.11134
 10
1.011628
 20
2.115341
 10
1.016835
 20
2.119319
 10
1.022563
 20
2.123243
 10
1.028813
 20
2.127085
 10
1.035585
 20
2.130817
 10
1.042878
 20
2.134408
 10
1.050694
 20
2.137829
 10
1.06895
 20
2.145065
 10
1.091185
 20
2.15337
 10
1.117065
 20
2.162594
 10
1.146258
 20
2.172587
 10
1.178431
 20
2.1832
 10
1.213252
 20
2.194281
 10
1.250388
 20
2.205682
 10
1.289507
 20
2.217251
 10
1.330275
 20
2.228839
 10
1.37236
 20
2.240295
 10
1.41543
 20
2.25147
 10
1.459151
 20
2.262214
 10
1.503192
 20
2.272376
 10
1.547219
 20
2.281806
 10
1.5909
 20
2.290354
 10
1.633903
 20
2.297871
  0
ENDSEC
  0
SECTION
  2
OBJECTS
  0
DICTIONARY
  5
C
330
0
100
AcDbDictionary
281
     1
  3
ACAD_GROUP
350
D
  3
ACAD_LAYOUT
350
1A
  3
ACAD_MLINESTYLE
350
17
  3
ACAD_PLOTSETTINGS
350
19
  3
ACAD_PLOTSTYLENAME
350
E
  0
DICTIONARY
  5
D
102
{ACAD_REACTORS
330
C
102
}
330
C
100
AcDbDictionary
281
     1
  0
DICTIONARY
  5
1A
102
{ACAD_REACTORS
330
C
102
}
330
C
100
AcDbDictionary
281
     1
  3
Layout1
350
1E
  3
Layout2
350
26
  3
Model
350
22
  0
DICTIONARY
  5
17
102
{ACAD_REACTORS
330
C
102
}
330
C
100
AcDbDictionary
281
     1
  3
Standard
350
18
  0
DICTIONARY
  5
19
102
{ACAD_REACTORS
330
C
102
}
330
C
100
AcDbDictionary
281
     1
  0
ACDBDICTIONARYWDFLT
  5
E
102
{ACAD_REACTORS
330
C
102
}
330
C
100
AcDbDictionary
281
     1
  3
Normal
350
F
100
AcDbDictionaryWithDefault
340
F
  0
LAYOUT
  5
1E
102
{ACAD_REACTORS
330
1A
102
}
330
1A
100
AcDbPlotSettings
  1

  2

  4

  6

 40
0.0
 41
0.0
 42
0.0
 43
0.0
 44
0.0
 45
0.0
 46
0.0
 47
0.0
 48
0.0
 49
0.0
140
0.0
141
0.0
142
1.0
143
1.0
 70
   688
 72
     0
 73
     0
 74
     5
  7

 75
    16
147
1.0
148
0.0
149
0.0
100
AcDbLayout
  1
Layout1
 70
     1
 71
     1
 10
0.0
 20
0.0
 11
420.0
 21
297.0
 12
0.0
 22
0.0
 32
0.0
 14
1.000000E+20
 24
1.000000E+20
 34
1.000000E+20
 15
-1.000000E+20
 25
-1.000000E+20
 35
-1.000000E+20
146
0.0
 13
0.0
 23
0.0
 33
0.0
 16
1.0
 26
0.0
 36
0.0
 17
0.0
 27
1.0
 37
0.0
 76
     0
330
1B
  0
LAYOUT
  5
26
102
{ACAD_REACTORS
330
1A
102
}
330
1A
100
AcDbPlotSettings
  1

  2

  4

  6

 40
0.0
 41
0.0
 42
0.0
 43
0.0
 44
0.0
 45
0.0
 46
0.0
 47
0.0
 48
0.0
 49
0.0
140
0.0
141
0.0
142
1.0
143
1.0
 70
   688
 72
     0
 73
     0
 74
     5
  7

 75
    16
147
1.0
148
0.0
149
0.0
100
AcDbLayout
  1
Layout2
 70
     1
 71
     2
 10
0.0
 20
0.0
 11
0.0
 21
0.0
 12
0.0
 22
0.0
 32
0.0
 14
0.0
 24
0.0
 34
0.0
 15
0.0
 25
0.0
 35
0.0
146
0.0
 13
0.0
 23
0.0
 33
0.0
 16
1.0
 26
0.0
 36
0.0
 17
0.0
 27
1.0
 37
0.0
 76
     0
330
23
  0
LAYOUT
  5
22
102
{ACAD_REACTORS
330
1A
102
}
330
1A
100
AcDbPlotSettings
  1

  2

  4

  6

 40
0.0
 41
0.0
 42
0.0
 43
0.0
 44
0.0
 45
0.0
 46
0.0
 47
0.0
 48
0.0
 49
0.0
140
0.0
141
0.0
142
1.0
143
1.0
 70
  1712
 72
     0
 73
     0
 74
     0
  7

 75
     0
147
1.0
148
0.0
149
0.0
100
AcDbLayout
  1
Model
 70
     1
 71
     0
 10
0.0
 20
0.0
 11
0.0
 21
0.0
 12
0.0
 22
0.0
 32
0.0
 14
0.0
 24
0.0
 34
0.0
 15
0.0
 25
0.0
 35
0.0
146
0.0
 13
0.0
 23
0.0
 33
0.0
 16
1.0
 26
0.0
 36
0.0
 17
0.0
 27
1.0
 37
0.0
 76
     0
330
1F
  0
MLINESTYLE
  5
18
102
{ACAD_REACTORS
330
17
102
}
330
17
100
AcDbMlineStyle
  2
Standard
 70
     0
  3

 62
   256
 51
90.0
 52
90.0
 71
     2
 49
1.0
 62
   256
  6
BYLAYER
 49
-1.0
 62
   256
  6
BYLAYER
  0
ACDBPLACEHOLDER
  5
F
102
{ACAD_REACTORS
330
E
102
}
330
E
  0
ENDSEC
  0
EOF
