  0
SECTION
  2
HEADER
  9
$ACADVER
  1
AC1009
  9
$LIMMIN
 10
-0.000000
 20
0.000000
  9
$LIMMAX
 10
10.684546
 20
18.782582
  0
ENDSEC
  0
SECTION
  2
TABLES
  0
TABLE
  2
LTYPE
 70
     4
  0
LTYPE
  2
CONTINUOUS
 70
     0
  3
Solid line
 72
     65
 73
     0
 40
0.000000
  0
LTYPE
  2
HIDDEN
 70
     0
  3
 _ _ _ _ _ _ _ _ _ _ _
 72
     65
 73
     2
 40
0.375000
 49
0.250000
 49
-0.125000
  0
LTYPE
  2
DASHED
 70
     0
  3
 ___ ___ ___ ___ ___ ___ ___ 
 72
     65
 73
     2
 40
0.750000
 49
0.500000
 49
-0.250000
  0
LTYPE
  2
CENTER
 70
     0
  3
___ _ ___ _ ___ _ ___
 72
     65
 73
     4
 40
2.000000
 49
1.250000
 49
-0.250000
 49
0.250000
 49
-0.250000
  0
LTYPE
  2
BORDER
 70
     0
  3
___ ___ . ___ ___ . ___ ___
 72
     65
 73
     6
 40
1.750000
 49
0.500000
 49
-0.250000
 49
0.500000
 49
-0.250000
 49
0.000000
 49
-0.250000
  0
LTYPE
  2
DOT
 70
     0
  3
.................
 72
     65
 73
     2
 40
0.250000
 49
0.000000
 49
-0.250000
  0
LTYPE
  2
DASHDOT
 70
     0
  3
__ . __ . __ . __
 72
     65
 73
     4
 40
1.000000
 49
0.500000
 49
-0.250000
 49
0.000000
 49
-0.250000
  0
LTYPE
  2
DIVIDE
 70
     0
  3
___ .. ___ .. ___ .. ___
 72
     65
 73
     6
 40
1.250000
 49
0.500000
 49
-0.250000
 49
0.000000
 49
-0.250000
 49
0.000000
 49
-0.250000
  0
ENDTAB
  0
TABLE
  2
LAYER
 70
     8
  0
LAYER
  2
BLACK
 70
     0
 62
     1
  6
CONTINUOUS
  0
LAYER
  2
WHITE
 70
     0
 62
     7
  6
CONTINUOUS
  0
LAYER
  2
RED
 70
     0
 62
     1
  6
CONTINUOUS
  0
LAYER
  2
YELLOW
 70
     0
 62
     2
  6
CONTINUOUS
  0
LAYER
  2
GREEN
 70
     0
 62
     3
  6
CONTINUOUS
  0
LAYER
  2
CYAN
 70
     0
 62
     4
  6
CONTINUOUS
  0
LAYER
  2
BLUE
 70
     0
 62
     5
  6
CONTINUOUS
  0
LAYER
  2
MAGENTA
 70
     0
 62
     6
  6
CONTINUOUS
  0
ENDTAB
  0
TABLE
  2
APPID
 70
     1
  0
APPID
  2
TC_BEND_DATA
 70
     0
  0
ENDTAB
  0
ENDSEC
  0
SECTION
  2
BLOCKS
  0
ENDSEC
  0
SECTION
  2
ENTITIES
  0
ARC
  8
WHITE
 10
1.245541
 20
3.939437
 30
0.000000
 40
0.029871
 50
-31.413823
 51
68.285215
  6
CONTINUOUS
  0
ARC
  8
WHITE
 10
1.245321
 20
4.195159
 30
0.000000
 40
0.228249
 50
130.230588
 51
272.830651
  6
CONTINUOUS
  0
ARC
  8
WHITE
 10
1.067409
 20
4.392766
 30
0.000000
 40
0.038407
 50
-37.442288
 51
65.514477
  6
CONTINUOUS
  0
ARC
  8
WHITE
 10
1.120998
 20
4.622653
 30
0.000000
 40
0.198541
 50
179.683371
 51
259.062369
  6
CONTINUOUS
  0
ARC
  8
WHITE
 10
1.769007
 20
4.248050
 30
0.000000
 40
0.926170
 50
122.475471
 51
156.068172
  6
CONTINUOUS
  0
ARC
  8
WHITE
 10
1.229037
 20
5.070925
 30
0.000000
 40
0.059551
 50
-44.227511
 51
44.227129
  6
CONTINUOUS
  0
ARC
  8
WHITE
 10
1.482545
 20
5.323443
 30
0.000000
 40
0.298269
 50
84.750292
 51
225.019931
  6
CONTINUOUS
  0
ARC
  8
WHITE
 10
1.498063
 20
5.661577
 30
0.000000
 40
0.042769
 50
-74.022661
 51
74.022644
  6
CONTINUOUS
  0
ARC
  8
WHITE
 10
1.593769
 20
5.847484
 30
0.000000
 40
0.167359
 50
123.680996
 51
239.899453
  6
CONTINUOUS
  0
ARC
  8
WHITE
 10
1.137712
 20
10.384203
 30
0.000000
 40
4.412430
 50
-85.277891
 51
-51.731330
  6
CONTINUOUS
  0
ARC
  8
WHITE
 10
12.964802
 20
-2.054441
 30
0.000000
 40
12.776732
 50
129.818538
 51
135.380117
  6
CONTINUOUS
  0
ARC
  8
WHITE
 10
4.699655
 20
7.843286
 30
0.000000
 40
0.118570
 50
-45.259484
 51
65.317270
  6
CONTINUOUS
  0
ARC
  8
WHITE
 10
4.670352
 20
8.343728
 30
0.000000
 40
0.400536
 50
-138.014916
 51
-78.651381
  6
CONTINUOUS
  0
ARC
  8
WHITE
 10
4.501015
 20
8.153218
 30
0.000000
 40
0.149927
 50
175.964821
 51
211.091457
  6
CONTINUOUS
  0
ARC
  8
WHITE
 10
4.279359
 20
8.170995
 30
0.000000
 40
0.072462
 50
-5.723957
 51
83.043499
  6
CONTINUOUS
  0
ARC
  8
WHITE
 10
4.384185
 20
8.548411
 30
0.000000
 40
0.320232
 50
177.337062
 51
252.546257
  6
CONTINUOUS
  0
ARC
  8
WHITE
 10
3.938762
 20
8.597601
 30
0.000000
 40
0.130141
 50
-15.286597
 51
53.694896
  6
CONTINUOUS
  0
ARC
  8
WHITE
 10
4.194310
 20
8.914963
 30
0.000000
 40
0.277506
 50
149.752526
 51
229.968736
  6
CONTINUOUS
  0
ARC
  8
WHITE
 10
3.924452
 20
9.089338
 30
0.000000
 40
0.045871
 50
-48.934998
 51
48.935358
  6
CONTINUOUS
  0
ARC
  8
WHITE
 10
4.175067
 20
9.421462
 30
0.000000
 40
0.370327
 50
138.006028
 51
233.460848
  6
CONTINUOUS
  0
ARC
  8
WHITE
 10
3.849263
 20
9.709259
 30
0.000000
 40
0.064496
 50
-38.362279
 51
66.615630
  6
CONTINUOUS
  0
ARC
  8
WHITE
 10
4.014527
 20
10.042036
 30
0.000000
 40
0.307166
 50
156.735850
 51
242.954996
  6
CONTINUOUS
  0
ARC
  8
WHITE
 10
3.371739
 20
10.107814
 30
0.000000
 40
0.364849
 50
8.756491
 51
62.211474
  6
CONTINUOUS
  0
ARC
  8
WHITE
 10
3.616244
 20
10.735025
 30
0.000000
 40
0.313400
 50
175.739369
 51
256.265445
  6
CONTINUOUS
  0
ARC
  8
WHITE
 10
3.142210
 20
10.784587
 30
0.000000
 40
0.163624
 50
-9.241704
 51
86.783907
  6
CONTINUOUS
  0
ARC
  8
WHITE
 10
3.211313
 20
11.082619
 30
0.000000
 40
0.147396
 50
153.134641
 51
246.012016
  6
CONTINUOUS
  0
ARC
  8
WHITE
 10
2.997084
 20
11.222438
 30
0.000000
 40
0.110481
 50
-41.503284
 51
65.237031
  6
CONTINUOUS
  0
ARC
  8
WHITE
 10
3.137857
 20
11.586598
 30
0.000000
 40
0.280249
 50
173.870654
 51
250.294351
  6
CONTINUOUS
  0
ARC
  8
WHITE
 10
2.675115
 20
11.636041
 30
0.000000
 40
0.185127
 50
-6.052551
 51
28.477765
  6
CONTINUOUS
  0
ARC
  8
WHITE
 10
3.102885
 20
12.058733
 30
0.000000
 40
0.426714
 50
178.551586
 51
231.601642
  6
CONTINUOUS
  0
ARC
  8
WHITE
 10
2.565620
 20
12.114061
 30
0.000000
 40
0.119314
 50
-21.920558
 51
35.348358
  6
CONTINUOUS
  0
ARC
  8
WHITE
 10
2.791857
 20
12.509978
 30
0.000000
 40
0.351392
 50
-177.769774
 51
-111.523387
  6
CONTINUOUS
  0
ARC
  8
WHITE
 10
2.143135
 20
12.473371
 30
0.000000
 40
0.298478
 50
4.406431
 51
43.477906
  6
CONTINUOUS
  0
ARC
  8
WHITE
 10
2.593282
 20
12.823566
 30
0.000000
 40
0.274814
 50
175.130641
 51
211.801102
  6
CONTINUOUS
  0
ARC
  8
WHITE
 10
2.197644
 20
12.882281
 30
0.000000
 40
0.126852
 50
-16.198773
 51
36.931416
  6
CONTINUOUS
  0
LINE
  8
WHITE
 10
2.299044
 20
12.958501
 30
0.000000
 11
2.055006
 21
13.187287
 31
0.000000
  6
CONTINUOUS
  0
ARC
  8
WHITE
 10
2.193617
 20
13.267620
 30
0.000000
 40
0.160207
 50
113.165904
 51
210.094545
  6
CONTINUOUS
  0
ARC
  8
WHITE
 10
2.105545
 20
13.442394
 30
0.000000
 40
0.037185
 50
-47.656401
 51
75.728906
  6
CONTINUOUS
  0
ARC
  8
WHITE
 10
2.434672
 20
14.014505
 30
0.000000
 40
0.624300
 50
-154.634885
 51
-120.831238
  6
CONTINUOUS
  0
ARC
  8
WHITE
 10
1.938218
 20
13.772968
 30
0.000000
 40
0.072450
 50
102.460695
 51
200.948840
  6
CONTINUOUS
  0
ARC
  8
WHITE
 10
1.748366
 20
13.012201
 30
0.000000
 40
0.849566
 50
60.069544
 51
78.166470
  6
CONTINUOUS
  0
ARC
  8
WHITE
 10
2.380409
 20
14.368741
 30
0.000000
 40
0.654274
 50
-108.550724
 51
-85.252996
  6
CONTINUOUS
  0
ARC
  8
WHITE
 10
2.406675
 20
13.771167
 30
0.000000
 40
0.061178
 50
-62.889245
 51
57.620678
  6
CONTINUOUS
  0
ARC
  8
WHITE
 10
3.166039
 20
15.878418
 30
0.000000
 40
2.180225
 50
-136.506750
 51
-109.467340
  6
CONTINUOUS
  0
ARC
  8
WHITE
 10
1.623129
 20
14.447525
 30
0.000000
 40
0.079735
 50
61.002972
 51
240.926839
  6
CONTINUOUS
  0
ARC
  8
WHITE
 10
6.763550
 20
24.503938
 30
0.000000
 40
11.214351
 50
-117.060567
 51
-114.946176
  6
CONTINUOUS
  0
ARC
  8
WHITE
 10
2.057523
 20
14.375524
 30
0.000000
 40
0.046283
 50
-120.963748
 51
-30.963742
  6
CONTINUOUS
  0
ARC
  8
WHITE
 10
1.952357
 20
14.326405
 30
0.000000
 40
0.147047
 50
9.909521
 51
58.851149
  6
CONTINUOUS
  0
ARC
  8
WHITE
 10
3.212822
 20
15.962675
 30
0.000000
 40
1.919424
 50
-155.790286
 51
-128.101881
  6
CONTINUOUS
  0
ARC
  8
WHITE
 10
1.498731
 20
15.207078
 30
0.000000
 40
0.048239
 50
54.398533
 51
220.792858
  6
CONTINUOUS
  0
LINE
  8
WHITE
 10
1.526813
 20
15.246301
 30
0.000000
 11
2.208335
 21
14.779174
 31
0.000000
  6
CONTINUOUS
  0
ARC
  8
WHITE
 10
2.332553
 20
14.889314
 30
0.000000
 40
0.166015
 50
-138.437526
 51
-100.076474
  6
CONTINUOUS
  0
ARC
  8
WHITE
 10
2.281611
 20
14.777556
 30
0.000000
 40
0.056141
 50
-67.044540
 51
46.850122
  6
CONTINUOUS
  0
ARC
  8
WHITE
 10
8.203095
 20
20.786004
 30
0.000000
 40
8.379836
 50
-144.664941
 51
-134.591942
  6
CONTINUOUS
  0
ARC
  8
WHITE
 10
1.444540
 20
16.022397
 30
0.000000
 40
0.113560
 50
42.238234
 51
226.908623
  6
CONTINUOUS
  0
ARC
  8
WHITE
 10
8.825392
 20
22.895306
 30
0.000000
 40
9.971779
 50
-137.032703
 51
-126.885445
  6
CONTINUOUS
  0
ARC
  8
WHITE
 10
2.887386
 20
14.959659
 30
0.000000
 40
0.061988
 50
-139.628460
 51
48.913240
  6
CONTINUOUS
  0
ARC
  8
WHITE
 10
9.118246
 20
21.263927
 30
0.000000
 40
8.801959
 50
-148.157346
 51
-134.689647
  6
CONTINUOUS
  0
ARC
  8
WHITE
 10
1.683802
 20
16.664948
 30
0.000000
 40
0.061997
 50
35.797231
 51
226.313912
  6
CONTINUOUS
  0
ARC
  8
WHITE
 10
9.597875
 20
23.412342
 30
0.000000
 40
10.338203
 50
-139.521823
 51
-124.735167
  6
CONTINUOUS
  0
ARC
  8
WHITE
 10
3.812712
 20
15.025732
 30
0.000000
 40
0.151805
 50
-133.962277
 51
-52.030005
  6
CONTINUOUS
  0
ARC
  8
WHITE
 10
3.808588
 20
14.981758
 30
0.000000
 40
0.123453
 50
-37.819333
 51
24.036398
  6
CONTINUOUS
  0
ARC
  8
WHITE
 10
3.450193
 20
14.632198
 30
0.000000
 40
0.617941
 50
40.320297
 51
68.528743
  6
CONTINUOUS
  0
ARC
  8
WHITE
 10
3.669909
 20
15.256436
 30
0.000000
 40
0.049605
 50
131.430811
 51
277.496554
  6
CONTINUOUS
  0
LINE
  8
WHITE
 10
3.637085
 20
15.293628
 30
0.000000
 11
3.724020
 21
15.363175
 31
0.000000
  6
CONTINUOUS
  0
ARC
  8
WHITE
 10
3.680985
 20
15.419322
 30
0.000000
 40
0.070742
 50
-52.530666
 51
42.921282
  6
CONTINUOUS
  0
ARC
  8
WHITE
 10
4.449822
 20
17.597595
 30
0.000000
 40
2.247544
 50
-124.168586
 51
-108.604270
  6
CONTINUOUS
  0
ARC
  8
WHITE
 10
3.221943
 20
15.786625
 30
0.000000
 40
0.059566
 50
74.268887
 51
234.714254
  6
CONTINUOUS
  0
ARC
  8
WHITE
 10
2.898027
 20
13.791445
 30
0.000000
 40
2.080496
 50
64.504163
 51
80.592531
  6
CONTINUOUS
  0
ARC
  8
WHITE
 10
3.813292
 20
15.762981
 30
0.000000
 40
0.095699
 50
-101.894707
 51
57.799891
  6
CONTINUOUS
  0
ARC
  8
WHITE
 10
5.248607
 20
18.513703
 30
0.000000
 40
3.007301
 50
-141.361615
 51
-117.407713
  6
CONTINUOUS
  0
ARC
  8
WHITE
 10
2.950350
 20
16.669345
 30
0.000000
 40
0.060762
 50
31.631049
 51
213.356481
  6
CONTINUOUS
  0
ARC
  8
WHITE
 10
8.191994
 20
23.677518
 30
0.000000
 40
8.695057
 50
-126.646798
 51
-119.766345
  6
CONTINUOUS
  0
ARC
  8
WHITE
 10
3.901689
 20
16.220515
 30
0.000000
 40
0.094586
 50
-106.257401
 51
57.851965
  6
CONTINUOUS
  0
ARC
  8
WHITE
 10
5.828518
 20
18.611838
 30
0.000000
 40
2.977092
 50
-158.970634
 51
-129.073194
  6
CONTINUOUS
  0
ARC
  8
WHITE
 10
3.105424
 20
17.589723
 30
0.000000
 40
0.072380
 50
42.339794
 51
219.669047
  6
CONTINUOUS
  0
ARC
  8
WHITE
 10
11.431005
 20
25.160455
 30
0.000000
 40
11.180677
 50
-137.719068
 51
-132.185329
  6
CONTINUOUS
  0
ARC
  8
WHITE
 10
3.948651
 20
16.918156
 30
0.000000
 40
0.049572
 50
-121.383257
 51
43.222270
  6
CONTINUOUS
  0
ARC
  8
WHITE
 10
7.869630
 20
19.813661
 30
0.000000
 40
4.824998
 50
-160.564202
 51
-143.624918
  6
CONTINUOUS
  0
ARC
  8
WHITE
 10
3.371726
 20
18.251904
 30
0.000000
 40
0.068072
 50
50.707076
 51
220.007382
  6
CONTINUOUS
  0
ARC
  8
WHITE
 10
-2.728695
 20
11.932939
 30
0.000000
 40
8.851037
 50
37.493699
 51
46.044232
  6
CONTINUOUS
  0
ARC
  8
WHITE
 10
4.330869
 20
17.348356
 30
0.000000
 40
0.046390
 50
-142.842281
 51
38.181055
  6
CONTINUOUS
  0
ARC
  8
WHITE
 10
7.363182
 20
19.674114
 30
0.000000
 40
3.775140
 50
-164.107687
 51
-142.520621
  6
CONTINUOUS
  0
ARC
  8
WHITE
 10
3.808023
 20
18.691333
 30
0.000000
 40
0.091248
 50
18.761919
 51
213.955474
  6
CONTINUOUS
  0
ARC
  8
WHITE
 10
16.334704
 20
26.443817
 30
0.000000
 40
14.642657
 50
-148.167296
 51
-135.394671
  6
CONTINUOUS
  0
ARC
  8
WHITE
 10
5.940209
 20
16.181381
 30
0.000000
 40
0.036430
 50
-146.852329
 51
-33.148209
  6
CONTINUOUS
  0
ARC
  8
WHITE
 10
6.323195
 20
16.104857
 30
0.000000
 40
0.357000
 50
147.788220
 51
170.877045
  6
CONTINUOUS
  0
ARC
  8
WHITE
 10
6.078581
 20
16.240270
 30
0.000000
 40
0.079446
 50
46.301477
 51
136.301749
  6
CONTINUOUS
  0
ARC
  8
WHITE
 10
16.300627
 20
25.390575
 30
0.000000
 40
13.640064
 50
-138.192559
 51
-128.375024
  6
CONTINUOUS
  0
ARC
  8
WHITE
 10
7.184885
 20
14.103023
 30
0.000000
 40
0.879144
 50
-11.810336
 51
42.525604
  6
CONTINUOUS
  0
ARC
  8
WHITE
 10
6.912603
 20
14.413864
 30
0.000000
 40
1.234557
 50
-49.526861
 51
-23.424051
  6
CONTINUOUS
  0
ARC
  8
WHITE
 10
7.905225
 20
13.198979
 30
0.000000
 40
0.335594
 50
124.748731
 51
189.344871
  6
CONTINUOUS
  0
ARC
  8
WHITE
 10
7.714794
 20
13.151153
 30
0.000000
 40
0.140867
 50
-177.287422
 51
-85.859587
  6
CONTINUOUS
  0
ARC
  8
WHITE
 10
7.586357
 20
12.404940
 30
0.000000
 40
0.621370
 50
-21.183168
 51
77.110666
  6
CONTINUOUS
  0
ARC
  8
WHITE
 10
9.820851
 20
10.700276
 30
0.000000
 40
2.220399
 50
138.194368
 51
187.781324
  6
CONTINUOUS
  0
ARC
  8
WHITE
 10
7.922279
 20
10.482228
 30
0.000000
 40
0.312491
 50
-164.677264
 51
-87.751503
  6
CONTINUOUS
  0
ARC
  8
WHITE
 10
8.152945
 20
5.902377
 30
0.000000
 40
4.273186
 50
62.774787
 51
92.929712
  6
CONTINUOUS
  0
ARC
  8
WHITE
 10
10.023983
 20
9.542334
 30
0.000000
 40
0.180507
 50
9.889573
 51
62.303047
  6
CONTINUOUS
  0
ARC
  8
WHITE
 10
13.004295
 20
10.788526
 30
0.000000
 40
3.054606
 50
-156.557909
 51
-141.210684
  6
CONTINUOUS
  0
ARC
  8
WHITE
 10
10.256041
 20
8.654288
 30
0.000000
 40
0.428505
 50
-46.174955
 51
30.993273
  6
CONTINUOUS
  0
ARC
  8
WHITE
 10
10.396593
 20
8.432261
 30
0.000000
 40
0.178828
 50
-114.449782
 51
-29.155434
  6
CONTINUOUS
  0
LINE
  8
WHITE
 10
10.322577
 20
8.269470
 30
0.000000
 11
10.148240
 21
8.443807
 31
0.000000
  6
CONTINUOUS
  0
ARC
  8
WHITE
 10
9.726531
 20
7.591120
 30
0.000000
 40
0.951269
 50
63.684586
 51
79.214999
  6
CONTINUOUS
  0
ARC
  8
WHITE
 10
9.782738
 20
8.995937
 30
0.000000
 40
0.485865
 50
-109.617582
 51
-75.482086
  6
CONTINUOUS
  0
ARC
  8
WHITE
 10
9.368621
 20
7.699405
 30
0.000000
 40
0.875613
 50
73.342646
 51
126.988061
  6
CONTINUOUS
  0
ARC
  8
WHITE
 10
8.651998
 20
8.886274
 30
0.000000
 40
0.523115
 50
-96.797126
 51
-68.724756
  6
CONTINUOUS
  0
ARC
  8
WHITE
 10
8.597763
 20
8.224378
 30
0.000000
 40
0.142664
 50
93.085121
 51
130.359595
  6
CONTINUOUS
  0
ARC
  8
WHITE
 10
3.112604
 20
21.992335
 30
0.000000
 40
14.685266
 50
-71.903743
 51
-68.455524
  6
CONTINUOUS
  0
ARC
  8
WHITE
 10
7.829973
 20
7.227634
 30
0.000000
 40
0.820773
 50
100.950557
 51
154.827606
  6
CONTINUOUS
  0
ARC
  8
WHITE
 10
10.435374
 20
6.817568
 30
0.000000
 40
3.433215
 50
167.224783
 51
180.903007
  6
CONTINUOUS
  0
ARC
  8
WHITE
 10
5.283525
 20
6.876164
 30
0.000000
 40
1.722751
 50
-33.282705
 51
-3.750983
  6
CONTINUOUS
  0
ARC
  8
WHITE
 10
6.990470
 20
5.803950
 30
0.000000
 40
0.295382
 50
154.574204
 51
191.443648
  6
CONTINUOUS
  0
ARC
  8
WHITE
 10
6.838546
 20
5.805541
 30
0.000000
 40
0.150178
 50
-156.369985
 51
-103.241124
  6
CONTINUOUS
  0
ARC
  8
WHITE
 10
6.800598
 20
4.377871
 30
0.000000
 40
1.281488
 50
60.521697
 51
89.841268
  6
CONTINUOUS
  0
ARC
  8
WHITE
 10
7.039298
 20
4.431518
 30
0.000000
 40
1.131953
 50
49.098248
 51
69.743301
  6
CONTINUOUS
  0
ARC
  8
WHITE
 10
7.711494
 20
5.199982
 30
0.000000
 40
0.111101
 50
-56.209635
 51
51.628802
  6
CONTINUOUS
  0
LINE
  8
WHITE
 10
7.773283
 20
5.107649
 30
0.000000
 11
7.479569
 21
4.848679
 31
0.000000
  6
CONTINUOUS
  0
ARC
  8
WHITE
 10
7.261579
 20
4.888394
 30
0.000000
 40
0.221578
 50
-62.543937
 51
-10.325263
  6
CONTINUOUS
  0
ARC
  8
WHITE
 10
7.226098
 20
4.987165
 30
0.000000
 40
0.325886
 50
-111.413718
 51
-65.015855
  6
CONTINUOUS
  0
LINE
  8
WHITE
 10
7.107117
 20
4.683775
 30
0.000000
 11
7.068511
 21
4.674124
 31
0.000000
  6
CONTINUOUS
  0
LINE
  8
WHITE
 10
7.068511
 20
4.674124
 30
0.000000
 11
6.853720
 21
4.490017
 31
0.000000
  6
CONTINUOUS
  0
LINE
  8
WHITE
 10
6.853720
 20
4.490017
 30
0.000000
 11
6.768429
 21
4.461586
 31
0.000000
  6
CONTINUOUS
  0
ARC
  8
WHITE
 10
6.758507
 20
4.560904
 30
0.000000
 40
0.099812
 50
-132.219475
 51
-84.295147
  6
CONTINUOUS
  0
LINE
  8
WHITE
 10
6.691436
 20
4.486986
 30
0.000000
 11
6.611001
 21
4.527203
 31
0.000000
  6
CONTINUOUS
  0
ARC
  8
WHITE
 10
6.555116
 20
4.426630
 30
0.000000
 40
0.115057
 50
60.940462
 51
120.429623
  6
CONTINUOUS
  0
LINE
  8
WHITE
 10
6.496842
 20
4.525838
 30
0.000000
 11
6.373698
 21
4.387303
 31
0.000000
  6
CONTINUOUS
  0
LINE
  8
WHITE
 10
6.373698
 20
4.387303
 30
0.000000
 11
6.281595
 21
4.350461
 31
0.000000
  6
CONTINUOUS
  0
ARC
  8
WHITE
 10
6.232515
 20
4.543871
 30
0.000000
 40
0.199540
 50
-128.891465
 51
-75.761308
  6
CONTINUOUS
  0
ARC
  8
WHITE
 10
6.042147
 20
4.348874
 30
0.000000
 40
0.076233
 50
31.373045
 51
121.372782
  6
CONTINUOUS
  0
LINE
  8
WHITE
 10
6.002460
 20
4.413961
 30
0.000000
 11
5.929436
 21
4.340936
 31
0.000000
  6
CONTINUOUS
  0
ARC
  8
WHITE
 10
6.215409
 20
4.145685
 30
0.000000
 40
0.346271
 50
145.676234
 51
200.626855
  6
CONTINUOUS
  0
ARC
  8
WHITE
 10
6.144999
 20
4.060774
 30
0.000000
 40
0.256359
 50
-171.684848
 51
-77.275797
  6
CONTINUOUS
  0
LINE
  8
WHITE
 10
6.201465
 20
3.810711
 30
0.000000
 11
6.500229
 21
3.953763
 31
0.000000
  6
CONTINUOUS
  0
ARC
  8
WHITE
 10
6.509779
 20
3.870947
 30
0.000000
 40
0.083365
 50
-0.000181
 51
96.577907
  6
CONTINUOUS
  0
ARC
  8
WHITE
 10
5.919726
 20
3.792484
 30
0.000000
 40
0.677974
 50
-44.974947
 51
6.645783
  6
CONTINUOUS
  0
ARC
  8
WHITE
 10
6.683196
 20
3.301766
 30
0.000000
 40
0.284095
 50
177.674341
 51
213.742878
  6
CONTINUOUS
  0
ARC
  8
WHITE
 10
6.104080
 20
3.072457
 30
0.000000
 40
0.350256
 50
-44.628523
 51
11.779652
  6
CONTINUOUS
  0
LINE
  8
WHITE
 10
6.353349
 20
2.826399
 30
0.000000
 11
6.208835
 21
2.754142
 31
0.000000
  6
CONTINUOUS
  0
ARC
  8
WHITE
 10
6.388169
 20
2.742163
 30
0.000000
 40
0.179734
 50
176.178721
 51
228.198080
  6
CONTINUOUS
  0
ARC
  8
WHITE
 10
7.297608
 20
3.446605
 30
0.000000
 40
1.327515
 50
-140.833594
 51
-100.043955
  6
CONTINUOUS
  0
ARC
  8
WHITE
 10
7.637319
 20
-3.484354
 30
0.000000
 40
5.652726
 50
76.020920
 51
95.799908
  6
CONTINUOUS
  0
ARC
  8
WHITE
 10
10.208535
 20
5.239068
 30
0.000000
 40
3.455293
 50
-110.422670
 51
-101.582494
  6
CONTINUOUS
  0
ARC
  8
WHITE
 10
9.508292
 20
1.744417
 30
0.000000
 40
0.109911
 50
27.158038
 51
86.612820
  6
CONTINUOUS
  0
ARC
  8
WHITE
 10
9.519639
 20
1.768789
 30
0.000000
 40
0.090213
 50
-90.000000
 51
16.615745
  6
CONTINUOUS
  0
ARC
  8
WHITE
 10
9.803040
 20
-1.230184
 30
0.000000
 40
2.922533
 50
95.564774
 51
107.540677
  6
CONTINUOUS
  0
ARC
  8
WHITE
 10
8.101614
 20
2.944747
 30
0.000000
 40
1.612689
 50
-81.188102
 51
-59.412381
  6
CONTINUOUS
  0
ARC
  8
WHITE
 10
8.365230
 20
1.306645
 30
0.000000
 40
0.047435
 50
110.441135
 51
267.821827
  6
CONTINUOUS
  0
ARC
  8
WHITE
 10
6.804918
 20
-5.003043
 30
0.000000
 40
6.453309
 50
71.424935
 51
76.024591
  6
CONTINUOUS
  0
ARC
  8
WHITE
 10
8.798439
 20
0.962468
 30
0.000000
 40
0.163874
 50
18.157141
 51
67.708570
  6
CONTINUOUS
  0
ARC
  8
WHITE
 10
8.837467
 20
1.027738
 30
0.000000
 40
0.117546
 50
-60.068370
 51
-6.939711
  6
CONTINUOUS
  0
ARC
  8
WHITE
 10
7.809456
 20
4.065234
 30
0.000000
 40
3.322114
 50
-88.966825
 51
-70.907172
  6
CONTINUOUS
  0
ARC
  8
WHITE
 10
7.898471
 20
2.919682
 30
0.000000
 40
2.176217
 50
-100.335453
 51
-90.766498
  6
CONTINUOUS
  0
ARC
  8
WHITE
 10
7.498419
 20
0.761750
 30
0.000000
 40
0.019553
 50
60.545626
 51
246.324515
  6
CONTINUOUS
  0
ARC
  8
WHITE
 10
7.908047
 20
1.091454
 30
0.000000
 40
0.543253
 50
-140.217804
 51
-113.351372
  6
CONTINUOUS
  0
ARC
  8
WHITE
 10
7.658148
 20
0.528190
 30
0.000000
 40
0.073188
 50
-76.189442
 51
61.812703
  6
CONTINUOUS
  0
ARC
  8
WHITE
 10
4.280539
 20
12.836437
 30
0.000000
 40
12.836437
 50
-100.659211
 51
-74.663487
  6
CONTINUOUS
  0
ARC
  8
WHITE
 10
1.921798
 20
0.280868
 30
0.000000
 40
0.061382
 50
114.179318
 51
255.299224
  6
CONTINUOUS
  0
ARC
  8
WHITE
 10
2.110740
 20
0.108354
 30
0.000000
 40
0.313128
 50
102.995885
 51
133.132882
  6
CONTINUOUS
  0
ARC
  8
WHITE
 10
2.068767
 20
0.578167
 30
0.000000
 40
0.167144
 50
-99.797923
 51
-62.928036
  6
CONTINUOUS
  0
ARC
  8
WHITE
 10
2.122610
 20
0.483312
 30
0.000000
 40
0.058372
 50
-67.619561
 51
22.380037
  6
CONTINUOUS
  0
ARC
  8
WHITE
 10
2.110307
 20
0.504147
 30
0.000000
 40
0.066293
 50
1.201412
 51
128.070175
  6
CONTINUOUS
  0
ARC
  8
WHITE
 10
1.990054
 20
0.715086
 30
0.000000
 40
0.177488
 50
-100.304895
 51
-63.434911
  6
CONTINUOUS
  0
ARC
  8
WHITE
 10
1.850025
 20
0.311463
 30
0.000000
 40
0.253307
 50
64.693357
 51
105.880511
  6
CONTINUOUS
  0
ARC
  8
WHITE
 10
1.488126
 20
1.571913
 30
0.000000
 40
1.058069
 50
-102.660866
 51
-73.946888
  6
CONTINUOUS
  0
LINE
  8
WHITE
 10
1.256218
 20
0.539571
 30
0.000000
 11
1.148923
 21
0.566394
 31
0.000000
  6
CONTINUOUS
  0
LINE
  8
WHITE
 10
1.148923
 20
0.566394
 30
0.000000
 11
0.428944
 21
0.642790
 31
0.000000
  6
CONTINUOUS
  0
ARC
  8
WHITE
 10
0.407992
 20
1.426317
 30
0.000000
 40
0.783807
 50
-114.480058
 51
-88.468292
  6
CONTINUOUS
  0
ARC
  8
WHITE
 10
0.092197
 20
0.804727
 30
0.000000
 40
0.092197
 50
146.327698
 51
264.400510
  6
CONTINUOUS
  0
ARC
  8
WHITE
 10
0.367494
 20
0.597658
 30
0.000000
 40
0.436557
 50
106.872869
 51
143.742425
  6
CONTINUOUS
  0
ARC
  8
WHITE
 10
2.024751
 20
-5.107091
 30
0.000000
 40
6.377123
 50
94.881808
 51
106.244976
  6
CONTINUOUS
  0
ARC
  8
WHITE
 10
1.518333
 20
1.438922
 30
0.000000
 40
0.195421
 50
-100.698906
 51
-56.479963
  6
CONTINUOUS
  0
ARC
  8
WHITE
 10
1.611037
 20
1.304776
 30
0.000000
 40
0.032549
 50
-62.134329
 51
64.735512
  6
CONTINUOUS
  0
ARC
  8
WHITE
 10
0.828739
 20
-0.658865
 30
0.000000
 40
2.146222
 50
68.224382
 51
79.141591
  6
CONTINUOUS
  0
ARC
  8
WHITE
 10
1.229939
 20
1.518949
 30
0.000000
 40
0.070087
 50
111.637513
 51
272.544139
  6
CONTINUOUS
  0
ARC
  8
WHITE
 10
2.460575
 20
-2.366994
 30
0.000000
 40
4.146066
 50
89.244395
 51
107.641091
  6
CONTINUOUS
  0
ARC
  8
WHITE
 10
2.524497
 20
1.806007
 30
0.000000
 40
0.028820
 50
-108.712593
 51
0.367565
  6
CONTINUOUS
  0
ARC
  8
WHITE
 10
3.230688
 20
1.843317
 30
0.000000
 40
0.678388
 50
131.651214
 51
183.137063
  6
CONTINUOUS
  0
ARC
  8
WHITE
 10
2.756074
 20
2.370594
 30
0.000000
 40
0.031305
 50
-40.622918
 51
40.620184
  6
CONTINUOUS
  0
ARC
  8
WHITE
 10
3.168507
 20
2.595167
 30
0.000000
 40
0.439045
 50
89.787217
 51
207.715667
  6
CONTINUOUS
  0
LINE
  8
WHITE
 10
3.170138
 20
3.034208
 30
0.000000
 11
3.207165
 21
3.031945
 31
0.000000
  6
CONTINUOUS
  0
LINE
  8
WHITE
 10
3.207165
 20
3.031945
 30
0.000000
 11
3.252117
 21
3.016961
 31
0.000000
  6
CONTINUOUS
  0
ARC
  8
WHITE
 10
3.838956
 20
5.728252
 30
0.000000
 40
2.774073
 50
-102.212861
 51
-95.835129
  6
CONTINUOUS
  0
ARC
  8
WHITE
 10
3.525179
 20
3.016961
 30
0.000000
 40
0.057890
 50
-56.742124
 51
33.261092
  6
CONTINUOUS
  0
ARC
  8
WHITE
 10
3.139314
 20
2.527387
 30
0.000000
 40
0.678505
 50
50.205176
 51
108.616817
  6
CONTINUOUS
  0
ARC
  8
WHITE
 10
3.522819
 20
2.297601
 30
0.000000
 40
1.059194
 50
124.511514
 51
146.902074
  6
CONTINUOUS
  0
ARC
  8
WHITE
 10
2.560734
 20
2.999575
 30
0.000000
 40
0.144431
 50
-163.738686
 51
-58.828198
  6
CONTINUOUS
  0
ARC
  8
WHITE
 10
3.063745
 20
3.225382
 30
0.000000
 40
0.694711
 50
172.817733
 51
202.535426
  6
CONTINUOUS
  0
LINE
  8
WHITE
 10
2.374485
 20
3.312240
 30
0.000000
 11
2.330043
 21
3.334461
 31
0.000000
  6
CONTINUOUS
  0
LINE
  8
WHITE
 10
2.330043
 20
3.334461
 30
0.000000
 11
2.235756
 21
3.334461
 31
0.000000
  6
CONTINUOUS
  0
LINE
  8
WHITE
 10
2.235756
 20
3.334461
 30
0.000000
 11
2.077006
 21
3.413836
 31
0.000000
  6
CONTINUOUS
  0
ARC
  8
WHITE
 10
2.046280
 20
3.373767
 30
0.000000
 40
0.050494
 50
52.518372
 51
151.370144
  6
CONTINUOUS
  0
ARC
  8
WHITE
 10
1.786848
 20
3.554256
 30
0.000000
 40
0.265897
 50
169.143856
 51
323.998754
  6
CONTINUOUS
  0
ARC
  8
WHITE
 10
1.501244
 20
3.611620
 30
0.000000
 40
0.025527
 50
-16.578508
 51
106.577911
  6
CONTINUOUS
  0
ARC
  8
WHITE
 10
1.438665
 20
3.823487
 30
0.000000
 40
0.195388
 50
149.086311
 51
286.439348
  6
CONTINUOUS
  0
ARC
  8
WHITE
 10
6.848265
 20
4.485827
 30
0.000000
 40
1.403342
 50
171.249341
 51
199.694776
  6
CONTINUOUS
  0
ARC
  8
WHITE
 10
4.171289
 20
3.750796
 30
0.000000
 40
1.380829
 50
-17.725145
 51
10.941532
  6
CONTINUOUS
  0
ARC
  8
WHITE
 10
5.016912
 20
3.751337
 30
0.000000
 40
0.630684
 50
-128.108358
 51
-41.868753
  6
CONTINUOUS
  0
ARC
  8
WHITE
 10
5.289106
 20
4.372653
 30
0.000000
 40
1.298627
 50
-156.580498
 51
-120.618756
  6
CONTINUOUS
  0
ARC
  8
WHITE
 10
4.338286
 20
3.984418
 30
0.000000
 40
0.272690
 50
152.024326
 51
207.975674
  6
CONTINUOUS
  0
ARC
  8
WHITE
 10
4.166306
 20
4.053735
 30
0.000000
 40
0.090409
 50
92.046839
 51
139.595247
  6
CONTINUOUS
  0
ARC
  8
WHITE
 10
4.297750
 20
4.253097
 30
0.000000
 40
0.173264
 50
-141.011667
 51
-95.344367
  6
CONTINUOUS
  0
ARC
  8
WHITE
 10
4.303638
 20
4.160563
 30
0.000000
 40
0.082954
 50
-105.397866
 51
-10.106961
  6
CONTINUOUS
  0
ARC
  8
WHITE
 10
52.423337
 20
-0.094628
 30
0.000000
 40
48.224843
 50
173.256879
 51
174.955201
  6
CONTINUOUS
  0
ARC
  8
WHITE
 10
4.691612
 20
5.541980
 30
0.000000
 40
0.161609
 50
73.958856
 51
170.790632
  6
CONTINUOUS
  0
ARC
  8
WHITE
 10
4.716459
 20
4.274086
 30
0.000000
 40
1.423349
 50
68.345461
 51
89.202534
  6
CONTINUOUS
  0
ARC
  8
WHITE
 10
5.380035
 20
5.791693
 30
0.000000
 40
0.238855
 50
-125.394796
 51
-75.844515
  6
CONTINUOUS
  0
ARC
  8
WHITE
 10
5.915610
 20
4.887535
 30
0.000000
 40
0.824630
 50
110.790188
 51
125.354786
  6
CONTINUOUS
  0
ARC
  8
WHITE
 10
5.700395
 20
5.232798
 30
0.000000
 40
0.432667
 50
75.782025
 51
100.316535
  6
CONTINUOUS
  0
ARC
  8
WHITE
 10
5.731540
 20
5.527876
 30
0.000000
 40
0.145268
 50
-67.826561
 51
58.859936
  6
CONTINUOUS
  0
ARC
  8
WHITE
 10
6.550170
 20
4.606338
 30
0.000000
 40
1.096716
 50
134.142596
 51
170.096496
  6
CONTINUOUS
  0
LINE
  8
WHITE
 10
5.469796
 20
4.794961
 30
0.000000
 11
5.461258
 21
4.699324
 31
0.000000
  6
CONTINUOUS
  0
ARC
  8
WHITE
 10
7.817011
 20
8.393612
 30
0.000000
 40
0.239180
 50
12.704019
 51
57.981685
  6
CONTINUOUS
  0
ARC
  8
WHITE
 10
8.144231
 20
8.980516
 30
0.000000
 40
0.433247
 50
-140.215770
 51
-117.553368
  6
CONTINUOUS
  0
ARC
  8
WHITE
 10
7.950574
 20
8.763514
 30
0.000000
 40
0.151742
 50
166.835108
 51
203.386776
  6
CONTINUOUS
  0
ARC
  8
WHITE
 10
7.676379
 20
8.832831
 30
0.000000
 40
0.131131
 50
-15.370341
 51
30.573941
  6
CONTINUOUS
  0
LINE
  8
WHITE
 10
7.789280
 20
8.899531
 30
0.000000
 11
7.656085
 21
9.015470
 31
0.000000
  6
CONTINUOUS
  0
ARC
  8
WHITE
 10
8.116125
 20
9.238111
 30
0.000000
 40
0.511083
 50
165.642468
 51
205.825058
  6
CONTINUOUS
  0
ARC
  8
WHITE
 10
7.908811
 20
9.053128
 30
0.000000
 40
0.424265
 50
105.373400
 51
132.716097
  6
CONTINUOUS
  0
ARC
  8
WHITE
 10
7.580358
 20
9.637815
 30
0.000000
 40
0.278357
 50
-39.113419
 51
26.919197
  6
CONTINUOUS
  0
ARC
  8
WHITE
 10
7.904877
 20
9.833602
 30
0.000000
 40
0.103404
 50
66.969270
 51
222.429668
  6
CONTINUOUS
  0
ARC
  8
WHITE
 10
6.135420
 20
-9.267938
 30
0.000000
 40
19.281835
 50
79.917826
 51
84.613935
  6
CONTINUOUS
  0
ARC
  8
WHITE
 10
9.272568
 20
8.767634
 30
0.000000
 40
0.977993
 50
30.632482
 51
75.894939
  6
CONTINUOUS
  0
ARC
  8
WHITE
 10
10.047138
 20
9.229143
 30
0.000000
 40
0.076398
 50
-116.186602
 51
28.801508
  6
CONTINUOUS
  0
ARC
  8
WHITE
 10
9.217697
 20
8.328646
 30
0.000000
 40
1.151219
 50
46.274537
 51
68.041264
  6
CONTINUOUS
  0
ARC
  8
WHITE
 10
9.618390
 20
9.350641
 30
0.000000
 40
0.054560
 50
56.903301
 51
216.152368
  6
CONTINUOUS
  0
LINE
  8
WHITE
 10
9.574336
 20
9.318454
 30
0.000000
 11
9.717210
 21
9.193439
 31
0.000000
  6
CONTINUOUS
  0
ARC
  8
WHITE
 10
9.653159
 20
9.161137
 30
0.000000
 40
0.071735
 50
-63.238094
 51
26.761955
  6
CONTINUOUS
  0
ARC
  8
WHITE
 10
9.711918
 20
8.938336
 30
0.000000
 40
0.160940
 50
99.462310
 51
152.592520
  6
CONTINUOUS
  0
ARC
  8
WHITE
 10
9.621874
 20
8.970351
 30
0.000000
 40
0.067534
 50
141.470719
 51
222.670891
  6
CONTINUOUS
  0
LINE
  8
WHITE
 10
9.572219
 20
8.924577
 30
0.000000
 11
9.690029
 21
8.806767
 31
0.000000
  6
CONTINUOUS
  0
ARC
  8
WHITE
 10
9.656805
 20
8.778112
 30
0.000000
 40
0.043874
 50
-91.058729
 51
40.776743
  6
CONTINUOUS
  0
ARC
  8
WHITE
 10
9.374613
 20
6.537709
 30
0.000000
 40
2.214486
 50
82.700039
 51
122.826090
  6
CONTINUOUS
  0
ARC
  8
WHITE
 10
8.136060
 20
8.484311
 30
0.000000
 40
0.093811
 50
-156.037549
 51
-66.037396
  6
CONTINUOUS
  0
LINE
  8
WHITE
 10
3.764085
 20
13.811775
 30
0.000000
 11
3.700535
 21
13.826411
 31
0.000000
  6
CONTINUOUS
  0
ARC
  8
WHITE
 10
3.670669
 20
13.682153
 30
0.000000
 40
0.147317
 50
78.303269
 51
249.535510
  6
CONTINUOUS
  0
ARC
  8
WHITE
 10
5.800192
 20
17.097485
 30
0.000000
 40
4.169316
 50
-121.541392
 51
-112.679677
  6
CONTINUOUS
  0
ARC
  8
WHITE
 10
4.154452
 20
13.177196
 30
0.000000
 40
0.082688
 50
-105.681973
 51
62.531883
  6
CONTINUOUS
  0
LINE
  8
WHITE
 10
4.132102
 20
13.097586
 30
0.000000
 11
3.677598
 21
13.335763
 31
0.000000
  6
CONTINUOUS
  0
LINE
  8
WHITE
 10
3.677598
 20
13.335763
 30
0.000000
 11
3.582655
 21
13.351586
 31
0.000000
  6
CONTINUOUS
  0
LINE
  8
WHITE
 10
3.582655
 20
13.351586
 30
0.000000
 11
3.541835
 21
13.351586
 31
0.000000
  6
CONTINUOUS
  0
ARC
  8
WHITE
 10
3.554085
 20
13.200131
 30
0.000000
 40
0.151950
 50
94.624307
 51
216.510433
  6
CONTINUOUS
  0
ARC
  8
WHITE
 10
3.578236
 20
13.161265
 30
0.000000
 40
0.155094
 50
-160.591125
 51
-101.780938
  6
CONTINUOUS
  0
ARC
  8
WHITE
 10
3.377826
 20
12.030229
 30
0.000000
 40
0.993642
 50
56.187509
 51
80.222395
  6
CONTINUOUS
  0
ARC
  8
WHITE
 10
3.895118
 20
12.809957
 30
0.000000
 40
0.058078
 50
-128.032273
 51
52.137686
  6
CONTINUOUS
  0
ARC
  8
WHITE
 10
3.585397
 20
12.272983
 30
0.000000
 40
0.562447
 50
60.853286
 51
80.884916
  6
CONTINUOUS
  0
ARC
  8
WHITE
 10
3.501971
 20
11.891098
 30
0.000000
 40
0.952978
 50
79.569623
 51
96.847475
  6
CONTINUOUS
  0
ARC
  8
WHITE
 10
3.411924
 20
12.667726
 30
0.000000
 40
0.171183
 50
97.915206
 51
218.721827
  6
CONTINUOUS
  0
ARC
  8
WHITE
 10
3.674499
 20
12.828328
 30
0.000000
 40
0.478094
 50
-145.951241
 51
-94.106776
  6
CONTINUOUS
  0
LINE
  8
WHITE
 10
3.640260
 20
12.351461
 30
0.000000
 11
3.859335
 21
12.351461
 31
0.000000
  6
CONTINUOUS
  0
ARC
  8
WHITE
 10
3.851612
 20
12.272857
 30
0.000000
 40
0.078983
 50
-76.894872
 51
84.388264
  6
CONTINUOUS
  0
LINE
  8
WHITE
 10
3.869520
 20
12.195931
 30
0.000000
 11
3.494210
 21
12.212329
 31
0.000000
  6
CONTINUOUS
  0
ARC
  8
WHITE
 10
3.508501
 20
12.117479
 30
0.000000
 40
0.095921
 50
98.568558
 51
242.238186
  6
CONTINUOUS
  0
LINE
  8
WHITE
 10
3.463822
 20
12.032600
 30
0.000000
 11
3.471531
 21
12.024890
 31
0.000000
  6
CONTINUOUS
  0
LINE
  8
WHITE
 10
3.471531
 20
12.024890
 30
0.000000
 11
3.580389
 21
11.970461
 31
0.000000
  6
CONTINUOUS
  0
LINE
  8
WHITE
 10
3.580389
 20
11.970461
 30
0.000000
 11
3.732335
 21
11.893732
 31
0.000000
  6
CONTINUOUS
  0
ARC
  8
WHITE
 10
3.714334
 20
11.853544
 30
0.000000
 40
0.044035
 50
-108.193582
 51
65.871327
  6
CONTINUOUS
  0
ARC
  8
WHITE
 10
3.665777
 20
11.673785
 30
0.000000
 40
0.142250
 50
75.835891
 51
146.859874
  6
CONTINUOUS
  0
ARC
  8
WHITE
 10
3.323402
 20
11.767646
 30
0.000000
 40
0.223842
 50
-44.263320
 51
-4.123098
  6
CONTINUOUS
  0
ARC
  8
WHITE
 10
3.411713
 20
11.680058
 30
0.000000
 40
0.099473
 50
-102.941623
 51
-43.636464
  6
CONTINUOUS
  0
ARC
  8
WHITE
 10
3.465354
 20
11.673797
 30
0.000000
 40
0.118269
 50
164.593745
 51
230.065003
  6
CONTINUOUS
  0
LINE
  8
WHITE
 10
3.351335
 20
11.705216
 30
0.000000
 11
3.398329
 21
11.814868
 31
0.000000
  6
CONTINUOUS
  0
ARC
  8
WHITE
 10
3.122049
 20
11.813388
 30
0.000000
 40
0.276284
 50
0.306876
 51
61.497059
  6
CONTINUOUS
  0
ARC
  8
WHITE
 10
3.273396
 20
12.108140
 30
0.000000
 40
0.055496
 50
129.499838
 51
249.424218
  6
CONTINUOUS
  0
ARC
  8
WHITE
 10
3.176269
 20
12.278595
 30
0.000000
 40
0.141820
 50
-64.153506
 51
42.106415
  6
CONTINUOUS
  0
ARC
  8
WHITE
 10
3.751579
 20
12.901892
 30
0.000000
 40
0.707099
 50
-151.684461
 51
-131.668545
  6
CONTINUOUS
  0
ARC
  8
WHITE
 10
3.386804
 20
12.625415
 30
0.000000
 40
0.264368
 50
123.251890
 51
192.877415
  6
CONTINUOUS
  0
ARC
  8
WHITE
 10
3.104436
 20
12.997822
 30
0.000000
 40
0.204403
 50
-47.759143
 51
-0.816449
  6
CONTINUOUS
  0
ARC
  8
WHITE
 10
3.787245
 20
13.180002
 30
0.000000
 40
0.512983
 50
165.353493
 51
201.150398
  6
CONTINUOUS
  0
ARC
  8
WHITE
 10
1.953710
 20
14.368524
 30
0.000000
 40
1.705651
 50
-38.372171
 51
-32.077495
  6
CONTINUOUS
  0
ARC
  8
WHITE
 10
3.241265
 20
13.491286
 30
0.000000
 40
0.160263
 50
-10.270635
 51
42.858315
  6
CONTINUOUS
  0
ARC
  8
WHITE
 10
3.425039
 20
13.721146
 30
0.000000
 40
0.137840
 50
151.668164
 51
241.252030
  6
CONTINUOUS
  0
LINE
  8
WHITE
 10
3.303710
 20
13.786562
 30
0.000000
 11
3.465636
 21
13.930495
 31
0.000000
  6
CONTINUOUS
  0
LINE
  8
WHITE
 10
3.465636
 20
13.930495
 30
0.000000
 11
3.475454
 21
13.941788
 31
0.000000
  6
CONTINUOUS
  0
ARC
  8
WHITE
 10
3.435952
 20
13.989403
 30
0.000000
 40
0.061868
 50
-50.320572
 51
28.960557
  6
CONTINUOUS
  0
ARC
  8
WHITE
 10
3.300810
 20
13.941775
 30
0.000000
 40
0.204557
 50
22.288993
 51
53.860267
  6
CONTINUOUS
  0
ARC
  8
WHITE
 10
3.505078
 20
14.216292
 30
0.000000
 40
0.137640
 50
100.306523
 51
232.584517
  6
CONTINUOUS
  0
ARC
  8
WHITE
 10
3.477899
 20
14.445973
 30
0.000000
 40
0.094297
 50
-88.448627
 51
17.381361
  6
CONTINUOUS
  0
LINE
  8
WHITE
 10
3.567890
 20
14.474143
 30
0.000000
 11
3.557432
 21
14.611504
 31
0.000000
  6
CONTINUOUS
  0
ARC
  8
WHITE
 10
3.617436
 20
14.641322
 30
0.000000
 40
0.067004
 50
24.596340
 51
206.424165
  6
CONTINUOUS
  0
ARC
  8
WHITE
 10
4.237147
 20
14.747434
 30
0.000000
 40
0.564235
 50
-172.031086
 51
-146.972819
  6
CONTINUOUS
  0
ARC
  8
WHITE
 10
3.685876
 20
14.380394
 30
0.000000
 40
0.098277
 50
-49.018823
 51
37.268060
  6
CONTINUOUS
  0
ARC
  8
WHITE
 10
3.890036
 20
14.106170
 30
0.000000
 40
0.243991
 50
124.931760
 51
161.799863
  6
CONTINUOUS
  0
ARC
  8
WHITE
 10
3.917792
 20
14.167229
 30
0.000000
 40
0.259982
 50
176.659579
 51
262.790432
  6
CONTINUOUS
  0
ARC
  8
WHITE
 10
3.920836
 20
13.518737
 30
0.000000
 40
0.392191
 50
39.269615
 51
95.218440
  6
CONTINUOUS
  0
ARC
  8
WHITE
 10
4.154835
 20
13.725971
 30
0.000000
 40
0.080806
 50
-115.784409
 51
30.498898
  6
CONTINUOUS
  0
ARC
  8
WHITE
 10
4.301582
 20
14.539157
 30
0.000000
 40
0.904427
 50
-126.462398
 51
-101.602335
  6
CONTINUOUS
  0
ARC
  8
WHITE
 10
3.799456
 20
2.476622
 30
0.000000
 40
0.021584
 50
-45.931896
 51
99.062932
  6
CONTINUOUS
  0
ARC
  8
WHITE
 10
3.815493
 20
1.427324
 30
0.000000
 40
1.070789
 50
91.040090
 51
169.117385
  6
CONTINUOUS
  0
ARC
  8
WHITE
 10
2.212039
 20
1.551132
 30
0.000000
 40
0.557456
 50
-89.720366
 51
8.080075
  6
CONTINUOUS
  0
ARC
  8
WHITE
 10
2.766845
 20
-1.999420
 30
0.000000
 40
3.043593
 50
100.450894
 51
108.078130
  6
CONTINUOUS
  0
ARC
  8
WHITE
 10
1.611335
 20
1.582964
 30
0.000000
 40
0.720635
 50
-92.256872
 51
-72.971041
  6
CONTINUOUS
  0
ARC
  8
WHITE
 10
1.574476
 20
0.821155
 30
0.000000
 40
0.042586
 50
78.513228
 51
266.495055
  6
CONTINUOUS
  0
ARC
  8
WHITE
 10
1.625831
 20
1.321789
 30
0.000000
 40
0.545815
 50
-95.673458
 51
-67.535660
  6
CONTINUOUS
  0
ARC
  8
WHITE
 10
1.984152
 20
0.172769
 30
0.000000
 40
0.661791
 50
74.973948
 51
103.079028
  6
CONTINUOUS
  0
ARC
  8
WHITE
 10
2.405723
 20
1.413940
 30
0.000000
 40
0.651853
 50
-112.551740
 51
-58.203082
  6
CONTINUOUS
  0
ARC
  8
WHITE
 10
2.229068
 20
1.646918
 30
0.000000
 40
0.943345
 50
-56.539603
 51
-23.013440
  6
CONTINUOUS
  0
ARC
  8
WHITE
 10
2.768744
 20
1.347191
 30
0.000000
 40
0.335772
 50
-11.870876
 51
20.234696
  6
CONTINUOUS
  0
ARC
  8
WHITE
 10
3.403925
 20
1.630651
 30
0.000000
 40
0.361224
 50
152.866324
 51
207.595510
  6
CONTINUOUS
  0
ARC
  8
WHITE
 10
4.717375
 20
0.732982
 30
0.000000
 40
1.949790
 50
117.585988
 51
146.983160
  6
CONTINUOUS
  0
ARC
  8
WHITE
 10
0.904300
 20
11.456359
 30
0.000000
 40
5.814848
 50
-77.134408
 51
-64.141890
  6
CONTINUOUS
  0
ARC
  8
WHITE
 10
3.447169
 20
6.138308
 30
0.000000
 40
0.085670
 50
-38.550863
 51
94.524153
  6
CONTINUOUS
  0
ARC
  8
WHITE
 10
3.126013
 20
6.366587
 30
0.000000
 40
0.479584
 50
-64.104834
 51
-35.966986
  6
CONTINUOUS
  0
LINE
  8
WHITE
 10
3.335460
 20
5.935156
 30
0.000000
 11
2.905155
 21
5.683961
 31
0.000000
  6
CONTINUOUS
  0
ARC
  8
WHITE
 10
0.140001
 20
10.917161
 30
0.000000
 40
5.918823
 50
-74.714887
 51
-62.148611
  6
CONTINUOUS
  0
ARC
  8
WHITE
 10
1.672974
 20
5.287261
 30
0.000000
 40
0.084124
 50
120.804707
 51
288.980696
  6
CONTINUOUS
  0
ARC
  8
WHITE
 10
1.374482
 20
6.000598
 30
0.000000
 40
0.690086
 50
-68.277382
 51
-24.382620
  6
CONTINUOUS
  0
ARC
  8
WHITE
 10
2.171590
 20
5.558919
 30
0.000000
 40
0.230217
 50
83.146612
 51
137.073479
  6
CONTINUOUS
  0
ARC
  8
WHITE
 10
2.952738
 20
0.546942
 30
0.000000
 40
0.095637
 50
68.153450
 51
255.215244
  6
CONTINUOUS
  0
ARC
  8
WHITE
 10
4.677138
 20
7.666734
 30
0.000000
 40
7.421257
 50
-103.629831
 51
-81.202846
  6
CONTINUOUS
  0
ARC
  8
WHITE
 10
5.813337
 20
0.404702
 30
0.000000
 40
0.071932
 50
-90.968667
 51
70.952707
  6
CONTINUOUS
  0
ARC
  8
WHITE
 10
4.838813
 20
8.002267
 30
0.000000
 40
7.595422
 50
-104.100991
 51
-82.449804
  6
CONTINUOUS
  0
ARC
  8
WHITE
 10
6.159894
 20
6.099074
 30
0.000000
 40
0.194528
 50
-97.501148
 51
-33.453394
  6
CONTINUOUS
  0
ARC
  8
WHITE
 10
7.935521
 20
5.297816
 30
0.000000
 40
1.756270
 50
150.429569
 51
156.723500
  6
CONTINUOUS
  0
ARC
  8
WHITE
 10
6.052884
 20
6.514580
 30
0.000000
 40
0.498649
 50
-44.588489
 51
31.354851
  6
CONTINUOUS
  0
ARC
  8
WHITE
 10
6.680043
 20
6.887815
 30
0.000000
 40
0.231254
 50
119.470747
 51
209.470256
  6
CONTINUOUS
  0
LINE
  8
WHITE
 10
6.566271
 20
7.089147
 30
0.000000
 11
6.744864
 21
7.220116
 31
0.000000
  6
CONTINUOUS
  0
LINE
  8
WHITE
 10
6.744864
 20
7.220116
 30
0.000000
 11
6.843835
 21
7.319086
 31
0.000000
  6
CONTINUOUS
  0
ARC
  8
WHITE
 10
6.796726
 20
7.366711
 30
0.000000
 40
0.066988
 50
-45.311849
 51
134.688151
  6
CONTINUOUS
  0
LINE
  8
WHITE
 10
6.749616
 20
7.414336
 30
0.000000
 11
6.590866
 21
7.303211
 31
0.000000
  6
CONTINUOUS
  0
ARC
  8
WHITE
 10
6.560355
 20
7.330870
 30
0.000000
 40
0.041181
 50
145.700321
 51
317.807281
  6
CONTINUOUS
  0
LINE
  8
WHITE
 10
6.526335
 20
7.354076
 30
0.000000
 11
6.637460
 21
7.560450
 31
0.000000
  6
CONTINUOUS
  0
ARC
  8
WHITE
 10
6.581229
 20
7.609290
 30
0.000000
 40
0.074480
 50
-40.976588
 51
120.098767
  6
CONTINUOUS
  0
LINE
  8
WHITE
 10
6.543878
 20
7.673728
 30
0.000000
 11
6.492694
 21
7.609749
 31
0.000000
  6
CONTINUOUS
  0
LINE
  8
WHITE
 10
6.492694
 20
7.609749
 30
0.000000
 11
6.397395
 21
7.435033
 31
0.000000
  6
CONTINUOUS
  0
LINE
  8
WHITE
 10
6.397395
 20
7.435033
 30
0.000000
 11
6.337654
 21
7.355379
 31
0.000000
  6
CONTINUOUS
  0
ARC
  8
WHITE
 10
6.610387
 20
7.159569
 30
0.000000
 40
0.335745
 50
144.323344
 51
196.344510
  6
CONTINUOUS
  0
ARC
  8
WHITE
 10
5.128249
 20
6.748517
 30
0.000000
 40
1.202384
 50
-27.686816
 51
15.265046
  6
CONTINUOUS
  0
LINE
  8
WHITE
 10
6.192960
 20
6.189844
 30
0.000000
 11
6.146716
 21
6.128185
 31
0.000000
  6
CONTINUOUS
  0
ARC
  8
WHITE
 10
6.090544
 20
6.039318
 30
0.000000
 40
0.105132
 50
57.703226
 51
146.912630
  6
CONTINUOUS
  0
ARC
  8
WHITE
 10
6.128847
 20
6.043302
 30
0.000000
 40
0.137208
 50
157.091892
 51
272.361169
  6
CONTINUOUS
  0
ARC
  8
WHITE
 10
6.324204
 20
14.625629
 30
0.000000
 40
0.455373
 50
-10.165339
 51
48.787314
  6
CONTINUOUS
  0
ARC
  8
WHITE
 10
6.653754
 20
15.016736
 30
0.000000
 40
0.056818
 50
60.293339
 51
238.692121
  6
CONTINUOUS
  0
LINE
  8
WHITE
 10
6.681910
 20
15.066086
 30
0.000000
 11
6.814683
 21
14.916716
 31
0.000000
  6
CONTINUOUS
  0
ARC
  8
WHITE
 10
6.611316
 20
14.654541
 30
0.000000
 40
0.331804
 50
-22.237096
 51
52.199595
  6
CONTINUOUS
  0
ARC
  8
WHITE
 10
7.053436
 20
14.368542
 30
0.000000
 40
0.209670
 50
130.078628
 51
219.418705
  6
CONTINUOUS
  0
ARC
  8
WHITE
 10
6.859868
 20
14.190370
 30
0.000000
 40
0.055011
 50
-54.949855
 51
54.949855
  6
CONTINUOUS
  0
ARC
  8
WHITE
 10
6.978024
 20
13.895284
 30
0.000000
 40
0.264612
 50
109.095052
 51
202.016909
  6
CONTINUOUS
  0
ARC
  8
WHITE
 10
6.690151
 20
13.778396
 30
0.000000
 40
0.046089
 50
-96.310926
 51
22.571348
  6
CONTINUOUS
  0
ARC
  8
WHITE
 10
6.722901
 20
13.497905
 30
0.000000
 40
0.237709
 50
99.153913
 51
175.237866
  6
CONTINUOUS
  0
ARC
  8
WHITE
 10
6.454118
 20
13.519300
 30
0.000000
 40
0.031938
 50
-87.018791
 51
-2.981207
  6
CONTINUOUS
  0
ARC
  8
WHITE
 10
6.496393
 20
13.265627
 30
0.000000
 40
0.225467
 50
100.377458
 51
186.408482
  6
CONTINUOUS
  0
ARC
  8
WHITE
 10
6.217245
 20
13.228676
 30
0.000000
 40
0.056337
 50
-140.492987
 51
12.074896
  6
CONTINUOUS
  0
ARC
  8
WHITE
 10
6.263021
 20
13.313510
 30
0.000000
 40
0.150088
 50
143.522260
 51
233.515785
  6
CONTINUOUS
  0
LINE
  8
WHITE
 10
6.142337
 20
13.402739
 30
0.000000
 11
6.224710
 21
13.516435
 31
0.000000
  6
CONTINUOUS
  0
ARC
  8
WHITE
 10
6.212102
 20
13.525542
 30
0.000000
 40
0.015553
 50
-35.840196
 51
35.840196
  6
CONTINUOUS
  0
LINE
  8
WHITE
 10
6.224710
 20
13.534648
 30
0.000000
 11
6.046998
 21
13.696205
 31
0.000000
  6
CONTINUOUS
  0
ARC
  8
WHITE
 10
6.125130
 20
13.681857
 30
0.000000
 40
0.079439
 50
56.974579
 51
169.594444
  6
CONTINUOUS
  0
LINE
  8
WHITE
 10
6.168426
 20
13.748461
 30
0.000000
 11
6.320922
 21
13.672213
 31
0.000000
  6
CONTINUOUS
  0
ARC
  8
WHITE
 10
6.331849
 20
13.695458
 30
0.000000
 40
0.025686
 50
-115.176556
 51
-11.693341
  6
CONTINUOUS
  0
ARC
  8
WHITE
 10
6.746924
 20
13.453168
 30
0.000000
 40
0.456342
 50
112.273044
 51
148.699062
  6
CONTINUOUS
  0
ARC
  8
WHITE
 10
6.560210
 20
13.899154
 30
0.000000
 40
0.027394
 50
-59.870215
 51
59.870215
  6
CONTINUOUS
  0
ARC
  8
WHITE
 10
6.812912
 20
14.774453
 30
0.000000
 40
0.884495
 50
-137.956860
 51
-105.673540
  6
CONTINUOUS
  0
ARC
  8
WHITE
 10
6.197915
 20
14.215093
 30
0.000000
 40
0.053294
 50
50.916053
 51
218.228601
  6
CONTINUOUS
  0
ARC
  8
WHITE
 10
6.542674
 20
14.621261
 30
0.000000
 40
0.479478
 50
-130.462837
 51
-84.518723
  6
CONTINUOUS
  0
ARC
  8
WHITE
 10
6.594607
 20
14.290049
 30
0.000000
 40
0.146203
 50
-92.404421
 51
-15.084564
  6
CONTINUOUS
  0
LINE
  8
WHITE
 10
6.735772
 20
14.252001
 30
0.000000
 11
6.772429
 21
14.545260
 31
0.000000
  6
CONTINUOUS
  0
ARC
  8
WHITE
 10
5.341358
 20
11.231918
 30
0.000000
 40
0.146014
 50
-125.611933
 51
32.953245
  6
CONTINUOUS
  0
ARC
  8
WHITE
 10
5.692237
 20
11.455336
 30
0.000000
 40
0.269963
 50
117.269862
 51
212.234049
  6
CONTINUOUS
  0
ARC
  8
WHITE
 10
5.542547
 20
11.754595
 30
0.000000
 40
0.064748
 50
-66.327340
 51
13.197239
  6
CONTINUOUS
  0
ARC
  8
WHITE
 10
5.816428
 20
11.811926
 30
0.000000
 40
0.215093
 50
102.638046
 51
191.409312
  6
CONTINUOUS
  0
ARC
  8
WHITE
 10
5.757488
 20
12.080129
 30
0.000000
 40
0.059518
 50
-78.486665
 51
23.595169
  6
CONTINUOUS
  0
ARC
  8
WHITE
 10
5.970084
 20
12.201408
 30
0.000000
 40
0.185684
 50
113.710415
 51
211.658066
  6
CONTINUOUS
  0
ARC
  8
WHITE
 10
5.865123
 20
12.412596
 30
0.000000
 40
0.051120
 50
-53.657898
 51
34.733055
  6
CONTINUOUS
  0
ARC
  8
WHITE
 10
6.064489
 20
12.555289
 30
0.000000
 40
0.194057
 50
144.142764
 51
215.819037
  6
CONTINUOUS
  0
ARC
  8
WHITE
 10
5.852503
 20
12.690112
 30
0.000000
 40
0.058654
 50
-21.137208
 51
83.064402
  6
CONTINUOUS
  0
ARC
  8
WHITE
 10
5.867277
 20
12.447697
 30
0.000000
 40
0.300738
 50
91.465567
 51
116.607239
  6
CONTINUOUS
  0
ARC
  8
WHITE
 10
5.699169
 20
12.817163
 30
0.000000
 40
0.105982
 50
-108.378518
 51
-71.621482
  6
CONTINUOUS
  0
ARC
  8
WHITE
 10
5.488242
 20
12.430447
 30
0.000000
 40
0.336729
 50
58.185842
 51
97.608128
  6
CONTINUOUS
  0
ARC
  8
WHITE
 10
5.480879
 20
12.707237
 30
0.000000
 40
0.068053
 50
123.154812
 51
266.284239
  6
CONTINUOUS
  0
ARC
  8
WHITE
 10
5.466109
 20
12.346566
 30
0.000000
 40
0.292945
 50
44.195530
 51
87.973496
  6
CONTINUOUS
  0
ARC
  8
WHITE
 10
5.610436
 20
12.493165
 30
0.000000
 40
0.087388
 50
-56.298183
 51
41.247155
  6
CONTINUOUS
  0
LINE
  8
WHITE
 10
5.658925
 20
12.420464
 30
0.000000
 11
5.616168
 21
12.399086
 31
0.000000
  6
CONTINUOUS
  0
ARC
  8
WHITE
 10
5.496024
 20
12.827953
 30
0.000000
 40
0.445378
 50
-93.061786
 51
-74.350113
  6
CONTINUOUS
  0
ARC
  8
WHITE
 10
5.484599
 20
12.326605
 30
0.000000
 40
0.057941
 50
102.320842
 51
247.300115
  6
CONTINUOUS
  0
ARC
  8
WHITE
 10
5.384409
 20
12.037637
 30
0.000000
 40
0.248042
 50
34.138251
 51
71.712848
  6
CONTINUOUS
  0
ARC
  8
WHITE
 10
5.526211
 20
12.129211
 30
0.000000
 40
0.079374
 50
-36.870439
 51
36.870439
  6
CONTINUOUS
  0
ARC
  8
WHITE
 10
5.346982
 20
12.149995
 30
0.000000
 40
0.252183
 50
-75.715510
 51
-15.739619
  6
CONTINUOUS
  0
ARC
  8
WHITE
 10
5.404092
 20
12.326191
 30
0.000000
 40
0.420613
 50
-112.894178
 51
-89.303433
  6
CONTINUOUS
  0
ARC
  8
WHITE
 10
5.215419
 20
11.907067
 30
0.000000
 40
0.040354
 50
51.644057
 51
235.969948
  6
CONTINUOUS
  0
LINE
  8
WHITE
 10
5.192835
 20
11.873623
 30
0.000000
 11
5.335710
 21
11.746624
 31
0.000000
  6
CONTINUOUS
  0
ARC
  8
WHITE
 10
5.286883
 20
11.710376
 30
0.000000
 40
0.060812
 50
-36.588746
 51
36.588746
  6
CONTINUOUS
  0
ARC
  8
WHITE
 10
5.514466
 20
11.451308
 30
0.000000
 40
0.285662
 50
128.738069
 51
204.615757
  6
CONTINUOUS
  0
ARC
  8
WHITE
 10
5.172950
 20
11.290106
 30
0.000000
 40
0.092064
 50
-31.262040
 51
27.292303
  6
CONTINUOUS
  0
ARC
  8
WHITE
 10
5.336712
 20
11.180774
 30
0.000000
 40
0.105001
 50
144.109598
 51
220.049603
  6
CONTINUOUS
  0
ARC
  8
WHITE
 10
5.641461
 20
10.224211
 30
0.000000
 40
0.531806
 50
173.142267
 51
186.857733
  6
CONTINUOUS
  0
ARC
  8
WHITE
 10
5.014527
 20
10.149083
 30
0.000000
 40
0.099614
 50
-38.951187
 51
6.703486
  6
CONTINUOUS
  0
ARC
  8
WHITE
 10
5.038830
 20
10.177193
 30
0.000000
 40
0.105161
 50
-112.197191
 51
-59.631575
  6
CONTINUOUS
  0
ARC
  8
WHITE
 10
4.850956
 20
9.771514
 30
0.000000
 40
0.342056
 50
64.335613
 51
87.387660
  6
CONTINUOUS
  0
ARC
  8
WHITE
 10
4.866546
 20
10.022656
 30
0.000000
 40
0.090558
 50
90.000000
 51
162.699812
  6
CONTINUOUS
  0
ARC
  8
WHITE
 10
4.843585
 20
10.033711
 30
0.000000
 40
0.065454
 50
165.963764
 51
255.963760
  6
CONTINUOUS
  0
ARC
  8
WHITE
 10
4.898924
 20
10.320908
 30
0.000000
 40
0.357855
 50
-101.478616
 51
-76.331975
  6
CONTINUOUS
  0
ARC
  8
WHITE
 10
4.885257
 20
9.856110
 30
0.000000
 40
0.152826
 50
13.134037
 51
50.003738
  6
CONTINUOUS
  0
ARC
  8
WHITE
 10
4.801451
 20
9.819399
 30
0.000000
 40
0.243355
 50
-17.070804
 51
17.070763
  6
CONTINUOUS
  0
ARC
  8
WHITE
 10
4.970761
 20
9.797526
 30
0.000000
 40
0.080415
 50
-99.978841
 51
-38.050936
  6
CONTINUOUS
  0
ARC
  8
WHITE
 10
4.973142
 20
9.668146
 30
0.000000
 40
0.052768
 50
108.011089
 51
198.011089
  6
CONTINUOUS
  0
ARC
  8
WHITE
 10
5.399466
 20
10.067853
 30
0.000000
 40
0.632560
 50
-138.876721
 51
-123.495348
  6
CONTINUOUS
  0
ARC
  8
WHITE
 10
4.829789
 20
9.441044
 30
0.000000
 40
0.241905
 50
-12.635660
 51
24.234905
  6
CONTINUOUS
  0
ARC
  8
WHITE
 10
5.411556
 20
9.505678
 30
0.000000
 40
0.365159
 50
-161.221184
 51
-133.308208
  6
CONTINUOUS
  0
ARC
  8
WHITE
 10
5.091008
 20
9.216148
 30
0.000000
 40
0.074012
 50
-71.232012
 51
18.767988
  6
CONTINUOUS
  0
ARC
  8
WHITE
 10
4.967184
 20
9.713035
 30
0.000000
 40
0.585871
 50
-94.329099
 51
-75.404456
  6
CONTINUOUS
  0
ARC
  8
WHITE
 10
4.929532
 20
9.071917
 30
0.000000
 40
0.057297
 50
96.586717
 51
288.903057
  6
CONTINUOUS
  0
ARC
  8
WHITE
 10
4.936662
 20
8.825050
 30
0.000000
 40
0.193000
 50
3.336470
 51
86.603972
  6
CONTINUOUS
  0
ARC
  8
WHITE
 10
5.034171
 20
8.809641
 30
0.000000
 40
0.098823
 50
-108.792890
 51
15.639593
  6
CONTINUOUS
  0
ARC
  8
WHITE
 10
4.968106
 20
8.532772
 30
0.000000
 40
0.186483
 50
79.423428
 51
161.053651
  6
CONTINUOUS
  0
ARC
  8
WHITE
 10
4.828825
 20
8.578559
 30
0.000000
 40
0.039927
 50
158.304160
 51
291.696280
  6
CONTINUOUS
  0
ARC
  8
WHITE
 10
4.866311
 20
8.176942
 30
0.000000
 40
0.365226
 50
43.931574
 51
93.567406
  6
CONTINUOUS
  0
ARC
  8
WHITE
 10
5.153148
 20
8.485899
 30
0.000000
 40
0.060450
 50
-113.198111
 51
-23.198487
  6
CONTINUOUS
  0
ARC
  8
WHITE
 10
5.594352
 20
8.543446
 30
0.000000
 40
0.394130
 50
137.458738
 51
191.913045
  6
CONTINUOUS
  0
ARC
  8
WHITE
 10
5.282214
 20
8.845909
 30
0.000000
 40
0.042044
 50
-58.854213
 51
58.854451
  6
CONTINUOUS
  0
ARC
  8
WHITE
 10
5.470006
 20
9.024533
 30
0.000000
 40
0.218901
 50
170.000617
 51
220.664073
  6
CONTINUOUS
  0
ARC
  8
WHITE
 10
5.169906
 20
9.207897
 30
0.000000
 40
0.168143
 50
-59.822146
 51
9.568408
  6
CONTINUOUS
  0
ARC
  8
WHITE
 10
5.403023
 20
9.439621
 30
0.000000
 40
0.214604
 50
133.119644
 51
251.719975
  6
CONTINUOUS
  0
ARC
  8
WHITE
 10
5.220356
 20
9.657415
 30
0.000000
 40
0.070948
 50
-59.527422
 51
59.527608
  6
CONTINUOUS
  0
ARC
  8
WHITE
 10
5.384412
 20
9.914511
 30
0.000000
 40
0.234093
 50
-174.195485
 51
-123.169598
  6
CONTINUOUS
  0
ARC
  8
WHITE
 10
5.451124
 20
9.886525
 30
0.000000
 40
0.299636
 50
126.662846
 51
179.175565
  6
CONTINUOUS
  0
ARC
  8
WHITE
 10
5.107680
 20
10.166818
 30
0.000000
 40
0.169308
 50
-13.643654
 51
64.364937
  6
CONTINUOUS
  0
ARC
  8
WHITE
 10
5.163069
 20
10.269852
 30
0.000000
 40
0.052726
 50
70.201142
 51
160.201383
  6
CONTINUOUS
  0
ARC
  8
WHITE
 10
6.309830
 20
1.933480
 30
0.000000
 40
0.037705
 50
30.812513
 51
173.938498
  6
CONTINUOUS
  0
LINE
  8
WHITE
 10
6.272335
 20
1.937461
 30
0.000000
 11
6.272335
 21
1.905711
 31
0.000000
  6
CONTINUOUS
  0
LINE
  8
WHITE
 10
6.272335
 20
1.905711
 30
0.000000
 11
6.328323
 21
1.737749
 31
0.000000
  6
CONTINUOUS
  0
ARC
  8
WHITE
 10
6.296213
 20
1.717517
 30
0.000000
 40
0.037952
 50
-151.377650
 51
32.215103
  6
CONTINUOUS
  0
ARC
  8
WHITE
 10
7.323644
 20
2.387063
 30
0.000000
 40
1.264179
 50
176.839363
 51
212.957069
  6
CONTINUOUS
  0
ARC
  8
WHITE
 10
6.099715
 20
2.471095
 30
0.000000
 40
0.040919
 50
32.509072
 51
200.500609
  6
CONTINUOUS
  0
ARC
  8
WHITE
 10
7.764623
 20
3.765358
 30
0.000000
 40
2.068062
 50
-142.033541
 51
-114.490135
  6
CONTINUOUS
  0
ARC
  8
WHITE
 10
6.879533
 20
1.842402
 30
0.000000
 40
0.049498
 50
-96.192979
 51
55.826992
  6
CONTINUOUS
  0
LINE
  8
WHITE
 10
6.874193
 20
1.793193
 30
0.000000
 11
6.585657
 21
1.937461
 31
0.000000
  6
CONTINUOUS
  0
ARC
  8
WHITE
 10
6.576737
 20
1.898602
 30
0.000000
 40
0.039870
 50
77.071941
 51
210.003647
  6
CONTINUOUS
  0
ARC
  8
WHITE
 10
7.728807
 20
2.601942
 30
0.000000
 40
1.389656
 50
-148.636041
 51
-100.362785
  6
CONTINUOUS
  0
ARC
  8
WHITE
 10
7.451515
 20
1.187779
 30
0.000000
 40
0.054515
 50
-90.094059
 51
59.923470
  6
CONTINUOUS
  0
ARC
  8
WHITE
 10
7.617993
 20
2.519120
 30
0.000000
 40
1.395830
 50
-156.063298
 51
-96.853571
  6
CONTINUOUS
  0
ARC
  8
WHITE
 10
1.427139
 20
4.735923
 30
0.000000
 40
0.063951
 50
135.722800
 51
297.979652
  6
CONTINUOUS
  0
ARC
  8
WHITE
 10
-1.413869
 20
12.483020
 30
0.000000
 40
8.314954
 50
-69.800940
 51
-54.076288
  6
CONTINUOUS
  0
ARC
  8
WHITE
 10
3.415153
 20
5.794135
 30
0.000000
 40
0.066543
 50
-42.033992
 51
104.399835
  6
CONTINUOUS
  0
ARC
  8
WHITE
 10
16.545122
 20
-21.168419
 30
0.000000
 40
30.054783
 50
115.939285
 51
120.300668
  6
CONTINUOUS
  0
ARC
  8
WHITE
 10
6.078189
 20
11.419958
 30
0.000000
 40
0.055312
 50
-80.542075
 51
50.213300
  6
CONTINUOUS
  0
ARC
  8
WHITE
 10
6.210446
 20
11.533810
 30
0.000000
 40
0.120302
 50
122.766828
 51
216.375783
  6
CONTINUOUS
  0
ARC
  8
WHITE
 10
6.103965
 20
11.672408
 30
0.000000
 40
0.055796
 50
-42.143478
 51
42.143478
  6
CONTINUOUS
  0
ARC
  8
WHITE
 10
6.240599
 20
11.798628
 30
0.000000
 40
0.130220
 50
97.008230
 51
222.983056
  6
CONTINUOUS
  0
ARC
  8
WHITE
 10
6.218114
 20
11.955336
 30
0.000000
 40
0.028241
 50
-76.493328
 51
53.506192
  6
CONTINUOUS
  0
ARC
  8
WHITE
 10
6.330856
 20
12.073606
 30
0.000000
 40
0.135420
 50
94.615173
 51
224.886254
  6
CONTINUOUS
  0
ARC
  8
WHITE
 10
6.324368
 20
12.235929
 30
0.000000
 40
0.027695
 50
-99.156687
 51
0.000000
  6
CONTINUOUS
  0
ARC
  8
WHITE
 10
6.552230
 20
12.312351
 30
0.000000
 40
0.214259
 50
119.427331
 51
200.896396
  6
CONTINUOUS
  0
ARC
  8
WHITE
 10
6.440777
 20
12.522390
 30
0.000000
 40
0.024226
 50
-75.213045
 51
12.836213
  6
CONTINUOUS
  0
ARC
  8
WHITE
 10
6.587839
 20
12.615041
 30
0.000000
 40
0.151174
 50
88.293998
 51
215.259061
  6
CONTINUOUS
  0
ARC
  8
WHITE
 10
6.596274
 20
12.810581
 30
0.000000
 40
0.044606
 50
-95.060585
 51
22.584164
  6
CONTINUOUS
  0
ARC
  8
WHITE
 10
7.030935
 20
12.911534
 30
0.000000
 40
0.402305
 50
131.611088
 51
192.026016
  6
CONTINUOUS
  0
ARC
  8
WHITE
 10
6.746576
 20
13.250562
 30
0.000000
 40
0.041928
 50
-65.780573
 51
18.976725
  6
CONTINUOUS
  0
ARC
  8
WHITE
 10
6.956038
 20
13.313010
 30
0.000000
 40
0.176689
 50
102.593008
 51
196.037678
  6
CONTINUOUS
  0
ARC
  8
WHITE
 10
6.904206
 20
13.535781
 30
0.000000
 40
0.052062
 50
-75.188627
 51
12.870894
  6
CONTINUOUS
  0
LINE
  8
WHITE
 10
6.954960
 20
13.547378
 30
0.000000
 11
6.954960
 21
13.621461
 31
0.000000
  6
CONTINUOUS
  0
ARC
  8
WHITE
 10
6.887932
 20
13.611171
 30
0.000000
 40
0.067814
 50
8.727789
 51
121.346821
  6
CONTINUOUS
  0
ARC
  8
WHITE
 10
6.859366
 20
13.620671
 30
0.000000
 40
0.048878
 50
97.892382
 51
193.419594
  6
CONTINUOUS
  0
ARC
  8
WHITE
 10
6.763999
 20
13.582544
 30
0.000000
 40
0.054813
 50
-68.783740
 51
29.250589
  6
CONTINUOUS
  0
ARC
  8
WHITE
 10
6.848830
 20
13.329833
 30
0.000000
 40
0.211831
 50
107.867942
 51
183.780162
  6
CONTINUOUS
  0
ARC
  8
WHITE
 10
6.582711
 20
13.292407
 30
0.000000
 40
0.059564
 50
-61.994510
 51
23.196095
  6
CONTINUOUS
  0
ARC
  8
WHITE
 10
6.719579
 20
13.017430
 30
0.000000
 40
0.247619
 50
116.090069
 51
193.409876
  6
CONTINUOUS
  0
ARC
  8
WHITE
 10
6.447962
 20
12.948919
 30
0.000000
 40
0.032685
 50
-72.953226
 51
19.823125
  6
CONTINUOUS
  0
ARC
  8
WHITE
 10
6.551615
 20
12.662794
 30
0.000000
 40
0.271682
 50
110.258324
 51
205.746231
  6
CONTINUOUS
  0
ARC
  8
WHITE
 10
6.377531
 20
12.376082
 30
0.000000
 40
0.182885
 50
112.717437
 51
202.717875
  6
CONTINUOUS
  0
ARC
  8
WHITE
 10
6.356602
 20
12.040590
 30
0.000000
 40
0.303294
 50
119.157245
 51
178.810010
  6
CONTINUOUS
  0
ARC
  8
WHITE
 10
6.329875
 20
11.846179
 30
0.000000
 40
0.341669
 50
144.024416
 51
204.306388
  6
CONTINUOUS
  0
ARC
  8
WHITE
 10
6.122267
 20
11.549501
 30
0.000000
 40
0.187399
 50
123.625701
 51
259.239098
  6
CONTINUOUS
  0
ARC
  8
WHITE
 10
1.516691
 20
4.399225
 30
0.000000
 40
0.071341
 50
115.754433
 51
295.032557
  6
CONTINUOUS
  0
ARC
  8
WHITE
 10
-0.241769
 20
9.276907
 30
0.000000
 40
5.256024
 50
-70.104593
 51
-47.814321
  6
CONTINUOUS
  0
ARC
  8
WHITE
 10
3.268207
 20
5.422549
 30
0.000000
 40
0.044747
 50
-63.979987
 51
118.930750
  6
CONTINUOUS
  0
LINE
  8
WHITE
 10
3.246561
 20
5.461711
 30
0.000000
 11
3.170361
 21
5.423611
 31
0.000000
  6
CONTINUOUS
  0
ARC
  8
WHITE
 10
-63.183945
 20
119.892263
 30
0.000000
 40
132.310114
 50
-60.740021
 51
-59.900319
  6
CONTINUOUS
  0
ARC
  8
WHITE
 10
13.782142
 20
11.305375
 30
0.000000
 40
7.095751
 50
176.534739
 51
191.835954
  6
CONTINUOUS
  0
ARC
  8
WHITE
 10
6.420161
 20
9.832474
 30
0.000000
 40
0.417460
 50
-67.664113
 51
2.401117
  6
CONTINUOUS
  0
ARC
  8
WHITE
 10
6.533113
 20
9.491513
 30
0.000000
 40
0.064259
 50
147.845743
 51
315.327989
  6
CONTINUOUS
  0
ARC
  8
WHITE
 10
-2.351493
 20
11.195134
 30
0.000000
 40
8.986627
 50
-10.705878
 51
3.470707
  6
CONTINUOUS
  0
ARC
  8
WHITE
 10
6.659157
 20
11.739170
 30
0.000000
 40
0.040505
 50
-6.953440
 51
180.001808
  6
CONTINUOUS
  0
ARC
  8
WHITE
 10
3.231860
 20
5.191836
 30
0.000000
 40
0.039936
 50
-52.657170
 51
137.723814
  6
CONTINUOUS
  0
ARC
  8
WHITE
 10
-13.196140
 20
26.592115
 30
0.000000
 40
26.939414
 50
-56.534829
 51
-52.503283
  6
CONTINUOUS
  0
ARC
  8
WHITE
 10
1.741322
 20
4.043336
 30
0.000000
 40
0.111555
 50
137.511174
 51
318.529865
  6
CONTINUOUS
  0
ARC
  8
WHITE
 10
-2.098367
 20
10.140859
 30
0.000000
 40
7.312883
 50
-57.555085
 51
-42.929320
  6
CONTINUOUS
  0
ARC
  8
WHITE
 10
5.471909
 20
16.135937
 30
0.000000
 40
0.072761
 50
41.728659
 51
243.414134
  6
CONTINUOUS
  0
ARC
  8
WHITE
 10
7.787714
 20
18.277726
 30
0.000000
 40
3.222584
 50
-136.779369
 51
-121.339340
  6
CONTINUOUS
  0
ARC
  8
WHITE
 10
6.014344
 20
15.417828
 30
0.000000
 40
0.144972
 50
-46.799799
 51
47.850872
  6
CONTINUOUS
  0
ARC
  8
WHITE
 10
6.139184
 20
15.279605
 30
0.000000
 40
0.041405
 50
128.189444
 51
231.810556
  6
CONTINUOUS
  0
ARC
  8
WHITE
 10
5.868889
 20
14.965906
 30
0.000000
 40
0.372726
 50
17.231008
 51
48.966277
  6
CONTINUOUS
  0
ARC
  8
WHITE
 10
6.154151
 20
15.064944
 30
0.000000
 40
0.071644
 50
-119.496300
 51
9.134161
  6
CONTINUOUS
  0
LINE
  8
WHITE
 10
6.118876
 20
15.002586
 30
0.000000
 11
6.072008
 21
15.026020
 31
0.000000
  6
CONTINUOUS
  0
LINE
  8
WHITE
 10
6.072008
 20
15.026020
 30
0.000000
 11
5.901632
 21
15.157079
 31
0.000000
  6
CONTINUOUS
  0
ARC
  8
WHITE
 10
5.889629
 20
15.089264
 30
0.000000
 40
0.068869
 50
79.962973
 51
241.005282
  6
CONTINUOUS
  0
ARC
  8
WHITE
 10
3.941928
 20
11.104383
 30
0.000000
 40
4.366628
 50
57.290401
 51
63.998334
  6
CONTINUOUS
  0
ARC
  8
WHITE
 10
6.271776
 20
14.753844
 30
0.000000
 40
0.038708
 50
-107.045710
 51
39.666217
  6
CONTINUOUS
  0
ARC
  8
WHITE
 10
6.228079
 20
14.662415
 30
0.000000
 40
0.063310
 50
59.271055
 51
216.345786
  6
CONTINUOUS
  0
ARC
  8
WHITE
 10
5.829131
 20
14.294639
 30
0.000000
 40
0.479729
 50
19.314527
 51
43.505007
  6
CONTINUOUS
  0
ARC
  8
WHITE
 10
6.351710
 20
14.469187
 30
0.000000
 40
0.071632
 50
-167.195230
 51
-77.196026
  6
CONTINUOUS
  0
ARC
  8
WHITE
 10
6.365615
 20
14.433056
 30
0.000000
 40
0.033777
 50
-86.656708
 51
-3.343290
  6
CONTINUOUS
  0
ARC
  8
WHITE
 10
6.697783
 20
14.480585
 30
0.000000
 40
0.302525
 50
132.196325
 51
189.417106
  6
CONTINUOUS
  0
ARC
  8
WHITE
 10
6.437685
 20
14.750461
 30
0.000000
 40
0.073012
 50
-38.801113
 51
38.801113
  6
CONTINUOUS
  0
LINE
  8
WHITE
 10
6.494585
 20
14.796211
 30
0.000000
 11
6.404626
 21
14.886170
 31
0.000000
  6
CONTINUOUS
  0
ARC
  8
WHITE
 10
6.433954
 20
14.980823
 30
0.000000
 40
0.099092
 50
120.634202
 51
252.784946
  6
CONTINUOUS
  0
ARC
  8
WHITE
 10
6.344659
 20
15.098630
 30
0.000000
 40
0.050642
 50
-39.987257
 51
39.987257
  6
CONTINUOUS
  0
ARC
  8
WHITE
 10
6.431316
 20
15.327050
 30
0.000000
 40
0.201638
 50
140.379254
 51
256.270705
  6
CONTINUOUS
  0
ARC
  8
WHITE
 10
6.222047
 20
15.483179
 30
0.000000
 40
0.060576
 50
-27.045761
 51
80.175469
  6
CONTINUOUS
  0
ARC
  8
WHITE
 10
8.411071
 20
18.650630
 30
0.000000
 40
3.795375
 50
-139.472904
 51
-125.032256
  6
CONTINUOUS
  0
ARC
  8
WHITE
 10
5.108566
 20
0.075408
 30
0.000000
 40
2.115163
 50
129.171333
 51
145.292054
  6
CONTINUOUS
  0
ARC
  8
WHITE
 10
3.798082
 20
0.913126
 30
0.000000
 40
0.563812
 50
139.436311
 51
188.324061
  6
CONTINUOUS
  0
ARC
  8
WHITE
 10
3.363716
 20
0.837196
 30
0.000000
 40
0.123637
 50
-177.360234
 51
19.048579
  6
CONTINUOUS
  0
ARC
  8
WHITE
 10
3.831244
 20
1.003462
 30
0.000000
 40
0.372583
 50
137.717405
 51
199.752145
  6
CONTINUOUS
  0
ARC
  8
WHITE
 10
3.588122
 20
1.222517
 30
0.000000
 40
0.045360
 50
29.151567
 51
135.816665
  6
CONTINUOUS
  0
LINE
  8
WHITE
 10
3.627737
 20
1.244613
 30
0.000000
 11
3.762762
 21
1.096086
 31
0.000000
  6
CONTINUOUS
  0
ARC
  8
WHITE
 10
3.794644
 20
1.104095
 30
0.000000
 40
0.032872
 50
-165.897981
 51
12.359932
  6
CONTINUOUS
  0
ARC
  8
WHITE
 10
4.293254
 20
1.329258
 30
0.000000
 40
0.514977
 50
129.250144
 51
205.059929
  6
CONTINUOUS
  0
ARC
  8
WHITE
 10
4.527624
 20
0.859140
 30
0.000000
 40
1.033842
 50
101.601746
 51
122.810439
  6
CONTINUOUS
  0
LINE
  8
WHITE
 10
4.319710
 20
1.871860
 30
0.000000
 11
4.480416
 21
1.889166
 31
0.000000
  6
CONTINUOUS
  0
ARC
  8
WHITE
 10
4.495622
 20
2.152365
 30
0.000000
 40
0.263637
 50
-93.306488
 51
-42.116116
  6
CONTINUOUS
  0
ARC
  8
WHITE
 10
4.672030
 20
2.005959
 30
0.000000
 40
0.035931
 50
-57.784834
 51
98.167630
  6
CONTINUOUS
  0
ARC
  8
WHITE
 10
4.240951
 20
2.813351
 30
0.000000
 40
0.881571
 50
-83.491620
 51
-61.105494
  6
CONTINUOUS
  0
ARC
  8
WHITE
 10
4.434712
 20
0.859713
 30
0.000000
 40
1.081826
 50
94.975997
 51
127.740512
  6
CONTINUOUS
  0
ARC
  8
WHITE
 10
1.938313
 20
3.757334
 30
0.000000
 40
0.094165
 50
129.721767
 51
287.064714
  6
CONTINUOUS
  0
ARC
  8
WHITE
 10
-1.298939
 20
8.308976
 30
0.000000
 40
5.674901
 50
-54.877941
 51
-35.526071
  6
CONTINUOUS
  0
ARC
  8
WHITE
 10
3.295773
 20
5.038140
 30
0.000000
 40
0.035774
 50
-48.268101
 51
131.731899
  6
CONTINUOUS
  0
ARC
  8
WHITE
 10
-6.741721
 20
14.961598
 30
0.000000
 40
14.079052
 50
-52.247852
 51
-44.663549
  6
CONTINUOUS
  0
ARC
  8
WHITE
 10
3.482188
 20
5.016125
 30
0.000000
 40
0.043087
 50
-49.648971
 51
130.351029
  6
CONTINUOUS
  0
ARC
  8
WHITE
 10
-11.110923
 20
16.354371
 30
0.000000
 40
18.437943
 50
-42.375635
 51
-37.818348
  6
CONTINUOUS
  0
ARC
  8
WHITE
 10
2.595208
 20
3.856357
 30
0.000000
 40
0.110979
 50
140.187906
 51
317.677209
  6
CONTINUOUS
  0
ARC
  8
WHITE
 10
0.169753
 20
6.408924
 30
0.000000
 40
3.631839
 50
-46.336318
 51
-23.112521
  6
CONTINUOUS
  0
ARC
  8
WHITE
 10
5.493665
 20
10.630084
 30
0.000000
 40
0.328287
 50
0.342785
 51
48.271232
  6
CONTINUOUS
  0
ARC
  8
WHITE
 10
5.690630
 20
10.821791
 30
0.000000
 40
0.057485
 50
67.989172
 51
157.987819
  6
CONTINUOUS
  0
ARC
  8
WHITE
 10
5.754985
 20
10.804707
 30
0.000000
 40
0.123830
 50
161.822994
 51
235.563223
  6
CONTINUOUS
  0
ARC
  8
WHITE
 10
5.606409
 20
10.655284
 30
0.000000
 40
0.091690
 50
-31.051574
 51
31.051574
  6
CONTINUOUS
  0
ARC
  8
WHITE
 10
5.914175
 20
10.423312
 30
0.000000
 40
0.294356
 50
141.141892
 51
213.629965
  6
CONTINUOUS
  0
ARC
  8
WHITE
 10
5.652495
 20
10.242251
 30
0.000000
 40
0.024509
 50
-47.395420
 51
47.395420
  6
CONTINUOUS
  0
ARC
  8
WHITE
 10
5.815980
 20
10.073399
 30
0.000000
 40
0.210529
 50
134.246015
 51
225.753985
  6
CONTINUOUS
  0
ARC
  8
WHITE
 10
5.625478
 20
9.889324
 30
0.000000
 40
0.054845
 50
-37.335200
 51
37.335200
  6
CONTINUOUS
  0
ARC
  8
WHITE
 10
5.828491
 20
9.715756
 30
0.000000
 40
0.212358
 50
138.646227
 51
227.476623
  6
CONTINUOUS
  0
ARC
  8
WHITE
 10
5.603344
 20
9.518667
 30
0.000000
 40
0.091148
 50
-26.437337
 51
26.437337
  6
CONTINUOUS
  0
LINE
  8
WHITE
 10
5.684960
 20
9.478086
 30
0.000000
 11
5.653210
 21
9.414586
 31
0.000000
  6
CONTINUOUS
  0
ARC
  8
WHITE
 10
5.732027
 20
9.366961
 30
0.000000
 40
0.092088
 50
148.857479
 51
211.142521
  6
CONTINUOUS
  0
ARC
  8
WHITE
 10
5.803112
 20
9.381816
 30
0.000000
 40
0.162402
 50
-157.373305
 51
-103.775848
  6
CONTINUOUS
  0
ARC
  8
WHITE
 10
5.703242
 20
9.399649
 30
0.000000
 40
0.185923
 50
-70.782182
 51
46.094281
  6
CONTINUOUS
  0
ARC
  8
WHITE
 10
5.886928
 20
9.694895
 30
0.000000
 40
0.170332
 50
116.111856
 51
251.249320
  6
CONTINUOUS
  0
ARC
  8
WHITE
 10
5.777981
 20
9.888588
 30
0.000000
 40
0.053055
 50
-50.173886
 51
50.173886
  6
CONTINUOUS
  0
ARC
  8
WHITE
 10
5.872116
 20
10.072009
 30
0.000000
 40
0.154839
 50
112.861321
 51
247.138679
  6
CONTINUOUS
  0
ARC
  8
WHITE
 10
5.738869
 20
10.260312
 30
0.000000
 40
0.086163
 50
-31.973875
 51
31.973875
  6
CONTINUOUS
  0
ARC
  8
WHITE
 10
5.881874
 20
10.455575
 30
0.000000
 40
0.165164
 50
115.043067
 51
244.956933
  6
CONTINUOUS
  0
ARC
  8
WHITE
 10
5.780892
 20
10.632048
 30
0.000000
 40
0.041054
 50
-40.820122
 51
0.000000
  6
CONTINUOUS
  0
ARC
  8
WHITE
 10
5.438557
 20
1.312604
 30
0.000000
 40
0.064167
 50
-124.487828
 51
48.862491
  6
CONTINUOUS
  0
ARC
  8
WHITE
 10
5.880713
 20
1.709105
 30
0.000000
 40
0.530264
 50
176.249946
 51
221.041612
  6
CONTINUOUS
  0
ARC
  8
WHITE
 10
7.634846
 20
1.027122
 30
0.000000
 40
2.393093
 50
146.584488
 51
162.574082
  6
CONTINUOUS
  0
ARC
  8
WHITE
 10
5.612735
 20
2.371425
 30
0.000000
 40
0.036093
 50
-47.033540
 51
132.966460
  6
CONTINUOUS
  0
ARC
  8
WHITE
 10
6.160497
 20
1.576278
 30
0.000000
 40
1.001277
 50
124.864079
 51
183.497984
  6
CONTINUOUS
  0
ARC
  8
WHITE
 10
5.527028
 20
1.619057
 30
0.000000
 40
0.380399
 50
-164.153803
 51
-109.152726
  6
CONTINUOUS
  0
ARC
  8
WHITE
 10
5.106301
 20
2.884589
 30
0.000000
 40
0.027333
 50
-74.815079
 51
74.815079
  6
CONTINUOUS
  0
ARC
  8
WHITE
 10
4.983919
 20
4.500311
 30
0.000000
 40
1.594614
 50
-130.449022
 51
-85.340355
  6
CONTINUOUS
  0
ARC
  8
WHITE
 10
3.922684
 20
3.252510
 30
0.000000
 40
0.043485
 50
52.127444
 51
214.715812
  6
CONTINUOUS
  0
ARC
  8
WHITE
 10
4.699880
 20
3.705735
 30
0.000000
 40
0.943051
 50
-149.545464
 51
-63.988233
  6
CONTINUOUS
  0
ARC
  8
WHITE
 10
8.865756
 20
11.800631
 30
0.000000
 40
1.722497
 50
150.223168
 51
202.569940
  6
CONTINUOUS
  0
ARC
  8
WHITE
 10
7.307880
 20
11.140241
 30
0.000000
 40
0.032706
 50
-178.733139
 51
-1.264530
  6
CONTINUOUS
  0
ARC
  8
WHITE
 10
11.252613
 20
11.697456
 30
0.000000
 40
3.951621
 50
166.183130
 51
188.116816
  6
CONTINUOUS
  0
ARC
  8
WHITE
 10
7.392954
 20
12.648450
 30
0.000000
 40
0.023533
 50
-17.995276
 51
161.125178
  6
CONTINUOUS
  0
ARC
  8
WHITE
 10
4.054918
 20
2.209816
 30
0.000000
 40
0.039295
 50
122.232048
 51
299.414247
  6
CONTINUOUS
  0
ARC
  8
WHITE
 10
4.678022
 20
0.971199
 30
0.000000
 40
1.347267
 50
90.160307
 51
116.626366
  6
CONTINUOUS
  0
ARC
  8
WHITE
 10
4.502943
 20
3.600654
 30
0.000000
 40
1.293586
 50
-82.389959
 51
-44.159831
  6
CONTINUOUS
  0
ARC
  8
WHITE
 10
5.393798
 20
2.739149
 30
0.000000
 40
0.054370
 50
-46.882044
 51
133.117956
  6
CONTINUOUS
  0
ARC
  8
WHITE
 10
4.347227
 20
3.914725
 30
0.000000
 40
1.519589
 50
-77.776615
 51
-48.374064
  6
CONTINUOUS
  0
ARC
  8
WHITE
 10
4.694377
 20
1.168942
 30
0.000000
 40
1.260901
 50
91.155046
 51
121.585220
  6
CONTINUOUS
  0
ARC
  8
WHITE
 10
10.001682
 20
8.858005
 30
0.000000
 40
0.084669
 50
76.844514
 51
157.276645
  6
CONTINUOUS
  0
ARC
  8
WHITE
 10
9.067407
 20
6.850656
 30
0.000000
 40
2.212435
 50
57.475034
 51
67.232996
  6
CONTINUOUS
  0
ARC
  8
WHITE
 10
9.959837
 20
8.377214
 30
0.000000
 40
0.450684
 50
14.609867
 51
48.755720
  6
CONTINUOUS
  0
ARC
  8
WHITE
 10
10.430493
 20
8.545723
 30
0.000000
 40
0.064806
 50
-122.212338
 51
4.657619
  6
CONTINUOUS
  0
ARC
  8
WHITE
 10
10.072221
 20
8.655033
 30
0.000000
 40
0.435477
 50
-13.823227
 51
32.573919
  6
CONTINUOUS
  0
ARC
  8
WHITE
 10
9.798393
 20
8.341877
 30
0.000000
 40
0.842916
 50
40.516190
 51
61.296252
  6
CONTINUOUS
  0
ARC
  8
WHITE
 10
10.166595
 20
8.981077
 30
0.000000
 40
0.106625
 50
69.904869
 51
159.904846
  6
CONTINUOUS
  0
ARC
  8
WHITE
 10
9.966447
 20
9.024590
 30
0.000000
 40
0.100249
 50
-57.064990
 51
-3.934738
  6
CONTINUOUS
  0
ARC
  8
WHITE
 10
-3.690617
 20
8.369991
 30
0.000000
 40
8.027079
 50
-30.963219
 51
-23.896256
  6
CONTINUOUS
  0
ARC
  8
WHITE
 10
3.678038
 20
5.092322
 30
0.000000
 40
0.039468
 50
13.220815
 51
138.706698
  6
CONTINUOUS
  0
ARC
  8
WHITE
 10
1.519328
 20
5.488127
 30
0.000000
 40
2.230916
 50
-37.558926
 51
-9.983929
  6
CONTINUOUS
  0
ARC
  8
WHITE
 10
3.245923
 20
4.189045
 30
0.000000
 40
0.073874
 50
136.220215
 51
304.565572
  6
CONTINUOUS
  0
ARC
  8
WHITE
 10
3.995997
 20
4.549220
 30
0.000000
 40
0.089086
 50
-178.090809
 51
-16.974201
  6
CONTINUOUS
  0
ARC
  8
WHITE
 10
1.735713
 20
5.145041
 30
0.000000
 40
2.426519
 50
-14.848466
 51
1.854973
  6
CONTINUOUS
  0
ARC
  8
WHITE
 10
4.099605
 20
5.198489
 30
0.000000
 40
0.066290
 50
22.247174
 51
172.003109
  6
CONTINUOUS
  0
ARC
  8
WHITE
 10
-2.397397
 20
6.099607
 30
0.000000
 40
6.492907
 50
-13.841615
 51
-7.895381
  6
CONTINUOUS
  0
ARC
  8
WHITE
 10
8.063285
 20
1.748850
 30
0.000000
 40
0.049599
 50
-86.619083
 51
45.644157
  6
CONTINUOUS
  0
ARC
  8
WHITE
 10
7.891216
 20
1.449468
 30
0.000000
 40
0.393529
 50
58.307549
 51
102.739984
  6
CONTINUOUS
  0
ARC
  8
WHITE
 10
7.702805
 20
2.760196
 30
0.000000
 40
0.932443
 50
-118.073637
 51
-83.742868
  6
CONTINUOUS
  0
ARC
  8
WHITE
 10
7.228539
 20
1.842140
 30
0.000000
 40
0.101701
 50
69.598061
 51
110.401939
  6
CONTINUOUS
  0
ARC
  8
WHITE
 10
7.199880
 20
1.898916
 30
0.000000
 40
0.039140
 50
99.997574
 51
255.641174
  6
CONTINUOUS
  0
ARC
  8
WHITE
 10
7.841509
 20
2.936115
 30
0.000000
 40
1.257025
 50
-121.208638
 51
-79.702677
  6
CONTINUOUS
  0
ARC
  8
WHITE
 10
1.316483
 20
5.723958
 30
0.000000
 40
2.637785
 50
-31.364008
 51
-11.121081
  6
CONTINUOUS
  0
ARC
  8
WHITE
 10
3.937725
 20
5.198997
 30
0.000000
 40
0.036742
 50
-27.008338
 51
153.878758
  6
CONTINUOUS
  0
ARC
  8
WHITE
 10
0.749040
 20
5.677433
 30
0.000000
 40
3.259247
 50
-25.990112
 51
-8.737797
  6
CONTINUOUS
  0
ARC
  8
WHITE
 10
3.620855
 20
4.296994
 30
0.000000
 40
0.075032
 50
133.897551
 51
320.412333
  6
CONTINUOUS
  0
ARC
  8
WHITE
 10
4.327142
 20
6.100531
 30
0.000000
 40
0.217000
 50
-25.011984
 51
13.979843
  6
CONTINUOUS
  0
ARC
  8
WHITE
 10
5.536314
 20
6.400535
 30
0.000000
 40
1.028834
 50
161.257911
 51
193.924460
  6
CONTINUOUS
  0
ARC
  8
WHITE
 10
4.523065
 20
6.740818
 30
0.000000
 40
0.040162
 50
-13.990927
 51
165.438431
  6
CONTINUOUS
  0
ARC
  8
WHITE
 10
5.244217
 20
6.298890
 30
0.000000
 40
0.884287
 50
149.257847
 51
192.754427
  6
CONTINUOUS
  0
ARC
  8
WHITE
 10
4.523791
 20
6.162544
 30
0.000000
 40
0.153762
 50
-157.484589
 51
-90.000000
  6
CONTINUOUS
  0
ARC
  8
WHITE
 10
5.751106
 20
4.781732
 30
0.000000
 40
0.074555
 50
-152.525773
 51
-62.525773
  6
CONTINUOUS
  0
LINE
  8
WHITE
 10
5.785502
 20
4.715586
 30
0.000000
 11
5.875407
 21
4.835458
 31
0.000000
  6
CONTINUOUS
  0
ARC
  8
WHITE
 10
5.732601
 20
4.908722
 30
0.000000
 40
0.160502
 50
-27.159315
 51
8.235394
  6
CONTINUOUS
  0
ARC
  8
WHITE
 10
6.094961
 20
4.917127
 30
0.000000
 40
0.204035
 50
130.968988
 51
175.900663
  6
CONTINUOUS
  0
ARC
  8
WHITE
 10
5.761163
 20
5.312484
 30
0.000000
 40
0.313422
 50
-50.343083
 51
-13.472915
  6
CONTINUOUS
  0
ARC
  8
WHITE
 10
6.034210
 20
5.263273
 30
0.000000
 40
0.039687
 50
-36.870114
 51
143.129886
  6
CONTINUOUS
  0
ARC
  8
WHITE
 10
6.557675
 20
4.579469
 30
0.000000
 40
0.899436
 50
128.118633
 51
165.998958
  6
CONTINUOUS
  0
LINE
  8
WHITE
 10
5.684960
 20
4.797078
 30
0.000000
 11
5.684960
 21
4.747336
 31
0.000000
  6
CONTINUOUS
  0
ARC
  8
WHITE
 10
3.887847
 20
3.737340
 30
0.000000
 40
0.032065
 50
-82.125984
 51
53.410807
  6
CONTINUOUS
  0
LINE
  8
WHITE
 10
3.906960
 20
3.763086
 30
0.000000
 11
3.770085
 21
3.899962
 31
0.000000
  6
CONTINUOUS
  0
ARC
  8
WHITE
 10
3.595744
 20
3.673890
 30
0.000000
 40
0.285488
 50
52.361525
 51
101.561296
  6
CONTINUOUS
  0
ARC
  8
WHITE
 10
3.601769
 20
3.803344
 30
0.000000
 40
0.163010
 50
112.827851
 51
162.378283
  6
CONTINUOUS
  0
ARC
  8
WHITE
 10
3.564355
 20
3.858043
 30
0.000000
 40
0.118067
 50
-177.402374
 51
-107.728799
  6
CONTINUOUS
  0
LINE
  8
WHITE
 10
3.528402
 20
3.745583
 30
0.000000
 11
3.717925
 21
3.713996
 31
0.000000
  6
CONTINUOUS
  0
ARC
  8
WHITE
 10
3.825037
 20
4.122918
 30
0.000000
 40
0.422717
 50
-104.678166
 51
-80.852437
  6
CONTINUOUS
  0
ARC
  8
WHITE
 10
4.642936
 20
1.328651
 30
0.000000
 40
0.026344
 50
-174.479500
 51
-2.046531
  6
CONTINUOUS
  0
ARC
  8
WHITE
 10
5.422873
 20
1.241365
 30
0.000000
 40
0.758541
 50
127.027459
 51
173.463835
  6
CONTINUOUS
  0
ARC
  8
WHITE
 10
4.938413
 20
1.871323
 30
0.000000
 40
0.036877
 50
-41.384014
 51
111.174660
  6
CONTINUOUS
  0
ARC
  8
WHITE
 10
5.023594
 20
1.481468
 30
0.000000
 40
0.435528
 50
103.071456
 51
200.897457
  6
CONTINUOUS
  0
ARC
  8
WHITE
 10
3.461977
 20
2.674432
 30
0.000000
 40
0.029295
 50
-56.055535
 51
82.553089
  6
CONTINUOUS
  0
ARC
  8
WHITE
 10
3.381644
 20
2.196316
 30
0.000000
 40
0.514095
 50
80.581346
 51
140.280753
  6
CONTINUOUS
  0
ARC
  8
WHITE
 10
3.050304
 20
2.497055
 30
0.000000
 40
0.069855
 50
156.565844
 51
298.726893
  6
CONTINUOUS
  0
ARC
  8
WHITE
 10
2.425814
 20
4.117049
 30
0.000000
 40
1.805453
 50
-68.623946
 51
-54.340400
  6
CONTINUOUS
  0
ARC
  8
WHITE
 10
6.355663
 20
4.530196
 30
0.000000
 40
0.027175
 50
-105.320351
 51
10.035261
  6
CONTINUOUS
  0
ARC
  8
WHITE
 10
6.151914
 20
4.616178
 30
0.000000
 40
0.244408
 50
-19.415939
 51
18.670741
  6
CONTINUOUS
  0
ARC
  8
WHITE
 10
6.454898
 20
4.749982
 30
0.000000
 40
0.090502
 50
164.744797
 51
217.874744
  6
CONTINUOUS
  0
ARC
  8
WHITE
 10
6.642752
 20
4.662670
 30
0.000000
 40
0.296759
 50
121.138925
 51
158.008796
  6
CONTINUOUS
  0
ARC
  8
WHITE
 10
6.255077
 20
5.034377
 30
0.000000
 40
0.262131
 50
-26.682169
 51
5.248716
  6
CONTINUOUS
  0
ARC
  8
WHITE
 10
6.465831
 20
5.058357
 30
0.000000
 40
0.050278
 50
-0.000214
 51
130.504758
  6
CONTINUOUS
  0
ARC
  8
WHITE
 10
6.863401
 20
4.700268
 30
0.000000
 40
0.584947
 50
137.349215
 51
190.479324
  6
CONTINUOUS
  0
ARC
  8
WHITE
 10
6.416957
 20
4.615051
 30
0.000000
 40
0.130476
 50
-170.660857
 51
-121.654799
  6
CONTINUOUS
  0
ARC
  8
WHITE
 10
4.422125
 20
1.288647
 30
0.000000
 40
0.068515
 50
29.898584
 51
206.694896
  6
CONTINUOUS
  0
LINE
  8
WHITE
 10
4.360913
 20
1.257867
 30
0.000000
 11
4.392239
 21
0.975933
 31
0.000000
  6
CONTINUOUS
  0
ARC
  8
WHITE
 10
4.488779
 20
1.002126
 30
0.000000
 40
0.100030
 50
-164.820240
 51
-74.819629
  6
CONTINUOUS
  0
LINE
  8
WHITE
 10
4.514973
 20
0.905586
 30
0.000000
 11
4.527451
 21
0.955500
 31
0.000000
  6
CONTINUOUS
  0
LINE
  8
WHITE
 10
4.527451
 20
0.955500
 30
0.000000
 11
4.481521
 21
1.322799
 31
0.000000
  6
CONTINUOUS
  0
ARC
  8
WHITE
 10
2.800875
 20
3.592236
 30
0.000000
 40
0.037107
 50
-174.160685
 51
-95.840611
  6
CONTINUOUS
  0
LINE
  8
WHITE
 10
2.797099
 20
3.555322
 30
0.000000
 11
3.091242
 21
3.582368
 31
0.000000
  6
CONTINUOUS
  0
ARC
  8
WHITE
 10
3.061938
 20
3.637462
 30
0.000000
 40
0.062402
 50
-61.991528
 51
95.404612
  6
CONTINUOUS
  0
LINE
  8
WHITE
 10
3.056061
 20
3.699586
 30
0.000000
 11
2.840027
 21
3.699586
 31
0.000000
  6
CONTINUOUS
  0
ARC
  8
WHITE
 10
2.846016
 20
3.614132
 30
0.000000
 40
0.085664
 50
94.009235
 51
163.311346
  6
CONTINUOUS
  0
LINE
  8
WHITE
 10
2.763960
 20
3.638732
 30
0.000000
 11
2.763960
 21
3.588461
 31
0.000000
  6
CONTINUOUS
  0
ARC
  8
WHITE
 10
7.271369
 20
5.243163
 30
0.000000
 40
0.040335
 50
17.024427
 51
162.041739
  6
CONTINUOUS
  0
ARC
  8
WHITE
 10
7.042210
 20
5.260900
 30
0.000000
 40
0.190862
 50
-78.336128
 51
-1.591534
  6
CONTINUOUS
  0
ARC
  8
WHITE
 10
7.084213
 20
5.013058
 30
0.000000
 40
0.061017
 50
93.209658
 51
190.707612
  6
CONTINUOUS
  0
ARC
  8
WHITE
 10
7.091879
 20
5.006206
 30
0.000000
 40
0.067769
 50
-176.204894
 51
-71.211650
  6
CONTINUOUS
  0
ARC
  8
WHITE
 10
6.922605
 20
5.279876
 30
0.000000
 40
0.388132
 50
-60.504210
 51
-3.678801
  6
CONTINUOUS
  0
ARC
  8
WHITE
 10
6.226442
 20
0.974170
 30
0.000000
 40
0.040826
 50
-115.548752
 51
34.045899
  6
CONTINUOUS
  0
ARC
  8
WHITE
 10
6.606798
 20
1.442617
 30
0.000000
 40
0.564475
 50
-162.269481
 51
-127.871573
  6
CONTINUOUS
  0
ARC
  8
WHITE
 10
6.028071
 20
1.240494
 30
0.000000
 40
0.050985
 50
36.347720
 51
205.493110
  6
CONTINUOUS
  0
ARC
  8
WHITE
 10
6.423522
 20
1.342524
 30
0.000000
 40
0.458549
 50
-164.314243
 51
-117.916735
  6
CONTINUOUS
  0
ARC
  8
WHITE
 10
6.298794
 20
5.671110
 30
0.000000
 40
0.085074
 50
-104.406549
 51
-5.609520
  6
CONTINUOUS
  0
ARC
  8
WHITE
 10
6.251347
 20
5.683423
 30
0.000000
 40
0.133715
 50
-8.874728
 51
72.516785
  6
CONTINUOUS
  0
ARC
  8
WHITE
 10
6.270890
 20
5.702059
 30
0.000000
 40
0.110839
 50
79.274478
 51
188.289605
  6
CONTINUOUS
  0
ARC
  8
WHITE
 10
6.316788
 20
5.753814
 30
0.000000
 40
0.169684
 50
-156.472497
 51
-103.343328
  6
CONTINUOUS
  0
ARC
  8
WHITE
 10
6.162076
 20
3.558814
 30
0.000000
 40
0.351407
 50
-113.228475
 51
-91.004152
  6
CONTINUOUS
  0
ARC
  8
WHITE
 10
6.165459
 20
3.279053
 30
0.000000
 40
0.072225
 50
-97.591536
 51
80.737158
  6
CONTINUOUS
  0
LINE
  8
WHITE
 10
6.177085
 20
3.350336
 30
0.000000
 11
6.063844
 21
3.350336
 31
0.000000
  6
CONTINUOUS
  0
ARC
  8
WHITE
 10
6.057340
 20
3.288290
 30
0.000000
 40
0.062386
 50
84.016050
 51
237.130074
  6
CONTINUOUS
  0
ARC
  8
WHITE
 10
10.198705
 20
8.608576
 30
0.000000
 40
0.032014
 50
5.232589
 51
46.506322
  6
CONTINUOUS
  0
LINE
  8
WHITE
 10
10.220739
 20
8.631801
 30
0.000000
 11
9.950865
 21
8.780656
 31
0.000000
  6
CONTINUOUS
  0
ARC
  8
WHITE
 10
9.944557
 20
8.765169
 30
0.000000
 40
0.016722
 50
67.838315
 51
168.190346
  6
CONTINUOUS
  0
LINE
  8
WHITE
 10
9.928189
 20
8.768591
 30
0.000000
 11
9.905726
 21
8.725269
 31
0.000000
  6
CONTINUOUS
  0
ARC
  8
WHITE
 10
9.922511
 20
8.721960
 30
0.000000
 40
0.017108
 50
168.847577
 51
256.107564
  6
CONTINUOUS
  0
LINE
  8
WHITE
 10
9.918404
 20
8.705352
 30
0.000000
 11
10.027827
 21
8.640131
 31
0.000000
  6
CONTINUOUS
  0
LINE
  8
WHITE
 10
10.027827
 20
8.640131
 30
0.000000
 11
10.060126
 21
8.633880
 31
0.000000
  6
CONTINUOUS
  0
LINE
  8
WHITE
 10
10.060126
 20
8.633880
 30
0.000000
 11
10.190942
 21
8.561165
 31
0.000000
  6
CONTINUOUS
  0
ARC
  8
WHITE
 10
10.195353
 20
8.587249
 30
0.000000
 40
0.026454
 50
-99.598913
 51
-35.411866
  6
CONTINUOUS
  0
LINE
  8
WHITE
 10
10.216914
 20
8.571920
 30
0.000000
 11
10.230586
 21
8.611496
 31
0.000000
  6
CONTINUOUS
  0
ARC
  8
WHITE
 10
-0.264355
 20
0.424275
 30
0.000000
 40
6.732875
 50
26.210261
 51
28.254345
  6
CONTINUOUS
  0
ARC
  8
WHITE
 10
5.705239
 20
3.637717
 30
0.000000
 40
0.046902
 50
22.849544
 51
213.945468
  6
CONTINUOUS
  0
ARC
  8
WHITE
 10
5.439904
 20
3.445794
 30
0.000000
 40
0.373315
 50
-3.943494
 51
34.255956
  6
CONTINUOUS
  0
ARC
  8
WHITE
 10
5.787486
 20
3.420120
 30
0.000000
 40
0.024849
 50
-116.905076
 51
0.000000
  6
CONTINUOUS
  0
ARC
  8
WHITE
 10
6.800211
 20
4.873858
 30
0.000000
 40
0.035754
 50
29.767494
 51
179.233241
  6
CONTINUOUS
  0
LINE
  8
WHITE
 10
6.764460
 20
4.874336
 30
0.000000
 11
6.780335
 21
4.699711
 31
0.000000
  6
CONTINUOUS
  0
ARC
  8
WHITE
 10
6.827058
 20
4.694119
 30
0.000000
 40
0.047057
 50
173.175096
 51
322.663481
  6
CONTINUOUS
  0
ARC
  8
WHITE
 10
6.399981
 20
4.712759
 30
0.000000
 40
0.466882
 50
-5.799750
 51
22.524169
  6
CONTINUOUS
  0
ARC
  8
WHITE
 10
6.658111
 20
4.727862
 30
0.000000
 40
0.040939
 50
-48.786035
 51
120.293590
  6
CONTINUOUS
  0
LINE
  8
WHITE
 10
6.637460
 20
4.763211
 30
0.000000
 11
6.542210
 21
4.699711
 31
0.000000
  6
CONTINUOUS
  0
ARC
  8
WHITE
 10
6.578028
 20
4.670501
 30
0.000000
 40
0.046219
 50
140.802563
 51
312.105791
  6
CONTINUOUS
  0
LINE
  8
WHITE
 10
6.609018
 20
4.636211
 30
0.000000
 11
6.685085
 21
4.697065
 31
0.000000
  6
CONTINUOUS
  0
ARC
  8
WHITE
 10
6.405701
 20
3.647273
 30
0.000000
 40
0.030295
 50
-38.211280
 51
132.524558
  6
CONTINUOUS
  0
LINE
  8
WHITE
 10
6.385224
 20
3.669601
 30
0.000000
 11
6.319960
 21
3.604336
 31
0.000000
  6
CONTINUOUS
  0
ARC
  8
WHITE
 10
6.348919
 20
3.585069
 30
0.000000
 40
0.034783
 50
146.363487
 51
332.068510
  6
CONTINUOUS
  0
LINE
  8
WHITE
 10
6.379650
 20
3.568776
 30
0.000000
 11
6.429505
 21
3.628534
 31
0.000000
  6
CONTINUOUS
  0
CIRCLE
  8
WHITE
 10
9.925185
 20
9.050735
 30
0.000000
 40
0.030000
  6
CONTINUOUS
  0
ARC
  8
WHITE
 10
6.679502
 20
5.474356
 30
0.000000
 40
0.029062
 50
-154.207722
 51
-78.923463
  6
CONTINUOUS
  0
ARC
  8
WHITE
 10
6.660412
 20
5.480519
 30
0.000000
 40
0.042564
 50
-54.572136
 51
17.701698
  6
CONTINUOUS
  0
ARC
  8
WHITE
 10
6.668970
 20
5.469169
 30
0.000000
 40
0.040168
 50
37.211454
 51
89.657361
  6
CONTINUOUS
  0
ARC
  8
WHITE
 10
6.685085
 20
5.477586
 30
0.000000
 40
0.035498
 50
116.564780
 51
206.564780
  6
CONTINUOUS
  0
ENDSEC
  0
EOF
