  0
SECTION
  2
HEADER
  9
$ACADVER
  1
AC1015
  9
$ACADMAINTVER
 70
     6
  9
$DWGCODEPAGE
  3
ANSI_1252
  9
$INSBASE
 10
0.0
 20
0.0
 30
0.0
  9
$EXTMIN
 10
-108.976
 20
-156.407
 30
0.0
  9
$EXTMAX
 10
97.5532
 20
118.7207
 30
0.0
  9
$LIMMIN
 10
0.0
 20
0.0
  9
$LIMMAX
 10
12.0
 20
9.0
  9
$ORTHOMODE
 70
     0
  9
$REGENMODE
 70
     1
  9
$FILLMODE
 70
     1
  9
$QTEXTMODE
 70
     0
  9
$MIRRTEXT
 70
     1
  9
$LTSCALE
 40
1.0
  9
$ATTMODE
 70
     1
  9
$TEXTSIZE
 40
0.2
  9
$TRACEWID
 40
0.05
  9
$TEXTSTYLE
  7
Standard
  9
$CLAYER
  8
0
  9
$CELTYPE
  6
ByLayer
  9
$CECOLOR
 62
   256
  9
$CELTSCALE
 40
1.0
  9
$DISPSILH
 70
     0
  9
$DIMSCALE
 40
1.0
  9
$DIMASZ
 40
0.18
  9
$DIMEXO
 40
0.0625
  9
$DIMDLI
 40
0.38
  9
$DIMRND
 40
0.0
  9
$DIMDLE
 40
0.0
  9
$DIMEXE
 40
0.18
  9
$DIMTP
 40
0.0
  9
$DIMTM
 40
0.0
  9
$DIMTXT
 40
0.18
  9
$DIMCEN
 40
0.09
  9
$DIMTSZ
 40
0.0
  9
$DIMTOL
 70
     0
  9
$DIMLIM
 70
     0
  9
$DIMTIH
 70
     1
  9
$DIMTOH
 70
     1
  9
$DIMSE1
 70
     0
  9
$DIMSE2
 70
     0
  9
$DIMTAD
 70
     0
  9
$DIMZIN
 70
     0
  9
$DIMBLK
  1

  9
$DIMASO
 70
     1
  9
$DIMSHO
 70
     1
  9
$DIMPOST
  1

  9
$DIMAPOST
  1

  9
$DIMALT
 70
     0
  9
$DIMALTD
 70
     2
  9
$DIMALTF
 40
25.4
  9
$DIMLFAC
 40
1.0
  9
$DIMTOFL
 70
     0
  9
$DIMTVP
 40
0.0
  9
$DIMTIX
 70
     0
  9
$DIMSOXD
 70
     0
  9
$DIMSAH
 70
     0
  9
$DIMBLK1
  1

  9
$DIMBLK2
  1

  9
$DIMSTYLE
  2
Standard
  9
$DIMCLRD
 70
     0
  9
$DIMCLRE
 70
     0
  9
$DIMCLRT
 70
     0
  9
$DIMTFAC
 40
1.0
  9
$DIMGAP
 40
0.09
  9
$DIMJUST
 70
     0
  9
$DIMSD1
 70
     0
  9
$DIMSD2
 70
     0
  9
$DIMTOLJ
 70
     1
  9
$DIMTZIN
 70
     0
  9
$DIMALTZ
 70
     0
  9
$DIMALTTZ
 70
     0
  9
$DIMUPT
 70
     0
  9
$DIMDEC
 70
     4
  9
$DIMTDEC
 70
     4
  9
$DIMALTU
 70
     2
  9
$DIMALTTD
 70
     2
  9
$DIMTXSTY
  7
Standard
  9
$DIMAUNIT
 70
     0
  9
$DIMADEC
 70
     0
  9
$DIMALTRND
 40
0.0
  9
$DIMAZIN
 70
     0
  9
$DIMDSEP
 70
    46
  9
$DIMATFIT
 70
     3
  9
$DIMFRAC
 70
     0
  9
$DIMLDRBLK
  1

  9
$DIMLUNIT
 70
     2
  9
$DIMLWD
 70
    -2
  9
$DIMLWE
 70
    -2
  9
$DIMTMOVE
 70
     0
  9
$LUNITS
 70
     2
  9
$LUPREC
 70
     4
  9
$SKETCHINC
 40
0.1
  9
$FILLETRAD
 40
0.5
  9
$AUNITS
 70
     0
  9
$AUPREC
 70
     0
  9
$MENU
  1
.
  9
$ELEVATION
 40
0.0
  9
$PELEVATION
 40
0.0
  9
$THICKNESS
 40
0.0
  9
$LIMCHECK
 70
     0
  9
$CHAMFERA
 40
0.5
  9
$CHAMFERB
 40
0.5
  9
$CHAMFERC
 40
1.0
  9
$CHAMFERD
 40
0.0
  9
$SKPOLY
 70
     0
  9
$TDCREATE
 40
2457268.920119225
  9
$TDUCREATE
 40
2457269.045119225
  9
$TDUPDATE
 40
2457268.920119236
  9
$TDUUPDATE
 40
2457269.045119236
  9
$TDINDWG
 40
0.0000000116
  9
$TDUSRTIMER
 40
0.0000000116
  9
$USRTIMER
 70
     1
  9
$ANGBASE
 50
0.0
  9
$ANGDIR
 70
     0
  9
$PDMODE
 70
     0
  9
$PDSIZE
 40
0.0
  9
$PLINEWID
 40
0.0
  9
$SPLFRAME
 70
     0
  9
$SPLINETYPE
 70
     6
  9
$SPLINESEGS
 70
     8
  9
$HANDSEED
  5
7C
  9
$SURFTAB1
 70
     6
  9
$SURFTAB2
 70
     6
  9
$SURFTYPE
 70
     6
  9
$SURFU
 70
     6
  9
$SURFV
 70
     6
  9
$UCSBASE
  2

  9
$UCSNAME
  2

  9
$UCSORG
 10
0.0
 20
0.0
 30
0.0
  9
$UCSXDIR
 10
1.0
 20
0.0
 30
0.0
  9
$UCSYDIR
 10
0.0
 20
1.0
 30
0.0
  9
$UCSORTHOREF
  2

  9
$UCSORTHOVIEW
 70
     0
  9
$UCSORGTOP
 10
0.0
 20
0.0
 30
0.0
  9
$UCSORGBOTTOM
 10
0.0
 20
0.0
 30
0.0
  9
$UCSORGLEFT
 10
0.0
 20
0.0
 30
0.0
  9
$UCSORGRIGHT
 10
0.0
 20
0.0
 30
0.0
  9
$UCSORGFRONT
 10
0.0
 20
0.0
 30
0.0
  9
$UCSORGBACK
 10
0.0
 20
0.0
 30
0.0
  9
$PUCSBASE
  2

  9
$PUCSNAME
  2

  9
$PUCSORG
 10
0.0
 20
0.0
 30
0.0
  9
$PUCSXDIR
 10
1.0
 20
0.0
 30
0.0
  9
$PUCSYDIR
 10
0.0
 20
1.0
 30
0.0
  9
$PUCSORTHOREF
  2

  9
$PUCSORTHOVIEW
 70
     0
  9
$PUCSORGTOP
 10
0.0
 20
0.0
 30
0.0
  9
$PUCSORGBOTTOM
 10
0.0
 20
0.0
 30
0.0
  9
$PUCSORGLEFT
 10
0.0
 20
0.0
 30
0.0
  9
$PUCSORGRIGHT
 10
0.0
 20
0.0
 30
0.0
  9
$PUCSORGFRONT
 10
0.0
 20
0.0
 30
0.0
  9
$PUCSORGBACK
 10
0.0
 20
0.0
 30
0.0
  9
$USERI1
 70
     0
  9
$USERI2
 70
     0
  9
$USERI3
 70
     0
  9
$USERI4
 70
     0
  9
$USERI5
 70
     0
  9
$USERR1
 40
0.0
  9
$USERR2
 40
0.0
  9
$USERR3
 40
0.0
  9
$USERR4
 40
0.0
  9
$USERR5
 40
0.0
  9
$WORLDVIEW
 70
     1
  9
$SHADEDGE
 70
     3
  9
$SHADEDIF
 70
    70
  9
$TILEMODE
 70
     1
  9
$MAXACTVP
 70
    64
  9
$PINSBASE
 10
0.0
 20
0.0
 30
0.0
  9
$PLIMCHECK
 70
     0
  9
$PEXTMIN
 10
1.000000000000000E+20
 20
1.000000000000000E+20
 30
1.000000000000000E+20
  9
$PEXTMAX
 10
-1.000000000000000E+20
 20
-1.000000000000000E+20
 30
-1.000000000000000E+20
  9
$PLIMMIN
 10
0.0
 20
0.0
  9
$PLIMMAX
 10
12.0
 20
9.0
  9
$UNITMODE
 70
     0
  9
$VISRETAIN
 70
     1
  9
$PLINEGEN
 70
     0
  9
$PSLTSCALE
 70
     1
  9
$TREEDEPTH
 70
  3020
  9
$CMLSTYLE
  2
Standard
  9
$CMLJUST
 70
     0
  9
$CMLSCALE
 40
1.0
  9
$PROXYGRAPHICS
 70
     1
  9
$MEASUREMENT
 70
     0
  9
$CELWEIGHT
370
    -1
  9
$ENDCAPS
280
     0
  9
$JOINSTYLE
280
     0
  9
$LWDISPLAY
290
     0
  9
$INSUNITS
 70
     4
  9
$HYPERLINKBASE
  1

  9
$STYLESHEET
  1

  9
$XEDIT
290
     1
  9
$CEPSNTYPE
380
     0
  9
$PSTYLEMODE
290
     1
  9
$FINGERPRINTGUID
  2
{5DA0C475-0AF2-4A79-BEB2-CE218CEBED0F}
  9
$VERSIONGUID
  2
{FAEB1C32-E019-11D5-929B-00C0DF256EC4}
  9
$EXTNAMES
290
     1
  9
$PSVPSCALE
 40
0.0
  9
$OLESTARTUP
290
     0
  0
ENDSEC
  0
SECTION
  2
CLASSES
  0
CLASS
  1
ACDBDICTIONARYWDFLT
  2
AcDbDictionaryWithDefault
  3
ObjectDBX Classes
 90
        0
280
     0
281
     0
  0
CLASS
  1
VISUALSTYLE
  2
AcDbVisualStyle
  3
ObjectDBX Classes
 90
     4095
280
     0
281
     0
  0
CLASS
  1
MATERIAL
  2
AcDbMaterial
  3
ObjectDBX Classes
 90
     1153
280
     0
281
     0
  0
CLASS
  1
DICTIONARYVAR
  2
AcDbDictionaryVar
  3
ObjectDBX Classes
 90
        0
280
     0
281
     0
  0
CLASS
  1
ACDBPLACEHOLDER
  2
AcDbPlaceHolder
  3
ObjectDBX Classes
 90
        0
280
     0
281
     0
  0
CLASS
  1
LAYOUT
  2
AcDbLayout
  3
ObjectDBX Classes
 90
        0
280
     0
281
     0
  0
ENDSEC
  0
SECTION
  2
TABLES
  0
TABLE
  2
VPORT
  5
8
330
0
100
AcDbSymbolTable
 70
     1
  0
VPORT
  5
29
330
8
100
AcDbSymbolTableRecord
100
AcDbViewportTableRecord
  2
*Active
 70
     0
 10
0.0
 20
0.0
 11
1.0
 21
1.0
 12
10.42990654205607
 22
4.5
 13
0.0
 23
0.0
 14
0.5
 24
0.5
 15
0.5
 25
0.5
 16
0.0
 26
0.0
 36
1.0
 17
0.0
 27
0.0
 37
0.0
 40
9.0
 41
1.972972972850329
 42
50.0
 43
0.0
 44
0.0
 50
0.0
 51
0.0
 71
     0
 72
   100
 73
     1
 74
     3
 75
     0
 76
     0
 77
     0
 78
     0
281
     0
 65
     1
110
0.0
120
0.0
130
0.0
111
1.0
121
0.0
131
0.0
112
0.0
122
1.0
132
0.0
 79
     0
146
0.0
  0
ENDTAB
  0
TABLE
  2
LTYPE
  5
5
330
0
100
AcDbSymbolTable
 70
     1
  0
LTYPE
  5
14
330
5
100
AcDbSymbolTableRecord
100
AcDbLinetypeTableRecord
  2
ByBlock
 70
     0
  3

 72
    65
 73
     0
 40
0.0
  0
LTYPE
  5
15
330
5
100
AcDbSymbolTableRecord
100
AcDbLinetypeTableRecord
  2
ByLayer
 70
     0
  3

 72
    65
 73
     0
 40
0.0
  0
LTYPE
  5
16
330
5
100
AcDbSymbolTableRecord
100
AcDbLinetypeTableRecord
  2
Continuous
 70
     0
  3
Solid line
 72
    65
 73
     0
 40
0.0
  0
ENDTAB
  0
TABLE
  2
LAYER
  5
2
330
0
100
AcDbSymbolTable
 70
     2
  0
LAYER
  5
10
330
2
100
AcDbSymbolTableRecord
100
AcDbLayerTableRecord
  2
0
 70
     0
 62
     7
  6
Continuous
370
    -3
390
F
  0
LAYER
  5
40
330
2
100
AcDbSymbolTableRecord
100
AcDbLayerTableRecord
  2
Camada 1
 70
     0
 62
     7
  6
Continuous
370
    -3
390
F
  0
ENDTAB
  0
TABLE
  2
STYLE
  5
3
330
0
100
AcDbSymbolTable
 70
     1
  0
STYLE
  5
11
330
3
100
AcDbSymbolTableRecord
100
AcDbTextStyleTableRecord
  2
Standard
 70
     0
 40
0.0
 41
1.0
 50
0.0
 71
     0
 42
0.2
  3
txt
  4

  0
ENDTAB
  0
TABLE
  2
VIEW
  5
6
330
0
100
AcDbSymbolTable
 70
     0
  0
ENDTAB
  0
TABLE
  2
UCS
  5
7
330
0
100
AcDbSymbolTable
 70
     0
  0
ENDTAB
  0
TABLE
  2
APPID
  5
9
330
0
100
AcDbSymbolTable
 70
     2
  0
APPID
  5
12
330
9
100
AcDbSymbolTableRecord
100
AcDbRegAppTableRecord
  2
ACAD
 70
     0
  0
APPID
  5
3F
330
9
100
AcDbSymbolTableRecord
100
AcDbRegAppTableRecord
  2
ODA
 70
     0
  0
ENDTAB
  0
TABLE
  2
DIMSTYLE
  5
A
330
0
100
AcDbSymbolTable
 70
     1
100
AcDbDimStyleTable
  0
DIMSTYLE
105
27
330
A
100
AcDbSymbolTableRecord
100
AcDbDimStyleTableRecord
  2
Standard
 70
     0
178
     0
340
11
  0
ENDTAB
  0
TABLE
  2
BLOCK_RECORD
  5
1
330
0
100
AcDbSymbolTable
 70
     1
  0
BLOCK_RECORD
  5
1F
330
1
100
AcDbSymbolTableRecord
100
AcDbBlockTableRecord
  2
*Model_Space
340
22
  0
BLOCK_RECORD
  5
1B
330
1
100
AcDbSymbolTableRecord
100
AcDbBlockTableRecord
  2
*Paper_Space
340
1E
  0
BLOCK_RECORD
  5
23
330
1
100
AcDbSymbolTableRecord
100
AcDbBlockTableRecord
  2
*Paper_Space0
340
26
  0
ENDTAB
  0
ENDSEC
  0
SECTION
  2
BLOCKS
  0
BLOCK
  5
20
330
1F
100
AcDbEntity
  8
0
100
AcDbBlockBegin
  2
*Model_Space
 70
     0
 10
0.0
 20
0.0
 30
0.0
  3
*Model_Space
  1

  0
ENDBLK
  5
21
330
1F
100
AcDbEntity
  8
0
100
AcDbBlockEnd
  0
BLOCK
  5
1C
330
1B
100
AcDbEntity
 67
     1
  8
0
100
AcDbBlockBegin
  2
*Paper_Space
 70
     0
 10
0.0
 20
0.0
 30
0.0
  3
*Paper_Space
  1

  0
ENDBLK
  5
1D
330
1B
100
AcDbEntity
 67
     1
  8
0
100
AcDbBlockEnd
  0
BLOCK
  5
24
330
23
100
AcDbEntity
  8
0
100
AcDbBlockBegin
  2
*Paper_Space0
 70
     0
 10
0.0
 20
0.0
 30
0.0
  3
*Paper_Space0
  1

  0
ENDBLK
  5
25
330
23
100
AcDbEntity
  8
0
100
AcDbBlockEnd
  0
ENDSEC
  0
SECTION
  2
ENTITIES
  0
SPLINE
  5
41
330
1F
100
AcDbEntity
  8
Camada 1
 62
   175
370
     9
100
AcDbSpline
210
0.0
220
0.0
230
1.0
 70
    11
 71
     3
 72
    88
 73
    84
 74
     0
 42
0.0000000001
 43
0.0000000001
 12
1.0
 22
0.0
 32
0.0
 13
1.0
 23
0.0
 33
0.0
 40
0.0
 40
0.0
 40
0.0
 40
0.0
 40
0.0454545454545455
 40
0.0454545454545455
 40
0.0454545454545455
 40
0.0454545454545455
 40
0.0909090909090909
 40
0.0909090909090909
 40
0.0909090909090909
 40
0.0909090909090909
 40
0.1363636363636364
 40
0.1363636363636364
 40
0.1363636363636364
 40
0.1363636363636364
 40
0.1818181818181818
 40
0.1818181818181818
 40
0.1818181818181818
 40
0.1818181818181818
 40
0.2272727272727273
 40
0.2272727272727273
 40
0.2272727272727273
 40
0.2272727272727273
 40
0.2727272727272727
 40
0.2727272727272727
 40
0.2727272727272727
 40
0.2727272727272727
 40
0.3181818181818182
 40
0.3181818181818182
 40
0.3181818181818182
 40
0.3181818181818182
 40
0.3636363636363636
 40
0.3636363636363636
 40
0.3636363636363636
 40
0.3636363636363636
 40
0.4090909090909091
 40
0.4090909090909091
 40
0.4090909090909091
 40
0.4090909090909091
 40
0.4545454545454545
 40
0.4545454545454545
 40
0.4545454545454545
 40
0.4545454545454545
 40
0.5
 40
0.5
 40
0.5
 40
0.5
 40
0.5454545454545454
 40
0.5454545454545454
 40
0.5454545454545454
 40
0.5454545454545454
 40
0.5909090909090909
 40
0.5909090909090909
 40
0.5909090909090909
 40
0.5909090909090909
 40
0.6363636363636364
 40
0.6363636363636364
 40
0.6363636363636364
 40
0.6363636363636364
 40
0.6818181818181818
 40
0.6818181818181818
 40
0.6818181818181818
 40
0.6818181818181818
 40
0.7272727272727273
 40
0.7272727272727273
 40
0.7272727272727273
 40
0.7272727272727273
 40
0.7727272727272727
 40
0.7727272727272727
 40
0.7727272727272727
 40
0.7727272727272727
 40
0.8181818181818182
 40
0.8181818181818182
 40
0.8181818181818182
 40
0.8181818181818182
 40
0.8636363636363636
 40
0.8636363636363636
 40
0.8636363636363636
 40
0.8636363636363636
 40
0.9090909090909091
 40
0.9090909090909091
 40
0.9090909090909091
 40
0.9090909090909091
 40
1.0
 40
1.0
 40
1.0
 40
1.0
 10
-48.4256
 20
59.7125
 30
0.0
 10
-47.3741
 20
58.6832
 30
0.0
 10
-46.5249
 20
59.2693
 30
0.0
 10
-46.7714
 20
61.1247
 30
0.0
 10
-46.7714
 20
61.1247
 30
0.0
 10
-46.7714
 20
61.1247
 30
0.0
 10
-48.1028
 20
67.9029
 30
0.0
 10
-48.1028
 20
67.9029
 30
0.0
 10
-48.1028
 20
67.9029
 30
0.0
 10
-48.2649
 20
68.4876
 30
0.0
 10
-48.4334
 20
68.8739
 30
0.0
 10
-49.0309
 20
69.1536
 30
0.0
 10
-49.0309
 20
69.1536
 30
0.0
 10
-53.3252
 20
70.1948
 30
0.0
 10
-53.2493
 20
74.6889
 30
0.0
 10
-55.1231
 20
78.9174
 30
0.0
 10
-55.1231
 20
78.9174
 30
0.0
 10
-52.5941
 20
77.9381
 30
0.0
 10
-50.1475
 20
76.5744
 30
0.0
 10
-47.78
 20
74.8423
 30
0.0
 10
-47.78
 20
74.8423
 30
0.0
 10
-46.8109
 20
74.1114
 30
0.0
 10
-46.2203
 20
73.1663
 30
0.0
 10
-46.489
 20
71.7357
 30
0.0
 10
-46.489
 20
71.7357
 30
0.0
 10
-46.2932
 20
70.9072
 30
0.0
 10
-45.8422
 20
70.6513
 30
0.0
 10
-45.2786
 20
70.9691
 30
0.0
 10
-45.2786
 20
70.9691
 30
0.0
 10
-45.2786
 20
70.9691
 30
0.0
 10
-43.1
 20
72.7444
 30
0.0
 10
-43.1
 20
72.7444
 30
0.0
 10
-43.1
 20
72.7444
 30
0.0
 10
-42.2729
 20
73.4775
 30
0.0
 10
-42.1515
 20
75.3862
 30
0.0
 10
-42.6157
 20
78.2713
 30
0.0
 10
-42.6157
 20
78.2713
 30
0.0
 10
-43.4226
 20
81.473
 30
0.0
 10
-44.7934
 20
84.4236
 30
0.0
 10
-47.538
 20
86.7642
 30
0.0
 10
-47.538
 20
86.7642
 30
0.0
 10
-52.5312
 20
90.8165
 30
0.0
 10
-55.3684
 20
83.8156
 30
0.0
 10
-52.541
 20
83.6979
 30
0.0
 10
-52.541
 20
83.6979
 30
0.0
 10
-52.1361
 20
83.6571
 30
0.0
 10
-51.7554
 20
83.7049
 30
0.0
 10
-51.4315
 20
83.9602
 30
0.0
 10
-51.4315
 20
83.9602
 30
0.0
 10
-50.7055
 20
84.3815
 30
0.0
 10
-50.1671
 20
83.4649
 30
0.0
 10
-50.806
 20
83.1331
 30
0.0
 10
-50.806
 20
83.1331
 30
0.0
 10
-53.1337
 20
82.275
 30
0.0
 10
-54.995
 20
83.297
 30
0.0
 10
-55.2038
 20
86.0784
 30
0.0
 10
-55.2038
 20
86.0784
 30
0.0
 10
-55.2538
 20
87.7357
 30
0.0
 10
-55.0122
 20
88.9063
 30
0.0
 10
-54.4171
 20
89.4876
 30
0.0
 10
-54.4171
 20
89.4876
 30
0.0
 10
-56.2288
 20
90.8211
 30
0.0
 10
-57.8703
 20
91.645
 30
0.0
 10
-59.0364
 20
91.0405
 30
0.0
 10
-59.0364
 20
91.0405
 30
0.0
 10
-58.6384
 20
87.7671
 30
0.0
 10
-58.4457
 20
85.2629
 30
0.0
 10
-59.3389
 20
82.8505
 30
0.0
 10
-59.3389
 20
82.8505
 30
0.0
 10
-59.3389
 20
82.8505
 30
0.0
 10
-59.9038
 20
81.4383
 30
0.0
 10
-59.9038
 20
81.4383
 30
0.0
 10
-59.9038
 20
81.4383
 30
0.0
 10
-62.4709
 20
81.2043
 30
0.0
 10
-62.3864
 20
79.4734
 30
0.0
 10
-61.2957
 20
76.8187
 30
0.0
 10
-61.2957
 20
76.8187
 30
0.0
 10
-60.0651
 20
73.2346
 30
0.0
 10
-58.2621
 20
71.598
 30
0.0
 10
-56.1516
 20
68.7295
 30
0.0
 10
-56.1516
 20
68.7295
 30
0.0
 10
-56.1516
 20
68.7295
 30
0.0
 10
-48.4256
 20
59.7125
 30
0.0
 10
-48.4256
 20
59.7125
 30
0.0
  0
SPLINE
  5
42
330
1F
100
AcDbEntity
  8
Camada 1
 62
   175
370
     9
100
AcDbSpline
210
0.0
220
0.0
230
1.0
 70
    11
 71
     3
 72
    20
 73
    16
 74
     0
 42
0.0000000001
 43
0.0000000001
 12
1.0
 22
0.0
 32
0.0
 13
1.0
 23
0.0
 33
0.0
 40
0.0
 40
0.0
 40
0.0
 40
0.0
 40
0.2
 40
0.2
 40
0.2
 40
0.2
 40
0.4
 40
0.4
 40
0.4
 40
0.4
 40
0.6
 40
0.6
 40
0.6
 40
0.6
 40
1.0
 40
1.0
 40
1.0
 40
1.0
 10
-43.3616
 20
93.0263
 30
0.0
 10
-44.2087
 20
90.9308
 30
0.0
 10
-45.6818
 20
89.5071
 30
0.0
 10
-47.9813
 20
88.9716
 30
0.0
 10
-47.9813
 20
88.9716
 30
0.0
 10
-45.7745
 20
87.4357
 30
0.0
 10
-44.0016
 20
85.7329
 30
0.0
 10
-42.4941
 20
83.9283
 30
0.0
 10
-42.4941
 20
83.9283
 30
0.0
 10
-41.6536
 20
85.2727
 30
0.0
 10
-40.6987
 20
86.4308
 30
0.0
 10
-39.4279
 20
87.0752
 30
0.0
 10
-39.4279
 20
87.0752
 30
0.0
 10
-42.0393
 20
88.6527
 30
0.0
 10
-43.3324
 20
90.6419
 30
0.0
 10
-43.3616
 20
93.0263
 30
0.0
  0
SPLINE
  5
43
330
1F
100
AcDbEntity
  8
Camada 1
 62
   175
370
     9
100
AcDbSpline
210
0.0
220
0.0
230
1.0
 70
    11
 71
     3
 72
    44
 73
    40
 74
     0
 42
0.0000000001
 43
0.0000000001
 12
1.0
 22
0.0
 32
0.0
 13
1.0
 23
0.0
 33
0.0
 40
0.0
 40
0.0
 40
0.0
 40
0.0
 40
0.0909090909090909
 40
0.0909090909090909
 40
0.0909090909090909
 40
0.0909090909090909
 40
0.1818181818181818
 40
0.1818181818181818
 40
0.1818181818181818
 40
0.1818181818181818
 40
0.2727272727272727
 40
0.2727272727272727
 40
0.2727272727272727
 40
0.2727272727272727
 40
0.3636363636363636
 40
0.3636363636363636
 40
0.3636363636363636
 40
0.3636363636363636
 40
0.4545454545454545
 40
0.4545454545454545
 40
0.4545454545454545
 40
0.4545454545454545
 40
0.5454545454545454
 40
0.5454545454545454
 40
0.5454545454545454
 40
0.5454545454545454
 40
0.6363636363636364
 40
0.6363636363636364
 40
0.6363636363636364
 40
0.6363636363636364
 40
0.7272727272727273
 40
0.7272727272727273
 40
0.7272727272727273
 40
0.7272727272727273
 40
0.8181818181818182
 40
0.8181818181818182
 40
0.8181818181818182
 40
0.8181818181818182
 40
1.0
 40
1.0
 40
1.0
 40
1.0
 10
17.2388
 20
-9.3719
 30
0.0
 10
19.9534
 20
-8.2819
 30
0.0
 10
22.1497
 20
-6.4609
 30
0.0
 10
23.5328
 20
-3.683
 30
0.0
 10
23.5328
 20
-3.683
 30
0.0
 10
24.858
 20
-1.3835
 30
0.0
 10
25.3242
 20
0.0908
 30
0.0
 10
23.4117
 20
0.8357
 30
0.0
 10
23.4117
 20
0.8357
 30
0.0
 10
22.7458
 20
1.0545
 30
0.0
 10
22.3159
 20
0.6368
 30
0.0
 10
22.0803
 20
0.0691
 30
0.0
 10
22.0803
 20
0.0691
 30
0.0
 10
21.8681
 20
-0.8455
 30
0.0
 10
20.6247
 20
-0.8254
 30
0.0
 10
20.6478
 20
0.0087
 30
0.0
 10
20.6478
 20
0.0087
 30
0.0
 10
20.5528
 20
1.4891
 30
0.0
 10
22.3671
 20
2.3953
 30
0.0
 10
23.7951
 20
2.1067
 30
0.0
 10
23.7951
 20
2.1067
 30
0.0
 10
25.5979
 20
1.702
 30
0.0
 10
26.0839
 20
0.5308
 30
0.0
 10
26.2358
 20
-1.1413
 30
0.0
 10
26.2358
 20
-1.1413
 30
0.0
 10
26.592
 20
-2.4694
 30
0.0
 10
29.094
 20
-3.1219
 30
0.0
 10
29.2619
 20
-2.0692
 30
0.0
 10
29.2619
 20
-2.0692
 30
0.0
 10
29.765
 20
-0.7272
 30
0.0
 10
29.1939
 20
1.2393
 30
0.0
 10
25.0659
 20
5.2737
 30
0.0
 10
25.0659
 20
5.2737
 30
0.0
 10
22.661
 20
6.2016
 30
0.0
 10
20.8807
 20
5.5967
 30
0.0
 10
19.6596
 20
3.6195
 30
0.0
 10
19.6596
 20
3.6195
 30
0.0
 10
17.8514
 20
-0.2604
 30
0.0
 10
16.8954
 20
-4.5237
 30
0.0
 10
17.2388
 20
-9.3719
 30
0.0
  0
SPLINE
  5
44
330
1F
100
AcDbEntity
  8
Camada 1
 62
   175
370
     9
100
AcDbSpline
210
0.0
220
0.0
230
1.0
 70
    11
 71
     3
 72
    12
 73
     8
 74
     0
 42
0.0000000001
 43
0.0000000001
 12
1.0
 22
0.0
 32
0.0
 13
1.0
 23
0.0
 33
0.0
 40
0.0
 40
0.0
 40
0.0
 40
0.0
 40
0.3333333333333333
 40
0.3333333333333333
 40
0.3333333333333333
 40
0.3333333333333333
 40
1.0
 40
1.0
 40
1.0
 40
1.0
 10
10.8527
 20
-12.9935
 30
0.0
 10
8.025
 20
-11.0192
 30
0.0
 10
7.0454
 20
-7.3429
 30
0.0
 10
12.386
 20
-5.8926
 30
0.0
 10
12.386
 20
-5.8926
 30
0.0
 10
12.386
 20
-5.8926
 30
0.0
 10
10.8527
 20
-12.9935
 30
0.0
 10
10.8527
 20
-12.9935
 30
0.0
  0
SPLINE
  5
45
330
1F
100
AcDbEntity
  8
Camada 1
 62
   175
370
     9
100
AcDbSpline
210
0.0
220
0.0
230
1.0
 70
    11
 71
     3
 72
   144
 73
   140
 74
     0
 42
0.0000000001
 43
0.0000000001
 12
1.0
 22
0.0
 32
0.0
 13
1.0
 23
0.0
 33
0.0
 40
0.0
 40
0.0
 40
0.0
 40
0.0
 40
0.0277777777777778
 40
0.0277777777777778
 40
0.0277777777777778
 40
0.0277777777777778
 40
0.0555555555555556
 40
0.0555555555555556
 40
0.0555555555555556
 40
0.0555555555555556
 40
0.0833333333333333
 40
0.0833333333333333
 40
0.0833333333333333
 40
0.0833333333333333
 40
0.1111111111111111
 40
0.1111111111111111
 40
0.1111111111111111
 40
0.1111111111111111
 40
0.1388888888888889
 40
0.1388888888888889
 40
0.1388888888888889
 40
0.1388888888888889
 40
0.1666666666666667
 40
0.1666666666666667
 40
0.1666666666666667
 40
0.1666666666666667
 40
0.1944444444444444
 40
0.1944444444444444
 40
0.1944444444444444
 40
0.1944444444444444
 40
0.2222222222222222
 40
0.2222222222222222
 40
0.2222222222222222
 40
0.2222222222222222
 40
0.25
 40
0.25
 40
0.25
 40
0.25
 40
0.2777777777777778
 40
0.2777777777777778
 40
0.2777777777777778
 40
0.2777777777777778
 40
0.3055555555555556
 40
0.3055555555555556
 40
0.3055555555555556
 40
0.3055555555555556
 40
0.3333333333333333
 40
0.3333333333333333
 40
0.3333333333333333
 40
0.3333333333333333
 40
0.3611111111111111
 40
0.3611111111111111
 40
0.3611111111111111
 40
0.3611111111111111
 40
0.3888888888888889
 40
0.3888888888888889
 40
0.3888888888888889
 40
0.3888888888888889
 40
0.4166666666666667
 40
0.4166666666666667
 40
0.4166666666666667
 40
0.4166666666666667
 40
0.4444444444444444
 40
0.4444444444444444
 40
0.4444444444444444
 40
0.4444444444444444
 40
0.4722222222222222
 40
0.4722222222222222
 40
0.4722222222222222
 40
0.4722222222222222
 40
0.5
 40
0.5
 40
0.5
 40
0.5
 40
0.5277777777777778
 40
0.5277777777777778
 40
0.5277777777777778
 40
0.5277777777777778
 40
0.5555555555555556
 40
0.5555555555555556
 40
0.5555555555555556
 40
0.5555555555555556
 40
0.5833333333333334
 40
0.5833333333333334
 40
0.5833333333333334
 40
0.5833333333333334
 40
0.6111111111111112
 40
0.6111111111111112
 40
0.6111111111111112
 40
0.6111111111111112
 40
0.6388888888888888
 40
0.6388888888888888
 40
0.6388888888888888
 40
0.6388888888888888
 40
0.6666666666666666
 40
0.6666666666666666
 40
0.6666666666666666
 40
0.6666666666666666
 40
0.6944444444444444
 40
0.6944444444444444
 40
0.6944444444444444
 40
0.6944444444444444
 40
0.7222222222222222
 40
0.7222222222222222
 40
0.7222222222222222
 40
0.7222222222222222
 40
0.75
 40
0.75
 40
0.75
 40
0.75
 40
0.7777777777777778
 40
0.7777777777777778
 40
0.7777777777777778
 40
0.7777777777777778
 40
0.8055555555555556
 40
0.8055555555555556
 40
0.8055555555555556
 40
0.8055555555555556
 40
0.8333333333333334
 40
0.8333333333333334
 40
0.8333333333333334
 40
0.8333333333333334
 40
0.8611111111111112
 40
0.8611111111111112
 40
0.8611111111111112
 40
0.8611111111111112
 40
0.8888888888888888
 40
0.8888888888888888
 40
0.8888888888888888
 40
0.8888888888888888
 40
0.9166666666666666
 40
0.9166666666666666
 40
0.9166666666666666
 40
0.9166666666666666
 40
0.9444444444444444
 40
0.9444444444444444
 40
0.9444444444444444
 40
0.9444444444444444
 40
1.0
 40
1.0
 40
1.0
 40
1.0
 10
26.2449
 20
53.557
 30
0.0
 10
24.271
 20
53.5285
 30
0.0
 10
23.4643
 20
54.688
 30
0.0
 10
24.7722
 20
56.1794
 30
0.0
 10
24.7722
 20
56.1794
 30
0.0
 10
25.3097
 20
57.1398
 30
0.0
 10
26.1778
 20
57.5725
 30
0.0
 10
27.2535
 20
57.5109
 30
0.0
 10
27.2535
 20
57.5109
 30
0.0
 10
29.9144
 20
56.4121
 30
0.0
 10
31.7941
 20
57.1033
 30
0.0
 10
33.1643
 20
58.9634
 30
0.0
 10
33.1643
 20
58.9634
 30
0.0
 10
31.7234
 20
60.7091
 30
0.0
 10
29.7302
 20
61.1851
 30
0.0
 10
27.2132
 20
60.4562
 30
0.0
 10
27.2132
 20
60.4562
 30
0.0
 10
26.4907
 20
60.3527
 30
0.0
 10
26.4545
 20
64.0664
 30
0.0
 10
27.6968
 20
65.782
 30
0.0
 10
27.6968
 20
65.782
 30
0.0
 10
28.5417
 20
66.9641
 30
0.0
 10
30.6843
 20
66.7552
 30
0.0
 10
30.2386
 20
64.854
 30
0.0
 10
30.2386
 20
64.854
 30
0.0
 10
29.709
 20
63.902
 30
0.0
 10
30.7613
 20
63.4188
 30
0.0
 10
31.0858
 20
64.1681
 30
0.0
 10
31.0858
 20
64.1681
 30
0.0
 10
32.204
 20
67.4056
 30
0.0
 10
31.2025
 20
68.6876
 30
0.0
 10
28.302
 20
68.4045
 30
0.0
 10
28.302
 20
68.4045
 30
0.0
 10
27.619
 20
69.0746
 30
0.0
 10
27.572
 20
72.6424
 30
0.0
 10
27.8578
 20
77.7242
 30
0.0
 10
27.8578
 20
77.7242
 30
0.0
 10
28.1565
 20
79.1522
 30
0.0
 10
33.3942
 20
79.4049
 30
0.0
 10
34.3939
 20
75.7472
 30
0.0
 10
34.3939
 20
75.7472
 30
0.0
 10
34.6923
 20
74.8406
 30
0.0
 10
34.3703
 20
74.4236
 30
0.0
 10
33.6464
 20
74.3238
 30
0.0
 10
33.6464
 20
74.3238
 30
0.0
 10
32.6106
 20
74.2298
 30
0.0
 10
32.7408
 20
72.9554
 30
0.0
 10
33.5607
 20
73.0025
 30
0.0
 10
33.5607
 20
73.0025
 30
0.0
 10
35.9597
 20
73.4884
 30
0.0
 10
36.507
 20
75.6043
 30
0.0
 10
35.3622
 20
78.4101
 30
0.0
 10
35.3622
 20
78.4101
 30
0.0
 10
34.0113
 20
80.603
 30
0.0
 10
35.4786
 20
81.7854
 30
0.0
 10
36.8345
 20
83.3323
 30
0.0
 10
36.8345
 20
83.3323
 30
0.0
 10
39.8536
 20
82.4012
 30
0.0
 10
42.8194
 20
82.3467
 30
0.0
 10
45.7308
 20
83.191
 30
0.0
 10
45.7308
 20
83.191
 30
0.0
 10
46.3347
 20
83.4771
 30
0.0
 10
47.6348
 20
83.4163
 30
0.0
 10
47.8692
 20
83.0297
 30
0.0
 10
47.8692
 20
83.0297
 30
0.0
 10
48.7387
 20
80.9219
 30
0.0
 10
49.8643
 20
80.0675
 30
0.0
 10
51.2178
 20
80.3266
 30
0.0
 10
51.2178
 20
80.3266
 30
0.0
 10
52.1896
 20
80.5643
 30
0.0
 10
52.5858
 20
79.7593
 30
0.0
 10
51.823
 20
78.5917
 30
0.0
 10
51.823
 20
78.5917
 30
0.0
 10
51.3926
 20
77.8355
 30
0.0
 10
51.3973
 20
76.9486
 30
0.0
 10
51.506
 20
76.0308
 30
0.0
 10
51.506
 20
76.0308
 30
0.0
 10
51.831
 20
74.8441
 30
0.0
 10
53.2467
 20
75.0171
 30
0.0
 10
53.3159
 20
76.0901
 30
0.0
 10
53.3159
 20
76.0901
 30
0.0
 10
52.8537
 20
77.5423
 30
0.0
 10
53.4554
 20
78.027
 30
0.0
 10
54.7684
 20
77.8654
 30
0.0
 10
54.7684
 20
77.8654
 30
0.0
 10
56.5232
 20
77.2875
 30
0.0
 10
56.7385
 20
75.3769
 30
0.0
 10
55.6963
 20
72.3784
 30
0.0
 10
55.6963
 20
72.3784
 30
0.0
 10
54.1703
 20
68.9206
 30
0.0
 10
51.6555
 20
66.8641
 30
0.0
 10
48.8375
 20
65.2371
 30
0.0
 10
48.8375
 20
65.2371
 30
0.0
 10
47.8722
 20
64.6257
 30
0.0
 10
46.3467
 20
64.1266
 30
0.0
 10
44.0362
 20
63.7846
 30
0.0
 10
44.0362
 20
63.7846
 30
0.0
 10
43.0054
 20
63.5572
 30
0.0
 10
42.626
 20
64.1326
 30
0.0
 10
43.1486
 20
65.2775
 30
0.0
 10
43.1486
 20
65.2775
 30
0.0
 10
46.4393
 20
66.9586
 30
0.0
 10
47.6179
 20
70.4685
 30
0.0
 10
46.4974
 20
75.9692
 30
0.0
 10
46.4974
 20
75.9692
 30
0.0
 10
43.3354
 20
74.2203
 30
0.0
 10
40.8895
 20
71.8018
 30
0.0
 10
40.2034
 20
67.7386
 30
0.0
 10
40.2034
 20
67.7386
 30
0.0
 10
40.4764
 20
65.6306
 30
0.0
 10
39.4863
 20
64.8567
 30
0.0
 10
38.1457
 20
66.3668
 30
0.0
 10
38.1457
 20
66.3668
 30
0.0
 10
38.1457
 20
66.3668
 30
0.0
 10
35.5232
 20
68.7069
 30
0.0
 10
35.5232
 20
68.7069
 30
0.0
 10
35.5232
 20
68.7069
 30
0.0
 10
34.3334
 20
69.2231
 30
0.0
 10
32.4355
 20
67.8007
 30
0.0
 10
33.9089
 20
65.9231
 30
0.0
 10
33.9089
 20
65.9231
 30
0.0
 10
33.9089
 20
65.9231
 30
0.0
 10
36.4103
 20
63.7443
 30
0.0
 10
36.4103
 20
63.7443
 30
0.0
 10
36.4103
 20
63.7443
 30
0.0
 10
36.2738
 20
61.187
 30
0.0
 10
38.4028
 20
60.9222
 30
0.0
 10
38.6697
 20
63.1393
 30
0.0
 10
38.6697
 20
63.1393
 30
0.0
 10
40.2403
 20
63.7986
 30
0.0
 10
41.3091
 20
62.7629
 30
0.0
 10
41.3729
 20
61.2833
 30
0.0
 10
41.3729
 20
61.2833
 30
0.0
 10
41.3971
 20
57.1965
 30
0.0
 10
38.955
 20
55.1757
 30
0.0
 10
34.9984
 20
54.4244
 30
0.0
 10
34.9984
 20
54.4244
 30
0.0
 10
34.9984
 20
54.4244
 30
0.0
 10
26.2449
 20
53.557
 30
0.0
 10
26.2449
 20
53.557
 30
0.0
  0
SPLINE
  5
46
330
1F
100
AcDbEntity
  8
Camada 1
 62
   175
370
     9
100
AcDbSpline
210
0.0
220
0.0
230
1.0
 70
    11
 71
     3
 72
    68
 73
    64
 74
     0
 42
0.0000000001
 43
0.0000000001
 12
1.0
 22
0.0
 32
0.0
 13
1.0
 23
0.0
 33
0.0
 40
0.0
 40
0.0
 40
0.0
 40
0.0
 40
0.0588235294117647
 40
0.0588235294117647
 40
0.0588235294117647
 40
0.0588235294117647
 40
0.1176470588235294
 40
0.1176470588235294
 40
0.1176470588235294
 40
0.1176470588235294
 40
0.1764705882352941
 40
0.1764705882352941
 40
0.1764705882352941
 40
0.1764705882352941
 40
0.2352941176470588
 40
0.2352941176470588
 40
0.2352941176470588
 40
0.2352941176470588
 40
0.2941176470588235
 40
0.2941176470588235
 40
0.2941176470588235
 40
0.2941176470588235
 40
0.3529411764705883
 40
0.3529411764705883
 40
0.3529411764705883
 40
0.3529411764705883
 40
0.4117647058823529
 40
0.4117647058823529
 40
0.4117647058823529
 40
0.4117647058823529
 40
0.4705882352941176
 40
0.4705882352941176
 40
0.4705882352941176
 40
0.4705882352941176
 40
0.5294117647058824
 40
0.5294117647058824
 40
0.5294117647058824
 40
0.5294117647058824
 40
0.5882352941176471
 40
0.5882352941176471
 40
0.5882352941176471
 40
0.5882352941176471
 40
0.6470588235294118
 40
0.6470588235294118
 40
0.6470588235294118
 40
0.6470588235294118
 40
0.7058823529411765
 40
0.7058823529411765
 40
0.7058823529411765
 40
0.7058823529411765
 40
0.7647058823529411
 40
0.7647058823529411
 40
0.7647058823529411
 40
0.7647058823529411
 40
0.8235294117647058
 40
0.8235294117647058
 40
0.8235294117647058
 40
0.8235294117647058
 40
0.8823529411764706
 40
0.8823529411764706
 40
0.8823529411764706
 40
0.8823529411764706
 40
1.0
 40
1.0
 40
1.0
 40
1.0
 10
-77.9142
 20
-20.5476
 30
0.0
 10
-76.9767
 20
-22.2822
 30
0.0
 10
-78.4009
 20
-22.6396
 30
0.0
 10
-79.6289
 20
-22.1614
 30
0.0
 10
-79.6289
 20
-22.1614
 30
0.0
 10
-79.6736
 20
-22.1511
 30
0.0
 10
-79.7183
 20
-22.1405
 30
0.0
 10
-79.7626
 20
-22.13
 30
0.0
 10
-79.7626
 20
-22.13
 30
0.0
 10
-85.2913
 20
-20.8215
 30
0.0
 10
-90.2924
 20
-18.1165
 30
0.0
 10
-89.998
 20
-11.6714
 30
0.0
 10
-89.998
 20
-11.6714
 30
0.0
 10
-89.9208
 20
-11.2368
 30
0.0
 10
-89.2819
 20
-11.1882
 30
0.0
 10
-89.0499
 20
-11.6312
 30
0.0
 10
-89.0499
 20
-11.6312
 30
0.0
 10
-88.5972
 20
-13.3145
 30
0.0
 10
-87.687
 20
-12.8169
 30
0.0
 10
-87.7991
 20
-11.8935
 30
0.0
 10
-87.7991
 20
-11.8935
 30
0.0
 10
-87.8059
 20
-11.1171
 30
0.0
 10
-88.1218
 20
-10.7332
 30
0.0
 10
-88.8279
 20
-10.8445
 30
0.0
 10
-88.8279
 20
-10.8445
 30
0.0
 10
-88.1907
 20
-9.4317
 30
0.0
 10
-87.7904
 20
-7.9002
 30
0.0
 10
-87.7989
 20
-6.1643
 30
0.0
 10
-87.7989
 20
-6.1643
 30
0.0
 10
-85.5531
 20
-7.3861
 30
0.0
 10
-83.3071
 20
-7.8475
 30
0.0
 10
-81.0612
 20
-7.294
 30
0.0
 10
-81.0612
 20
-7.294
 30
0.0
 10
-81.0612
 20
-7.294
 30
0.0
 10
-81.1419
 20
-10.0779
 30
0.0
 10
-81.1419
 20
-10.0779
 30
0.0
 10
-81.1419
 20
-10.0779
 30
0.0
 10
-82.1572
 20
-11.3219
 30
0.0
 10
-84.0805
 20
-10.5688
 30
0.0
 10
-85.3379
 20
-12.7811
 30
0.0
 10
-85.3379
 20
-12.7811
 30
0.0
 10
-83.8326
 20
-13.2235
 30
0.0
 10
-82.5123
 20
-13.2532
 30
0.0
 10
-81.3839
 20
-12.9424
 30
0.0
 10
-81.3839
 20
-12.9424
 30
0.0
 10
-80.4956
 20
-12.693
 30
0.0
 10
-80.1733
 20
-14.0461
 30
0.0
 10
-81.2226
 20
-15.0001
 30
0.0
 10
-81.2226
 20
-15.0001
 30
0.0
 10
-82.7436
 20
-15.2369
 30
0.0
 10
-83.7093
 20
-16.1753
 30
0.0
 10
-84.2081
 20
-17.7033
 30
0.0
 10
-84.2081
 20
-17.7033
 30
0.0
 10
-82.053
 20
-18.1139
 30
0.0
 10
-80.3386
 20
-17.898
 30
0.0
 10
-79.2053
 20
-16.856
 30
0.0
 10
-79.2053
 20
-16.856
 30
0.0
 10
-78.7483
 20
-16.156
 30
0.0
 10
-76.3576
 20
-18.3327
 30
0.0
 10
-77.3898
 20
-18.8733
 30
0.0
 10
-77.3898
 20
-18.8733
 30
0.0
 10
-78.0659
 20
-19.2609
 30
0.0
 10
-78.26
 20
-19.837
 30
0.0
 10
-77.9142
 20
-20.5476
 30
0.0
  0
SPLINE
  5
47
330
1F
100
AcDbEntity
  8
Camada 1
 62
   175
370
     9
100
AcDbSpline
210
0.0
220
0.0
230
1.0
 70
    11
 71
     3
 72
    24
 73
    20
 74
     0
 42
0.0000000001
 43
0.0000000001
 12
1.0
 22
0.0
 32
0.0
 13
1.0
 23
0.0
 33
0.0
 40
0.0
 40
0.0
 40
0.0
 40
0.0
 40
0.1666666666666667
 40
0.1666666666666667
 40
0.1666666666666667
 40
0.1666666666666667
 40
0.3333333333333333
 40
0.3333333333333333
 40
0.3333333333333333
 40
0.3333333333333333
 40
0.5
 40
0.5
 40
0.5
 40
0.5
 40
0.6666666666666666
 40
0.6666666666666666
 40
0.6666666666666666
 40
0.6666666666666666
 40
1.0
 40
1.0
 40
1.0
 40
1.0
 10
-49.6971
 20
7.4524
 30
0.0
 10
-49.6971
 20
7.4524
 30
0.0
 10
-57.9681
 20
-1.7062
 30
0.0
 10
-57.9681
 20
-1.7062
 30
0.0
 10
-57.9681
 20
-1.7062
 30
0.0
 10
-58.6401
 20
-2.4825
 30
0.0
 10
-59.7372
 20
-2.262
 30
0.0
 10
-59.4205
 20
-0.7379
 30
0.0
 10
-59.4205
 20
-0.7379
 30
0.0
 10
-58.9368
 20
1.4444
 30
0.0
 10
-58.9037
 20
3.2656
 30
0.0
 10
-60.5502
 20
4.2853
 30
0.0
 10
-60.5502
 20
4.2853
 30
0.0
 10
-61.384
 20
4.8165
 30
0.0
 10
-61.8347
 20
4.9443
 30
0.0
 10
-62.6078
 20
7.5331
 30
0.0
 10
-62.6078
 20
7.5331
 30
0.0
 10
-63.75
 20
11.8499
 30
0.0
 10
-51.6084
 20
8.6506
 30
0.0
 10
-49.6971
 20
7.4524
 30
0.0
  0
SPLINE
  5
48
330
1F
100
AcDbEntity
  8
Camada 1
 62
   175
370
     9
100
AcDbSpline
210
0.0
220
0.0
230
1.0
 70
    11
 71
     3
 72
    72
 73
    68
 74
     0
 42
0.0000000001
 43
0.0000000001
 12
1.0
 22
0.0
 32
0.0
 13
1.0
 23
0.0
 33
0.0
 40
0.0
 40
0.0
 40
0.0
 40
0.0
 40
0.0555555555555556
 40
0.0555555555555556
 40
0.0555555555555556
 40
0.0555555555555556
 40
0.1111111111111111
 40
0.1111111111111111
 40
0.1111111111111111
 40
0.1111111111111111
 40
0.1666666666666667
 40
0.1666666666666667
 40
0.1666666666666667
 40
0.1666666666666667
 40
0.2222222222222222
 40
0.2222222222222222
 40
0.2222222222222222
 40
0.2222222222222222
 40
0.2777777777777778
 40
0.2777777777777778
 40
0.2777777777777778
 40
0.2777777777777778
 40
0.3333333333333333
 40
0.3333333333333333
 40
0.3333333333333333
 40
0.3333333333333333
 40
0.3888888888888889
 40
0.3888888888888889
 40
0.3888888888888889
 40
0.3888888888888889
 40
0.4444444444444444
 40
0.4444444444444444
 40
0.4444444444444444
 40
0.4444444444444444
 40
0.5
 40
0.5
 40
0.5
 40
0.5
 40
0.5555555555555556
 40
0.5555555555555556
 40
0.5555555555555556
 40
0.5555555555555556
 40
0.6111111111111112
 40
0.6111111111111112
 40
0.6111111111111112
 40
0.6111111111111112
 40
0.6666666666666666
 40
0.6666666666666666
 40
0.6666666666666666
 40
0.6666666666666666
 40
0.7222222222222222
 40
0.7222222222222222
 40
0.7222222222222222
 40
0.7222222222222222
 40
0.7777777777777778
 40
0.7777777777777778
 40
0.7777777777777778
 40
0.7777777777777778
 40
0.8333333333333334
 40
0.8333333333333334
 40
0.8333333333333334
 40
0.8333333333333334
 40
0.8888888888888888
 40
0.8888888888888888
 40
0.8888888888888888
 40
0.8888888888888888
 40
1.0
 40
1.0
 40
1.0
 40
1.0
 10
-14.797
 20
40.3066
 30
0.0
 10
-11.3892
 20
37.7621
 30
0.0
 10
-10.8348
 20
38.6745
 30
0.0
 10
-9.7134
 20
41.3555
 30
0.0
 10
-9.7134
 20
41.3555
 30
0.0
 10
-9.0985
 20
43.0506
 30
0.0
 10
-8.552
 20
44.7261
 30
0.0
 10
-8.075
 20
46.3818
 30
0.0
 10
-8.075
 20
46.3818
 30
0.0
 10
-6.9934
 20
50.136
 30
0.0
 10
-6.2699
 20
53.7878
 30
0.0
 10
-5.9208
 20
57.3327
 30
0.0
 10
-5.9208
 20
57.3327
 30
0.0
 10
-5.8945
 20
62.4813
 30
0.0
 10
-8.099
 20
66.1707
 30
0.0
 10
-13.6673
 20
67.6612
 30
0.0
 10
-13.6673
 20
67.6612
 30
0.0
 10
-15.7704
 20
68.4273
 30
0.0
 10
-17.5057
 20
67.8858
 30
0.0
 10
-16.6528
 20
65.4824
 30
0.0
 10
-16.6528
 20
65.4824
 30
0.0
 10
-16.6528
 20
65.4824
 30
0.0
 10
-15.5232
 20
61.2865
 30
0.0
 10
-15.5232
 20
61.2865
 30
0.0
 10
-15.5232
 20
61.2865
 30
0.0
 10
-15.5232
 20
61.2865
 30
0.0
 10
-17.9439
 20
61.5285
 30
0.0
 10
-17.9439
 20
61.5285
 30
0.0
 10
-17.9439
 20
61.5285
 30
0.0
 10
-17.9439
 20
61.5285
 30
0.0
 10
-18.2668
 20
59.5919
 30
0.0
 10
-18.2668
 20
59.5919
 30
0.0
 10
-18.2668
 20
59.5919
 30
0.0
 10
-18.2668
 20
59.5919
 30
0.0
 10
-20.6875
 20
57.6553
 30
0.0
 10
-20.6875
 20
57.6553
 30
0.0
 10
-20.6875
 20
57.6553
 30
0.0
 10
-22.0192
 20
55.6544
 30
0.0
 10
-19.4092
 20
53.9133
 30
0.0
 10
-19.1544
 20
55.9609
 30
0.0
 10
-19.1544
 20
55.9609
 30
0.0
 10
-18.5795
 20
57.5676
 30
0.0
 10
-17.6583
 20
58.9268
 30
0.0
 10
-16.3302
 20
59.9954
 30
0.0
 10
-16.3302
 20
59.9954
 30
0.0
 10
-14.3318
 20
61.1652
 30
0.0
 10
-13.1944
 20
58.5155
 30
0.0
 10
-12.3359
 20
55.1942
 30
0.0
 10
-12.3359
 20
55.1942
 30
0.0
 10
-11.7436
 20
53.6298
 30
0.0
 10
-13.1294
 20
52.4555
 30
0.0
 10
-14.0707
 20
54.5891
 30
0.0
 10
-14.0707
 20
54.5891
 30
0.0
 10
-15.246
 20
57.6396
 30
0.0
 10
-16.8764
 20
58.7256
 30
0.0
 10
-18.2668
 20
54.9926
 30
0.0
 10
-18.2668
 20
54.9926
 30
0.0
 10
-18.9145
 20
53.2484
 30
0.0
 10
-19.4211
 20
50.9804
 30
0.0
 10
-19.0333
 20
47.4075
 30
0.0
 10
-19.0333
 20
47.4075
 30
0.0
 10
-19.0333
 20
47.4075
 30
0.0
 10
-19.0265
 20
47.3617
 30
0.0
 10
-19.0265
 20
47.3617
 30
0.0
 10
-19.0265
 20
47.3617
 30
0.0
 10
-18.5248
 20
43.9821
 30
0.0
 10
-16.9081
 20
41.8641
 30
0.0
 10
-14.797
 20
40.3066
 30
0.0
  0
SPLINE
  5
49
330
1F
100
AcDbEntity
  8
Camada 1
 62
   175
370
     9
100
AcDbSpline
210
0.0
220
0.0
230
1.0
 70
    11
 71
     3
 72
  3692
 73
  3688
 74
     0
 42
0.0000000001
 43
0.0000000001
 12
1.0
 22
0.0
 32
0.0
 13
1.0
 23
0.0
 33
0.0
 40
0.0
 40
0.0
 40
0.0
 40
0.0
 40
0.0010834236186349
 40
0.0010834236186349
 40
0.0010834236186349
 40
0.0010834236186349
 40
0.0021668472372698
 40
0.0021668472372698
 40
0.0021668472372698
 40
0.0021668472372698
 40
0.0032502708559047
 40
0.0032502708559047
 40
0.0032502708559047
 40
0.0032502708559047
 40
0.0043336944745395
 40
0.0043336944745395
 40
0.0043336944745395
 40
0.0043336944745395
 40
0.0054171180931744
 40
0.0054171180931744
 40
0.0054171180931744
 40
0.0054171180931744
 40
0.0065005417118093
 40
0.0065005417118093
 40
0.0065005417118093
 40
0.0065005417118093
 40
0.0075839653304442
 40
0.0075839653304442
 40
0.0075839653304442
 40
0.0075839653304442
 40
0.0086673889490791
 40
0.0086673889490791
 40
0.0086673889490791
 40
0.0086673889490791
 40
0.009750812567714
 40
0.009750812567714
 40
0.009750812567714
 40
0.009750812567714
 40
0.0108342361863489
 40
0.0108342361863489
 40
0.0108342361863489
 40
0.0108342361863489
 40
0.0119176598049837
 40
0.0119176598049837
 40
0.0119176598049837
 40
0.0119176598049837
 40
0.0130010834236186
 40
0.0130010834236186
 40
0.0130010834236186
 40
0.0130010834236186
 40
0.0140845070422535
 40
0.0140845070422535
 40
0.0140845070422535
 40
0.0140845070422535
 40
0.0151679306608884
 40
0.0151679306608884
 40
0.0151679306608884
 40
0.0151679306608884
 40
0.0162513542795233
 40
0.0162513542795233
 40
0.0162513542795233
 40
0.0162513542795233
 40
0.0173347778981582
 40
0.0173347778981582
 40
0.0173347778981582
 40
0.0173347778981582
 40
0.0184182015167931
 40
0.0184182015167931
 40
0.0184182015167931
 40
0.0184182015167931
 40
0.019501625135428
 40
0.019501625135428
 40
0.019501625135428
 40
0.019501625135428
 40
0.0205850487540628
 40
0.0205850487540628
 40
0.0205850487540628
 40
0.0205850487540628
 40
0.0216684723726977
 40
0.0216684723726977
 40
0.0216684723726977
 40
0.0216684723726977
 40
0.0227518959913326
 40
0.0227518959913326
 40
0.0227518959913326
 40
0.0227518959913326
 40
0.0238353196099675
 40
0.0238353196099675
 40
0.0238353196099675
 40
0.0238353196099675
 40
0.0249187432286024
 40
0.0249187432286024
 40
0.0249187432286024
 40
0.0249187432286024
 40
0.0260021668472373
 40
0.0260021668472373
 40
0.0260021668472373
 40
0.0260021668472373
 40
0.0270855904658722
 40
0.0270855904658722
 40
0.0270855904658722
 40
0.0270855904658722
 40
0.028169014084507
 40
0.028169014084507
 40
0.028169014084507
 40
0.028169014084507
 40
0.0292524377031419
 40
0.0292524377031419
 40
0.0292524377031419
 40
0.0292524377031419
 40
0.0303358613217768
 40
0.0303358613217768
 40
0.0303358613217768
 40
0.0303358613217768
 40
0.0314192849404117
 40
0.0314192849404117
 40
0.0314192849404117
 40
0.0314192849404117
 40
0.0325027085590466
 40
0.0325027085590466
 40
0.0325027085590466
 40
0.0325027085590466
 40
0.0335861321776815
 40
0.0335861321776815
 40
0.0335861321776815
 40
0.0335861321776815
 40
0.0346695557963164
 40
0.0346695557963164
 40
0.0346695557963164
 40
0.0346695557963164
 40
0.0357529794149512
 40
0.0357529794149512
 40
0.0357529794149512
 40
0.0357529794149512
 40
0.0368364030335861
 40
0.0368364030335861
 40
0.0368364030335861
 40
0.0368364030335861
 40
0.037919826652221
 40
0.037919826652221
 40
0.037919826652221
 40
0.037919826652221
 40
0.0390032502708559
 40
0.0390032502708559
 40
0.0390032502708559
 40
0.0390032502708559
 40
0.0400866738894908
 40
0.0400866738894908
 40
0.0400866738894908
 40
0.0400866738894908
 40
0.0411700975081257
 40
0.0411700975081257
 40
0.0411700975081257
 40
0.0411700975081257
 40
0.0422535211267606
 40
0.0422535211267606
 40
0.0422535211267606
 40
0.0422535211267606
 40
0.0433369447453954
 40
0.0433369447453954
 40
0.0433369447453954
 40
0.0433369447453954
 40
0.0444203683640303
 40
0.0444203683640303
 40
0.0444203683640303
 40
0.0444203683640303
 40
0.0455037919826652
 40
0.0455037919826652
 40
0.0455037919826652
 40
0.0455037919826652
 40
0.0465872156013001
 40
0.0465872156013001
 40
0.0465872156013001
 40
0.0465872156013001
 40
0.047670639219935
 40
0.047670639219935
 40
0.047670639219935
 40
0.047670639219935
 40
0.0487540628385699
 40
0.0487540628385699
 40
0.0487540628385699
 40
0.0487540628385699
 40
0.0498374864572048
 40
0.0498374864572048
 40
0.0498374864572048
 40
0.0498374864572048
 40
0.0509209100758397
 40
0.0509209100758397
 40
0.0509209100758397
 40
0.0509209100758397
 40
0.0520043336944745
 40
0.0520043336944745
 40
0.0520043336944745
 40
0.0520043336944745
 40
0.0530877573131094
 40
0.0530877573131094
 40
0.0530877573131094
 40
0.0530877573131094
 40
0.0541711809317443
 40
0.0541711809317443
 40
0.0541711809317443
 40
0.0541711809317443
 40
0.0552546045503792
 40
0.0552546045503792
 40
0.0552546045503792
 40
0.0552546045503792
 40
0.0563380281690141
 40
0.0563380281690141
 40
0.0563380281690141
 40
0.0563380281690141
 40
0.057421451787649
 40
0.057421451787649
 40
0.057421451787649
 40
0.057421451787649
 40
0.0585048754062839
 40
0.0585048754062839
 40
0.0585048754062839
 40
0.0585048754062839
 40
0.0595882990249187
 40
0.0595882990249187
 40
0.0595882990249187
 40
0.0595882990249187
 40
0.0606717226435536
 40
0.0606717226435536
 40
0.0606717226435536
 40
0.0606717226435536
 40
0.0617551462621885
 40
0.0617551462621885
 40
0.0617551462621885
 40
0.0617551462621885
 40
0.0628385698808234
 40
0.0628385698808234
 40
0.0628385698808234
 40
0.0628385698808234
 40
0.0639219934994583
 40
0.0639219934994583
 40
0.0639219934994583
 40
0.0639219934994583
 40
0.0650054171180932
 40
0.0650054171180932
 40
0.0650054171180932
 40
0.0650054171180932
 40
0.0660888407367281
 40
0.0660888407367281
 40
0.0660888407367281
 40
0.0660888407367281
 40
0.0671722643553629
 40
0.0671722643553629
 40
0.0671722643553629
 40
0.0671722643553629
 40
0.0682556879739978
 40
0.0682556879739978
 40
0.0682556879739978
 40
0.0682556879739978
 40
0.0693391115926327
 40
0.0693391115926327
 40
0.0693391115926327
 40
0.0693391115926327
 40
0.0704225352112676
 40
0.0704225352112676
 40
0.0704225352112676
 40
0.0704225352112676
 40
0.0715059588299025
 40
0.0715059588299025
 40
0.0715059588299025
 40
0.0715059588299025
 40
0.0725893824485374
 40
0.0725893824485374
 40
0.0725893824485374
 40
0.0725893824485374
 40
0.0736728060671723
 40
0.0736728060671723
 40
0.0736728060671723
 40
0.0736728060671723
 40
0.0747562296858072
 40
0.0747562296858072
 40
0.0747562296858072
 40
0.0747562296858072
 40
0.075839653304442
 40
0.075839653304442
 40
0.075839653304442
 40
0.075839653304442
 40
0.0769230769230769
 40
0.0769230769230769
 40
0.0769230769230769
 40
0.0769230769230769
 40
0.0780065005417118
 40
0.0780065005417118
 40
0.0780065005417118
 40
0.0780065005417118
 40
0.0790899241603467
 40
0.0790899241603467
 40
0.0790899241603467
 40
0.0790899241603467
 40
0.0801733477789816
 40
0.0801733477789816
 40
0.0801733477789816
 40
0.0801733477789816
 40
0.0812567713976165
 40
0.0812567713976165
 40
0.0812567713976165
 40
0.0812567713976165
 40
0.0823401950162514
 40
0.0823401950162514
 40
0.0823401950162514
 40
0.0823401950162514
 40
0.0834236186348862
 40
0.0834236186348862
 40
0.0834236186348862
 40
0.0834236186348862
 40
0.0845070422535211
 40
0.0845070422535211
 40
0.0845070422535211
 40
0.0845070422535211
 40
0.085590465872156
 40
0.085590465872156
 40
0.085590465872156
 40
0.085590465872156
 40
0.0866738894907909
 40
0.0866738894907909
 40
0.0866738894907909
 40
0.0866738894907909
 40
0.0877573131094258
 40
0.0877573131094258
 40
0.0877573131094258
 40
0.0877573131094258
 40
0.0888407367280607
 40
0.0888407367280607
 40
0.0888407367280607
 40
0.0888407367280607
 40
0.0899241603466956
 40
0.0899241603466956
 40
0.0899241603466956
 40
0.0899241603466956
 40
0.0910075839653304
 40
0.0910075839653304
 40
0.0910075839653304
 40
0.0910075839653304
 40
0.0920910075839653
 40
0.0920910075839653
 40
0.0920910075839653
 40
0.0920910075839653
 40
0.0931744312026002
 40
0.0931744312026002
 40
0.0931744312026002
 40
0.0931744312026002
 40
0.0942578548212351
 40
0.0942578548212351
 40
0.0942578548212351
 40
0.0942578548212351
 40
0.09534127843987
 40
0.09534127843987
 40
0.09534127843987
 40
0.09534127843987
 40
0.0964247020585049
 40
0.0964247020585049
 40
0.0964247020585049
 40
0.0964247020585049
 40
0.0975081256771398
 40
0.0975081256771398
 40
0.0975081256771398
 40
0.0975081256771398
 40
0.0985915492957746
 40
0.0985915492957746
 40
0.0985915492957746
 40
0.0985915492957746
 40
0.0996749729144095
 40
0.0996749729144095
 40
0.0996749729144095
 40
0.0996749729144095
 40
0.1007583965330444
 40
0.1007583965330444
 40
0.1007583965330444
 40
0.1007583965330444
 40
0.1018418201516793
 40
0.1018418201516793
 40
0.1018418201516793
 40
0.1018418201516793
 40
0.1029252437703142
 40
0.1029252437703142
 40
0.1029252437703142
 40
0.1029252437703142
 40
0.1040086673889491
 40
0.1040086673889491
 40
0.1040086673889491
 40
0.1040086673889491
 40
0.105092091007584
 40
0.105092091007584
 40
0.105092091007584
 40
0.105092091007584
 40
0.1061755146262189
 40
0.1061755146262189
 40
0.1061755146262189
 40
0.1061755146262189
 40
0.1072589382448537
 40
0.1072589382448537
 40
0.1072589382448537
 40
0.1072589382448537
 40
0.1083423618634886
 40
0.1083423618634886
 40
0.1083423618634886
 40
0.1083423618634886
 40
0.1094257854821235
 40
0.1094257854821235
 40
0.1094257854821235
 40
0.1094257854821235
 40
0.1105092091007584
 40
0.1105092091007584
 40
0.1105092091007584
 40
0.1105092091007584
 40
0.1115926327193933
 40
0.1115926327193933
 40
0.1115926327193933
 40
0.1115926327193933
 40
0.1126760563380282
 40
0.1126760563380282
 40
0.1126760563380282
 40
0.1126760563380282
 40
0.1137594799566631
 40
0.1137594799566631
 40
0.1137594799566631
 40
0.1137594799566631
 40
0.1148429035752979
 40
0.1148429035752979
 40
0.1148429035752979
 40
0.1148429035752979
 40
0.1159263271939328
 40
0.1159263271939328
 40
0.1159263271939328
 40
0.1159263271939328
 40
0.1170097508125677
 40
0.1170097508125677
 40
0.1170097508125677
 40
0.1170097508125677
 40
0.1180931744312026
 40
0.1180931744312026
 40
0.1180931744312026
 40
0.1180931744312026
 40
0.1191765980498375
 40
0.1191765980498375
 40
0.1191765980498375
 40
0.1191765980498375
 40
0.1202600216684724
 40
0.1202600216684724
 40
0.1202600216684724
 40
0.1202600216684724
 40
0.1213434452871073
 40
0.1213434452871073
 40
0.1213434452871073
 40
0.1213434452871073
 40
0.1224268689057421
 40
0.1224268689057421
 40
0.1224268689057421
 40
0.1224268689057421
 40
0.123510292524377
 40
0.123510292524377
 40
0.123510292524377
 40
0.123510292524377
 40
0.1245937161430119
 40
0.1245937161430119
 40
0.1245937161430119
 40
0.1245937161430119
 40
0.1256771397616468
 40
0.1256771397616468
 40
0.1256771397616468
 40
0.1256771397616468
 40
0.1267605633802817
 40
0.1267605633802817
 40
0.1267605633802817
 40
0.1267605633802817
 40
0.1278439869989166
 40
0.1278439869989166
 40
0.1278439869989166
 40
0.1278439869989166
 40
0.1289274106175515
 40
0.1289274106175515
 40
0.1289274106175515
 40
0.1289274106175515
 40
0.1300108342361863
 40
0.1300108342361863
 40
0.1300108342361863
 40
0.1300108342361863
 40
0.1310942578548212
 40
0.1310942578548212
 40
0.1310942578548212
 40
0.1310942578548212
 40
0.1321776814734561
 40
0.1321776814734561
 40
0.1321776814734561
 40
0.1321776814734561
 40
0.133261105092091
 40
0.133261105092091
 40
0.133261105092091
 40
0.133261105092091
 40
0.1343445287107259
 40
0.1343445287107259
 40
0.1343445287107259
 40
0.1343445287107259
 40
0.1354279523293608
 40
0.1354279523293608
 40
0.1354279523293608
 40
0.1354279523293608
 40
0.1365113759479957
 40
0.1365113759479957
 40
0.1365113759479957
 40
0.1365113759479957
 40
0.1375947995666306
 40
0.1375947995666306
 40
0.1375947995666306
 40
0.1375947995666306
 40
0.1386782231852654
 40
0.1386782231852654
 40
0.1386782231852654
 40
0.1386782231852654
 40
0.1397616468039003
 40
0.1397616468039003
 40
0.1397616468039003
 40
0.1397616468039003
 40
0.1408450704225352
 40
0.1408450704225352
 40
0.1408450704225352
 40
0.1408450704225352
 40
0.1419284940411701
 40
0.1419284940411701
 40
0.1419284940411701
 40
0.1419284940411701
 40
0.143011917659805
 40
0.143011917659805
 40
0.143011917659805
 40
0.143011917659805
 40
0.1440953412784399
 40
0.1440953412784399
 40
0.1440953412784399
 40
0.1440953412784399
 40
0.1451787648970748
 40
0.1451787648970748
 40
0.1451787648970748
 40
0.1451787648970748
 40
0.1462621885157096
 40
0.1462621885157096
 40
0.1462621885157096
 40
0.1462621885157096
 40
0.1473456121343445
 40
0.1473456121343445
 40
0.1473456121343445
 40
0.1473456121343445
 40
0.1484290357529794
 40
0.1484290357529794
 40
0.1484290357529794
 40
0.1484290357529794
 40
0.1495124593716143
 40
0.1495124593716143
 40
0.1495124593716143
 40
0.1495124593716143
 40
0.1505958829902492
 40
0.1505958829902492
 40
0.1505958829902492
 40
0.1505958829902492
 40
0.1516793066088841
 40
0.1516793066088841
 40
0.1516793066088841
 40
0.1516793066088841
 40
0.152762730227519
 40
0.152762730227519
 40
0.152762730227519
 40
0.152762730227519
 40
0.1538461538461539
 40
0.1538461538461539
 40
0.1538461538461539
 40
0.1538461538461539
 40
0.1549295774647887
 40
0.1549295774647887
 40
0.1549295774647887
 40
0.1549295774647887
 40
0.1560130010834236
 40
0.1560130010834236
 40
0.1560130010834236
 40
0.1560130010834236
 40
0.1570964247020585
 40
0.1570964247020585
 40
0.1570964247020585
 40
0.1570964247020585
 40
0.1581798483206934
 40
0.1581798483206934
 40
0.1581798483206934
 40
0.1581798483206934
 40
0.1592632719393283
 40
0.1592632719393283
 40
0.1592632719393283
 40
0.1592632719393283
 40
0.1603466955579632
 40
0.1603466955579632
 40
0.1603466955579632
 40
0.1603466955579632
 40
0.1614301191765981
 40
0.1614301191765981
 40
0.1614301191765981
 40
0.1614301191765981
 40
0.1625135427952329
 40
0.1625135427952329
 40
0.1625135427952329
 40
0.1625135427952329
 40
0.1635969664138678
 40
0.1635969664138678
 40
0.1635969664138678
 40
0.1635969664138678
 40
0.1646803900325027
 40
0.1646803900325027
 40
0.1646803900325027
 40
0.1646803900325027
 40
0.1657638136511376
 40
0.1657638136511376
 40
0.1657638136511376
 40
0.1657638136511376
 40
0.1668472372697725
 40
0.1668472372697725
 40
0.1668472372697725
 40
0.1668472372697725
 40
0.1679306608884074
 40
0.1679306608884074
 40
0.1679306608884074
 40
0.1679306608884074
 40
0.1690140845070423
 40
0.1690140845070423
 40
0.1690140845070423
 40
0.1690140845070423
 40
0.1700975081256771
 40
0.1700975081256771
 40
0.1700975081256771
 40
0.1700975081256771
 40
0.171180931744312
 40
0.171180931744312
 40
0.171180931744312
 40
0.171180931744312
 40
0.1722643553629469
 40
0.1722643553629469
 40
0.1722643553629469
 40
0.1722643553629469
 40
0.1733477789815818
 40
0.1733477789815818
 40
0.1733477789815818
 40
0.1733477789815818
 40
0.1744312026002167
 40
0.1744312026002167
 40
0.1744312026002167
 40
0.1744312026002167
 40
0.1755146262188516
 40
0.1755146262188516
 40
0.1755146262188516
 40
0.1755146262188516
 40
0.1765980498374864
 40
0.1765980498374864
 40
0.1765980498374864
 40
0.1765980498374864
 40
0.1776814734561213
 40
0.1776814734561213
 40
0.1776814734561213
 40
0.1776814734561213
 40
0.1787648970747562
 40
0.1787648970747562
 40
0.1787648970747562
 40
0.1787648970747562
 40
0.1798483206933911
 40
0.1798483206933911
 40
0.1798483206933911
 40
0.1798483206933911
 40
0.180931744312026
 40
0.180931744312026
 40
0.180931744312026
 40
0.180931744312026
 40
0.1820151679306609
 40
0.1820151679306609
 40
0.1820151679306609
 40
0.1820151679306609
 40
0.1830985915492958
 40
0.1830985915492958
 40
0.1830985915492958
 40
0.1830985915492958
 40
0.1841820151679307
 40
0.1841820151679307
 40
0.1841820151679307
 40
0.1841820151679307
 40
0.1852654387865655
 40
0.1852654387865655
 40
0.1852654387865655
 40
0.1852654387865655
 40
0.1863488624052004
 40
0.1863488624052004
 40
0.1863488624052004
 40
0.1863488624052004
 40
0.1874322860238353
 40
0.1874322860238353
 40
0.1874322860238353
 40
0.1874322860238353
 40
0.1885157096424702
 40
0.1885157096424702
 40
0.1885157096424702
 40
0.1885157096424702
 40
0.1895991332611051
 40
0.1895991332611051
 40
0.1895991332611051
 40
0.1895991332611051
 40
0.19068255687974
 40
0.19068255687974
 40
0.19068255687974
 40
0.19068255687974
 40
0.1917659804983749
 40
0.1917659804983749
 40
0.1917659804983749
 40
0.1917659804983749
 40
0.1928494041170097
 40
0.1928494041170097
 40
0.1928494041170097
 40
0.1928494041170097
 40
0.1939328277356446
 40
0.1939328277356446
 40
0.1939328277356446
 40
0.1939328277356446
 40
0.1950162513542795
 40
0.1950162513542795
 40
0.1950162513542795
 40
0.1950162513542795
 40
0.1960996749729144
 40
0.1960996749729144
 40
0.1960996749729144
 40
0.1960996749729144
 40
0.1971830985915493
 40
0.1971830985915493
 40
0.1971830985915493
 40
0.1971830985915493
 40
0.1982665222101842
 40
0.1982665222101842
 40
0.1982665222101842
 40
0.1982665222101842
 40
0.1993499458288191
 40
0.1993499458288191
 40
0.1993499458288191
 40
0.1993499458288191
 40
0.200433369447454
 40
0.200433369447454
 40
0.200433369447454
 40
0.200433369447454
 40
0.2015167930660888
 40
0.2015167930660888
 40
0.2015167930660888
 40
0.2015167930660888
 40
0.2026002166847237
 40
0.2026002166847237
 40
0.2026002166847237
 40
0.2026002166847237
 40
0.2036836403033586
 40
0.2036836403033586
 40
0.2036836403033586
 40
0.2036836403033586
 40
0.2047670639219935
 40
0.2047670639219935
 40
0.2047670639219935
 40
0.2047670639219935
 40
0.2058504875406284
 40
0.2058504875406284
 40
0.2058504875406284
 40
0.2058504875406284
 40
0.2069339111592633
 40
0.2069339111592633
 40
0.2069339111592633
 40
0.2069339111592633
 40
0.2080173347778982
 40
0.2080173347778982
 40
0.2080173347778982
 40
0.2080173347778982
 40
0.2091007583965331
 40
0.2091007583965331
 40
0.2091007583965331
 40
0.2091007583965331
 40
0.2101841820151679
 40
0.2101841820151679
 40
0.2101841820151679
 40
0.2101841820151679
 40
0.2112676056338028
 40
0.2112676056338028
 40
0.2112676056338028
 40
0.2112676056338028
 40
0.2123510292524377
 40
0.2123510292524377
 40
0.2123510292524377
 40
0.2123510292524377
 40
0.2134344528710726
 40
0.2134344528710726
 40
0.2134344528710726
 40
0.2134344528710726
 40
0.2145178764897075
 40
0.2145178764897075
 40
0.2145178764897075
 40
0.2145178764897075
 40
0.2156013001083424
 40
0.2156013001083424
 40
0.2156013001083424
 40
0.2156013001083424
 40
0.2166847237269773
 40
0.2166847237269773
 40
0.2166847237269773
 40
0.2166847237269773
 40
0.2177681473456121
 40
0.2177681473456121
 40
0.2177681473456121
 40
0.2177681473456121
 40
0.218851570964247
 40
0.218851570964247
 40
0.218851570964247
 40
0.218851570964247
 40
0.2199349945828819
 40
0.2199349945828819
 40
0.2199349945828819
 40
0.2199349945828819
 40
0.2210184182015168
 40
0.2210184182015168
 40
0.2210184182015168
 40
0.2210184182015168
 40
0.2221018418201517
 40
0.2221018418201517
 40
0.2221018418201517
 40
0.2221018418201517
 40
0.2231852654387866
 40
0.2231852654387866
 40
0.2231852654387866
 40
0.2231852654387866
 40
0.2242686890574214
 40
0.2242686890574214
 40
0.2242686890574214
 40
0.2242686890574214
 40
0.2253521126760563
 40
0.2253521126760563
 40
0.2253521126760563
 40
0.2253521126760563
 40
0.2264355362946912
 40
0.2264355362946912
 40
0.2264355362946912
 40
0.2264355362946912
 40
0.2275189599133261
 40
0.2275189599133261
 40
0.2275189599133261
 40
0.2275189599133261
 40
0.228602383531961
 40
0.228602383531961
 40
0.228602383531961
 40
0.228602383531961
 40
0.2296858071505959
 40
0.2296858071505959
 40
0.2296858071505959
 40
0.2296858071505959
 40
0.2307692307692308
 40
0.2307692307692308
 40
0.2307692307692308
 40
0.2307692307692308
 40
0.2318526543878656
 40
0.2318526543878656
 40
0.2318526543878656
 40
0.2318526543878656
 40
0.2329360780065005
 40
0.2329360780065005
 40
0.2329360780065005
 40
0.2329360780065005
 40
0.2340195016251354
 40
0.2340195016251354
 40
0.2340195016251354
 40
0.2340195016251354
 40
0.2351029252437703
 40
0.2351029252437703
 40
0.2351029252437703
 40
0.2351029252437703
 40
0.2361863488624052
 40
0.2361863488624052
 40
0.2361863488624052
 40
0.2361863488624052
 40
0.2372697724810401
 40
0.2372697724810401
 40
0.2372697724810401
 40
0.2372697724810401
 40
0.238353196099675
 40
0.238353196099675
 40
0.238353196099675
 40
0.238353196099675
 40
0.2394366197183098
 40
0.2394366197183098
 40
0.2394366197183098
 40
0.2394366197183098
 40
0.2405200433369447
 40
0.2405200433369447
 40
0.2405200433369447
 40
0.2405200433369447
 40
0.2416034669555796
 40
0.2416034669555796
 40
0.2416034669555796
 40
0.2416034669555796
 40
0.2426868905742145
 40
0.2426868905742145
 40
0.2426868905742145
 40
0.2426868905742145
 40
0.2437703141928494
 40
0.2437703141928494
 40
0.2437703141928494
 40
0.2437703141928494
 40
0.2448537378114843
 40
0.2448537378114843
 40
0.2448537378114843
 40
0.2448537378114843
 40
0.2459371614301192
 40
0.2459371614301192
 40
0.2459371614301192
 40
0.2459371614301192
 40
0.2470205850487541
 40
0.2470205850487541
 40
0.2470205850487541
 40
0.2470205850487541
 40
0.2481040086673889
 40
0.2481040086673889
 40
0.2481040086673889
 40
0.2481040086673889
 40
0.2491874322860238
 40
0.2491874322860238
 40
0.2491874322860238
 40
0.2491874322860238
 40
0.2502708559046587
 40
0.2502708559046587
 40
0.2502708559046587
 40
0.2502708559046587
 40
0.2513542795232936
 40
0.2513542795232936
 40
0.2513542795232936
 40
0.2513542795232936
 40
0.2524377031419285
 40
0.2524377031419285
 40
0.2524377031419285
 40
0.2524377031419285
 40
0.2535211267605634
 40
0.2535211267605634
 40
0.2535211267605634
 40
0.2535211267605634
 40
0.2546045503791983
 40
0.2546045503791983
 40
0.2546045503791983
 40
0.2546045503791983
 40
0.2556879739978332
 40
0.2556879739978332
 40
0.2556879739978332
 40
0.2556879739978332
 40
0.2567713976164681
 40
0.2567713976164681
 40
0.2567713976164681
 40
0.2567713976164681
 40
0.2578548212351029
 40
0.2578548212351029
 40
0.2578548212351029
 40
0.2578548212351029
 40
0.2589382448537378
 40
0.2589382448537378
 40
0.2589382448537378
 40
0.2589382448537378
 40
0.2600216684723727
 40
0.2600216684723727
 40
0.2600216684723727
 40
0.2600216684723727
 40
0.2611050920910076
 40
0.2611050920910076
 40
0.2611050920910076
 40
0.2611050920910076
 40
0.2621885157096425
 40
0.2621885157096425
 40
0.2621885157096425
 40
0.2621885157096425
 40
0.2632719393282774
 40
0.2632719393282774
 40
0.2632719393282774
 40
0.2632719393282774
 40
0.2643553629469123
 40
0.2643553629469123
 40
0.2643553629469123
 40
0.2643553629469123
 40
0.2654387865655471
 40
0.2654387865655471
 40
0.2654387865655471
 40
0.2654387865655471
 40
0.266522210184182
 40
0.266522210184182
 40
0.266522210184182
 40
0.266522210184182
 40
0.2676056338028169
 40
0.2676056338028169
 40
0.2676056338028169
 40
0.2676056338028169
 40
0.2686890574214518
 40
0.2686890574214518
 40
0.2686890574214518
 40
0.2686890574214518
 40
0.2697724810400867
 40
0.2697724810400867
 40
0.2697724810400867
 40
0.2697724810400867
 40
0.2708559046587216
 40
0.2708559046587216
 40
0.2708559046587216
 40
0.2708559046587216
 40
0.2719393282773565
 40
0.2719393282773565
 40
0.2719393282773565
 40
0.2719393282773565
 40
0.2730227518959913
 40
0.2730227518959913
 40
0.2730227518959913
 40
0.2730227518959913
 40
0.2741061755146262
 40
0.2741061755146262
 40
0.2741061755146262
 40
0.2741061755146262
 40
0.2751895991332611
 40
0.2751895991332611
 40
0.2751895991332611
 40
0.2751895991332611
 40
0.276273022751896
 40
0.276273022751896
 40
0.276273022751896
 40
0.276273022751896
 40
0.2773564463705309
 40
0.2773564463705309
 40
0.2773564463705309
 40
0.2773564463705309
 40
0.2784398699891658
 40
0.2784398699891658
 40
0.2784398699891658
 40
0.2784398699891658
 40
0.2795232936078006
 40
0.2795232936078006
 40
0.2795232936078006
 40
0.2795232936078006
 40
0.2806067172264355
 40
0.2806067172264355
 40
0.2806067172264355
 40
0.2806067172264355
 40
0.2816901408450704
 40
0.2816901408450704
 40
0.2816901408450704
 40
0.2816901408450704
 40
0.2827735644637053
 40
0.2827735644637053
 40
0.2827735644637053
 40
0.2827735644637053
 40
0.2838569880823402
 40
0.2838569880823402
 40
0.2838569880823402
 40
0.2838569880823402
 40
0.2849404117009751
 40
0.2849404117009751
 40
0.2849404117009751
 40
0.2849404117009751
 40
0.28602383531961
 40
0.28602383531961
 40
0.28602383531961
 40
0.28602383531961
 40
0.2871072589382448
 40
0.2871072589382448
 40
0.2871072589382448
 40
0.2871072589382448
 40
0.2881906825568797
 40
0.2881906825568797
 40
0.2881906825568797
 40
0.2881906825568797
 40
0.2892741061755146
 40
0.2892741061755146
 40
0.2892741061755146
 40
0.2892741061755146
 40
0.2903575297941495
 40
0.2903575297941495
 40
0.2903575297941495
 40
0.2903575297941495
 40
0.2914409534127844
 40
0.2914409534127844
 40
0.2914409534127844
 40
0.2914409534127844
 40
0.2925243770314193
 40
0.2925243770314193
 40
0.2925243770314193
 40
0.2925243770314193
 40
0.2936078006500542
 40
0.2936078006500542
 40
0.2936078006500542
 40
0.2936078006500542
 40
0.294691224268689
 40
0.294691224268689
 40
0.294691224268689
 40
0.294691224268689
 40
0.2957746478873239
 40
0.2957746478873239
 40
0.2957746478873239
 40
0.2957746478873239
 40
0.2968580715059588
 40
0.2968580715059588
 40
0.2968580715059588
 40
0.2968580715059588
 40
0.2979414951245937
 40
0.2979414951245937
 40
0.2979414951245937
 40
0.2979414951245937
 40
0.2990249187432286
 40
0.2990249187432286
 40
0.2990249187432286
 40
0.2990249187432286
 40
0.3001083423618635
 40
0.3001083423618635
 40
0.3001083423618635
 40
0.3001083423618635
 40
0.3011917659804983
 40
0.3011917659804983
 40
0.3011917659804983
 40
0.3011917659804983
 40
0.3022751895991332
 40
0.3022751895991332
 40
0.3022751895991332
 40
0.3022751895991332
 40
0.3033586132177681
 40
0.3033586132177681
 40
0.3033586132177681
 40
0.3033586132177681
 40
0.304442036836403
 40
0.304442036836403
 40
0.304442036836403
 40
0.304442036836403
 40
0.3055254604550379
 40
0.3055254604550379
 40
0.3055254604550379
 40
0.3055254604550379
 40
0.3066088840736728
 40
0.3066088840736728
 40
0.3066088840736728
 40
0.3066088840736728
 40
0.3076923076923077
 40
0.3076923076923077
 40
0.3076923076923077
 40
0.3076923076923077
 40
0.3087757313109426
 40
0.3087757313109426
 40
0.3087757313109426
 40
0.3087757313109426
 40
0.3098591549295774
 40
0.3098591549295774
 40
0.3098591549295774
 40
0.3098591549295774
 40
0.3109425785482123
 40
0.3109425785482123
 40
0.3109425785482123
 40
0.3109425785482123
 40
0.3120260021668472
 40
0.3120260021668472
 40
0.3120260021668472
 40
0.3120260021668472
 40
0.3131094257854821
 40
0.3131094257854821
 40
0.3131094257854821
 40
0.3131094257854821
 40
0.314192849404117
 40
0.314192849404117
 40
0.314192849404117
 40
0.314192849404117
 40
0.3152762730227519
 40
0.3152762730227519
 40
0.3152762730227519
 40
0.3152762730227519
 40
0.3163596966413868
 40
0.3163596966413868
 40
0.3163596966413868
 40
0.3163596966413868
 40
0.3174431202600217
 40
0.3174431202600217
 40
0.3174431202600217
 40
0.3174431202600217
 40
0.3185265438786565
 40
0.3185265438786565
 40
0.3185265438786565
 40
0.3185265438786565
 40
0.3196099674972914
 40
0.3196099674972914
 40
0.3196099674972914
 40
0.3196099674972914
 40
0.3206933911159263
 40
0.3206933911159263
 40
0.3206933911159263
 40
0.3206933911159263
 40
0.3217768147345612
 40
0.3217768147345612
 40
0.3217768147345612
 40
0.3217768147345612
 40
0.3228602383531961
 40
0.3228602383531961
 40
0.3228602383531961
 40
0.3228602383531961
 40
0.323943661971831
 40
0.323943661971831
 40
0.323943661971831
 40
0.323943661971831
 40
0.3250270855904659
 40
0.3250270855904659
 40
0.3250270855904659
 40
0.3250270855904659
 40
0.3261105092091008
 40
0.3261105092091008
 40
0.3261105092091008
 40
0.3261105092091008
 40
0.3271939328277356
 40
0.3271939328277356
 40
0.3271939328277356
 40
0.3271939328277356
 40
0.3282773564463705
 40
0.3282773564463705
 40
0.3282773564463705
 40
0.3282773564463705
 40
0.3293607800650054
 40
0.3293607800650054
 40
0.3293607800650054
 40
0.3293607800650054
 40
0.3304442036836403
 40
0.3304442036836403
 40
0.3304442036836403
 40
0.3304442036836403
 40
0.3315276273022752
 40
0.3315276273022752
 40
0.3315276273022752
 40
0.3315276273022752
 40
0.3326110509209101
 40
0.3326110509209101
 40
0.3326110509209101
 40
0.3326110509209101
 40
0.333694474539545
 40
0.333694474539545
 40
0.333694474539545
 40
0.333694474539545
 40
0.3347778981581798
 40
0.3347778981581798
 40
0.3347778981581798
 40
0.3347778981581798
 40
0.3358613217768147
 40
0.3358613217768147
 40
0.3358613217768147
 40
0.3358613217768147
 40
0.3369447453954496
 40
0.3369447453954496
 40
0.3369447453954496
 40
0.3369447453954496
 40
0.3380281690140845
 40
0.3380281690140845
 40
0.3380281690140845
 40
0.3380281690140845
 40
0.3391115926327194
 40
0.3391115926327194
 40
0.3391115926327194
 40
0.3391115926327194
 40
0.3401950162513543
 40
0.3401950162513543
 40
0.3401950162513543
 40
0.3401950162513543
 40
0.3412784398699892
 40
0.3412784398699892
 40
0.3412784398699892
 40
0.3412784398699892
 40
0.3423618634886241
 40
0.3423618634886241
 40
0.3423618634886241
 40
0.3423618634886241
 40
0.3434452871072589
 40
0.3434452871072589
 40
0.3434452871072589
 40
0.3434452871072589
 40
0.3445287107258938
 40
0.3445287107258938
 40
0.3445287107258938
 40
0.3445287107258938
 40
0.3456121343445287
 40
0.3456121343445287
 40
0.3456121343445287
 40
0.3456121343445287
 40
0.3466955579631636
 40
0.3466955579631636
 40
0.3466955579631636
 40
0.3466955579631636
 40
0.3477789815817985
 40
0.3477789815817985
 40
0.3477789815817985
 40
0.3477789815817985
 40
0.3488624052004334
 40
0.3488624052004334
 40
0.3488624052004334
 40
0.3488624052004334
 40
0.3499458288190683
 40
0.3499458288190683
 40
0.3499458288190683
 40
0.3499458288190683
 40
0.3510292524377032
 40
0.3510292524377032
 40
0.3510292524377032
 40
0.3510292524377032
 40
0.352112676056338
 40
0.352112676056338
 40
0.352112676056338
 40
0.352112676056338
 40
0.3531960996749729
 40
0.3531960996749729
 40
0.3531960996749729
 40
0.3531960996749729
 40
0.3542795232936078
 40
0.3542795232936078
 40
0.3542795232936078
 40
0.3542795232936078
 40
0.3553629469122427
 40
0.3553629469122427
 40
0.3553629469122427
 40
0.3553629469122427
 40
0.3564463705308776
 40
0.3564463705308776
 40
0.3564463705308776
 40
0.3564463705308776
 40
0.3575297941495125
 40
0.3575297941495125
 40
0.3575297941495125
 40
0.3575297941495125
 40
0.3586132177681474
 40
0.3586132177681474
 40
0.3586132177681474
 40
0.3586132177681474
 40
0.3596966413867823
 40
0.3596966413867823
 40
0.3596966413867823
 40
0.3596966413867823
 40
0.3607800650054171
 40
0.3607800650054171
 40
0.3607800650054171
 40
0.3607800650054171
 40
0.361863488624052
 40
0.361863488624052
 40
0.361863488624052
 40
0.361863488624052
 40
0.3629469122426869
 40
0.3629469122426869
 40
0.3629469122426869
 40
0.3629469122426869
 40
0.3640303358613218
 40
0.3640303358613218
 40
0.3640303358613218
 40
0.3640303358613218
 40
0.3651137594799567
 40
0.3651137594799567
 40
0.3651137594799567
 40
0.3651137594799567
 40
0.3661971830985916
 40
0.3661971830985916
 40
0.3661971830985916
 40
0.3661971830985916
 40
0.3672806067172265
 40
0.3672806067172265
 40
0.3672806067172265
 40
0.3672806067172265
 40
0.3683640303358613
 40
0.3683640303358613
 40
0.3683640303358613
 40
0.3683640303358613
 40
0.3694474539544962
 40
0.3694474539544962
 40
0.3694474539544962
 40
0.3694474539544962
 40
0.3705308775731311
 40
0.3705308775731311
 40
0.3705308775731311
 40
0.3705308775731311
 40
0.371614301191766
 40
0.371614301191766
 40
0.371614301191766
 40
0.371614301191766
 40
0.3726977248104009
 40
0.3726977248104009
 40
0.3726977248104009
 40
0.3726977248104009
 40
0.3737811484290358
 40
0.3737811484290358
 40
0.3737811484290358
 40
0.3737811484290358
 40
0.3748645720476707
 40
0.3748645720476707
 40
0.3748645720476707
 40
0.3748645720476707
 40
0.3759479956663055
 40
0.3759479956663055
 40
0.3759479956663055
 40
0.3759479956663055
 40
0.3770314192849404
 40
0.3770314192849404
 40
0.3770314192849404
 40
0.3770314192849404
 40
0.3781148429035753
 40
0.3781148429035753
 40
0.3781148429035753
 40
0.3781148429035753
 40
0.3791982665222102
 40
0.3791982665222102
 40
0.3791982665222102
 40
0.3791982665222102
 40
0.3802816901408451
 40
0.3802816901408451
 40
0.3802816901408451
 40
0.3802816901408451
 40
0.38136511375948
 40
0.38136511375948
 40
0.38136511375948
 40
0.38136511375948
 40
0.3824485373781149
 40
0.3824485373781149
 40
0.3824485373781149
 40
0.3824485373781149
 40
0.3835319609967497
 40
0.3835319609967497
 40
0.3835319609967497
 40
0.3835319609967497
 40
0.3846153846153846
 40
0.3846153846153846
 40
0.3846153846153846
 40
0.3846153846153846
 40
0.3856988082340195
 40
0.3856988082340195
 40
0.3856988082340195
 40
0.3856988082340195
 40
0.3867822318526544
 40
0.3867822318526544
 40
0.3867822318526544
 40
0.3867822318526544
 40
0.3878656554712893
 40
0.3878656554712893
 40
0.3878656554712893
 40
0.3878656554712893
 40
0.3889490790899242
 40
0.3889490790899242
 40
0.3889490790899242
 40
0.3889490790899242
 40
0.390032502708559
 40
0.390032502708559
 40
0.390032502708559
 40
0.390032502708559
 40
0.3911159263271939
 40
0.3911159263271939
 40
0.3911159263271939
 40
0.3911159263271939
 40
0.3921993499458288
 40
0.3921993499458288
 40
0.3921993499458288
 40
0.3921993499458288
 40
0.3932827735644637
 40
0.3932827735644637
 40
0.3932827735644637
 40
0.3932827735644637
 40
0.3943661971830986
 40
0.3943661971830986
 40
0.3943661971830986
 40
0.3943661971830986
 40
0.3954496208017335
 40
0.3954496208017335
 40
0.3954496208017335
 40
0.3954496208017335
 40
0.3965330444203684
 40
0.3965330444203684
 40
0.3965330444203684
 40
0.3965330444203684
 40
0.3976164680390032
 40
0.3976164680390032
 40
0.3976164680390032
 40
0.3976164680390032
 40
0.3986998916576381
 40
0.3986998916576381
 40
0.3986998916576381
 40
0.3986998916576381
 40
0.399783315276273
 40
0.399783315276273
 40
0.399783315276273
 40
0.399783315276273
 40
0.4008667388949079
 40
0.4008667388949079
 40
0.4008667388949079
 40
0.4008667388949079
 40
0.4019501625135428
 40
0.4019501625135428
 40
0.4019501625135428
 40
0.4019501625135428
 40
0.4030335861321777
 40
0.4030335861321777
 40
0.4030335861321777
 40
0.4030335861321777
 40
0.4041170097508126
 40
0.4041170097508126
 40
0.4041170097508126
 40
0.4041170097508126
 40
0.4052004333694474
 40
0.4052004333694474
 40
0.4052004333694474
 40
0.4052004333694474
 40
0.4062838569880823
 40
0.4062838569880823
 40
0.4062838569880823
 40
0.4062838569880823
 40
0.4073672806067172
 40
0.4073672806067172
 40
0.4073672806067172
 40
0.4073672806067172
 40
0.4084507042253521
 40
0.4084507042253521
 40
0.4084507042253521
 40
0.4084507042253521
 40
0.409534127843987
 40
0.409534127843987
 40
0.409534127843987
 40
0.409534127843987
 40
0.4106175514626219
 40
0.4106175514626219
 40
0.4106175514626219
 40
0.4106175514626219
 40
0.4117009750812567
 40
0.4117009750812567
 40
0.4117009750812567
 40
0.4117009750812567
 40
0.4127843986998916
 40
0.4127843986998916
 40
0.4127843986998916
 40
0.4127843986998916
 40
0.4138678223185265
 40
0.4138678223185265
 40
0.4138678223185265
 40
0.4138678223185265
 40
0.4149512459371614
 40
0.4149512459371614
 40
0.4149512459371614
 40
0.4149512459371614
 40
0.4160346695557963
 40
0.4160346695557963
 40
0.4160346695557963
 40
0.4160346695557963
 40
0.4171180931744312
 40
0.4171180931744312
 40
0.4171180931744312
 40
0.4171180931744312
 40
0.4182015167930661
 40
0.4182015167930661
 40
0.4182015167930661
 40
0.4182015167930661
 40
0.419284940411701
 40
0.419284940411701
 40
0.419284940411701
 40
0.419284940411701
 40
0.4203683640303358
 40
0.4203683640303358
 40
0.4203683640303358
 40
0.4203683640303358
 40
0.4214517876489707
 40
0.4214517876489707
 40
0.4214517876489707
 40
0.4214517876489707
 40
0.4225352112676056
 40
0.4225352112676056
 40
0.4225352112676056
 40
0.4225352112676056
 40
0.4236186348862405
 40
0.4236186348862405
 40
0.4236186348862405
 40
0.4236186348862405
 40
0.4247020585048754
 40
0.4247020585048754
 40
0.4247020585048754
 40
0.4247020585048754
 40
0.4257854821235103
 40
0.4257854821235103
 40
0.4257854821235103
 40
0.4257854821235103
 40
0.4268689057421452
 40
0.4268689057421452
 40
0.4268689057421452
 40
0.4268689057421452
 40
0.4279523293607801
 40
0.4279523293607801
 40
0.4279523293607801
 40
0.4279523293607801
 40
0.4290357529794149
 40
0.4290357529794149
 40
0.4290357529794149
 40
0.4290357529794149
 40
0.4301191765980498
 40
0.4301191765980498
 40
0.4301191765980498
 40
0.4301191765980498
 40
0.4312026002166847
 40
0.4312026002166847
 40
0.4312026002166847
 40
0.4312026002166847
 40
0.4322860238353196
 40
0.4322860238353196
 40
0.4322860238353196
 40
0.4322860238353196
 40
0.4333694474539545
 40
0.4333694474539545
 40
0.4333694474539545
 40
0.4333694474539545
 40
0.4344528710725894
 40
0.4344528710725894
 40
0.4344528710725894
 40
0.4344528710725894
 40
0.4355362946912243
 40
0.4355362946912243
 40
0.4355362946912243
 40
0.4355362946912243
 40
0.4366197183098591
 40
0.4366197183098591
 40
0.4366197183098591
 40
0.4366197183098591
 40
0.437703141928494
 40
0.437703141928494
 40
0.437703141928494
 40
0.437703141928494
 40
0.4387865655471289
 40
0.4387865655471289
 40
0.4387865655471289
 40
0.4387865655471289
 40
0.4398699891657638
 40
0.4398699891657638
 40
0.4398699891657638
 40
0.4398699891657638
 40
0.4409534127843987
 40
0.4409534127843987
 40
0.4409534127843987
 40
0.4409534127843987
 40
0.4420368364030336
 40
0.4420368364030336
 40
0.4420368364030336
 40
0.4420368364030336
 40
0.4431202600216685
 40
0.4431202600216685
 40
0.4431202600216685
 40
0.4431202600216685
 40
0.4442036836403034
 40
0.4442036836403034
 40
0.4442036836403034
 40
0.4442036836403034
 40
0.4452871072589382
 40
0.4452871072589382
 40
0.4452871072589382
 40
0.4452871072589382
 40
0.4463705308775731
 40
0.4463705308775731
 40
0.4463705308775731
 40
0.4463705308775731
 40
0.447453954496208
 40
0.447453954496208
 40
0.447453954496208
 40
0.447453954496208
 40
0.4485373781148429
 40
0.4485373781148429
 40
0.4485373781148429
 40
0.4485373781148429
 40
0.4496208017334778
 40
0.4496208017334778
 40
0.4496208017334778
 40
0.4496208017334778
 40
0.4507042253521127
 40
0.4507042253521127
 40
0.4507042253521127
 40
0.4507042253521127
 40
0.4517876489707476
 40
0.4517876489707476
 40
0.4517876489707476
 40
0.4517876489707476
 40
0.4528710725893825
 40
0.4528710725893825
 40
0.4528710725893825
 40
0.4528710725893825
 40
0.4539544962080173
 40
0.4539544962080173
 40
0.4539544962080173
 40
0.4539544962080173
 40
0.4550379198266522
 40
0.4550379198266522
 40
0.4550379198266522
 40
0.4550379198266522
 40
0.4561213434452871
 40
0.4561213434452871
 40
0.4561213434452871
 40
0.4561213434452871
 40
0.457204767063922
 40
0.457204767063922
 40
0.457204767063922
 40
0.457204767063922
 40
0.4582881906825569
 40
0.4582881906825569
 40
0.4582881906825569
 40
0.4582881906825569
 40
0.4593716143011918
 40
0.4593716143011918
 40
0.4593716143011918
 40
0.4593716143011918
 40
0.4604550379198267
 40
0.4604550379198267
 40
0.4604550379198267
 40
0.4604550379198267
 40
0.4615384615384616
 40
0.4615384615384616
 40
0.4615384615384616
 40
0.4615384615384616
 40
0.4626218851570964
 40
0.4626218851570964
 40
0.4626218851570964
 40
0.4626218851570964
 40
0.4637053087757313
 40
0.4637053087757313
 40
0.4637053087757313
 40
0.4637053087757313
 40
0.4647887323943662
 40
0.4647887323943662
 40
0.4647887323943662
 40
0.4647887323943662
 40
0.4658721560130011
 40
0.4658721560130011
 40
0.4658721560130011
 40
0.4658721560130011
 40
0.466955579631636
 40
0.466955579631636
 40
0.466955579631636
 40
0.466955579631636
 40
0.4680390032502709
 40
0.4680390032502709
 40
0.4680390032502709
 40
0.4680390032502709
 40
0.4691224268689058
 40
0.4691224268689058
 40
0.4691224268689058
 40
0.4691224268689058
 40
0.4702058504875407
 40
0.4702058504875407
 40
0.4702058504875407
 40
0.4702058504875407
 40
0.4712892741061755
 40
0.4712892741061755
 40
0.4712892741061755
 40
0.4712892741061755
 40
0.4723726977248104
 40
0.4723726977248104
 40
0.4723726977248104
 40
0.4723726977248104
 40
0.4734561213434453
 40
0.4734561213434453
 40
0.4734561213434453
 40
0.4734561213434453
 40
0.4745395449620802
 40
0.4745395449620802
 40
0.4745395449620802
 40
0.4745395449620802
 40
0.4756229685807151
 40
0.4756229685807151
 40
0.4756229685807151
 40
0.4756229685807151
 40
0.47670639219935
 40
0.47670639219935
 40
0.47670639219935
 40
0.47670639219935
 40
0.4777898158179849
 40
0.4777898158179849
 40
0.4777898158179849
 40
0.4777898158179849
 40
0.4788732394366197
 40
0.4788732394366197
 40
0.4788732394366197
 40
0.4788732394366197
 40
0.4799566630552546
 40
0.4799566630552546
 40
0.4799566630552546
 40
0.4799566630552546
 40
0.4810400866738895
 40
0.4810400866738895
 40
0.4810400866738895
 40
0.4810400866738895
 40
0.4821235102925244
 40
0.4821235102925244
 40
0.4821235102925244
 40
0.4821235102925244
 40
0.4832069339111593
 40
0.4832069339111593
 40
0.4832069339111593
 40
0.4832069339111593
 40
0.4842903575297942
 40
0.4842903575297942
 40
0.4842903575297942
 40
0.4842903575297942
 40
0.4853737811484291
 40
0.4853737811484291
 40
0.4853737811484291
 40
0.4853737811484291
 40
0.4864572047670639
 40
0.4864572047670639
 40
0.4864572047670639
 40
0.4864572047670639
 40
0.4875406283856988
 40
0.4875406283856988
 40
0.4875406283856988
 40
0.4875406283856988
 40
0.4886240520043337
 40
0.4886240520043337
 40
0.4886240520043337
 40
0.4886240520043337
 40
0.4897074756229686
 40
0.4897074756229686
 40
0.4897074756229686
 40
0.4897074756229686
 40
0.4907908992416035
 40
0.4907908992416035
 40
0.4907908992416035
 40
0.4907908992416035
 40
0.4918743228602384
 40
0.4918743228602384
 40
0.4918743228602384
 40
0.4918743228602384
 40
0.4929577464788732
 40
0.4929577464788732
 40
0.4929577464788732
 40
0.4929577464788732
 40
0.4940411700975081
 40
0.4940411700975081
 40
0.4940411700975081
 40
0.4940411700975081
 40
0.495124593716143
 40
0.495124593716143
 40
0.495124593716143
 40
0.495124593716143
 40
0.4962080173347779
 40
0.4962080173347779
 40
0.4962080173347779
 40
0.4962080173347779
 40
0.4972914409534128
 40
0.4972914409534128
 40
0.4972914409534128
 40
0.4972914409534128
 40
0.4983748645720477
 40
0.4983748645720477
 40
0.4983748645720477
 40
0.4983748645720477
 40
0.4994582881906826
 40
0.4994582881906826
 40
0.4994582881906826
 40
0.4994582881906826
 40
0.5005417118093174
 40
0.5005417118093174
 40
0.5005417118093174
 40
0.5005417118093174
 40
0.5016251354279523
 40
0.5016251354279523
 40
0.5016251354279523
 40
0.5016251354279523
 40
0.5027085590465872
 40
0.5027085590465872
 40
0.5027085590465872
 40
0.5027085590465872
 40
0.5037919826652221
 40
0.5037919826652221
 40
0.5037919826652221
 40
0.5037919826652221
 40
0.504875406283857
 40
0.504875406283857
 40
0.504875406283857
 40
0.504875406283857
 40
0.5059588299024919
 40
0.5059588299024919
 40
0.5059588299024919
 40
0.5059588299024919
 40
0.5070422535211268
 40
0.5070422535211268
 40
0.5070422535211268
 40
0.5070422535211268
 40
0.5081256771397616
 40
0.5081256771397616
 40
0.5081256771397616
 40
0.5081256771397616
 40
0.5092091007583965
 40
0.5092091007583965
 40
0.5092091007583965
 40
0.5092091007583965
 40
0.5102925243770314
 40
0.5102925243770314
 40
0.5102925243770314
 40
0.5102925243770314
 40
0.5113759479956663
 40
0.5113759479956663
 40
0.5113759479956663
 40
0.5113759479956663
 40
0.5124593716143012
 40
0.5124593716143012
 40
0.5124593716143012
 40
0.5124593716143012
 40
0.5135427952329361
 40
0.5135427952329361
 40
0.5135427952329361
 40
0.5135427952329361
 40
0.514626218851571
 40
0.514626218851571
 40
0.514626218851571
 40
0.514626218851571
 40
0.5157096424702059
 40
0.5157096424702059
 40
0.5157096424702059
 40
0.5157096424702059
 40
0.5167930660888408
 40
0.5167930660888408
 40
0.5167930660888408
 40
0.5167930660888408
 40
0.5178764897074756
 40
0.5178764897074756
 40
0.5178764897074756
 40
0.5178764897074756
 40
0.5189599133261105
 40
0.5189599133261105
 40
0.5189599133261105
 40
0.5189599133261105
 40
0.5200433369447454
 40
0.5200433369447454
 40
0.5200433369447454
 40
0.5200433369447454
 40
0.5211267605633803
 40
0.5211267605633803
 40
0.5211267605633803
 40
0.5211267605633803
 40
0.5222101841820151
 40
0.5222101841820151
 40
0.5222101841820151
 40
0.5222101841820151
 40
0.52329360780065
 40
0.52329360780065
 40
0.52329360780065
 40
0.52329360780065
 40
0.5243770314192849
 40
0.5243770314192849
 40
0.5243770314192849
 40
0.5243770314192849
 40
0.5254604550379198
 40
0.5254604550379198
 40
0.5254604550379198
 40
0.5254604550379198
 40
0.5265438786565547
 40
0.5265438786565547
 40
0.5265438786565547
 40
0.5265438786565547
 40
0.5276273022751896
 40
0.5276273022751896
 40
0.5276273022751896
 40
0.5276273022751896
 40
0.5287107258938245
 40
0.5287107258938245
 40
0.5287107258938245
 40
0.5287107258938245
 40
0.5297941495124594
 40
0.5297941495124594
 40
0.5297941495124594
 40
0.5297941495124594
 40
0.5308775731310943
 40
0.5308775731310943
 40
0.5308775731310943
 40
0.5308775731310943
 40
0.5319609967497292
 40
0.5319609967497292
 40
0.5319609967497292
 40
0.5319609967497292
 40
0.5330444203683641
 40
0.5330444203683641
 40
0.5330444203683641
 40
0.5330444203683641
 40
0.5341278439869989
 40
0.5341278439869989
 40
0.5341278439869989
 40
0.5341278439869989
 40
0.5352112676056338
 40
0.5352112676056338
 40
0.5352112676056338
 40
0.5352112676056338
 40
0.5362946912242686
 40
0.5362946912242686
 40
0.5362946912242686
 40
0.5362946912242686
 40
0.5373781148429035
 40
0.5373781148429035
 40
0.5373781148429035
 40
0.5373781148429035
 40
0.5384615384615384
 40
0.5384615384615384
 40
0.5384615384615384
 40
0.5384615384615384
 40
0.5395449620801733
 40
0.5395449620801733
 40
0.5395449620801733
 40
0.5395449620801733
 40
0.5406283856988082
 40
0.5406283856988082
 40
0.5406283856988082
 40
0.5406283856988082
 40
0.5417118093174431
 40
0.5417118093174431
 40
0.5417118093174431
 40
0.5417118093174431
 40
0.542795232936078
 40
0.542795232936078
 40
0.542795232936078
 40
0.542795232936078
 40
0.5438786565547129
 40
0.5438786565547129
 40
0.5438786565547129
 40
0.5438786565547129
 40
0.5449620801733478
 40
0.5449620801733478
 40
0.5449620801733478
 40
0.5449620801733478
 40
0.5460455037919827
 40
0.5460455037919827
 40
0.5460455037919827
 40
0.5460455037919827
 40
0.5471289274106176
 40
0.5471289274106176
 40
0.5471289274106176
 40
0.5471289274106176
 40
0.5482123510292525
 40
0.5482123510292525
 40
0.5482123510292525
 40
0.5482123510292525
 40
0.5492957746478874
 40
0.5492957746478874
 40
0.5492957746478874
 40
0.5492957746478874
 40
0.5503791982665223
 40
0.5503791982665223
 40
0.5503791982665223
 40
0.5503791982665223
 40
0.551462621885157
 40
0.551462621885157
 40
0.551462621885157
 40
0.551462621885157
 40
0.5525460455037919
 40
0.5525460455037919
 40
0.5525460455037919
 40
0.5525460455037919
 40
0.5536294691224268
 40
0.5536294691224268
 40
0.5536294691224268
 40
0.5536294691224268
 40
0.5547128927410617
 40
0.5547128927410617
 40
0.5547128927410617
 40
0.5547128927410617
 40
0.5557963163596966
 40
0.5557963163596966
 40
0.5557963163596966
 40
0.5557963163596966
 40
0.5568797399783315
 40
0.5568797399783315
 40
0.5568797399783315
 40
0.5568797399783315
 40
0.5579631635969664
 40
0.5579631635969664
 40
0.5579631635969664
 40
0.5579631635969664
 40
0.5590465872156013
 40
0.5590465872156013
 40
0.5590465872156013
 40
0.5590465872156013
 40
0.5601300108342362
 40
0.5601300108342362
 40
0.5601300108342362
 40
0.5601300108342362
 40
0.5612134344528711
 40
0.5612134344528711
 40
0.5612134344528711
 40
0.5612134344528711
 40
0.562296858071506
 40
0.562296858071506
 40
0.562296858071506
 40
0.562296858071506
 40
0.5633802816901409
 40
0.5633802816901409
 40
0.5633802816901409
 40
0.5633802816901409
 40
0.5644637053087758
 40
0.5644637053087758
 40
0.5644637053087758
 40
0.5644637053087758
 40
0.5655471289274107
 40
0.5655471289274107
 40
0.5655471289274107
 40
0.5655471289274107
 40
0.5666305525460456
 40
0.5666305525460456
 40
0.5666305525460456
 40
0.5666305525460456
 40
0.5677139761646804
 40
0.5677139761646804
 40
0.5677139761646804
 40
0.5677139761646804
 40
0.5687973997833152
 40
0.5687973997833152
 40
0.5687973997833152
 40
0.5687973997833152
 40
0.5698808234019501
 40
0.5698808234019501
 40
0.5698808234019501
 40
0.5698808234019501
 40
0.570964247020585
 40
0.570964247020585
 40
0.570964247020585
 40
0.570964247020585
 40
0.5720476706392199
 40
0.5720476706392199
 40
0.5720476706392199
 40
0.5720476706392199
 40
0.5731310942578548
 40
0.5731310942578548
 40
0.5731310942578548
 40
0.5731310942578548
 40
0.5742145178764897
 40
0.5742145178764897
 40
0.5742145178764897
 40
0.5742145178764897
 40
0.5752979414951246
 40
0.5752979414951246
 40
0.5752979414951246
 40
0.5752979414951246
 40
0.5763813651137595
 40
0.5763813651137595
 40
0.5763813651137595
 40
0.5763813651137595
 40
0.5774647887323944
 40
0.5774647887323944
 40
0.5774647887323944
 40
0.5774647887323944
 40
0.5785482123510293
 40
0.5785482123510293
 40
0.5785482123510293
 40
0.5785482123510293
 40
0.5796316359696642
 40
0.5796316359696642
 40
0.5796316359696642
 40
0.5796316359696642
 40
0.580715059588299
 40
0.580715059588299
 40
0.580715059588299
 40
0.580715059588299
 40
0.581798483206934
 40
0.581798483206934
 40
0.581798483206934
 40
0.581798483206934
 40
0.5828819068255688
 40
0.5828819068255688
 40
0.5828819068255688
 40
0.5828819068255688
 40
0.5839653304442037
 40
0.5839653304442037
 40
0.5839653304442037
 40
0.5839653304442037
 40
0.5850487540628385
 40
0.5850487540628385
 40
0.5850487540628385
 40
0.5850487540628385
 40
0.5861321776814734
 40
0.5861321776814734
 40
0.5861321776814734
 40
0.5861321776814734
 40
0.5872156013001083
 40
0.5872156013001083
 40
0.5872156013001083
 40
0.5872156013001083
 40
0.5882990249187432
 40
0.5882990249187432
 40
0.5882990249187432
 40
0.5882990249187432
 40
0.5893824485373781
 40
0.5893824485373781
 40
0.5893824485373781
 40
0.5893824485373781
 40
0.590465872156013
 40
0.590465872156013
 40
0.590465872156013
 40
0.590465872156013
 40
0.5915492957746479
 40
0.5915492957746479
 40
0.5915492957746479
 40
0.5915492957746479
 40
0.5926327193932828
 40
0.5926327193932828
 40
0.5926327193932828
 40
0.5926327193932828
 40
0.5937161430119177
 40
0.5937161430119177
 40
0.5937161430119177
 40
0.5937161430119177
 40
0.5947995666305526
 40
0.5947995666305526
 40
0.5947995666305526
 40
0.5947995666305526
 40
0.5958829902491874
 40
0.5958829902491874
 40
0.5958829902491874
 40
0.5958829902491874
 40
0.5969664138678223
 40
0.5969664138678223
 40
0.5969664138678223
 40
0.5969664138678223
 40
0.5980498374864572
 40
0.5980498374864572
 40
0.5980498374864572
 40
0.5980498374864572
 40
0.5991332611050921
 40
0.5991332611050921
 40
0.5991332611050921
 40
0.5991332611050921
 40
0.600216684723727
 40
0.600216684723727
 40
0.600216684723727
 40
0.600216684723727
 40
0.6013001083423619
 40
0.6013001083423619
 40
0.6013001083423619
 40
0.6013001083423619
 40
0.6023835319609967
 40
0.6023835319609967
 40
0.6023835319609967
 40
0.6023835319609967
 40
0.6034669555796316
 40
0.6034669555796316
 40
0.6034669555796316
 40
0.6034669555796316
 40
0.6045503791982665
 40
0.6045503791982665
 40
0.6045503791982665
 40
0.6045503791982665
 40
0.6056338028169014
 40
0.6056338028169014
 40
0.6056338028169014
 40
0.6056338028169014
 40
0.6067172264355363
 40
0.6067172264355363
 40
0.6067172264355363
 40
0.6067172264355363
 40
0.6078006500541712
 40
0.6078006500541712
 40
0.6078006500541712
 40
0.6078006500541712
 40
0.6088840736728061
 40
0.6088840736728061
 40
0.6088840736728061
 40
0.6088840736728061
 40
0.609967497291441
 40
0.609967497291441
 40
0.609967497291441
 40
0.609967497291441
 40
0.6110509209100758
 40
0.6110509209100758
 40
0.6110509209100758
 40
0.6110509209100758
 40
0.6121343445287107
 40
0.6121343445287107
 40
0.6121343445287107
 40
0.6121343445287107
 40
0.6132177681473456
 40
0.6132177681473456
 40
0.6132177681473456
 40
0.6132177681473456
 40
0.6143011917659805
 40
0.6143011917659805
 40
0.6143011917659805
 40
0.6143011917659805
 40
0.6153846153846154
 40
0.6153846153846154
 40
0.6153846153846154
 40
0.6153846153846154
 40
0.6164680390032503
 40
0.6164680390032503
 40
0.6164680390032503
 40
0.6164680390032503
 40
0.6175514626218852
 40
0.6175514626218852
 40
0.6175514626218852
 40
0.6175514626218852
 40
0.6186348862405201
 40
0.6186348862405201
 40
0.6186348862405201
 40
0.6186348862405201
 40
0.6197183098591549
 40
0.6197183098591549
 40
0.6197183098591549
 40
0.6197183098591549
 40
0.6208017334777898
 40
0.6208017334777898
 40
0.6208017334777898
 40
0.6208017334777898
 40
0.6218851570964247
 40
0.6218851570964247
 40
0.6218851570964247
 40
0.6218851570964247
 40
0.6229685807150596
 40
0.6229685807150596
 40
0.6229685807150596
 40
0.6229685807150596
 40
0.6240520043336945
 40
0.6240520043336945
 40
0.6240520043336945
 40
0.6240520043336945
 40
0.6251354279523293
 40
0.6251354279523293
 40
0.6251354279523293
 40
0.6251354279523293
 40
0.6262188515709642
 40
0.6262188515709642
 40
0.6262188515709642
 40
0.6262188515709642
 40
0.6273022751895991
 40
0.6273022751895991
 40
0.6273022751895991
 40
0.6273022751895991
 40
0.628385698808234
 40
0.628385698808234
 40
0.628385698808234
 40
0.628385698808234
 40
0.6294691224268689
 40
0.6294691224268689
 40
0.6294691224268689
 40
0.6294691224268689
 40
0.6305525460455038
 40
0.6305525460455038
 40
0.6305525460455038
 40
0.6305525460455038
 40
0.6316359696641387
 40
0.6316359696641387
 40
0.6316359696641387
 40
0.6316359696641387
 40
0.6327193932827736
 40
0.6327193932827736
 40
0.6327193932827736
 40
0.6327193932827736
 40
0.6338028169014085
 40
0.6338028169014085
 40
0.6338028169014085
 40
0.6338028169014085
 40
0.6348862405200434
 40
0.6348862405200434
 40
0.6348862405200434
 40
0.6348862405200434
 40
0.6359696641386782
 40
0.6359696641386782
 40
0.6359696641386782
 40
0.6359696641386782
 40
0.6370530877573131
 40
0.6370530877573131
 40
0.6370530877573131
 40
0.6370530877573131
 40
0.638136511375948
 40
0.638136511375948
 40
0.638136511375948
 40
0.638136511375948
 40
0.6392199349945829
 40
0.6392199349945829
 40
0.6392199349945829
 40
0.6392199349945829
 40
0.6403033586132177
 40
0.6403033586132177
 40
0.6403033586132177
 40
0.6403033586132177
 40
0.6413867822318526
 40
0.6413867822318526
 40
0.6413867822318526
 40
0.6413867822318526
 40
0.6424702058504875
 40
0.6424702058504875
 40
0.6424702058504875
 40
0.6424702058504875
 40
0.6435536294691224
 40
0.6435536294691224
 40
0.6435536294691224
 40
0.6435536294691224
 40
0.6446370530877573
 40
0.6446370530877573
 40
0.6446370530877573
 40
0.6446370530877573
 40
0.6457204767063922
 40
0.6457204767063922
 40
0.6457204767063922
 40
0.6457204767063922
 40
0.6468039003250271
 40
0.6468039003250271
 40
0.6468039003250271
 40
0.6468039003250271
 40
0.647887323943662
 40
0.647887323943662
 40
0.647887323943662
 40
0.647887323943662
 40
0.6489707475622969
 40
0.6489707475622969
 40
0.6489707475622969
 40
0.6489707475622969
 40
0.6500541711809318
 40
0.6500541711809318
 40
0.6500541711809318
 40
0.6500541711809318
 40
0.6511375947995667
 40
0.6511375947995667
 40
0.6511375947995667
 40
0.6511375947995667
 40
0.6522210184182016
 40
0.6522210184182016
 40
0.6522210184182016
 40
0.6522210184182016
 40
0.6533044420368364
 40
0.6533044420368364
 40
0.6533044420368364
 40
0.6533044420368364
 40
0.6543878656554712
 40
0.6543878656554712
 40
0.6543878656554712
 40
0.6543878656554712
 40
0.6554712892741061
 40
0.6554712892741061
 40
0.6554712892741061
 40
0.6554712892741061
 40
0.656554712892741
 40
0.656554712892741
 40
0.656554712892741
 40
0.656554712892741
 40
0.6576381365113759
 40
0.6576381365113759
 40
0.6576381365113759
 40
0.6576381365113759
 40
0.6587215601300108
 40
0.6587215601300108
 40
0.6587215601300108
 40
0.6587215601300108
 40
0.6598049837486457
 40
0.6598049837486457
 40
0.6598049837486457
 40
0.6598049837486457
 40
0.6608884073672806
 40
0.6608884073672806
 40
0.6608884073672806
 40
0.6608884073672806
 40
0.6619718309859155
 40
0.6619718309859155
 40
0.6619718309859155
 40
0.6619718309859155
 40
0.6630552546045504
 40
0.6630552546045504
 40
0.6630552546045504
 40
0.6630552546045504
 40
0.6641386782231853
 40
0.6641386782231853
 40
0.6641386782231853
 40
0.6641386782231853
 40
0.6652221018418202
 40
0.6652221018418202
 40
0.6652221018418202
 40
0.6652221018418202
 40
0.6663055254604551
 40
0.6663055254604551
 40
0.6663055254604551
 40
0.6663055254604551
 40
0.66738894907909
 40
0.66738894907909
 40
0.66738894907909
 40
0.66738894907909
 40
0.6684723726977249
 40
0.6684723726977249
 40
0.6684723726977249
 40
0.6684723726977249
 40
0.6695557963163596
 40
0.6695557963163596
 40
0.6695557963163596
 40
0.6695557963163596
 40
0.6706392199349945
 40
0.6706392199349945
 40
0.6706392199349945
 40
0.6706392199349945
 40
0.6717226435536294
 40
0.6717226435536294
 40
0.6717226435536294
 40
0.6717226435536294
 40
0.6728060671722643
 40
0.6728060671722643
 40
0.6728060671722643
 40
0.6728060671722643
 40
0.6738894907908992
 40
0.6738894907908992
 40
0.6738894907908992
 40
0.6738894907908992
 40
0.6749729144095341
 40
0.6749729144095341
 40
0.6749729144095341
 40
0.6749729144095341
 40
0.676056338028169
 40
0.676056338028169
 40
0.676056338028169
 40
0.676056338028169
 40
0.6771397616468039
 40
0.6771397616468039
 40
0.6771397616468039
 40
0.6771397616468039
 40
0.6782231852654388
 40
0.6782231852654388
 40
0.6782231852654388
 40
0.6782231852654388
 40
0.6793066088840737
 40
0.6793066088840737
 40
0.6793066088840737
 40
0.6793066088840737
 40
0.6803900325027086
 40
0.6803900325027086
 40
0.6803900325027086
 40
0.6803900325027086
 40
0.6814734561213435
 40
0.6814734561213435
 40
0.6814734561213435
 40
0.6814734561213435
 40
0.6825568797399784
 40
0.6825568797399784
 40
0.6825568797399784
 40
0.6825568797399784
 40
0.6836403033586133
 40
0.6836403033586133
 40
0.6836403033586133
 40
0.6836403033586133
 40
0.6847237269772481
 40
0.6847237269772481
 40
0.6847237269772481
 40
0.6847237269772481
 40
0.685807150595883
 40
0.685807150595883
 40
0.685807150595883
 40
0.685807150595883
 40
0.6868905742145178
 40
0.6868905742145178
 40
0.6868905742145178
 40
0.6868905742145178
 40
0.6879739978331527
 40
0.6879739978331527
 40
0.6879739978331527
 40
0.6879739978331527
 40
0.6890574214517876
 40
0.6890574214517876
 40
0.6890574214517876
 40
0.6890574214517876
 40
0.6901408450704225
 40
0.6901408450704225
 40
0.6901408450704225
 40
0.6901408450704225
 40
0.6912242686890574
 40
0.6912242686890574
 40
0.6912242686890574
 40
0.6912242686890574
 40
0.6923076923076923
 40
0.6923076923076923
 40
0.6923076923076923
 40
0.6923076923076923
 40
0.6933911159263272
 40
0.6933911159263272
 40
0.6933911159263272
 40
0.6933911159263272
 40
0.6944745395449621
 40
0.6944745395449621
 40
0.6944745395449621
 40
0.6944745395449621
 40
0.695557963163597
 40
0.695557963163597
 40
0.695557963163597
 40
0.695557963163597
 40
0.6966413867822319
 40
0.6966413867822319
 40
0.6966413867822319
 40
0.6966413867822319
 40
0.6977248104008668
 40
0.6977248104008668
 40
0.6977248104008668
 40
0.6977248104008668
 40
0.6988082340195017
 40
0.6988082340195017
 40
0.6988082340195017
 40
0.6988082340195017
 40
0.6998916576381365
 40
0.6998916576381365
 40
0.6998916576381365
 40
0.6998916576381365
 40
0.7009750812567714
 40
0.7009750812567714
 40
0.7009750812567714
 40
0.7009750812567714
 40
0.7020585048754063
 40
0.7020585048754063
 40
0.7020585048754063
 40
0.7020585048754063
 40
0.7031419284940412
 40
0.7031419284940412
 40
0.7031419284940412
 40
0.7031419284940412
 40
0.704225352112676
 40
0.704225352112676
 40
0.704225352112676
 40
0.704225352112676
 40
0.7053087757313109
 40
0.7053087757313109
 40
0.7053087757313109
 40
0.7053087757313109
 40
0.7063921993499458
 40
0.7063921993499458
 40
0.7063921993499458
 40
0.7063921993499458
 40
0.7074756229685807
 40
0.7074756229685807
 40
0.7074756229685807
 40
0.7074756229685807
 40
0.7085590465872156
 40
0.7085590465872156
 40
0.7085590465872156
 40
0.7085590465872156
 40
0.7096424702058505
 40
0.7096424702058505
 40
0.7096424702058505
 40
0.7096424702058505
 40
0.7107258938244854
 40
0.7107258938244854
 40
0.7107258938244854
 40
0.7107258938244854
 40
0.7118093174431203
 40
0.7118093174431203
 40
0.7118093174431203
 40
0.7118093174431203
 40
0.7128927410617552
 40
0.7128927410617552
 40
0.7128927410617552
 40
0.7128927410617552
 40
0.71397616468039
 40
0.71397616468039
 40
0.71397616468039
 40
0.71397616468039
 40
0.7150595882990249
 40
0.7150595882990249
 40
0.7150595882990249
 40
0.7150595882990249
 40
0.7161430119176598
 40
0.7161430119176598
 40
0.7161430119176598
 40
0.7161430119176598
 40
0.7172264355362947
 40
0.7172264355362947
 40
0.7172264355362947
 40
0.7172264355362947
 40
0.7183098591549296
 40
0.7183098591549296
 40
0.7183098591549296
 40
0.7183098591549296
 40
0.7193932827735645
 40
0.7193932827735645
 40
0.7193932827735645
 40
0.7193932827735645
 40
0.7204767063921993
 40
0.7204767063921993
 40
0.7204767063921993
 40
0.7204767063921993
 40
0.7215601300108342
 40
0.7215601300108342
 40
0.7215601300108342
 40
0.7215601300108342
 40
0.7226435536294691
 40
0.7226435536294691
 40
0.7226435536294691
 40
0.7226435536294691
 40
0.723726977248104
 40
0.723726977248104
 40
0.723726977248104
 40
0.723726977248104
 40
0.7248104008667389
 40
0.7248104008667389
 40
0.7248104008667389
 40
0.7248104008667389
 40
0.7258938244853738
 40
0.7258938244853738
 40
0.7258938244853738
 40
0.7258938244853738
 40
0.7269772481040087
 40
0.7269772481040087
 40
0.7269772481040087
 40
0.7269772481040087
 40
0.7280606717226435
 40
0.7280606717226435
 40
0.7280606717226435
 40
0.7280606717226435
 40
0.7291440953412784
 40
0.7291440953412784
 40
0.7291440953412784
 40
0.7291440953412784
 40
0.7302275189599133
 40
0.7302275189599133
 40
0.7302275189599133
 40
0.7302275189599133
 40
0.7313109425785482
 40
0.7313109425785482
 40
0.7313109425785482
 40
0.7313109425785482
 40
0.7323943661971831
 40
0.7323943661971831
 40
0.7323943661971831
 40
0.7323943661971831
 40
0.733477789815818
 40
0.733477789815818
 40
0.733477789815818
 40
0.733477789815818
 40
0.7345612134344529
 40
0.7345612134344529
 40
0.7345612134344529
 40
0.7345612134344529
 40
0.7356446370530878
 40
0.7356446370530878
 40
0.7356446370530878
 40
0.7356446370530878
 40
0.7367280606717227
 40
0.7367280606717227
 40
0.7367280606717227
 40
0.7367280606717227
 40
0.7378114842903575
 40
0.7378114842903575
 40
0.7378114842903575
 40
0.7378114842903575
 40
0.7388949079089924
 40
0.7388949079089924
 40
0.7388949079089924
 40
0.7388949079089924
 40
0.7399783315276273
 40
0.7399783315276273
 40
0.7399783315276273
 40
0.7399783315276273
 40
0.7410617551462622
 40
0.7410617551462622
 40
0.7410617551462622
 40
0.7410617551462622
 40
0.742145178764897
 40
0.742145178764897
 40
0.742145178764897
 40
0.742145178764897
 40
0.7432286023835319
 40
0.7432286023835319
 40
0.7432286023835319
 40
0.7432286023835319
 40
0.7443120260021668
 40
0.7443120260021668
 40
0.7443120260021668
 40
0.7443120260021668
 40
0.7453954496208017
 40
0.7453954496208017
 40
0.7453954496208017
 40
0.7453954496208017
 40
0.7464788732394366
 40
0.7464788732394366
 40
0.7464788732394366
 40
0.7464788732394366
 40
0.7475622968580715
 40
0.7475622968580715
 40
0.7475622968580715
 40
0.7475622968580715
 40
0.7486457204767064
 40
0.7486457204767064
 40
0.7486457204767064
 40
0.7486457204767064
 40
0.7497291440953413
 40
0.7497291440953413
 40
0.7497291440953413
 40
0.7497291440953413
 40
0.7508125677139762
 40
0.7508125677139762
 40
0.7508125677139762
 40
0.7508125677139762
 40
0.7518959913326111
 40
0.7518959913326111
 40
0.7518959913326111
 40
0.7518959913326111
 40
0.752979414951246
 40
0.752979414951246
 40
0.752979414951246
 40
0.752979414951246
 40
0.7540628385698809
 40
0.7540628385698809
 40
0.7540628385698809
 40
0.7540628385698809
 40
0.7551462621885157
 40
0.7551462621885157
 40
0.7551462621885157
 40
0.7551462621885157
 40
0.7562296858071506
 40
0.7562296858071506
 40
0.7562296858071506
 40
0.7562296858071506
 40
0.7573131094257854
 40
0.7573131094257854
 40
0.7573131094257854
 40
0.7573131094257854
 40
0.7583965330444203
 40
0.7583965330444203
 40
0.7583965330444203
 40
0.7583965330444203
 40
0.7594799566630552
 40
0.7594799566630552
 40
0.7594799566630552
 40
0.7594799566630552
 40
0.7605633802816901
 40
0.7605633802816901
 40
0.7605633802816901
 40
0.7605633802816901
 40
0.761646803900325
 40
0.761646803900325
 40
0.761646803900325
 40
0.761646803900325
 40
0.7627302275189599
 40
0.7627302275189599
 40
0.7627302275189599
 40
0.7627302275189599
 40
0.7638136511375948
 40
0.7638136511375948
 40
0.7638136511375948
 40
0.7638136511375948
 40
0.7648970747562297
 40
0.7648970747562297
 40
0.7648970747562297
 40
0.7648970747562297
 40
0.7659804983748646
 40
0.7659804983748646
 40
0.7659804983748646
 40
0.7659804983748646
 40
0.7670639219934995
 40
0.7670639219934995
 40
0.7670639219934995
 40
0.7670639219934995
 40
0.7681473456121344
 40
0.7681473456121344
 40
0.7681473456121344
 40
0.7681473456121344
 40
0.7692307692307693
 40
0.7692307692307693
 40
0.7692307692307693
 40
0.7692307692307693
 40
0.7703141928494042
 40
0.7703141928494042
 40
0.7703141928494042
 40
0.7703141928494042
 40
0.771397616468039
 40
0.771397616468039
 40
0.771397616468039
 40
0.771397616468039
 40
0.7724810400866738
 40
0.7724810400866738
 40
0.7724810400866738
 40
0.7724810400866738
 40
0.7735644637053087
 40
0.7735644637053087
 40
0.7735644637053087
 40
0.7735644637053087
 40
0.7746478873239436
 40
0.7746478873239436
 40
0.7746478873239436
 40
0.7746478873239436
 40
0.7757313109425785
 40
0.7757313109425785
 40
0.7757313109425785
 40
0.7757313109425785
 40
0.7768147345612134
 40
0.7768147345612134
 40
0.7768147345612134
 40
0.7768147345612134
 40
0.7778981581798483
 40
0.7778981581798483
 40
0.7778981581798483
 40
0.7778981581798483
 40
0.7789815817984832
 40
0.7789815817984832
 40
0.7789815817984832
 40
0.7789815817984832
 40
0.7800650054171181
 40
0.7800650054171181
 40
0.7800650054171181
 40
0.7800650054171181
 40
0.781148429035753
 40
0.781148429035753
 40
0.781148429035753
 40
0.781148429035753
 40
0.7822318526543879
 40
0.7822318526543879
 40
0.7822318526543879
 40
0.7822318526543879
 40
0.7833152762730228
 40
0.7833152762730228
 40
0.7833152762730228
 40
0.7833152762730228
 40
0.7843986998916577
 40
0.7843986998916577
 40
0.7843986998916577
 40
0.7843986998916577
 40
0.7854821235102926
 40
0.7854821235102926
 40
0.7854821235102926
 40
0.7854821235102926
 40
0.7865655471289275
 40
0.7865655471289275
 40
0.7865655471289275
 40
0.7865655471289275
 40
0.7876489707475623
 40
0.7876489707475623
 40
0.7876489707475623
 40
0.7876489707475623
 40
0.7887323943661971
 40
0.7887323943661971
 40
0.7887323943661971
 40
0.7887323943661971
 40
0.789815817984832
 40
0.789815817984832
 40
0.789815817984832
 40
0.789815817984832
 40
0.7908992416034669
 40
0.7908992416034669
 40
0.7908992416034669
 40
0.7908992416034669
 40
0.7919826652221018
 40
0.7919826652221018
 40
0.7919826652221018
 40
0.7919826652221018
 40
0.7930660888407367
 40
0.7930660888407367
 40
0.7930660888407367
 40
0.7930660888407367
 40
0.7941495124593716
 40
0.7941495124593716
 40
0.7941495124593716
 40
0.7941495124593716
 40
0.7952329360780065
 40
0.7952329360780065
 40
0.7952329360780065
 40
0.7952329360780065
 40
0.7963163596966414
 40
0.7963163596966414
 40
0.7963163596966414
 40
0.7963163596966414
 40
0.7973997833152763
 40
0.7973997833152763
 40
0.7973997833152763
 40
0.7973997833152763
 40
0.7984832069339112
 40
0.7984832069339112
 40
0.7984832069339112
 40
0.7984832069339112
 40
0.7995666305525461
 40
0.7995666305525461
 40
0.7995666305525461
 40
0.7995666305525461
 40
0.800650054171181
 40
0.800650054171181
 40
0.800650054171181
 40
0.800650054171181
 40
0.8017334777898159
 40
0.8017334777898159
 40
0.8017334777898159
 40
0.8017334777898159
 40
0.8028169014084507
 40
0.8028169014084507
 40
0.8028169014084507
 40
0.8028169014084507
 40
0.8039003250270856
 40
0.8039003250270856
 40
0.8039003250270856
 40
0.8039003250270856
 40
0.8049837486457205
 40
0.8049837486457205
 40
0.8049837486457205
 40
0.8049837486457205
 40
0.8060671722643553
 40
0.8060671722643553
 40
0.8060671722643553
 40
0.8060671722643553
 40
0.8071505958829902
 40
0.8071505958829902
 40
0.8071505958829902
 40
0.8071505958829902
 40
0.8082340195016251
 40
0.8082340195016251
 40
0.8082340195016251
 40
0.8082340195016251
 40
0.80931744312026
 40
0.80931744312026
 40
0.80931744312026
 40
0.80931744312026
 40
0.8104008667388949
 40
0.8104008667388949
 40
0.8104008667388949
 40
0.8104008667388949
 40
0.8114842903575298
 40
0.8114842903575298
 40
0.8114842903575298
 40
0.8114842903575298
 40
0.8125677139761647
 40
0.8125677139761647
 40
0.8125677139761647
 40
0.8125677139761647
 40
0.8136511375947996
 40
0.8136511375947996
 40
0.8136511375947996
 40
0.8136511375947996
 40
0.8147345612134345
 40
0.8147345612134345
 40
0.8147345612134345
 40
0.8147345612134345
 40
0.8158179848320694
 40
0.8158179848320694
 40
0.8158179848320694
 40
0.8158179848320694
 40
0.8169014084507042
 40
0.8169014084507042
 40
0.8169014084507042
 40
0.8169014084507042
 40
0.8179848320693391
 40
0.8179848320693391
 40
0.8179848320693391
 40
0.8179848320693391
 40
0.819068255687974
 40
0.819068255687974
 40
0.819068255687974
 40
0.819068255687974
 40
0.8201516793066089
 40
0.8201516793066089
 40
0.8201516793066089
 40
0.8201516793066089
 40
0.8212351029252438
 40
0.8212351029252438
 40
0.8212351029252438
 40
0.8212351029252438
 40
0.8223185265438786
 40
0.8223185265438786
 40
0.8223185265438786
 40
0.8223185265438786
 40
0.8234019501625135
 40
0.8234019501625135
 40
0.8234019501625135
 40
0.8234019501625135
 40
0.8244853737811484
 40
0.8244853737811484
 40
0.8244853737811484
 40
0.8244853737811484
 40
0.8255687973997833
 40
0.8255687973997833
 40
0.8255687973997833
 40
0.8255687973997833
 40
0.8266522210184182
 40
0.8266522210184182
 40
0.8266522210184182
 40
0.8266522210184182
 40
0.8277356446370531
 40
0.8277356446370531
 40
0.8277356446370531
 40
0.8277356446370531
 40
0.828819068255688
 40
0.828819068255688
 40
0.828819068255688
 40
0.828819068255688
 40
0.8299024918743229
 40
0.8299024918743229
 40
0.8299024918743229
 40
0.8299024918743229
 40
0.8309859154929577
 40
0.8309859154929577
 40
0.8309859154929577
 40
0.8309859154929577
 40
0.8320693391115926
 40
0.8320693391115926
 40
0.8320693391115926
 40
0.8320693391115926
 40
0.8331527627302275
 40
0.8331527627302275
 40
0.8331527627302275
 40
0.8331527627302275
 40
0.8342361863488624
 40
0.8342361863488624
 40
0.8342361863488624
 40
0.8342361863488624
 40
0.8353196099674973
 40
0.8353196099674973
 40
0.8353196099674973
 40
0.8353196099674973
 40
0.8364030335861322
 40
0.8364030335861322
 40
0.8364030335861322
 40
0.8364030335861322
 40
0.8374864572047671
 40
0.8374864572047671
 40
0.8374864572047671
 40
0.8374864572047671
 40
0.838569880823402
 40
0.838569880823402
 40
0.838569880823402
 40
0.838569880823402
 40
0.8396533044420368
 40
0.8396533044420368
 40
0.8396533044420368
 40
0.8396533044420368
 40
0.8407367280606717
 40
0.8407367280606717
 40
0.8407367280606717
 40
0.8407367280606717
 40
0.8418201516793066
 40
0.8418201516793066
 40
0.8418201516793066
 40
0.8418201516793066
 40
0.8429035752979415
 40
0.8429035752979415
 40
0.8429035752979415
 40
0.8429035752979415
 40
0.8439869989165764
 40
0.8439869989165764
 40
0.8439869989165764
 40
0.8439869989165764
 40
0.8450704225352113
 40
0.8450704225352113
 40
0.8450704225352113
 40
0.8450704225352113
 40
0.8461538461538461
 40
0.8461538461538461
 40
0.8461538461538461
 40
0.8461538461538461
 40
0.847237269772481
 40
0.847237269772481
 40
0.847237269772481
 40
0.847237269772481
 40
0.8483206933911159
 40
0.8483206933911159
 40
0.8483206933911159
 40
0.8483206933911159
 40
0.8494041170097508
 40
0.8494041170097508
 40
0.8494041170097508
 40
0.8494041170097508
 40
0.8504875406283857
 40
0.8504875406283857
 40
0.8504875406283857
 40
0.8504875406283857
 40
0.8515709642470206
 40
0.8515709642470206
 40
0.8515709642470206
 40
0.8515709642470206
 40
0.8526543878656555
 40
0.8526543878656555
 40
0.8526543878656555
 40
0.8526543878656555
 40
0.8537378114842904
 40
0.8537378114842904
 40
0.8537378114842904
 40
0.8537378114842904
 40
0.8548212351029253
 40
0.8548212351029253
 40
0.8548212351029253
 40
0.8548212351029253
 40
0.8559046587215602
 40
0.8559046587215602
 40
0.8559046587215602
 40
0.8559046587215602
 40
0.856988082340195
 40
0.856988082340195
 40
0.856988082340195
 40
0.856988082340195
 40
0.8580715059588299
 40
0.8580715059588299
 40
0.8580715059588299
 40
0.8580715059588299
 40
0.8591549295774648
 40
0.8591549295774648
 40
0.8591549295774648
 40
0.8591549295774648
 40
0.8602383531960996
 40
0.8602383531960996
 40
0.8602383531960996
 40
0.8602383531960996
 40
0.8613217768147345
 40
0.8613217768147345
 40
0.8613217768147345
 40
0.8613217768147345
 40
0.8624052004333694
 40
0.8624052004333694
 40
0.8624052004333694
 40
0.8624052004333694
 40
0.8634886240520043
 40
0.8634886240520043
 40
0.8634886240520043
 40
0.8634886240520043
 40
0.8645720476706392
 40
0.8645720476706392
 40
0.8645720476706392
 40
0.8645720476706392
 40
0.8656554712892741
 40
0.8656554712892741
 40
0.8656554712892741
 40
0.8656554712892741
 40
0.866738894907909
 40
0.866738894907909
 40
0.866738894907909
 40
0.866738894907909
 40
0.8678223185265439
 40
0.8678223185265439
 40
0.8678223185265439
 40
0.8678223185265439
 40
0.8689057421451788
 40
0.8689057421451788
 40
0.8689057421451788
 40
0.8689057421451788
 40
0.8699891657638137
 40
0.8699891657638137
 40
0.8699891657638137
 40
0.8699891657638137
 40
0.8710725893824486
 40
0.8710725893824486
 40
0.8710725893824486
 40
0.8710725893824486
 40
0.8721560130010835
 40
0.8721560130010835
 40
0.8721560130010835
 40
0.8721560130010835
 40
0.8732394366197183
 40
0.8732394366197183
 40
0.8732394366197183
 40
0.8732394366197183
 40
0.8743228602383532
 40
0.8743228602383532
 40
0.8743228602383532
 40
0.8743228602383532
 40
0.875406283856988
 40
0.875406283856988
 40
0.875406283856988
 40
0.875406283856988
 40
0.8764897074756229
 40
0.8764897074756229
 40
0.8764897074756229
 40
0.8764897074756229
 40
0.8775731310942578
 40
0.8775731310942578
 40
0.8775731310942578
 40
0.8775731310942578
 40
0.8786565547128927
 40
0.8786565547128927
 40
0.8786565547128927
 40
0.8786565547128927
 40
0.8797399783315276
 40
0.8797399783315276
 40
0.8797399783315276
 40
0.8797399783315276
 40
0.8808234019501625
 40
0.8808234019501625
 40
0.8808234019501625
 40
0.8808234019501625
 40
0.8819068255687974
 40
0.8819068255687974
 40
0.8819068255687974
 40
0.8819068255687974
 40
0.8829902491874323
 40
0.8829902491874323
 40
0.8829902491874323
 40
0.8829902491874323
 40
0.8840736728060672
 40
0.8840736728060672
 40
0.8840736728060672
 40
0.8840736728060672
 40
0.8851570964247021
 40
0.8851570964247021
 40
0.8851570964247021
 40
0.8851570964247021
 40
0.886240520043337
 40
0.886240520043337
 40
0.886240520043337
 40
0.886240520043337
 40
0.8873239436619719
 40
0.8873239436619719
 40
0.8873239436619719
 40
0.8873239436619719
 40
0.8884073672806068
 40
0.8884073672806068
 40
0.8884073672806068
 40
0.8884073672806068
 40
0.8894907908992417
 40
0.8894907908992417
 40
0.8894907908992417
 40
0.8894907908992417
 40
0.8905742145178764
 40
0.8905742145178764
 40
0.8905742145178764
 40
0.8905742145178764
 40
0.8916576381365113
 40
0.8916576381365113
 40
0.8916576381365113
 40
0.8916576381365113
 40
0.8927410617551462
 40
0.8927410617551462
 40
0.8927410617551462
 40
0.8927410617551462
 40
0.8938244853737811
 40
0.8938244853737811
 40
0.8938244853737811
 40
0.8938244853737811
 40
0.894907908992416
 40
0.894907908992416
 40
0.894907908992416
 40
0.894907908992416
 40
0.8959913326110509
 40
0.8959913326110509
 40
0.8959913326110509
 40
0.8959913326110509
 40
0.8970747562296858
 40
0.8970747562296858
 40
0.8970747562296858
 40
0.8970747562296858
 40
0.8981581798483207
 40
0.8981581798483207
 40
0.8981581798483207
 40
0.8981581798483207
 40
0.8992416034669556
 40
0.8992416034669556
 40
0.8992416034669556
 40
0.8992416034669556
 40
0.9003250270855905
 40
0.9003250270855905
 40
0.9003250270855905
 40
0.9003250270855905
 40
0.9014084507042254
 40
0.9014084507042254
 40
0.9014084507042254
 40
0.9014084507042254
 40
0.9024918743228603
 40
0.9024918743228603
 40
0.9024918743228603
 40
0.9024918743228603
 40
0.9035752979414952
 40
0.9035752979414952
 40
0.9035752979414952
 40
0.9035752979414952
 40
0.90465872156013
 40
0.90465872156013
 40
0.90465872156013
 40
0.90465872156013
 40
0.905742145178765
 40
0.905742145178765
 40
0.905742145178765
 40
0.905742145178765
 40
0.9068255687973997
 40
0.9068255687973997
 40
0.9068255687973997
 40
0.9068255687973997
 40
0.9079089924160346
 40
0.9079089924160346
 40
0.9079089924160346
 40
0.9079089924160346
 40
0.9089924160346695
 40
0.9089924160346695
 40
0.9089924160346695
 40
0.9089924160346695
 40
0.9100758396533044
 40
0.9100758396533044
 40
0.9100758396533044
 40
0.9100758396533044
 40
0.9111592632719393
 40
0.9111592632719393
 40
0.9111592632719393
 40
0.9111592632719393
 40
0.9122426868905742
 40
0.9122426868905742
 40
0.9122426868905742
 40
0.9122426868905742
 40
0.9133261105092091
 40
0.9133261105092091
 40
0.9133261105092091
 40
0.9133261105092091
 40
0.914409534127844
 40
0.914409534127844
 40
0.914409534127844
 40
0.914409534127844
 40
0.9154929577464789
 40
0.9154929577464789
 40
0.9154929577464789
 40
0.9154929577464789
 40
0.9165763813651138
 40
0.9165763813651138
 40
0.9165763813651138
 40
0.9165763813651138
 40
0.9176598049837487
 40
0.9176598049837487
 40
0.9176598049837487
 40
0.9176598049837487
 40
0.9187432286023836
 40
0.9187432286023836
 40
0.9187432286023836
 40
0.9187432286023836
 40
0.9198266522210184
 40
0.9198266522210184
 40
0.9198266522210184
 40
0.9198266522210184
 40
0.9209100758396533
 40
0.9209100758396533
 40
0.9209100758396533
 40
0.9209100758396533
 40
0.9219934994582882
 40
0.9219934994582882
 40
0.9219934994582882
 40
0.9219934994582882
 40
0.9230769230769231
 40
0.9230769230769231
 40
0.9230769230769231
 40
0.9230769230769231
 40
0.9241603466955579
 40
0.9241603466955579
 40
0.9241603466955579
 40
0.9241603466955579
 40
0.9252437703141928
 40
0.9252437703141928
 40
0.9252437703141928
 40
0.9252437703141928
 40
0.9263271939328277
 40
0.9263271939328277
 40
0.9263271939328277
 40
0.9263271939328277
 40
0.9274106175514626
 40
0.9274106175514626
 40
0.9274106175514626
 40
0.9274106175514626
 40
0.9284940411700975
 40
0.9284940411700975
 40
0.9284940411700975
 40
0.9284940411700975
 40
0.9295774647887324
 40
0.9295774647887324
 40
0.9295774647887324
 40
0.9295774647887324
 40
0.9306608884073673
 40
0.9306608884073673
 40
0.9306608884073673
 40
0.9306608884073673
 40
0.9317443120260022
 40
0.9317443120260022
 40
0.9317443120260022
 40
0.9317443120260022
 40
0.9328277356446371
 40
0.9328277356446371
 40
0.9328277356446371
 40
0.9328277356446371
 40
0.933911159263272
 40
0.933911159263272
 40
0.933911159263272
 40
0.933911159263272
 40
0.9349945828819068
 40
0.9349945828819068
 40
0.9349945828819068
 40
0.9349945828819068
 40
0.9360780065005417
 40
0.9360780065005417
 40
0.9360780065005417
 40
0.9360780065005417
 40
0.9371614301191766
 40
0.9371614301191766
 40
0.9371614301191766
 40
0.9371614301191766
 40
0.9382448537378115
 40
0.9382448537378115
 40
0.9382448537378115
 40
0.9382448537378115
 40
0.9393282773564464
 40
0.9393282773564464
 40
0.9393282773564464
 40
0.9393282773564464
 40
0.9404117009750813
 40
0.9404117009750813
 40
0.9404117009750813
 40
0.9404117009750813
 40
0.9414951245937161
 40
0.9414951245937161
 40
0.9414951245937161
 40
0.9414951245937161
 40
0.942578548212351
 40
0.942578548212351
 40
0.942578548212351
 40
0.942578548212351
 40
0.9436619718309859
 40
0.9436619718309859
 40
0.9436619718309859
 40
0.9436619718309859
 40
0.9447453954496208
 40
0.9447453954496208
 40
0.9447453954496208
 40
0.9447453954496208
 40
0.9458288190682557
 40
0.9458288190682557
 40
0.9458288190682557
 40
0.9458288190682557
 40
0.9469122426868906
 40
0.9469122426868906
 40
0.9469122426868906
 40
0.9469122426868906
 40
0.9479956663055255
 40
0.9479956663055255
 40
0.9479956663055255
 40
0.9479956663055255
 40
0.9490790899241603
 40
0.9490790899241603
 40
0.9490790899241603
 40
0.9490790899241603
 40
0.9501625135427952
 40
0.9501625135427952
 40
0.9501625135427952
 40
0.9501625135427952
 40
0.9512459371614301
 40
0.9512459371614301
 40
0.9512459371614301
 40
0.9512459371614301
 40
0.952329360780065
 40
0.952329360780065
 40
0.952329360780065
 40
0.952329360780065
 40
0.9534127843986999
 40
0.9534127843986999
 40
0.9534127843986999
 40
0.9534127843986999
 40
0.9544962080173348
 40
0.9544962080173348
 40
0.9544962080173348
 40
0.9544962080173348
 40
0.9555796316359697
 40
0.9555796316359697
 40
0.9555796316359697
 40
0.9555796316359697
 40
0.9566630552546046
 40
0.9566630552546046
 40
0.9566630552546046
 40
0.9566630552546046
 40
0.9577464788732394
 40
0.9577464788732394
 40
0.9577464788732394
 40
0.9577464788732394
 40
0.9588299024918743
 40
0.9588299024918743
 40
0.9588299024918743
 40
0.9588299024918743
 40
0.9599133261105092
 40
0.9599133261105092
 40
0.9599133261105092
 40
0.9599133261105092
 40
0.9609967497291441
 40
0.9609967497291441
 40
0.9609967497291441
 40
0.9609967497291441
 40
0.962080173347779
 40
0.962080173347779
 40
0.962080173347779
 40
0.962080173347779
 40
0.9631635969664138
 40
0.9631635969664138
 40
0.9631635969664138
 40
0.9631635969664138
 40
0.9642470205850487
 40
0.9642470205850487
 40
0.9642470205850487
 40
0.9642470205850487
 40
0.9653304442036836
 40
0.9653304442036836
 40
0.9653304442036836
 40
0.9653304442036836
 40
0.9664138678223185
 40
0.9664138678223185
 40
0.9664138678223185
 40
0.9664138678223185
 40
0.9674972914409534
 40
0.9674972914409534
 40
0.9674972914409534
 40
0.9674972914409534
 40
0.9685807150595883
 40
0.9685807150595883
 40
0.9685807150595883
 40
0.9685807150595883
 40
0.9696641386782232
 40
0.9696641386782232
 40
0.9696641386782232
 40
0.9696641386782232
 40
0.9707475622968581
 40
0.9707475622968581
 40
0.9707475622968581
 40
0.9707475622968581
 40
0.971830985915493
 40
0.971830985915493
 40
0.971830985915493
 40
0.971830985915493
 40
0.9729144095341279
 40
0.9729144095341279
 40
0.9729144095341279
 40
0.9729144095341279
 40
0.9739978331527628
 40
0.9739978331527628
 40
0.9739978331527628
 40
0.9739978331527628
 40
0.9750812567713976
 40
0.9750812567713976
 40
0.9750812567713976
 40
0.9750812567713976
 40
0.9761646803900325
 40
0.9761646803900325
 40
0.9761646803900325
 40
0.9761646803900325
 40
0.9772481040086674
 40
0.9772481040086674
 40
0.9772481040086674
 40
0.9772481040086674
 40
0.9783315276273022
 40
0.9783315276273022
 40
0.9783315276273022
 40
0.9783315276273022
 40
0.9794149512459371
 40
0.9794149512459371
 40
0.9794149512459371
 40
0.9794149512459371
 40
0.980498374864572
 40
0.980498374864572
 40
0.980498374864572
 40
0.980498374864572
 40
0.9815817984832069
 40
0.9815817984832069
 40
0.9815817984832069
 40
0.9815817984832069
 40
0.9826652221018418
 40
0.9826652221018418
 40
0.9826652221018418
 40
0.9826652221018418
 40
0.9837486457204767
 40
0.9837486457204767
 40
0.9837486457204767
 40
0.9837486457204767
 40
0.9848320693391116
 40
0.9848320693391116
 40
0.9848320693391116
 40
0.9848320693391116
 40
0.9859154929577465
 40
0.9859154929577465
 40
0.9859154929577465
 40
0.9859154929577465
 40
0.9869989165763814
 40
0.9869989165763814
 40
0.9869989165763814
 40
0.9869989165763814
 40
0.9880823401950163
 40
0.9880823401950163
 40
0.9880823401950163
 40
0.9880823401950163
 40
0.9891657638136512
 40
0.9891657638136512
 40
0.9891657638136512
 40
0.9891657638136512
 40
0.9902491874322861
 40
0.9902491874322861
 40
0.9902491874322861
 40
0.9902491874322861
 40
0.991332611050921
 40
0.991332611050921
 40
0.991332611050921
 40
0.991332611050921
 40
0.9924160346695557
 40
0.9924160346695557
 40
0.9924160346695557
 40
0.9924160346695557
 40
0.9934994582881906
 40
0.9934994582881906
 40
0.9934994582881906
 40
0.9934994582881906
 40
0.9945828819068255
 40
0.9945828819068255
 40
0.9945828819068255
 40
0.9945828819068255
 40
0.9956663055254604
 40
0.9956663055254604
 40
0.9956663055254604
 40
0.9956663055254604
 40
0.9967497291440953
 40
0.9967497291440953
 40
0.9967497291440953
 40
0.9967497291440953
 40
0.9978331527627302
 40
0.9978331527627302
 40
0.9978331527627302
 40
0.9978331527627302
 40
1.0
 40
1.0
 40
1.0
 40
1.0
 10
-27.8286
 20
41.191
 30
0.0
 10
-27.3106
 20
40.9128
 30
0.0
 10
-26.7817
 20
40.7982
 30
0.0
 10
-26.2418
 20
40.8836
 30
0.0
 10
-26.2418
 20
40.8836
 30
0.0
 10
-24.8152
 20
40.9658
 30
0.0
 10
-24.414
 20
40.0217
 30
0.0
 10
-24.7086
 20
38.3821
 30
0.0
 10
-24.7086
 20
38.3821
 30
0.0
 10
-26.478
 20
36.5279
 30
0.0
 10
-26.2474
 20
33.6064
 30
0.0
 10
-24.7893
 20
30.0305
 30
0.0
 10
-24.7893
 20
30.0305
 30
0.0
 10
-22.5955
 20
31.2901
 30
0.0
 10
-21.294
 20
33.3301
 30
0.0
 10
-21.6827
 20
36.849
 30
0.0
 10
-21.6827
 20
36.849
 30
0.0
 10
-21.9239
 20
38.1793
 30
0.0
 10
-21.7243
 20
39.0028
 30
0.0
 10
-20.5126
 20
38.6646
 30
0.0
 10
-20.5126
 20
38.6646
 30
0.0
 10
-20.5126
 20
38.6646
 30
0.0
 10
-19.0602
 20
37.9787
 30
0.0
 10
-19.0602
 20
37.9787
 30
0.0
 10
-19.0602
 20
37.9787
 30
0.0
 10
-18.3432
 20
37.4662
 30
0.0
 10
-18.3243
 20
36.8371
 30
0.0
 10
-18.576
 20
36.1631
 30
0.0
 10
-18.576
 20
36.1631
 30
0.0
 10
-19.9565
 20
35.5503
 30
0.0
 10
-20.3979
 20
33.9133
 30
0.0
 10
-20.5933
 20
32.0075
 30
0.0
 10
-20.5933
 20
32.0075
 30
0.0
 10
-18.8818
 20
32.488
 30
0.0
 10
-17.5845
 20
33.383
 30
0.0
 10
-16.8412
 20
34.8318
 30
0.0
 10
-16.8412
 20
34.8318
 30
0.0
 10
-16.3032
 20
36.0623
 30
0.0
 10
-15.039
 20
34.8923
 30
0.0
 10
-14.38
 20
34.1055
 30
0.0
 10
-14.38
 20
34.1055
 30
0.0
 10
-12.9039
 20
31.7815
 30
0.0
 10
-12.7604
 20
30.2989
 30
0.0
 10
-13.0082
 20
27.2063
 30
0.0
 10
-13.0082
 20
27.2063
 30
0.0
 10
-15.1601
 20
26.0632
 30
0.0
 10
-16.4242
 20
30.6492
 30
0.0
 10
-19.1006
 20
24.019
 30
0.0
 10
-19.1006
 20
24.019
 30
0.0
 10
-21.6692
 20
23.9921
 30
0.0
 10
-23.5924
 20
25.6193
 30
0.0
 10
-26.8066
 20
23.9383
 30
0.0
 10
-26.8066
 20
23.9383
 30
0.0
 10
-27.4711
 20
28.2304
 30
0.0
 10
-28.9184
 20
29.3301
 30
0.0
 10
-31.4868
 20
31.3216
 30
0.0
 10
-31.4868
 20
31.3216
 30
0.0
 10
-31.9412
 20
27.5356
 30
0.0
 10
-30.8713
 20
24.7655
 30
0.0
 10
-28.0977
 20
23.1313
 30
0.0
 10
-28.0977
 20
23.1313
 30
0.0
 10
-27.2303
 20
22.5799
 30
0.0
 10
-27.7244
 20
21.2414
 30
0.0
 10
-27.1899
 20
20.3269
 30
0.0
 10
-27.1899
 20
20.3269
 30
0.0
 10
-26.528
 20
19.612
 30
0.0
 10
-25.8278
 20
19.3202
 30
0.0
 10
-25.1121
 20
19.1973
 30
0.0
 10
-25.1121
 20
19.1973
 30
0.0
 10
-24.2647
 20
19.1166
 30
0.0
 10
-24.5374
 20
19.9134
 30
0.0
 10
-25.1727
 20
19.9234
 30
0.0
 10
-25.1727
 20
19.9234
 30
0.0
 10
-26.0734
 20
20.0315
 30
0.0
 10
-26.5391
 20
20.5233
 30
0.0
 10
-26.5445
 20
21.5776
 30
0.0
 10
-26.5445
 20
21.5776
 30
0.0
 10
-26.6245
 20
22.9592
 30
0.0
 10
-25.0287
 20
23.6017
 30
0.0
 10
-23.6395
 20
23.4134
 30
0.0
 10
-23.6395
 20
23.4134
 30
0.0
 10
-21.0652
 20
22.9775
 30
0.0
 10
-19.5622
 20
22.3677
 30
0.0
 10
-18.1323
 20
20.8919
 30
0.0
 10
-18.1323
 20
20.8919
 30
0.0
 10
-18.1031
 20
20.8594
 30
0.0
 10
-18.0746
 20
20.8271
 30
0.0
 10
-18.0464
 20
20.7952
 30
0.0
 10
-18.0464
 20
20.7952
 30
0.0
 10
-16.0979
 20
18.587
 30
0.0
 10
-16.1283
 20
17.6001
 30
0.0
 10
-16.6193
 20
16.8974
 30
0.0
 10
-16.6193
 20
16.8974
 30
0.0
 10
-24.4395
 20
17.1747
 30
0.0
 10
-32.172
 20
16.3105
 30
0.0
 10
-39.7773
 20
13.7906
 30
0.0
 10
-39.7773
 20
13.7906
 30
0.0
 10
-39.7773
 20
13.7906
 30
0.0
 10
-40.1737
 20
15.0514
 30
0.0
 10
-40.1737
 20
15.0514
 30
0.0
 10
-40.1737
 20
15.0514
 30
0.0
 10
-40.1737
 20
15.0514
 30
0.0
 10
-37.0268
 20
16.8669
 30
0.0
 10
-37.0268
 20
16.8669
 30
0.0
 10
-37.0268
 20
16.8669
 30
0.0
 10
-36.0298
 20
17.8685
 30
0.0
 10
-35.5893
 20
19.2676
 30
0.0
 10
-36.0988
 20
21.3454
 30
0.0
 10
-36.0988
 20
21.3454
 30
0.0
 10
-38.9582
 20
21.442
 30
0.0
 10
-40.1261
 20
19.7705
 30
0.0
 10
-40.6176
 20
17.3915
 30
0.0
 10
-40.6176
 20
17.3915
 30
0.0
 10
-40.6176
 20
17.3915
 30
0.0
 10
-43.8049
 20
17.1091
 30
0.0
 10
-43.8049
 20
17.1091
 30
0.0
 10
-43.8049
 20
17.1091
 30
0.0
 10
-45.2879
 20
19.2201
 30
0.0
 10
-47.3514
 20
19.1543
 30
0.0
 10
-49.6954
 20
18.037
 30
0.0
 10
-49.6954
 20
18.037
 30
0.0
 10
-48.1871
 20
16.0077
 30
0.0
 10
-46.2144
 20
15.023
 30
0.0
 10
-43.8452
 20
14.9303
 30
0.0
 10
-43.8452
 20
14.9303
 30
0.0
 10
-43.8452
 20
14.9303
 30
0.0
 10
-44.4504
 20
12.55
 30
0.0
 10
-44.4504
 20
12.55
 30
0.0
 10
-44.4504
 20
12.55
 30
0.0
 10
-49.6166
 20
11.8429
 30
0.0
 10
-54.9924
 20
13.2838
 30
0.0
 10
-60.5889
 20
16.988
 30
0.0
 10
-60.5889
 20
16.988
 30
0.0
 10
-63.1081
 20
17.9383
 30
0.0
 10
-65.462
 20
19.4746
 30
0.0
 10
-67.6653
 20
21.5424
 30
0.0
 10
-67.6653
 20
21.5424
 30
0.0
 10
-67.6653
 20
21.5424
 30
0.0
 10
-66.5643
 20
24.7126
 30
0.0
 10
-66.5643
 20
24.7126
 30
0.0
 10
-66.5643
 20
24.7126
 30
0.0
 10
-66.5643
 20
24.7126
 30
0.0
 10
-69.9154
 20
23.8964
 30
0.0
 10
-69.9154
 20
23.8964
 30
0.0
 10
-69.9154
 20
23.8964
 30
0.0
 10
-71.6345
 20
25.8865
 30
0.0
 10
-73.2567
 20
28.2202
 30
0.0
 10
-74.7904
 20
30.8671
 30
0.0
 10
-74.7904
 20
30.8671
 30
0.0
 10
-74.7904
 20
30.8671
 30
0.0
 10
-79.4706
 20
41.0342
 30
0.0
 10
-79.4706
 20
41.0342
 30
0.0
 10
-79.4706
 20
41.0342
 30
0.0
 10
-81.4644
 20
44.9273
 30
0.0
 10
-82.2915
 20
48.465
 30
0.0
 10
-81.8107
 20
51.6049
 30
0.0
 10
-81.8107
 20
51.6049
 30
0.0
 10
-81.4553
 20
52.8362
 30
0.0
 10
-80.8482
 20
53.2112
 30
0.0
 10
-79.9548
 20
52.6134
 30
0.0
 10
-79.9548
 20
52.6134
 30
0.0
 10
-79.9548
 20
52.6134
 30
0.0
 10
-77.7358
 20
51.5241
 30
0.0
 10
-77.7358
 20
51.5241
 30
0.0
 10
-77.7358
 20
51.5241
 30
0.0
 10
-77.7358
 20
51.5241
 30
0.0
 10
-76.8885
 20
53.9046
 30
0.0
 10
-76.8885
 20
53.9046
 30
0.0
 10
-76.8885
 20
53.9046
 30
0.0
 10
-74.566
 20
54.5856
 30
0.0
 10
-73.0111
 20
56.3168
 30
0.0
 10
-72.7331
 20
59.7952
 30
0.0
 10
-72.7331
 20
59.7952
 30
0.0
 10
-72.7331
 20
59.7952
 30
0.0
 10
-77.7763
 20
58.383
 30
0.0
 10
-77.7763
 20
58.383
 30
0.0
 10
-77.7763
 20
58.383
 30
0.0
 10
-77.7763
 20
58.383
 30
0.0
 10
-80.6007
 20
67.743
 30
0.0
 10
-80.6007
 20
67.743
 30
0.0
 10
-80.6007
 20
67.743
 30
0.0
 10
-85.1069
 20
63.9923
 30
0.0
 10
-85.8584
 20
59.9282
 30
0.0
 10
-83.9091
 20
55.6393
 30
0.0
 10
-83.9091
 20
55.6393
 30
0.0
 10
-83.9091
 20
55.6393
 30
0.0
 10
-84.3126
 20
47.1263
 30
0.0
 10
-84.3126
 20
47.1263
 30
0.0
 10
-84.3126
 20
47.1263
 30
0.0
 10
-85.8817
 20
48.2117
 30
0.0
 10
-87.7998
 20
49.2817
 30
0.0
 10
-90.6066
 20
50.3136
 30
0.0
 10
-90.6066
 20
50.3136
 30
0.0
 10
-91.1505
 20
50.6727
 30
0.0
 10
-91.3147
 20
51.4333
 30
0.0
 10
-90.3656
 20
51.8193
 30
0.0
 10
-90.3656
 20
51.8193
 30
0.0
 10
-86.5191
 20
54.482
 30
0.0
 10
-86.8903
 20
57.6564
 30
0.0
 10
-88.7506
 20
60.3193
 30
0.0
 10
-88.7506
 20
60.3193
 30
0.0
 10
-91.7976
 20
59.1331
 30
0.0
 10
-93.6935
 20
56.9877
 30
0.0
 10
-92.866
 20
52.5729
 30
0.0
 10
-92.866
 20
52.5729
 30
0.0
 10
-92.995
 20
51.3966
 30
0.0
 10
-98.0222
 20
51.3824
 30
0.0
 10
-97.5462
 20
52.6537
 30
0.0
 10
-97.5462
 20
52.6537
 30
0.0
 10
-96.1195
 20
57.3052
 30
0.0
 10
-97.8969
 20
59.9175
 30
0.0
 10
-102.3877
 20
60.8034
 30
0.0
 10
-102.3877
 20
60.8034
 30
0.0
 10
-103.426
 20
57.1227
 30
0.0
 10
-102.506
 20
54.2361
 30
0.0
 10
-99.5634
 20
52.1695
 30
0.0
 10
-99.5634
 20
52.1695
 30
0.0
 10
-101.8373
 20
50.5372
 30
0.0
 10
-102.6692
 20
48.0728
 30
0.0
 10
-102.1455
 20
44.8265
 30
0.0
 10
-102.1455
 20
44.8265
 30
0.0
 10
-106.5297
 20
45.1359
 30
0.0
 10
-105.4269
 20
39.2318
 30
0.0
 10
-108.7623
 20
36.9187
 30
0.0
 10
-108.7623
 20
36.9187
 30
0.0
 10
-104.1173
 20
36.1898
 30
0.0
 10
-100.6302
 20
37.5387
 30
0.0
 10
-99.6441
 20
43.374
 30
0.0
 10
-99.6441
 20
43.374
 30
0.0
 10
-99.6441
 20
43.374
 30
0.0
 10
-96.497
 20
44.8265
 30
0.0
 10
-96.497
 20
44.8265
 30
0.0
 10
-96.497
 20
44.8265
 30
0.0
 10
-96.497
 20
44.8265
 30
0.0
 10
-99.7248
 20
45.7948
 30
0.0
 10
-99.7248
 20
45.7948
 30
0.0
 10
-99.7248
 20
45.7948
 30
0.0
 10
-100.692
 20
46.4331
 30
0.0
 10
-100.7281
 20
49.3052
 30
0.0
 10
-98.7565
 20
50.0715
 30
0.0
 10
-98.7565
 20
50.0715
 30
0.0
 10
-95.112
 20
50.7497
 30
0.0
 10
-92.2606
 20
49.7698
 30
0.0
 10
-89.7997
 20
47.9735
 30
0.0
 10
-89.7997
 20
47.9735
 30
0.0
 10
-87.2693
 20
46.5552
 30
0.0
 10
-87.0996
 20
45.8111
 30
0.0
 10
-87.2175
 20
45.1493
 30
0.0
 10
-87.2175
 20
45.1493
 30
0.0
 10
-87.2175
 20
45.1493
 30
0.0
 10
-93.0273
 20
42.4864
 30
0.0
 10
-93.0273
 20
42.4864
 30
0.0
 10
-93.0273
 20
42.4864
 30
0.0
 10
-89.8621
 20
39.9311
 30
0.0
 10
-86.832
 20
39.4467
 30
0.0
 10
-83.9898
 20
41.8409
 30
0.0
 10
-83.9898
 20
41.8409
 30
0.0
 10
-81.6181
 20
39.8154
 30
0.0
 10
-80.5775
 20
37.868
 30
0.0
 10
-80.0359
 20
35.9504
 30
0.0
 10
-80.0359
 20
35.9504
 30
0.0
 10
-84.3987
 20
38.0089
 30
0.0
 10
-87.696
 20
37.7182
 30
0.0
 10
-91.0909
 20
33.106
 30
0.0
 10
-91.0909
 20
33.106
 30
0.0
 10
-92.138
 20
32.2405
 30
0.0
 10
-94.5559
 20
33.2253
 30
0.0
 10
-94.0763
 20
34.0945
 30
0.0
 10
-94.0763
 20
34.0945
 30
0.0
 10
-94.0763
 20
34.0945
 30
0.0
 10
-92.2205
 20
34.498
 30
0.0
 10
-92.2205
 20
34.498
 30
0.0
 10
-92.2205
 20
34.498
 30
0.0
 10
-91.1572
 20
34.8462
 30
0.0
 10
-91.3335
 20
35.6494
 30
0.0
 10
-92.3012
 20
35.8697
 30
0.0
 10
-92.3012
 20
35.8697
 30
0.0
 10
-94.2333
 20
36.1843
 30
0.0
 10
-95.3448
 20
35.5818
 30
0.0
 10
-95.4481
 20
33.8525
 30
0.0
 10
-95.4481
 20
33.8525
 30
0.0
 10
-99.7382
 20
36.2648
 30
0.0
 10
-103.5848
 20
34.9109
 30
0.0
 10
-107.2292
 20
31.8351
 30
0.0
 10
-107.2292
 20
31.8351
 30
0.0
 10
-102.8453
 20
28.8278
 30
0.0
 10
-98.8653
 20
28.3353
 30
0.0
 10
-95.4497
 20
31.3529
 30
0.0
 10
-95.4497
 20
31.3529
 30
0.0
 10
-94.0083
 20
32.3216
 30
0.0
 10
-93.1775
 20
32.043
 30
0.0
 10
-93.4308
 20
31.2702
 30
0.0
 10
-93.4308
 20
31.2702
 30
0.0
 10
-94.4133
 20
29.2321
 30
0.0
 10
-94.5999
 20
26.7724
 30
0.0
 10
-93.7536
 20
23.766
 30
0.0
 10
-93.7536
 20
23.766
 30
0.0
 10
-91.1368
 20
24.6876
 30
0.0
 10
-89.4019
 20
26.178
 30
0.0
 10
-90.1224
 20
29.253
 30
0.0
 10
-90.1224
 20
29.253
 30
0.0
 10
-90.2301
 20
30.4634
 30
0.0
 10
-90.2972
 20
31.8351
 30
0.0
 10
-89.2348
 20
32.3999
 30
0.0
 10
-89.2348
 20
32.3999
 30
0.0
 10
-87.8935
 20
33.7735
 30
0.0
 10
-86.0301
 20
32.7376
 30
0.0
 10
-85.402
 20
30.9878
 30
0.0
 10
-85.402
 20
30.9878
 30
0.0
 10
-84.2941
 20
27.0919
 30
0.0
 10
-83.2045
 20
26.8231
 30
0.0
 10
-79.7132
 20
24.8956
 30
0.0
 10
-79.7132
 20
24.8956
 30
0.0
 10
-79.2982
 20
28.0704
 30
0.0
 10
-80.193
 20
29.7356
 30
0.0
 10
-83.9091
 20
31.6737
 30
0.0
 10
-83.9091
 20
31.6737
 30
0.0
 10
-85.8151
 20
34.0102
 30
0.0
 10
-85.4462
 20
35.8467
 30
0.0
 10
-82.6181
 20
34.3366
 30
0.0
 10
-82.6181
 20
34.3366
 30
0.0
 10
-80.8025
 20
33.3819
 30
0.0
 10
-79.2291
 20
31.5392
 30
0.0
 10
-77.5345
 20
30.1406
 30
0.0
 10
-77.5345
 20
30.1406
 30
0.0
 10
-75.1137
 20
27.0744
 30
0.0
 10
-73.0964
 20
23.1203
 30
0.0
 10
-70.2722
 20
20.9417
 30
0.0
 10
-70.2722
 20
20.9417
 30
0.0
 10
-66.5745
 20
17.3178
 30
0.0
 10
-63.9073
 20
14.9599
 30
0.0
 10
-61.396
 20
12.7918
 30
0.0
 10
-61.396
 20
12.7918
 30
0.0
 10
-63.76
 20
12.0626
 30
0.0
 10
-65.5952
 20
10.858
 30
0.0
 10
-66.8832
 20
9.1608
 30
0.0
 10
-66.8832
 20
9.1608
 30
0.0
 10
-68.5977
 20
8.8532
 30
0.0
 10
-69.5526
 20
9.4949
 30
0.0
 10
-69.5459
 20
11.3394
 30
0.0
 10
-69.5459
 20
11.3394
 30
0.0
 10
-70.0505
 20
14.3372
 30
0.0
 10
-73.8558
 20
16.6393
 30
0.0
 10
-76.5662
 20
17.0685
 30
0.0
 10
-76.5662
 20
17.0685
 30
0.0
 10
-77.4591
 20
11.6762
 30
0.0
 10
-74.3985
 20
11.0847
 30
0.0
 10
-73.3147
 20
8.0929
 30
0.0
 10
-73.3147
 20
8.0929
 30
0.0
 10
-75.8853
 20
7.2002
 30
0.0
 10
-78.6225
 20
6.8451
 30
0.0
 10
-81.0849
 20
9.0801
 30
0.0
 10
-81.0849
 20
9.0801
 30
0.0
 10
-81.911
 20
9.7921
 30
0.0
 10
-82.9234
 20
10.336
 30
0.0
 10
-84.6354
 20
10.2904
 30
0.0
 10
-84.6354
 20
10.2904
 30
0.0
 10
-82.9507
 20
12.0616
 30
0.0
 10
-83.2263
 20
14.0329
 30
0.0
 10
-86.814
 20
16.3424
 30
0.0
 10
-86.814
 20
16.3424
 30
0.0
 10
-88.1722
 20
16.6955
 30
0.0
 10
-89.2752
 20
18.0063
 30
0.0
 10
-90.2031
 20
19.9734
 30
0.0
 10
-90.2031
 20
19.9734
 30
0.0
 10
-90.8418
 20
17.9493
 30
0.0
 10
-91.0709
 20
15.5153
 30
0.0
 10
-90.8487
 20
12.6305
 30
0.0
 10
-90.8487
 20
12.6305
 30
0.0
 10
-90.3243
 20
10.3981
 30
0.0
 10
-88.5893
 20
10.5864
 30
0.0
 10
-87.4596
 20
9.5643
 30
0.0
 10
-87.4596
 20
9.5643
 30
0.0
 10
-86.2344
 20
8.3729
 30
0.0
 10
-87.0636
 20
7.2452
 30
0.0
 10
-88.1858
 20
7.547
 30
0.0
 10
-88.1858
 20
7.547
 30
0.0
 10
-94.3318
 20
10.0486
 30
0.0
 10
-95.6365
 20
5.328
 30
0.0
 10
-99.9669
 20
4.3999
 30
0.0
 10
-99.9669
 20
4.3999
 30
0.0
 10
-97.413
 20
3.453
 30
0.0
 10
-95.3116
 20
3.0872
 30
0.0
 10
-93.5115
 20
3.1088
 30
0.0
 10
-93.5115
 20
3.1088
 30
0.0
 10
-89.1944
 20
3.1088
 30
0.0
 10
-89.1945
 20
5.7717
 30
0.0
 10
-87.4596
 20
5.7717
 30
0.0
 10
-87.4596
 20
5.7717
 30
0.0
 10
-87.4596
 20
5.7717
 30
0.0
 10
-85.1196
 20
5.6911
 30
0.0
 10
-85.1196
 20
5.6911
 30
0.0
 10
-85.1196
 20
5.6911
 30
0.0
 10
-87.5004
 20
7.3129
 30
0.0
 10
-85.6702
 20
8.9238
 30
0.0
 10
-83.183
 20
7.0628
 30
0.0
 10
-83.183
 20
7.0628
 30
0.0
 10
-77.6491
 20
4.0529
 30
0.0
 10
-71.5568
 20
7.3334
 30
0.0
 10
-65.2692
 20
8.1117
 30
0.0
 10
-65.2692
 20
8.1117
 30
0.0
 10
-64.8424
 20
6.9811
 30
0.0
 10
-64.0284
 20
6.2025
 30
0.0
 10
-63.0099
 20
5.6102
 30
0.0
 10
-63.0099
 20
5.6102
 30
0.0
 10
-63.0099
 20
5.6102
 30
0.0
 10
-63.0906
 20
1.9388
 30
0.0
 10
-63.0906
 20
1.9388
 30
0.0
 10
-63.0906
 20
1.9388
 30
0.0
 10
-63.2789
 20
-0.5492
 30
0.0
 10
-60.32
 20
-1.2216
 30
0.0
 10
-60.5084
 20
-3.3465
 30
0.0
 10
-60.5084
 20
-3.3465
 30
0.0
 10
-62.2836
 20
-4.0344
 30
0.0
 10
-64.0589
 20
-4.1108
 30
0.0
 10
-65.8342
 20
-3.3465
 30
0.0
 10
-65.8342
 20
-3.3465
 30
0.0
 10
-66.9807
 20
-2.7384
 30
0.0
 10
-67.2427
 20
-0.9826
 30
0.0
 10
-66.5603
 20
0.6074
 30
0.0
 10
-66.5603
 20
0.6074
 30
0.0
 10
-66.1905
 20
1.1724
 30
0.0
 10
-65.6593
 20
-0.139
 30
0.0
 10
-65.2088
 20
0.0022
 30
0.0
 10
-65.2088
 20
0.0022
 30
0.0
 10
-63.9131
 20
-0.1991
 30
0.0
 10
-63.8081
 20
1.501
 30
0.0
 10
-65.0272
 20
1.6564
 30
0.0
 10
-65.0272
 20
1.6564
 30
0.0
 10
-65.6997
 20
1.6564
 30
0.0
 10
-66.3316
 20
1.2529
 30
0.0
 10
-67.0445
 20
1.6564
 30
0.0
 10
-67.0445
 20
1.6564
 30
0.0
 10
-70.4564
 20
3.0251
 30
0.0
 10
-73.7726
 20
3.0037
 30
0.0
 10
-76.9697
 20
1.2529
 30
0.0
 10
-76.9697
 20
1.2529
 30
0.0
 10
-74.1547
 20
-0.8112
 30
0.0
 10
-71.4195
 20
-1.6324
 30
0.0
 10
-68.8198
 20
-0.3609
 30
0.0
 10
-68.8198
 20
-0.3609
 30
0.0
 10
-67.8112
 20
-1.3158
 30
0.0
 10
-68.2145
 20
-3.7634
 30
0.0
 10
-66.8832
 20
-4.7989
 30
0.0
 10
-66.8832
 20
-4.7989
 30
0.0
 10
-64.2962
 20
-6.8995
 30
0.0
 10
-61.5357
 20
-6.2276
 30
0.0
 10
-58.7333
 20
-4.8796
 30
0.0
 10
-58.7333
 20
-4.8796
 30
0.0
 10
-55.0859
 20
-2.6363
 30
0.0
 10
-52.0517
 20
0.2201
 30
0.0
 10
-49.3729
 20
3.4316
 30
0.0
 10
-49.3729
 20
3.4316
 30
0.0
 10
-48.3404
 20
3.575
 30
0.0
 10
-48.1998
 20
1.7285
 30
0.0
 10
-48.5661
 20
-1.2485
 30
0.0
 10
-48.5661
 20
-1.2485
 30
0.0
 10
-52.2325
 20
-1.0075
 30
0.0
 10
-54.7983
 20
-4.0693
 30
0.0
 10
-56.958
 20
-8.3493
 30
0.0
 10
-56.958
 20
-8.3493
 30
0.0
 10
-51.7182
 20
-8.8252
 30
0.0
 10
-48.319
 20
-7.4162
 30
0.0
 10
-47.5978
 20
-3.2658
 30
0.0
 10
-47.5978
 20
-3.2658
 30
0.0
 10
-46.7847
 20
-2.6888
 30
0.0
 10
-46.3394
 20
-2.8477
 30
0.0
 10
-46.3873
 20
-3.992
 30
0.0
 10
-46.3873
 20
-3.992
 30
0.0
 10
-46.3873
 20
-3.992
 30
0.0
 10
-45.8225
 20
-9.7211
 30
0.0
 10
-45.8225
 20
-9.7211
 30
0.0
 10
-45.8225
 20
-9.7211
 30
0.0
 10
-43.7868
 20
-8.8193
 30
0.0
 10
-43.1515
 20
-6.9652
 30
0.0
 10
-43.8052
 20
-4.2341
 30
0.0
 10
-43.8052
 20
-4.2341
 30
0.0
 10
-43.9893
 20
-3.7629
 30
0.0
 10
-43.9438
 20
-3.3875
 30
0.0
 10
-43.4824
 20
-3.1852
 30
0.0
 10
-43.4824
 20
-3.1852
 30
0.0
 10
-41.0528
 20
-1.1969
 30
0.0
 10
-42.3679
 20
0.441
 30
0.0
 10
-44.4507
 20
0.2846
 30
0.0
 10
-44.4507
 20
0.2846
 30
0.0
 10
-44.0462
 20
-1.7153
 30
0.0
 10
-45.7164
 20
-2.4363
 30
0.0
 10
-46.3067
 20
-1.0064
 30
0.0
 10
-46.3067
 20
-1.0064
 30
0.0
 10
-46.9209
 20
3.3837
 30
0.0
 10
-46.5831
 20
7.0862
 30
0.0
 10
-43.3211
 20
8.6766
 30
0.0
 10
-43.3211
 20
8.6766
 30
0.0
 10
-34.716
 20
13.7377
 30
0.0
 10
-25.0821
 20
13.7824
 30
0.0
 10
-14.7557
 20
10.4514
 30
0.0
 10
-14.7557
 20
10.4514
 30
0.0
 10
-15.2937
 20
1.7367
 30
0.0
 10
-14.5404
 20
-7.1393
 30
0.0
 10
-14.4327
 20
-15.9347
 30
0.0
 10
-14.4327
 20
-15.9347
 30
0.0
 10
-14.4327
 20
-15.9347
 30
0.0
 10
-14.2714
 20
-27.0702
 30
0.0
 10
-14.2714
 20
-27.0702
 30
0.0
 10
-14.2714
 20
-27.0702
 30
0.0
 10
-13.9013
 20
-32.6458
 30
0.0
 10
-17.2771
 20
-34.217
 30
0.0
 10
-23.1475
 20
-33.1222
 30
0.0
 10
-23.1475
 20
-33.1222
 30
0.0
 10
-28.4728
 20
-32.1221
 30
0.0
 10
-31.7843
 20
-30.0352
 30
0.0
 10
-30.3291
 20
-25.3757
 30
0.0
 10
-30.3291
 20
-25.3757
 30
0.0
 10
-29.9308
 20
-23.5163
 30
0.0
 10
-29.2752
 20
-21.8285
 30
0.0
 10
-27.9083
 20
-20.6149
 30
0.0
 10
-27.9083
 20
-20.6149
 30
0.0
 10
-27.0835
 20
-20.1138
 30
0.0
 10
-25.7
 20
-20.4235
 30
0.0
 10
-26.0524
 20
-21.5832
 30
0.0
 10
-26.0524
 20
-21.5832
 30
0.0
 10
-27.3475
 20
-23.4121
 30
0.0
 10
-26.9363
 20
-25.2141
 30
0.0
 10
-24.8421
 20
-26.9895
 30
0.0
 10
-24.8421
 20
-26.9895
 30
0.0
 10
-23.6789
 20
-27.665
 30
0.0
 10
-22.4009
 20
-27.9278
 30
0.0
 10
-20.9689
 20
-27.6352
 30
0.0
 10
-20.9689
 20
-27.6352
 30
0.0
 10
-21.2324
 20
-25.9097
 30
0.0
 10
-22.2386
 20
-24.4115
 30
0.0
 10
-24.4386
 20
-23.2778
 30
0.0
 10
-24.4386
 20
-23.2778
 30
0.0
 10
-25.3868
 20
-22.5404
 30
0.0
 10
-25.1454
 20
-20.834
 30
0.0
 10
-23.1475
 20
-21.1797
 30
0.0
 10
-23.1475
 20
-21.1797
 30
0.0
 10
-20.0741
 20
-21.2488
 30
0.0
 10
-17.9096
 20
-19.5508
 30
0.0
 10
-16.7728
 20
-15.854
 30
0.0
 10
-16.7728
 20
-15.854
 30
0.0
 10
-19.3862
 20
-15.6282
 30
0.0
 10
-22.6606
 20
-16.1401
 30
0.0
 10
-24.1158
 20
-18.0328
 30
0.0
 10
-24.1158
 20
-18.0328
 30
0.0
 10
-24.8932
 20
-19.8223
 30
0.0
 10
-26.0284
 20
-19.821
 30
0.0
 10
-27.3435
 20
-18.9204
 30
0.0
 10
-27.3435
 20
-18.9204
 30
0.0
 10
-27.3435
 20
-18.9204
 30
0.0
 10
-29.3608
 20
-4.1538
 30
0.0
 10
-29.3608
 20
-4.1538
 30
0.0
 10
-29.3608
 20
-4.1538
 30
0.0
 10
-29.855
 20
-0.6418
 30
0.0
 10
-29.8079
 20
2.3673
 30
0.0
 10
-28.7959
 20
4.4803
 30
0.0
 10
-28.7959
 20
4.4803
 30
0.0
 10
-28.0966
 20
5.3255
 30
0.0
 10
-26.7518
 20
5.1551
 30
0.0
 10
-25.7297
 20
4.3996
 30
0.0
 10
-25.7297
 20
4.3996
 30
0.0
 10
-24.5836
 20
3.4039
 30
0.0
 10
-24.777
 20
2.618
 30
0.0
 10
-26.0524
 20
2.6244
 30
0.0
 10
-26.0524
 20
2.6244
 30
0.0
 10
-26.0524
 20
2.6244
 30
0.0
 10
-26.6173
 20
1.4141
 30
0.0
 10
-26.6173
 20
1.4141
 30
0.0
 10
-26.6173
 20
1.4141
 30
0.0
 10
-26.334
 20
-2.7641
 30
0.0
 10
-24.2654
 20
-4.8714
 30
0.0
 10
-21.2917
 20
-5.929
 30
0.0
 10
-21.2917
 20
-5.929
 30
0.0
 10
-20.5485
 20
-3.3569
 30
0.0
 10
-20.8498
 20
-1.0235
 30
0.0
 10
-23.8738
 20
0.6878
 30
0.0
 10
-23.8738
 20
0.6878
 30
0.0
 10
-24.282
 20
0.9133
 30
0.0
 10
-23.8701
 20
2.9373
 30
0.0
 10
-22.1792
 20
3.5927
 30
0.0
 10
-22.1792
 20
3.5927
 30
0.0
 10
-19.7561
 20
4.3431
 30
0.0
 10
-18.4159
 20
6.339
 30
0.0
 10
-18.1446
 20
9.564
 30
0.0
 10
-18.1446
 20
9.564
 30
0.0
 10
-19.6375
 20
7.385
 30
0.0
 10
-22.744
 20
8.757
 30
0.0
 10
-23.9544
 20
6.1747
 30
0.0
 10
-23.9544
 20
6.1747
 30
0.0
 10
-24.2919
 20
4.4455
 30
0.0
 10
-24.6928
 20
4.4675
 30
0.0
 10
-25.649
 20
5.4486
 30
0.0
 10
-25.649
 20
5.4486
 30
0.0
 10
-27.2433
 20
6.8394
 30
0.0
 10
-28.7348
 20
6.4518
 30
0.0
 10
-30.1677
 20
5.0451
 30
0.0
 10
-30.1677
 20
5.0451
 30
0.0
 10
-30.4694
 20
9.0341
 30
0.0
 10
-32.233
 20
10.6045
 30
0.0
 10
-35.3321
 20
9.9673
 30
0.0
 10
-35.3321
 20
9.9673
 30
0.0
 10
-35.838
 20
7.0174
 30
0.0
 10
-34.3017
 20
4.7273
 30
0.0
 10
-31.5798
 20
3.7137
 30
0.0
 10
-31.5798
 20
3.7137
 30
0.0
 10
-32.3439
 20
0.0764
 30
0.0
 10
-32.0127
 20
-4.04
 30
0.0
 10
-31.0554
 20
-8.4304
 30
0.0
 10
-31.0554
 20
-8.4304
 30
0.0
 10
-31.0554
 20
-8.4304
 30
0.0
 10
-34.6058
 20
-7.1393
 30
0.0
 10
-34.6058
 20
-7.1393
 30
0.0
 10
-34.6058
 20
-7.1393
 30
0.0
 10
-33.9029
 20
-4.5266
 30
0.0
 10
-35.0933
 20
-2.9201
 30
0.0
 10
-37.8335
 20
-2.1365
 30
0.0
 10
-37.8335
 20
-2.1365
 30
0.0
 10
-37.8124
 20
-3.9584
 30
0.0
 10
-37.3704
 20
-5.6401
 30
0.0
 10
-36.381
 20
-7.1393
 30
0.0
 10
-36.381
 20
-7.1393
 30
0.0
 10
-39.2405
 20
-5.5385
 30
0.0
 10
-41.3755
 20
-5.4316
 30
0.0
 10
-42.5137
 20
-7.3815
 30
0.0
 10
-42.5137
 20
-7.3815
 30
0.0
 10
-41.7874
 20
-9.0247
 30
0.0
 10
-41.2629
 20
-9.4639
 30
0.0
 10
-39.2457
 20
-8.632
 30
0.0
 10
-39.2457
 20
-8.632
 30
0.0
 10
-37.8873
 20
-8.6456
 30
0.0
 10
-37.1744
 20
-9.7887
 30
0.0
 10
-36.1389
 20
-10.3671
 30
0.0
 10
-36.1389
 20
-10.3671
 30
0.0
 10
-36.0985
 20
-9.1566
 30
0.0
 10
-35.9775
 20
-8.5111
 30
0.0
 10
-35.1706
 20
-8.1883
 30
0.0
 10
-35.1706
 20
-8.1883
 30
0.0
 10
-31.843
 20
-9.651
 30
0.0
 10
-29.7557
 20
-14.2293
 30
0.0
 10
-30.2484
 20
-19.0818
 30
0.0
 10
-30.2484
 20
-19.0818
 30
0.0
 10
-31.4587
 20
-23.1877
 30
0.0
 10
-33.9603
 20
-26.3402
 30
0.0
 10
-35.8162
 20
-26.1019
 30
0.0
 10
-35.8162
 20
-26.1019
 30
0.0
 10
-37.9773
 20
-25.8565
 30
0.0
 10
-39.8149
 20
-25.3527
 30
0.0
 10
-40.8997
 20
-24.2461
 30
0.0
 10
-40.8997
 20
-24.2461
 30
0.0
 10
-41.8305
 20
-23.0858
 30
0.0
 10
-42.3901
 20
-21.8022
 30
0.0
 10
-42.0295
 20
-20.2114
 30
0.0
 10
-42.0295
 20
-20.2114
 30
0.0
 10
-41.9719
 20
-19.0766
 30
0.0
 10
-41.4685
 20
-18.2531
 30
0.0
 10
-40.3349
 20
-17.8713
 30
0.0
 10
-40.3349
 20
-17.8713
 30
0.0
 10
-40.1783
 20
-19.5938
 30
0.0
 10
-39.7352
 20
-19.9023
 30
0.0
 10
-37.6721
 20
-19.8079
 30
0.0
 10
-37.6721
 20
-19.8079
 30
0.0
 10
-35.8613
 20
-19.4639
 30
0.0
 10
-34.7491
 20
-18.4845
 30
0.0
 10
-34.1216
 20
-17.0645
 30
0.0
 10
-34.1216
 20
-17.0645
 30
0.0
 10
-35.5472
 20
-16.8957
 30
0.0
 10
-36.9727
 20
-17.099
 30
0.0
 10
-38.3983
 20
-18.1135
 30
0.0
 10
-38.3983
 20
-18.1135
 30
0.0
 10
-39.3666
 20
-18.3556
 30
0.0
 10
-39.6086
 20
-17.5082
 30
0.0
 10
-39.1246
 20
-16.661
 30
0.0
 10
-39.1246
 20
-16.661
 30
0.0
 10
-38.0279
 20
-15.0163
 30
0.0
 10
-37.8518
 20
-13.2183
 30
0.0
 10
-38.6917
 20
-11.2507
 30
0.0
 10
-38.6917
 20
-11.2507
 30
0.0
 10
-40.3686
 20
-12.8767
 30
0.0
 10
-42.012
 20
-14.151
 30
0.0
 10
-41.4435
 20
-16.2205
 30
0.0
 10
-41.4435
 20
-16.2205
 30
0.0
 10
-41.5788
 20
-17.0624
 30
0.0
 10
-42.7873
 20
-18.2566
 30
0.0
 10
-43.6221
 20
-18.8834
 30
0.0
 10
-43.6221
 20
-18.8834
 30
0.0
 10
-47.0592
 20
-21.2434
 30
0.0
 10
-48.0379
 20
-19.7726
 30
0.0
 10
-53.5889
 20
-20.3328
 30
0.0
 10
-53.5889
 20
-20.3328
 30
0.0
 10
-54.6873
 20
-20.7033
 30
0.0
 10
-55.6173
 20
-20.5408
 30
0.0
 10
-55.7474
 20
-19.8892
 30
0.0
 10
-55.7474
 20
-19.8892
 30
0.0
 10
-55.5941
 20
-16.3733
 30
0.0
 10
-56.6535
 20
-14.0984
 30
0.0
 10
-58.8136
 20
-12.9496
 30
0.0
 10
-58.8136
 20
-12.9496
 30
0.0
 10
-59.3711
 20
-15.0751
 30
0.0
 10
-59.1974
 20
-17.2527
 30
0.0
 10
-58.2488
 20
-19.4857
 30
0.0
 10
-58.2488
 20
-19.4857
 30
0.0
 10
-58.585
 20
-19.721
 30
0.0
 10
-59.9702
 20
-19.5932
 30
0.0
 10
-60.8309
 20
-19.647
 30
0.0
 10
-60.8309
 20
-19.647
 30
0.0
 10
-60.8309
 20
-19.647
 30
0.0
 10
-65.004
 20
-13.867
 30
0.0
 10
-65.004
 20
-13.867
 30
0.0
 10
-65.004
 20
-13.867
 30
0.0
 10
-65.3166
 20
-13.3662
 30
0.0
 10
-65.4339
 20
-12.8654
 30
0.0
 10
-65.2084
 20
-12.3647
 30
0.0
 10
-65.2084
 20
-12.3647
 30
0.0
 10
-64.1533
 20
-10.9334
 30
0.0
 10
-63.4461
 20
-9.8887
 30
0.0
 10
-63.4131
 20
-8.1888
 30
0.0
 10
-63.4131
 20
-8.1888
 30
0.0
 10
-65.0182
 20
-8.6511
 30
0.0
 10
-65.9502
 20
-9.5017
 30
0.0
 10
-66.1565
 20
-10.771
 30
0.0
 10
-66.1565
 20
-10.771
 30
0.0
 10
-66.3636
 20
-11.3192
 30
0.0
 10
-67.0388
 20
-11.198
 30
0.0
 10
-67.367
 20
-10.771
 30
0.0
 10
-67.367
 20
-10.771
 30
0.0
 10
-68.3605
 20
-8.3676
 30
0.0
 10
-69.9239
 20
-6.9611
 30
0.0
 10
-72.2085
 20
-6.817
 30
0.0
 10
-72.2085
 20
-6.817
 30
0.0
 10
-72.2335
 20
-8.8146
 30
0.0
 10
-71.6187
 20
-10.4279
 30
0.0
 10
-70.0298
 20
-11.4569
 30
0.0
 10
-70.0298
 20
-11.4569
 30
0.0
 10
-70.5317
 20
-14.3928
 30
0.0
 10
-69.8914
 20
-15.7432
 30
0.0
 10
-67.8511
 20
-14.6442
 30
0.0
 10
-67.8511
 20
-14.6442
 30
0.0
 10
-66.9394
 20
-13.996
 30
0.0
 10
-66.1536
 20
-13.8526
 30
0.0
 10
-65.6724
 20
-14.9266
 30
0.0
 10
-65.6724
 20
-14.9266
 30
0.0
 10
-65.6724
 20
-14.9266
 30
0.0
 10
-62.5657
 20
-19.6068
 30
0.0
 10
-62.5657
 20
-19.6068
 30
0.0
 10
-62.5657
 20
-19.6068
 30
0.0
 10
-67.2882
 20
-19.6141
 30
0.0
 10
-72.5708
 20
-19.1014
 30
0.0
 10
-76.3237
 20
-16.5808
 30
0.0
 10
-76.3237
 20
-16.5808
 30
0.0
 10
-80.0813
 20
-13.7125
 30
0.0
 10
-80.716
 20
-10.5996
 30
0.0
 10
-78.9866
 20
-7.3011
 30
0.0
 10
-78.9866
 20
-7.3011
 30
0.0
 10
-77.563
 20
-5.2032
 30
0.0
 10
-77.0201
 20
-3.1051
 30
0.0
 10
-78.5025
 20
-1.0072
 30
0.0
 10
-78.5025
 20
-1.0072
 30
0.0
 10
-80.3314
 20
-2.0831
 30
0.0
 10
-78.898
 20
-6.1503
 30
0.0
 10
-80.8426
 20
-5.9293
 30
0.0
 10
-80.8426
 20
-5.9293
 30
0.0
 10
-83.5088
 20
-3.0267
 30
0.0
 10
-85.8954
 20
-2.7266
 30
0.0
 10
-89.2346
 20
-3.9927
 30
0.0
 10
-89.2346
 20
-3.9927
 30
0.0
 10
-90.648
 20
-4.3499
 30
0.0
 10
-91.8963
 20
-3.6088
 30
0.0
 10
-92.9867
 20
-1.814
 30
0.0
 10
-92.9867
 20
-1.814
 30
0.0
 10
-93.2155
 20
-3.8046
 30
0.0
 10
-92.5971
 20
-7.53
 30
0.0
 10
-93.6731
 20
-7.7857
 30
0.0
 10
-93.6731
 20
-7.7857
 30
0.0
 10
-96.4382
 20
-7.5873
 30
0.0
 10
-98.7621
 20
-8.1456
 30
0.0
 10
-100.774
 20
-9.2382
 30
0.0
 10
-100.774
 20
-9.2382
 30
0.0
 10
-98.4765
 20
-12.4845
 30
0.0
 10
-95.7145
 20
-13.9188
 30
0.0
 10
-92.3413
 20
-12.9688
 30
0.0
 10
-92.3413
 20
-12.9688
 30
0.0
 10
-92.3001
 20
-14.4667
 30
0.0
 10
-91.8987
 20
-16.0245
 30
0.0
 10
-91.2119
 20
-17.6302
 30
0.0
 10
-91.2119
 20
-17.6302
 30
0.0
 10
-95.9863
 20
-15.7205
 30
0.0
 10
-99.1467
 20
-13.0846
 30
0.0
 10
-103.7596
 20
-11.6589
 30
0.0
 10
-103.7596
 20
-11.6589
 30
0.0
 10
-102.488
 20
-8.1865
 30
0.0
 10
-103.9818
 20
-4.5607
 30
0.0
 10
-108.5204
 20
-0.7655
 30
0.0
 10
-108.5204
 20
-0.7655
 30
0.0
 10
-109.5667
 20
-8.4744
 30
0.0
 10
-108.419
 20
-10.9518
 30
0.0
 10
-106.6645
 20
-11.9816
 30
0.0
 10
-106.6645
 20
-11.9816
 30
0.0
 10
-108.6679
 20
-13.0399
 30
0.0
 10
-109.3683
 20
-14.9313
 30
0.0
 10
-108.6818
 20
-17.7107
 30
0.0
 10
-108.6818
 20
-17.7107
 30
0.0
 10
-108.2833
 20
-18.8071
 30
0.0
 10
-106.7953
 20
-18.5371
 30
0.0
 10
-106.7603
 20
-17.4547
 30
0.0
 10
-106.7603
 20
-17.4547
 30
0.0
 10
-107.4274
 20
-15.0103
 30
0.0
 10
-106.1895
 20
-13.1857
 30
0.0
 10
-104.1631
 20
-13.7569
 30
0.0
 10
-104.1631
 20
-13.7569
 30
0.0
 10
-102.7934
 20
-13.8618
 30
0.0
 10
-100.7382
 20
-14.4121
 30
0.0
 10
-98.2927
 20
-15.9155
 30
0.0
 10
-98.2927
 20
-15.9155
 30
0.0
 10
-98.2927
 20
-15.9155
 30
0.0
 10
-94.4801
 20
-18.5177
 30
0.0
 10
-94.4801
 20
-18.5177
 30
0.0
 10
-94.4801
 20
-18.5177
 30
0.0
 10
-93.5388
 20
-19.4049
 30
0.0
 10
-94.6318
 20
-20.481
 30
0.0
 10
-96.0132
 20
-21.584
 30
0.0
 10
-96.0132
 20
-21.584
 30
0.0
 10
-97.4823
 20
-22.4164
 30
0.0
 10
-98.6326
 20
-22.5535
 30
0.0
 10
-99.2409
 20
-21.5033
 30
0.0
 10
-99.2409
 20
-21.5033
 30
0.0
 10
-99.537
 20
-20.8997
 30
0.0
 10
-99.3748
 20
-20.4927
 30
0.0
 10
-98.9181
 20
-20.2122
 30
0.0
 10
-98.9181
 20
-20.2122
 30
0.0
 10
-98.0088
 20
-19.5827
 30
0.0
 10
-99.443
 20
-18.2853
 30
0.0
 10
-100.2092
 20
-19.0019
 30
0.0
 10
-100.2092
 20
-19.0019
 30
0.0
 10
-100.8689
 20
-19.8076
 30
0.0
 10
-101.0226
 20
-20.6975
 30
0.0
 10
-100.7136
 20
-21.6646
 30
0.0
 10
-100.7136
 20
-21.6646
 30
0.0
 10
-100.545
 20
-22.8614
 30
0.0
 10
-100.8574
 20
-23.0466
 30
0.0
 10
-101.5002
 20
-23.3592
 30
0.0
 10
-101.5002
 20
-23.3592
 30
0.0
 10
-104.0219
 20
-24.8991
 30
0.0
 10
-103.0737
 20
-27.9923
 30
0.0
 10
-104.8894
 20
-29.0077
 30
0.0
 10
-104.8894
 20
-29.0077
 30
0.0
 10
-101.5439
 20
-29.4484
 30
0.0
 10
-98.9007
 20
-28.8102
 30
0.0
 10
-97.8691
 20
-25.6993
 30
0.0
 10
-97.8691
 20
-25.6993
 30
0.0
 10
-97.7025
 20
-24.5654
 30
0.0
 10
-96.7852
 20
-24.4462
 30
0.0
 10
-96.9008
 20
-25.8606
 30
0.0
 10
-96.9008
 20
-25.8606
 30
0.0
 10
-96.9008
 20
-25.8606
 30
0.0
 10
-96.094
 20
-30.0164
 30
0.0
 10
-96.094
 20
-30.0164
 30
0.0
 10
-96.094
 20
-30.0164
 30
0.0
 10
-95.5258
 20
-31.3364
 30
0.0
 10
-93.9454
 20
-30.7607
 30
0.0
 10
-94.3994
 20
-29.3708
 30
0.0
 10
-94.3994
 20
-29.3708
 30
0.0
 10
-95.4446
 20
-26.664
 30
0.0
 10
-95.6812
 20
-24.412
 30
0.0
 10
-95.0046
 20
-22.6733
 30
0.0
 10
-95.0046
 20
-22.6733
 30
0.0
 10
-93.4174
 20
-20.5022
 30
0.0
 10
-91.6025
 20
-19.7883
 30
0.0
 10
-89.4772
 20
-21.0595
 30
0.0
 10
-89.4772
 20
-21.0595
 30
0.0
 10
-89.4772
 20
-21.0595
 30
0.0
 10
-83.0622
 20
-23.682
 30
0.0
 10
-83.0622
 20
-23.682
 30
0.0
 10
-83.0622
 20
-23.682
 30
0.0
 10
-80.8699
 20
-24.7446
 30
0.0
 10
-81.922
 20
-26.8774
 30
0.0
 10
-83.7481
 20
-27.6763
 30
0.0
 10
-83.7481
 20
-27.6763
 30
0.0
 10
-85.5209
 20
-28.7877
 30
0.0
 10
-86.6961
 20
-30.9347
 30
0.0
 10
-87.6617
 20
-33.4457
 30
0.0
 10
-87.6617
 20
-33.4457
 30
0.0
 10
-84.1235
 20
-33.9732
 30
0.0
 10
-81.2456
 20
-33.2987
 30
0.0
 10
-80.3994
 20
-28.9269
 30
0.0
 10
-80.3994
 20
-28.9269
 30
0.0
 10
-80.3657
 20
-27.97
 30
0.0
 10
-79.2629
 20
-27.6379
 30
0.0
 10
-79.0276
 20
-28.8464
 30
0.0
 10
-79.0276
 20
-28.8464
 30
0.0
 10
-78.2483
 20
-31.7734
 30
0.0
 10
-76.4186
 20
-33.3702
 30
0.0
 10
-74.0251
 20
-34.253
 30
0.0
 10
-74.0251
 20
-34.253
 30
0.0
 10
-72.6933
 20
-32.0566
 30
0.0
 10
-74.3804
 20
-27.3918
 30
0.0
 10
-76.2845
 20
-27.031
 30
0.0
 10
-76.2845
 20
-27.031
 30
0.0
 10
-77.5824
 20
-27.1454
 30
0.0
 10
-77.7504
 20
-25.9889
 30
0.0
 10
-78.5438
 20
-26.2242
 30
0.0
 10
-78.5438
 20
-26.2242
 30
0.0
 10
-80.3146
 20
-26.9817
 30
0.0
 10
-81.3417
 20
-25.9395
 30
0.0
 10
-80.2384
 20
-24.9735
 30
0.0
 10
-80.2384
 20
-24.9735
 30
0.0
 10
-75.2796
 20
-24.9509
 30
0.0
 10
-70.6048
 20
-24.4456
 30
0.0
 10
-66.7224
 20
-22.593
 30
0.0
 10
-66.7224
 20
-22.593
 30
0.0
 10
-63.4941
 20
-21.3744
 30
0.0
 10
-60.2145
 20
-21.1762
 30
0.0
 10
-56.8784
 20
-22.109
 30
0.0
 10
-56.8784
 20
-22.109
 30
0.0
 10
-56.8784
 20
-22.109
 30
0.0
 10
-49.8581
 20
-24.9736
 30
0.0
 10
-49.8581
 20
-24.9736
 30
0.0
 10
-49.8581
 20
-24.9736
 30
0.0
 10
-48.8404
 20
-26.1879
 30
0.0
 10
-49.0728
 20
-27.3633
 30
0.0
 10
-49.7774
 20
-28.524
 30
0.0
 10
-49.7774
 20
-28.524
 30
0.0
 10
-50.3424
 20
-29.4522
 30
0.0
 10
-50.8533
 20
-29.3307
 30
0.0
 10
-51.3107
 20
-28.1609
 30
0.0
 10
-51.3107
 20
-28.1609
 30
0.0
 10
-52.5344
 20
-25.8545
 30
0.0
 10
-54.2425
 20
-25.767
 30
0.0
 10
-55.7083
 20
-24.5701
 30
0.0
 10
-55.7083
 20
-24.5701
 30
0.0
 10
-54.9822
 20
-26.6412
 30
0.0
 10
-54.8812
 20
-29.1966
 30
0.0
 10
-52.985
 20
-30.3397
 30
0.0
 10
-52.985
 20
-30.3397
 30
0.0
 10
-52.985
 20
-30.3397
 30
0.0
 10
-60.0657
 20
-35.746
 30
0.0
 10
-60.0657
 20
-35.746
 30
0.0
 10
-60.0657
 20
-35.746
 30
0.0
 10
-61.1403
 20
-35.5826
 30
0.0
 10
-61.8445
 20
-35.2916
 30
0.0
 10
-61.1955
 20
-34.5357
 30
0.0
 10
-61.1955
 20
-34.5357
 30
0.0
 10
-58.8023
 20
-32.8956
 30
0.0
 10
-57.2259
 20
-30.7302
 30
0.0
 10
-57.8467
 20
-27.1524
 30
0.0
 10
-57.8467
 20
-27.1524
 30
0.0
 10
-60.8891
 20
-28.029
 30
0.0
 10
-62.3892
 20
-30.1622
 30
0.0
 10
-62.5269
 20
-33.4059
 30
0.0
 10
-62.5269
 20
-33.4059
 30
0.0
 10
-62.8419
 20
-33.8541
 30
0.0
 10
-63.3347
 20
-33.6707
 30
0.0
 10
-63.6969
 20
-32.9622
 30
0.0
 10
-63.6969
 20
-32.9622
 30
0.0
 10
-65.6199
 20
-28.8596
 30
0.0
 10
-68.552
 20
-27.5829
 30
0.0
 10
-72.089
 20
-27.9996
 30
0.0
 10
-72.089
 20
-27.9996
 30
0.0
 10
-70.6917
 20
-32.7441
 30
0.0
 10
-68.6444
 20
-35.2783
 30
0.0
 10
-65.6335
 20
-34.5357
 30
0.0
 10
-65.6335
 20
-34.5357
 30
0.0
 10
-64.707
 20
-34.2429
 30
0.0
 10
-63.7431
 20
-35.8313
 30
0.0
 10
-64.9682
 20
-36.1097
 30
0.0
 10
-64.9682
 20
-36.1097
 30
0.0
 10
-71.296
 20
-36.5332
 30
0.0
 10
-69.0903
 20
-38.127
 30
0.0
 10
-70.2739
 20
-39.6802
 30
0.0
 10
-70.2739
 20
-39.6802
 30
0.0
 10
-70.7248
 20
-41.7952
 30
0.0
 10
-69.1909
 20
-42.1647
 30
0.0
 10
-66.5218
 20
-41.5362
 30
0.0
 10
-66.5218
 20
-41.5362
 30
0.0
 10
-64.7625
 20
-40.8597
 30
0.0
 10
-63.4631
 20
-39.7807
 30
0.0
 10
-63.8588
 20
-37.2191
 30
0.0
 10
-63.8588
 20
-37.2191
 30
0.0
 10
-63.6332
 20
-36.3563
 30
0.0
 10
-61.8385
 20
-36.6965
 30
0.0
 10
-61.7609
 20
-37.7839
 30
0.0
 10
-61.7609
 20
-37.7839
 30
0.0
 10
-62.877
 20
-39.1825
 30
0.0
 10
-61.7341
 20
-41.7917
 30
0.0
 10
-62.4468
 20
-44.0376
 30
0.0
 10
-62.4468
 20
-44.0376
 30
0.0
 10
-62.4468
 20
-44.0376
 30
0.0
 10
-59.098
 20
-41.8186
 30
0.0
 10
-59.098
 20
-41.8186
 30
0.0
 10
-59.098
 20
-41.8186
 30
0.0
 10
-58.0625
 20
-40.3931
 30
0.0
 10
-59.8109
 20
-39.4112
 30
0.0
 10
-59.2595
 20
-37.1788
 30
0.0
 10
-59.2595
 20
-37.1788
 30
0.0
 10
-59.2595
 20
-37.1788
 30
0.0
 10
-53.6917
 20
-32.9424
 30
0.0
 10
-53.6917
 20
-32.9424
 30
0.0
 10
-53.6917
 20
-32.9424
 30
0.0
 10
-52.8995
 20
-32.3586
 30
0.0
 10
-51.9888
 20
-33.2167
 30
0.0
 10
-52.4006
 20
-34.1124
 30
0.0
 10
-52.4006
 20
-34.1124
 30
0.0
 10
-52.9889
 20
-35.0989
 30
0.0
 10
-53.292
 20
-36.4411
 30
0.0
 10
-53.4495
 20
-37.9655
 30
0.0
 10
-53.4495
 20
-37.9655
 30
0.0
 10
-56.2855
 20
-38.4522
 30
0.0
 10
-57.7959
 20
-41.2765
 30
0.0
 10
-58.3719
 20
-45.5304
 30
0.0
 10
-58.3719
 20
-45.5304
 30
0.0
 10
-54.6388
 20
-43.994
 30
0.0
 10
-52.0289
 20
-42.092
 30
0.0
 10
-52.6023
 20
-39.1557
 30
0.0
 10
-52.6023
 20
-39.1557
 30
0.0
 10
-51.3423
 20
-38.9901
 30
0.0
 10
-50.2172
 20
-38.6894
 30
0.0
 10
-49.4957
 20
-37.9856
 30
0.0
 10
-49.4957
 20
-37.9856
 30
0.0
 10
-46.7806
 20
-37.5468
 30
0.0
 10
-44.8388
 20
-36.5968
 30
0.0
 10
-44.9768
 20
-34.2737
 30
0.0
 10
-44.9768
 20
-34.2737
 30
0.0
 10
-46.6186
 20
-33.7621
 30
0.0
 10
-48.1765
 20
-34.449
 30
0.0
 10
-49.657
 20
-36.2508
 30
0.0
 10
-49.657
 20
-36.2508
 30
0.0
 10
-50.4202
 20
-37.0098
 30
0.0
 10
-52.0838
 20
-36.193
 30
0.0
 10
-51.1498
 20
-34.1124
 30
0.0
 10
-51.1498
 20
-34.1124
 30
0.0
 10
-47.7198
 20
-28.721
 30
0.0
 10
-43.4176
 20
-27.4401
 30
0.0
 10
-38.4814
 20
-29.1495
 30
0.0
 10
-38.4814
 20
-29.1495
 30
0.0
 10
-33.6533
 20
-32.1217
 30
0.0
 10
-29.2287
 20
-33.722
 30
0.0
 10
-24.6024
 20
-36.0083
 30
0.0
 10
-24.6024
 20
-36.0083
 30
0.0
 10
-18.6915
 20
-38.9882
 30
0.0
 10
-10.2296
 20
-47.9669
 30
0.0
 10
-16.6139
 20
-70.1005
 30
0.0
 10
-16.6139
 20
-70.1005
 30
0.0
 10
-18.7613
 20
-76.537
 30
0.0
 10
-23.7024
 20
-83.1376
 30
0.0
 10
-29.8843
 20
-88.0139
 30
0.0
 10
-29.8843
 20
-88.0139
 30
0.0
 10
-29.8843
 20
-88.0139
 30
0.0
 10
-19.4896
 20
-87.9984
 30
0.0
 10
-19.4896
 20
-87.9984
 30
0.0
 10
-19.4896
 20
-87.9984
 30
0.0
 10
-19.4896
 20
-87.9984
 30
0.0
 10
-19.4896
 20
-93.998
 30
0.0
 10
-19.4896
 20
-93.998
 30
0.0
 10
-19.4896
 20
-93.998
 30
0.0
 10
-19.4896
 20
-93.998
 30
0.0
 10
8.9958
 20
-93.998
 30
0.0
 10
8.9958
 20
-93.998
 30
0.0
 10
8.9958
 20
-93.998
 30
0.0
 10
8.9958
 20
-93.998
 30
0.0
 10
8.9944
 20
-87.9692
 30
0.0
 10
8.9944
 20
-87.9692
 30
0.0
 10
8.9944
 20
-87.9692
 30
0.0
 10
8.9944
 20
-87.9692
 30
0.0
 10
19.4218
 20
-87.9566
 30
0.0
 10
19.4218
 20
-87.9566
 30
0.0
 10
19.4218
 20
-87.9566
 30
0.0
 10
12.6347
 20
-84.7862
 30
0.0
 10
7.0822
 20
-78.9504
 30
0.0
 10
2.9052
 20
-69.699
 30
0.0
 10
2.9052
 20
-69.699
 30
0.0
 10
-0.4996
 20
-59.8241
 30
0.0
 10
-0.4873
 20
-42.9368
 30
0.0
 10
4.9402
 20
-33.4468
 30
0.0
 10
4.9402
 20
-33.4468
 30
0.0
 10
6.2445
 20
-32.0973
 30
0.0
 10
7.5494
 20
-31.0292
 30
0.0
 10
8.8538
 20
-30.8646
 30
0.0
 10
8.8538
 20
-30.8646
 30
0.0
 10
13.3411
 20
-29.9213
 30
0.0
 10
17.1234
 20
-34.6101
 30
0.0
 10
16.4791
 20
-39.3777
 30
0.0
 10
16.4791
 20
-39.3777
 30
0.0
 10
16.337
 20
-40.8153
 30
0.0
 10
14.9137
 20
-40.6769
 30
0.0
 10
13.2918
 20
-38.8935
 30
0.0
 10
13.2918
 20
-38.8935
 30
0.0
 10
12.0598
 20
-38.1117
 30
0.0
 10
10.9604
 20
-39.9576
 30
0.0
 10
11.7989
 20
-40.9108
 30
0.0
 10
11.7989
 20
-40.9108
 30
0.0
 10
13.1741
 20
-42.2649
 30
0.0
 10
14.9565
 20
-43.08
 30
0.0
 10
16.8826
 20
-42.7263
 30
0.0
 10
16.8826
 20
-42.7263
 30
0.0
 10
18.2143
 20
-42.173
 30
0.0
 10
18.8855
 20
-41.074
 30
0.0
 10
18.9801
 20
-39.4988
 30
0.0
 10
18.9801
 20
-39.4988
 30
0.0
 10
20.2437
 20
-40.8269
 30
0.0
 10
21.0919
 20
-42.6893
 30
0.0
 10
21.6027
 20
-44.9858
 30
0.0
 10
21.6027
 20
-44.9858
 30
0.0
 10
18.8294
 20
-46.7929
 30
0.0
 10
18.2832
 20
-49.7141
 30
0.0
 10
18.7381
 20
-53.1357
 30
0.0
 10
18.7381
 20
-53.1357
 30
0.0
 10
21.0745
 20
-51.9043
 30
0.0
 10
22.9131
 20
-50.1999
 30
0.0
 10
23.0954
 20
-46.9224
 30
0.0
 10
23.0954
 20
-46.9224
 30
0.0
 10
23.1709
 20
-46.2795
 30
0.0
 10
24.0887
 20
-45.9112
 30
0.0
 10
24.4268
 20
-46.5593
 30
0.0
 10
24.4268
 20
-46.5593
 30
0.0
 10
25.1136
 20
-48.3997
 30
0.0
 10
26.502
 20
-48.8372
 30
0.0
 10
27.8967
 20
-49.2624
 30
0.0
 10
27.8967
 20
-49.2624
 30
0.0
 10
28.2096
 20
-48.3683
 30
0.0
 10
27.8798
 20
-47.3595
 30
0.0
 10
26.6862
 20
-46.1962
 30
0.0
 10
26.6862
 20
-46.1962
 30
0.0
 10
26.3222
 20
-45.8856
 30
0.0
 10
26.4171
 20
-45.1013
 30
0.0
 10
27.0897
 20
-44.7438
 30
0.0
 10
27.0897
 20
-44.7438
 30
0.0
 10
29.1843
 20
-43.8178
 30
0.0
 10
30.5625
 20
-42.4145
 30
0.0
 10
31.3661
 20
-40.6281
 30
0.0
 10
31.3661
 20
-40.6281
 30
0.0
 10
30.0948
 20
-39.8022
 30
0.0
 10
25.6565
 20
-44.3224
 30
0.0
 10
25.9598
 20
-41.1728
 30
0.0
 10
25.9598
 20
-41.1728
 30
0.0
 10
26.0365
 20
-39.2586
 30
0.0
 10
25.9392
 20
-37.5367
 30
0.0
 10
24.9915
 20
-36.7549
 30
0.0
 10
24.9915
 20
-36.7549
 30
0.0
 10
22.8824
 20
-37.9626
 30
0.0
 10
22.8368
 20
-39.9045
 30
0.0
 10
23.9021
 20
-42.2419
 30
0.0
 10
23.9021
 20
-42.2419
 30
0.0
 10
25.3767
 20
-44.3398
 30
0.0
 10
24.203
 20
-45.5035
 30
0.0
 10
23.7004
 20
-44.6626
 30
0.0
 10
23.7004
 20
-44.6626
 30
0.0
 10
22.6916
 20
-42.8739
 30
0.0
 10
21.9655
 20
-40.7223
 30
0.0
 10
20.6744
 20
-39.2967
 30
0.0
 10
20.6744
 20
-39.2967
 30
0.0
 10
20.2097
 20
-38.3585
 30
0.0
 10
20.4196
 20
-37.8209
 30
0.0
 10
21.4007
 20
-37.239
 30
0.0
 10
21.4007
 20
-37.239
 30
0.0
 10
21.4007
 20
-37.239
 30
0.0
 10
23.781
 20
-35.4638
 30
0.0
 10
23.781
 20
-35.4638
 30
0.0
 10
23.781
 20
-35.4638
 30
0.0
 10
24.5407
 20
-34.3585
 30
0.0
 10
23.5056
 20
-33.2402
 30
0.0
 10
22.2882
 20
-33.7894
 30
0.0
 10
22.2882
 20
-33.7894
 30
0.0
 10
22.2882
 20
-33.7894
 30
0.0
 10
19.7867
 20
-35.5042
 30
0.0
 10
19.7867
 20
-35.5042
 30
0.0
 10
19.7867
 20
-35.5042
 30
0.0
 10
18.7887
 20
-35.5736
 30
0.0
 10
18.3228
 20
-33.5659
 30
0.0
 10
19.7465
 20
-32.6395
 30
0.0
 10
19.7465
 20
-32.6395
 30
0.0
 10
23.3144
 20
-31.3014
 30
0.0
 10
27.1521
 20
-31.7318
 30
0.0
 10
31.2042
 20
-33.5676
 30
0.0
 10
31.2042
 20
-33.5676
 30
0.0
 10
34.7681
 20
-35.935
 30
0.0
 10
36.3166
 20
-38.6733
 30
0.0
 10
36.1664
 20
-42.4834
 30
0.0
 10
36.1664
 20
-42.4834
 30
0.0
 10
35.8973
 20
-43.7071
 30
0.0
 10
35.34
 20
-44.6308
 30
0.0
 10
32.4887
 20
-45.0073
 30
0.0
 10
32.4887
 20
-45.0073
 30
0.0
 10
31.5861
 20
-46.4362
 30
0.0
 10
31.2857
 20
-48.2762
 30
0.0
 10
32.2124
 20
-50.3509
 30
0.0
 10
32.2124
 20
-50.3509
 30
0.0
 10
33.8193
 20
-49.7112
 30
0.0
 10
34.9911
 20
-48.7184
 30
0.0
 10
34.8753
 20
-46.6793
 30
0.0
 10
34.8753
 20
-46.6793
 30
0.0
 10
34.965
 20
-45.643
 30
0.0
 10
36.7226
 20
-45.3555
 30
0.0
 10
36.9934
 20
-46.276
 30
0.0
 10
36.9934
 20
-46.276
 30
0.0
 10
37.6255
 20
-47.7754
 30
0.0
 10
39.0427
 20
-48.4896
 30
0.0
 10
40.6447
 20
-49.0194
 30
0.0
 10
40.6447
 20
-49.0194
 30
0.0
 10
40.6861
 20
-47.1253
 30
0.0
 10
40.2266
 20
-45.6546
 30
0.0
 10
38.8696
 20
-44.9444
 30
0.0
 10
38.8696
 20
-44.9444
 30
0.0
 10
38.0689
 20
-44.5451
 30
0.0
 10
37.9219
 20
-43.5957
 30
0.0
 10
38.3046
 20
-42.201
 30
0.0
 10
38.3046
 20
-42.201
 30
0.0
 10
38.6543
 20
-40.3199
 30
0.0
 10
38.3181
 20
-38.353
 30
0.0
 10
37.3767
 20
-36.3105
 30
0.0
 10
37.3767
 20
-36.3105
 30
0.0
 10
38.6711
 20
-36.2312
 30
0.0
 10
40.4936
 20
-37.1024
 30
0.0
 10
41.8954
 20
-38.8522
 30
0.0
 10
41.8954
 20
-38.8522
 30
0.0
 10
41.816
 20
-41.566
 30
0.0
 10
42.2167
 20
-43.8849
 30
0.0
 10
43.7514
 20
-46.276
 30
0.0
 10
43.7514
 20
-46.276
 30
0.0
 10
43.7514
 20
-46.276
 30
0.0
 10
45.526
 20
-41.6765
 30
0.0
 10
45.526
 20
-41.6765
 30
0.0
 10
45.526
 20
-41.6765
 30
0.0
 10
46.0286
 20
-40.9062
 30
0.0
 10
48.3445
 20
-41.4784
 30
0.0
 10
49.2981
 20
-43.028
 30
0.0
 10
49.2981
 20
-43.028
 30
0.0
 10
49.2981
 20
-43.028
 30
0.0
 10
49.5403
 20
-44.1978
 30
0.0
 10
49.5403
 20
-44.1978
 30
0.0
 10
49.5403
 20
-44.1978
 30
0.0
 10
49.5941
 20
-45.6367
 30
0.0
 10
47.6304
 20
-44.9174
 30
0.0
 10
47.2606
 20
-45.5899
 30
0.0
 10
47.2606
 20
-45.5899
 30
0.0
 10
45.9651
 20
-48.8202
 30
0.0
 10
45.9472
 20
-51.8679
 30
0.0
 10
47.6641
 20
-54.6679
 30
0.0
 10
47.6641
 20
-54.6679
 30
0.0
 10
49.89
 20
-53.2256
 30
0.0
 10
51.0595
 20
-51.255
 30
0.0
 10
51.134
 20
-48.737
 30
0.0
 10
51.134
 20
-48.737
 30
0.0
 10
51.5838
 20
-48.1458
 30
0.0
 10
53.7095
 20
-48.9512
 30
0.0
 10
56.742
 20
-50.5121
 30
0.0
 10
56.742
 20
-50.5121
 30
0.0
 10
56.7753
 20
-47.1674
 30
0.0
 10
55.2966
 20
-44.8726
 30
0.0
 10
51.4566
 20
-44.2181
 30
0.0
 10
51.4566
 20
-44.2181
 30
0.0
 10
51.4566
 20
-44.2181
 30
0.0
 10
51.6988
 20
-41.878
 30
0.0
 10
51.6988
 20
-41.878
 30
0.0
 10
51.6988
 20
-41.878
 30
0.0
 10
53.6598
 20
-42.1274
 30
0.0
 10
55.2784
 20
-41.9919
 30
0.0
 10
56.3789
 20
-41.273
 30
0.0
 10
56.3789
 20
-41.273
 30
0.0
 10
56.6403
 20
-40.4425
 30
0.0
 10
56.7635
 20
-39.4678
 30
0.0
 10
56.3786
 20
-37.964
 30
0.0
 10
56.3786
 20
-37.964
 30
0.0
 10
56.3786
 20
-37.964
 30
0.0
 10
58.8802
 20
-36.2695
 30
0.0
 10
58.8802
 20
-36.2695
 30
0.0
 10
58.8802
 20
-36.2695
 30
0.0
 10
58.8802
 20
-36.2695
 30
0.0
 10
59.4046
 20
-40.8285
 30
0.0
 10
59.4046
 20
-40.8285
 30
0.0
 10
59.4046
 20
-40.8285
 30
0.0
 10
60.5629
 20
-41.628
 30
0.0
 10
61.2453
 20
-42.6652
 30
0.0
 10
61.543
 20
-43.8949
 30
0.0
 10
61.543
 20
-43.8949
 30
0.0
 10
63.895
 20
-42.6441
 30
0.0
 10
65.5928
 20
-40.484
 30
0.0
 10
63.52
 20
-33.0822
 30
0.0
 10
63.52
 20
-33.0822
 30
0.0
 10
66.1019
 20
-36.3233
 30
0.0
 10
67.3528
 20
-34.1984
 30
0.0
 10
68.4823
 20
-35.4223
 30
0.0
 10
68.4823
 20
-35.4223
 30
0.0
 10
70.9091
 20
-37.5009
 30
0.0
 10
70.2649
 20
-33.4782
 30
0.0
 10
69.0875
 20
-33.1226
 30
0.0
 10
69.0875
 20
-33.1226
 30
0.0
 10
68.0789
 20
-32.6115
 30
0.0
 10
66.9897
 20
-33.3109
 30
0.0
 10
66.0618
 20
-31.5893
 30
0.0
 10
66.0618
 20
-31.5893
 30
0.0
 10
65.708
 20
-30.9782
 30
0.0
 10
65.5772
 20
-30.5495
 30
0.0
 10
66.3038
 20
-29.9756
 30
0.0
 10
66.3038
 20
-29.9756
 30
0.0
 10
66.3038
 20
-29.9756
 30
0.0
 10
72.7192
 20
-25.2551
 30
0.0
 10
72.7192
 20
-25.2551
 30
0.0
 10
72.7192
 20
-25.2551
 30
0.0
 10
74.3968
 20
-24.4248
 30
0.0
 10
76.0911
 20
-24.4176
 30
0.0
 10
76.6125
 20
-26.0217
 30
0.0
 10
76.6125
 20
-26.0217
 30
0.0
 10
76.8617
 20
-27.4933
 30
0.0
 10
75.0176
 20
-29.765
 30
0.0
 10
78.2664
 20
-29.7535
 30
0.0
 10
78.2664
 20
-29.7535
 30
0.0
 10
79.0868
 20
-29.8342
 30
0.0
 10
79.0195
 20
-29.2897
 30
0.0
 10
79.8802
 20
-29.6325
 30
0.0
 10
79.8802
 20
-29.6325
 30
0.0
 10
82.9531
 20
-31.8888
 30
0.0
 10
86.0259
 20
-30.4632
 30
0.0
 10
89.0989
 20
-28.4025
 30
0.0
 10
89.0989
 20
-28.4025
 30
0.0
 10
87.1252
 20
-27.8305
 30
0.0
 10
85.1282
 20
-27.1196
 30
0.0
 10
83.0469
 20
-25.9009
 30
0.0
 10
83.0469
 20
-25.9009
 30
0.0
 10
81.2771
 20
-25.0249
 30
0.0
 10
80.4871
 20
-25.2691
 30
0.0
 10
80.224
 20
-26.9753
 30
0.0
 10
80.224
 20
-26.9753
 30
0.0
 10
79.6453
 20
-27.6713
 30
0.0
 10
78.5676
 20
-27.6147
 30
0.0
 10
78.4071
 20
-26.1835
 30
0.0
 10
78.4071
 20
-26.1835
 30
0.0
 10
77.9521
 20
-24.2696
 30
0.0
 10
76.6971
 20
-23.2694
 30
0.0
 10
74.7355
 20
-23.0768
 30
0.0
 10
74.7355
 20
-23.0768
 30
0.0
 10
75.1793
 20
-20.1152
 30
0.0
 10
74.5476
 20
-17.9018
 30
0.0
 10
72.5165
 20
-16.6618
 30
0.0
 10
72.5165
 20
-16.6618
 30
0.0
 10
70.4915
 20
-18.4587
 30
0.0
 10
70.3053
 20
-20.7017
 30
0.0
 10
71.8306
 20
-23.3592
 30
0.0
 10
71.8306
 20
-23.3592
 30
0.0
 10
68.8987
 20
-24.9732
 30
0.0
 10
67.5808
 20
-27.0713
 30
0.0
 10
63.5191
 20
-29.5326
 30
0.0
 10
63.5191
 20
-29.5326
 30
0.0
 10
63.5191
 20
-29.5326
 30
0.0
 10
63.3577
 20
-26.0224
 30
0.0
 10
63.3577
 20
-26.0224
 30
0.0
 10
63.3577
 20
-26.0224
 30
0.0
 10
63.3577
 20
-26.0224
 30
0.0
 10
62.6314
 20
-24.1665
 30
0.0
 10
62.6314
 20
-24.1665
 30
0.0
 10
62.6314
 20
-24.1665
 30
0.0
 10
62.9689
 20
-21.9396
 30
0.0
 10
62.6895
 20
-20.1094
 30
0.0
 10
59.8476
 20
-19.9302
 30
0.0
 10
59.8476
 20
-19.9302
 30
0.0
 10
59.8476
 20
-19.9302
 30
0.0
 10
60.0493
 20
-24.0858
 30
0.0
 10
60.0493
 20
-24.0858
 30
0.0
 10
60.0493
 20
-24.0858
 30
0.0
 10
56.697
 20
-23.2612
 30
0.0
 10
54.1624
 20
-24.4128
 30
0.0
 10
52.1012
 20
-26.7083
 30
0.0
 10
52.1012
 20
-26.7083
 30
0.0
 10
54.5073
 20
-27.8683
 30
0.0
 10
56.8634
 20
-27.6862
 30
0.0
 10
59.1617
 20
-25.9418
 30
0.0
 10
59.1617
 20
-25.9418
 30
0.0
 10
61.6846
 20
-25.0223
 30
0.0
 10
62.9416
 20
-26.6609
 30
0.0
 10
61.6229
 20
-28.5239
 30
0.0
 10
61.6229
 20
-28.5239
 30
0.0
 10
59.4092
 20
-32.2039
 30
0.0
 10
55.5916
 20
-34.7288
 30
0.0
 10
50.6885
 20
-36.472
 30
0.0
 10
50.6885
 20
-36.472
 30
0.0
 10
50.6885
 20
-36.472
 30
0.0
 10
50.4465
 20
-32.3164
 30
0.0
 10
50.4465
 20
-32.3164
 30
0.0
 10
50.4465
 20
-32.3164
 30
0.0
 10
47.7954
 20
-32.4753
 30
0.0
 10
47.0043
 20
-34.1066
 30
0.0
 10
46.9364
 20
-36.3107
 30
0.0
 10
46.9364
 20
-36.3107
 30
0.0
 10
44.0466
 20
-36.798
 30
0.0
 10
41.0715
 20
-36.3499
 30
0.0
 10
37.8586
 20
-33.2847
 30
0.0
 10
37.8586
 20
-33.2847
 30
0.0
 10
36.8173
 20
-31.5884
 30
0.0
 10
39.0076
 20
-30.4216
 30
0.0
 10
41.0459
 20
-31.4288
 30
0.0
 10
41.0459
 20
-31.4288
 30
0.0
 10
40.8562
 20
-33.2234
 30
0.0
 10
43.1649
 20
-33.902
 30
0.0
 10
43.2649
 20
-31.4288
 30
0.0
 10
43.2649
 20
-31.4288
 30
0.0
 10
46.6247
 20
-31.5135
 30
0.0
 10
48.741
 20
-29.9054
 30
0.0
 10
50.1641
 20
-27.3538
 30
0.0
 10
50.1641
 20
-27.3538
 30
0.0
 10
46.7251
 20
-25.7701
 30
0.0
 10
43.9871
 20
-26.49
 30
0.0
 10
42.0545
 20
-29.8554
 30
0.0
 10
42.0545
 20
-29.8554
 30
0.0
 10
40.6703
 20
-28.8381
 30
0.0
 10
39.7804
 20
-27.0798
 30
0.0
 10
39.4722
 20
-24.4489
 30
0.0
 10
39.4722
 20
-24.4489
 30
0.0
 10
38.1325
 20
-25.9131
 30
0.0
 10
37.7862
 20
-27.5976
 30
0.0
 10
38.383
 20
-29.4922
 30
0.0
 10
38.383
 20
-29.4922
 30
0.0
 10
36.7558
 20
-30.9312
 30
0.0
 10
34.5231
 20
-30.5544
 30
0.0
 10
32.5328
 20
-31.5094
 30
0.0
 10
32.5328
 20
-31.5094
 30
0.0
 10
32.5328
 20
-31.5094
 30
0.0
 10
31.6048
 20
-30.1376
 30
0.0
 10
31.6048
 20
-30.1376
 30
0.0
 10
31.6048
 20
-30.1376
 30
0.0
 10
32.7571
 20
-29.1427
 30
0.0
 10
33.64
 20
-27.7439
 30
0.0
 10
34.1466
 20
-25.7803
 30
0.0
 10
34.1466
 20
-25.7803
 30
0.0
 10
31.0842
 20
-26.7899
 30
0.0
 10
28.9501
 20
-27.9984
 30
0.0
 10
28.9014
 20
-29.6536
 30
0.0
 10
28.9014
 20
-29.6536
 30
0.0
 10
28.7537
 20
-30.1881
 30
0.0
 10
27.5162
 20
-30.0032
 30
0.0
 10
26.8236
 20
-29.6939
 30
0.0
 10
26.8236
 20
-29.6939
 30
0.0
 10
26.2704
 20
-29.4205
 30
0.0
 10
25.8181
 20
-28.7425
 30
0.0
 10
26.3893
 20
-28.4228
 30
0.0
 10
26.3893
 20
-28.4228
 30
0.0
 10
28.8153
 20
-26.8094
 30
0.0
 10
30.7217
 20
-25.2179
 30
0.0
 10
31.0085
 20
-22.5927
 30
0.0
 10
31.0085
 20
-22.5927
 30
0.0
 10
31.0656
 20
-21.9393
 30
0.0
 10
31.4355
 20
-21.5179
 30
0.0
 10
32.219
 20
-21.4025
 30
0.0
 10
32.219
 20
-21.4025
 30
0.0
 10
34.088
 20
-22.3691
 30
0.0
 10
35.132
 20
-21.3699
 30
0.0
 10
36.5166
 20
-20.128
 30
0.0
 10
36.5166
 20
-20.128
 30
0.0
 10
34.61
 20
-19.2645
 30
0.0
 10
33.3928
 20
-19.2085
 30
0.0
 10
32.1048
 20
-20.3686
 30
0.0
 10
32.1048
 20
-20.3686
 30
0.0
 10
31.0778
 20
-20.9589
 30
0.0
 10
29.8235
 20
-20.5095
 30
0.0
 10
29.9599
 20
-18.8803
 30
0.0
 10
29.9599
 20
-18.8803
 30
0.0
 10
30.0135
 20
-18.0769
 30
0.0
 10
30.6927
 20
-17.8283
 30
0.0
 10
30.9079
 20
-17.1661
 30
0.0
 10
30.9079
 20
-17.1661
 30
0.0
 10
31.2546
 20
-15.6215
 30
0.0
 10
31.1801
 20
-14.1918
 30
0.0
 10
30.3431
 20
-12.97
 30
0.0
 10
30.3431
 20
-12.97
 30
0.0
 10
29.3103
 20
-13.2971
 30
0.0
 10
28.7666
 20
-14.0554
 30
0.0
 10
28.6486
 20
-15.189
 30
0.0
 10
28.6486
 20
-15.189
 30
0.0
 10
28.3392
 20
-16.7543
 30
0.0
 10
27.5861
 20
-17.2548
 30
0.0
 10
26.4699
 20
-16.8836
 30
0.0
 10
26.4699
 20
-16.8836
 30
0.0
 10
26.4699
 20
-16.8836
 30
0.0
 10
24.5737
 20
-16.238
 30
0.0
 10
24.5737
 20
-16.238
 30
0.0
 10
24.5737
 20
-16.238
 30
0.0
 10
24.7065
 20
-17.9715
 30
0.0
 10
26.1816
 20
-18.9458
 30
0.0
 10
27.9641
 20
-19.4099
 30
0.0
 10
27.9641
 20
-19.4099
 30
0.0
 10
30.3318
 20
-20.0618
 30
0.0
 10
29.2543
 20
-24.3208
 30
0.0
 10
27.6803
 20
-24.7914
 30
0.0
 10
27.6803
 20
-24.7914
 30
0.0
 10
27.6803
 20
-24.7914
 30
0.0
 10
26.5902
 20
-22.7741
 30
0.0
 10
26.5902
 20
-22.7741
 30
0.0
 10
26.5902
 20
-22.7741
 30
0.0
 10
26.1489
 20
-23.5045
 30
0.0
 10
25.3097
 20
-23.4695
 30
0.0
 10
24.1694
 20
-22.8548
 30
0.0
 10
24.1694
 20
-22.8548
 30
0.0
 10
23.8478
 20
-23.8623
 30
0.0
 10
24.3969
 20
-24.954
 30
0.0
 10
25.7429
 20
-26.1228
 30
0.0
 10
25.7429
 20
-26.1228
 30
0.0
 10
25.2182
 20
-27.2257
 30
0.0
 10
23.2209
 20
-27.1184
 30
0.0
 10
21.8693
 20
-28.2213
 30
0.0
 10
21.8693
 20
-28.2213
 30
0.0
 10
21.4016
 20
-28.6067
 30
0.0
 10
20.7561
 20
-28.4148
 30
0.0
 10
20.6588
 20
-27.4144
 30
0.0
 10
20.6588
 20
-27.4144
 30
0.0
 10
20.6588
 20
-27.4144
 30
0.0
 10
20.2151
 20
-24.5094
 30
0.0
 10
20.2151
 20
-24.5094
 30
0.0
 10
20.2151
 20
-24.5094
 30
0.0
 10
19.208
 20
-24.0229
 30
0.0
 10
18.465
 20
-23.1406
 30
0.0
 10
17.9961
 20
-21.8467
 30
0.0
 10
17.9961
 20
-21.8467
 30
0.0
 10
17.4715
 20
-22.6671
 30
0.0
 10
16.6444
 20
-23.2654
 30
0.0
 10
16.4225
 20
-24.3077
 30
0.0
 10
16.4225
 20
-24.3077
 30
0.0
 10
16.4883
 20
-25.3545
 30
0.0
 10
16.0752
 20
-25.8032
 30
0.0
 10
15.4945
 20
-26.0427
 30
0.0
 10
15.4945
 20
-26.0427
 30
0.0
 10
15.4945
 20
-26.0427
 30
0.0
 10
14.607
 20
-24.3885
 30
0.0
 10
14.607
 20
-24.3885
 30
0.0
 10
14.607
 20
-24.3885
 30
0.0
 10
14.607
 20
-24.3885
 30
0.0
 10
14.4053
 20
-26.2041
 30
0.0
 10
14.4053
 20
-26.2041
 30
0.0
 10
14.4053
 20
-26.2041
 30
0.0
 10
14.3705
 20
-27.3726
 30
0.0
 10
13.8347
 20
-27.7385
 30
0.0
 10
12.9931
 20
-27.6161
 30
0.0
 10
12.9931
 20
-27.6161
 30
0.0
 10
12.9931
 20
-27.6161
 30
0.0
 10
10.8145
 20
-27.0917
 30
0.0
 10
10.8145
 20
-27.0917
 30
0.0
 10
10.8145
 20
-27.0917
 30
0.0
 10
10.1255
 20
-26.9795
 30
0.0
 10
10.1723
 20
-26.0741
 30
0.0
 10
11.0162
 20
-24.3481
 30
0.0
 10
11.0162
 20
-24.3481
 30
0.0
 10
13.4934
 20
-21.0742
 30
0.0
 10
15.1015
 20
-17.0653
 30
0.0
 10
16.1799
 20
-12.6074
 30
0.0
 10
16.1799
 20
-12.6074
 30
0.0
 10
18.2321
 20
-10.351
 30
0.0
 10
23.5927
 20
-8.2472
 30
0.0
 10
25.7172
 20
-11.2384
 30
0.0
 10
25.7172
 20
-11.2384
 30
0.0
 10
25.8939
 20
-11.9119
 30
0.0
 10
25.5269
 20
-13.0734
 30
0.0
 10
24.5471
 20
-12.9732
 30
0.0
 10
24.5471
 20
-12.9732
 30
0.0
 10
22.9283
 20
-12.7558
 30
0.0
 10
23.0056
 20
-14.1116
 30
0.0
 10
23.9419
 20
-14.0626
 30
0.0
 10
23.9419
 20
-14.0626
 30
0.0
 10
24.8219
 20
-14.1907
 30
0.0
 10
25.5901
 20
-14.0289
 30
0.0
 10
26.2013
 20
-13.4574
 30
0.0
 10
26.2013
 20
-13.4574
 30
0.0
 10
26.7992
 20
-12.7079
 30
0.0
 10
27.0084
 20
-11.6452
 30
0.0
 10
26.6855
 20
-10.4718
 30
0.0
 10
26.6855
 20
-10.4718
 30
0.0
 10
25.9865
 20
-9.2153
 30
0.0
 10
24.9232
 20
-8.5744
 30
0.0
 10
23.8208
 20
-8.2526
 30
0.0
 10
23.8208
 20
-8.2526
 30
0.0
 10
23.3919
 20
-8.1104
 30
0.0
 10
23.4596
 20
-7.5372
 30
0.0
 10
23.7806
 20
-7.0826
 30
0.0
 10
23.7806
 20
-7.0826
 30
0.0
 10
23.7806
 20
-7.0826
 30
0.0
 10
25.9584
 20
-4.0168
 30
0.0
 10
25.9584
 20
-4.0168
 30
0.0
 10
25.9584
 20
-4.0168
 30
0.0
 10
26.6846
 20
-2.9811
 30
0.0
 10
27.2495
 20
-4.2051
 30
0.0
 10
27.895
 20
-4.2992
 30
0.0
 10
27.895
 20
-4.2992
 30
0.0
 10
29.7415
 20
-5.0319
 30
0.0
 10
31.1996
 20
-3.9162
 30
0.0
 10
31.8086
 20
-1.9591
 30
0.0
 10
31.8086
 20
-1.9591
 30
0.0
 10
33.7306
 20
-1.9276
 30
0.0
 10
35.0374
 20
-2.3268
 30
0.0
 10
35.8834
 20
-3.0484
 30
0.0
 10
35.8834
 20
-3.0484
 30
0.0
 10
36.4919
 20
-3.6461
 30
0.0
 10
36.2026
 20
-7.0568
 30
0.0
 10
35.6413
 20
-9.2213
 30
0.0
 10
35.6413
 20
-9.2213
 30
0.0
 10
34.9407
 20
-11.4685
 30
0.0
 10
32.3035
 20
-11.4761
 30
0.0
 10
32.454
 20
-9.9071
 30
0.0
 10
32.454
 20
-9.9071
 30
0.0
 10
33.0209
 20
-9.0788
 30
0.0
 10
32.7412
 20
-8.1807
 30
0.0
 10
32.0505
 20
-8.5354
 30
0.0
 10
32.0505
 20
-8.5354
 30
0.0
 10
31.3159
 20
-8.9817
 30
0.0
 10
30.9696
 20
-9.6221
 30
0.0
 10
31.2032
 20
-10.5528
 30
0.0
 10
31.2032
 20
-10.5528
 30
0.0
 10
31.6854
 20
-11.7847
 30
0.0
 10
32.5904
 20
-12.1323
 30
0.0
 10
33.6644
 20
-12.1262
 30
0.0
 10
33.6644
 20
-12.1262
 30
0.0
 10
35.3447
 20
-12.148
 30
0.0
 10
36.6311
 20
-12.0574
 30
0.0
 10
37.5577
 20
-11.864
 30
0.0
 10
37.5577
 20
-11.864
 30
0.0
 10
38.5352
 20
-13.4647
 30
0.0
 10
39.9088
 20
-14.7352
 30
0.0
 10
41.5319
 20
-15.7978
 30
0.0
 10
41.5319
 20
-15.7978
 30
0.0
 10
42.219
 20
-16.2735
 30
0.0
 10
42.4688
 20
-17.04
 30
0.0
 10
42.7823
 20
-17.9361
 30
0.0
 10
42.7823
 20
-17.9361
 30
0.0
 10
44.4633
 20
-21.1861
 30
0.0
 10
46.9637
 20
-22.019
 30
0.0
 10
49.7219
 20
-22.0917
 30
0.0
 10
49.7219
 20
-22.0917
 30
0.0
 10
47.9462
 20
-19.9868
 30
0.0
 10
48.317
 20
-16.7429
 30
0.0
 10
45.4048
 20
-16.5239
 30
0.0
 10
45.4048
 20
-16.5239
 30
0.0
 10
44.842
 20
-16.5442
 30
0.0
 10
44.5019
 20
-16.0483
 30
0.0
 10
45.1628
 20
-15.1926
 30
0.0
 10
45.1628
 20
-15.1926
 30
0.0
 10
46.5003
 20
-13.4379
 30
0.0
 10
46.2462
 20
-12.2135
 30
0.0
 10
44.033
 20
-11.642
 30
0.0
 10
44.033
 20
-11.642
 30
0.0
 10
42.9016
 20
-11.3358
 30
0.0
 10
42.5281
 20
-12.3377
 30
0.0
 10
43.3875
 20
-12.8927
 30
0.0
 10
43.3875
 20
-12.8927
 30
0.0
 10
44.0431
 20
-13.2035
 30
0.0
 10
44.3528
 20
-13.8764
 30
0.0
 10
44.033
 20
-14.5067
 30
0.0
 10
44.033
 20
-14.5067
 30
0.0
 10
43.5066
 20
-15.3824
 30
0.0
 10
42.9119
 20
-15.4603
 30
0.0
 10
41.8544
 20
-14.5873
 30
0.0
 10
41.8544
 20
-14.5873
 30
0.0
 10
40.8773
 20
-13.7409
 30
0.0
 10
39.9803
 20
-12.7178
 30
0.0
 10
39.2722
 20
-11.2789
 30
0.0
 10
39.2722
 20
-11.2789
 30
0.0
 10
38.9288
 20
-10.6708
 30
0.0
 10
38.7549
 20
-9.9776
 30
0.0
 10
38.788
 20
-9.181
 30
0.0
 10
38.788
 20
-9.181
 30
0.0
 10
38.788
 20
-9.181
 30
0.0
 10
40.4422
 20
-9.3827
 30
0.0
 10
40.4422
 20
-9.3827
 30
0.0
 10
40.4422
 20
-9.3827
 30
0.0
 10
42.2199
 20
-9.4802
 30
0.0
 10
43.6948
 20
-8.7075
 30
0.0
 10
45.0417
 20
-7.5671
 30
0.0
 10
45.0417
 20
-7.5671
 30
0.0
 10
43.4412
 20
-6.9632
 30
0.0
 10
41.8405
 20
-6.6483
 30
0.0
 10
40.2402
 20
-7.6075
 30
0.0
 10
40.2402
 20
-7.6075
 30
0.0
 10
39.8343
 20
-7.8582
 30
0.0
 10
39.3414
 20
-7.9353
 30
0.0
 10
38.7473
 20
-7.8092
 30
0.0
 10
38.7473
 20
-7.8092
 30
0.0
 10
38.7473
 20
-7.8092
 30
0.0
 10
38.6264
 20
-5.3885
 30
0.0
 10
38.6264
 20
-5.3885
 30
0.0
 10
38.6264
 20
-5.3885
 30
0.0
 10
38.5288
 20
-4.106
 30
0.0
 10
39.6249
 20
-3.8465
 30
0.0
 10
41.4102
 20
-4.178
 30
0.0
 10
41.4102
 20
-4.178
 30
0.0
 10
41.4102
 20
-4.178
 30
0.0
 10
58.1942
 20
-6.2759
 30
0.0
 10
58.1942
 20
-6.2759
 30
0.0
 10
58.1942
 20
-6.2759
 30
0.0
 10
59.9322
 20
-6.5545
 30
0.0
 10
61.3809
 20
-8.9622
 30
0.0
 10
60.6553
 20
-11.2585
 30
0.0
 10
60.6553
 20
-11.2585
 30
0.0
 10
60.3505
 20
-12.5978
 30
0.0
 10
59.4405
 20
-13.3958
 30
0.0
 10
58.1135
 20
-13.8206
 30
0.0
 10
58.1135
 20
-13.8206
 30
0.0
 10
57.1046
 20
-14.0963
 30
0.0
 10
56.6005
 20
-12.9398
 30
0.0
 10
57.3872
 20
-12.4086
 30
0.0
 10
57.3872
 20
-12.4086
 30
0.0
 10
57.9834
 20
-12.137
 30
0.0
 10
58.2616
 20
-11.6574
 30
0.0
 10
57.3065
 20
-11.4805
 30
0.0
 10
57.3065
 20
-11.4805
 30
0.0
 10
56.3212
 20
-11.3822
 30
0.0
 10
55.414
 20
-11.794
 30
0.0
 10
54.6438
 20
-13.0945
 30
0.0
 10
54.6438
 20
-13.0945
 30
0.0
 10
52.6938
 20
-12.8284
 30
0.0
 10
51.295
 20
-13.804
 30
0.0
 10
50.2058
 20
-15.4748
 30
0.0
 10
50.2058
 20
-15.4748
 30
0.0
 10
51.9675
 20
-16.2737
 30
0.0
 10
53.7292
 20
-16.2897
 30
0.0
 10
55.491
 20
-15.7976
 30
0.0
 10
55.491
 20
-15.7976
 30
0.0
 10
54.7665
 20
-18.5842
 30
0.0
 10
55.5817
 20
-19.9118
 30
0.0
 10
56.9031
 20
-20.7602
 30
0.0
 10
56.9031
 20
-20.7602
 30
0.0
 10
58.2129
 20
-19.5548
 30
0.0
 10
59.0095
 20
-17.837
 30
0.0
 10
58.9205
 20
-15.2328
 30
0.0
 10
58.9205
 20
-15.2328
 30
0.0
 10
60.2576
 20
-14.7171
 30
0.0
 10
61.4971
 20
-14.0542
 30
0.0
 10
62.5113
 20
-13.0542
 30
0.0
 10
62.5113
 20
-13.0542
 30
0.0
 10
63.4506
 20
-12.0975
 30
0.0
 10
63.9325
 20
-9.8684
 30
0.0
 10
63.0761
 20
-8.1319
 30
0.0
 10
63.0761
 20
-8.1319
 30
0.0
 10
62.5113
 20
-7.2728
 30
0.0
 10
61.9462
 20
-6.7047
 30
0.0
 10
61.3815
 20
-6.4374
 30
0.0
 10
61.3815
 20
-6.4374
 30
0.0
 10
60.4124
 20
-5.7733
 30
0.0
 10
61.1258
 20
-3.9738
 30
0.0
 10
62.5113
 20
-4.8235
 30
0.0
 10
62.5113
 20
-4.8235
 30
0.0
 10
62.5113
 20
-4.8235
 30
0.0
 10
66.3845
 20
-7.8495
 30
0.0
 10
66.3845
 20
-7.8495
 30
0.0
 10
66.3845
 20
-7.8495
 30
0.0
 10
67.3372
 20
-8.8521
 30
0.0
 10
68.6322
 20
-10.5381
 30
0.0
 10
68.8858
 20
-13.0742
 30
0.0
 10
68.8858
 20
-13.0742
 30
0.0
 10
69.154
 20
-14.5585
 30
0.0
 10
69.1151
 20
-15.7662
 30
0.0
 10
68.8455
 20
-16.7659
 30
0.0
 10
68.8455
 20
-16.7659
 30
0.0
 10
68.381
 20
-17.7553
 30
0.0
 10
66.4857
 20
-17.1825
 30
0.0
 10
66.9493
 20
-16.6853
 30
0.0
 10
66.9493
 20
-16.6853
 30
0.0
 10
67.8719
 20
-15.9341
 30
0.0
 10
67.725
 20
-14.9079
 30
0.0
 10
66.5862
 20
-15.2328
 30
0.0
 10
66.5862
 20
-15.2328
 30
0.0
 10
64.9404
 20
-15.8766
 30
0.0
 10
64.9959
 20
-17.4325
 30
0.0
 10
66.0615
 20
-17.9158
 30
0.0
 10
66.0615
 20
-17.9158
 30
0.0
 10
66.6913
 20
-18.2612
 30
0.0
 10
67.1965
 20
-18.4032
 30
0.0
 10
68.1193
 20
-18.299
 30
0.0
 10
68.1193
 20
-18.299
 30
0.0
 10
70.0337
 20
-18.0909
 30
0.0
 10
71.075
 20
-16.3039
 30
0.0
 10
70.6208
 20
-11.6823
 30
0.0
 10
70.6208
 20
-11.6823
 30
0.0
 10
72.2342
 20
-11.9232
 30
0.0
 10
74.0635
 20
-13.1428
 30
0.0
 10
76.1075
 20
-15.5352
 30
0.0
 10
76.1075
 20
-15.5352
 30
0.0
 10
77.8905
 20
-16.9892
 30
0.0
 10
79.8654
 20
-18.3509
 30
0.0
 10
81.9173
 20
-19.1059
 30
0.0
 10
81.9173
 20
-19.1059
 30
0.0
 10
84.2439
 20
-20.343
 30
0.0
 10
86.1671
 20
-19.1597
 30
0.0
 10
88.292
 20
-19.5498
 30
0.0
 10
88.292
 20
-19.5498
 30
0.0
 10
89.0888
 20
-21.6463
 30
0.0
 10
90.8032
 20
-22.6718
 30
0.0
 10
92.8914
 20
-23.2615
 30
0.0
 10
92.8914
 20
-23.2615
 30
0.0
 10
92.6418
 20
-21.2
 30
0.0
 10
91.6887
 20
-19.6074
 30
0.0
 10
89.8252
 20
-18.6217
 30
0.0
 10
89.8252
 20
-18.6217
 30
0.0
 10
89.2703
 20
-18.2731
 30
0.0
 10
89.2669
 20
-17.6493
 30
0.0
 10
89.9865
 20
-17.2903
 30
0.0
 10
89.9865
 20
-17.2903
 30
0.0
 10
92.7109
 20
-17.776
 30
0.0
 10
95.1972
 20
-16.536
 30
0.0
 10
97.4909
 20
-13.9013
 30
0.0
 10
97.4909
 20
-13.9013
 30
0.0
 10
94.9973
 20
-12.7715
 30
0.0
 10
93.1323
 20
-12.9859
 30
0.0
 10
91.2845
 20
-14.976
 30
0.0
 10
91.2845
 20
-14.976
 30
0.0
 10
90.3753
 20
-15.4596
 30
0.0
 10
89.2398
 20
-15.5195
 30
0.0
 10
89.4217
 20
-14.2239
 30
0.0
 10
89.4217
 20
-14.2239
 30
0.0
 10
89.4217
 20
-14.2239
 30
0.0
 10
89.8654
 20
-12.5295
 30
0.0
 10
89.8654
 20
-12.5295
 30
0.0
 10
89.8654
 20
-12.5295
 30
0.0
 10
94.1025
 20
-11.4316
 30
0.0
 10
95.5412
 20
-8.3295
 30
0.0
 10
95.7963
 20
-4.3796
 30
0.0
 10
95.7963
 20
-4.3796
 30
0.0
 10
92.881
 20
-4.4898
 30
0.0
 10
87.204
 20
-8.5817
 30
0.0
 10
86.8394
 20
-11.9243
 30
0.0
 10
86.8394
 20
-11.9243
 30
0.0
 10
86.8394
 20
-11.9243
 30
0.0
 10
84.9837
 20
-13.0539
 30
0.0
 10
84.9837
 20
-13.0539
 30
0.0
 10
84.9837
 20
-13.0539
 30
0.0
 10
84.9837
 20
-13.0539
 30
0.0
 10
86.2746
 20
-14.0222
 30
0.0
 10
86.2746
 20
-14.0222
 30
0.0
 10
86.2746
 20
-14.0222
 30
0.0
 10
86.2746
 20
-14.0222
 30
0.0
 10
87.6062
 20
-12.8119
 30
0.0
 10
87.6062
 20
-12.8119
 30
0.0
 10
87.6062
 20
-12.8119
 30
0.0
 10
88.5321
 20
-15.297
 30
0.0
 10
88.4578
 20
-17.2542
 30
0.0
 10
85.5081
 20
-17.6938
 30
0.0
 10
85.5081
 20
-17.6938
 30
0.0
 10
83.101
 20
-17.9412
 30
0.0
 10
80.5853
 20
-16.7202
 30
0.0
 10
77.9634
 20
-14.0626
 30
0.0
 10
77.9634
 20
-14.0626
 30
0.0
 10
77.9634
 20
-14.0626
 30
0.0
 10
74.2111
 20
-10.5929
 30
0.0
 10
74.2111
 20
-10.5929
 30
0.0
 10
74.2111
 20
-10.5929
 30
0.0
 10
72.4668
 20
-8.7923
 30
0.0
 10
79.2775
 20
-7.1438
 30
0.0
 10
81.3518
 20
-8.0111
 30
0.0
 10
81.3518
 20
-8.0111
 30
0.0
 10
82.6484
 20
-8.7676
 30
0.0
 10
82.5362
 20
-10.5296
 30
0.0
 10
81.1501
 20
-10.5932
 30
0.0
 10
81.1501
 20
-10.5932
 30
0.0
 10
80.2108
 20
-10.6847
 30
0.0
 10
80.3073
 20
-11.5376
 30
0.0
 10
81.0694
 20
-11.723
 30
0.0
 10
81.0694
 20
-11.723
 30
0.0
 10
81.9949
 20
-11.9683
 30
0.0
 10
82.8205
 20
-11.8406
 30
0.0
 10
83.5306
 20
-11.2791
 30
0.0
 10
83.5306
 20
-11.2791
 30
0.0
 10
84.2519
 20
-10.7371
 30
0.0
 10
84.3627
 20
-9.4751
 30
0.0
 10
83.813
 20
-7.2848
 30
0.0
 10
83.813
 20
-7.2848
 30
0.0
 10
86.6286
 20
-6.7577
 30
0.0
 10
88.5019
 20
-4.9741
 30
0.0
 10
89.058
 20
-1.4346
 30
0.0
 10
89.058
 20
-1.4346
 30
0.0
 10
87.3239
 20
-1.1778
 30
0.0
 10
85.8431
 20
-1.7454
 30
0.0
 10
84.5392
 20
-2.8872
 30
0.0
 10
84.5392
 20
-2.8872
 30
0.0
 10
83.5376
 20
-3.6905
 30
0.0
 10
82.657
 20
-3.0272
 30
0.0
 10
82.9656
 20
-1.6363
 30
0.0
 10
82.9656
 20
-1.6363
 30
0.0
 10
83.7642
 20
0.8889
 30
0.0
 10
84.8809
 20
2.8761
 30
0.0
 10
87.242
 20
2.7611
 30
0.0
 10
87.242
 20
2.7611
 30
0.0
 10
89.7904
 20
2.9864
 30
0.0
 10
92.0899
 20
6.8393
 30
0.0
 10
91.7203
 20
11.1934
 30
0.0
 10
91.7203
 20
11.1934
 30
0.0
 10
89.0629
 20
10.8746
 30
0.0
 10
86.6037
 20
10.0745
 30
0.0
 10
84.7
 20
7.9253
 30
0.0
 10
84.7
 20
7.9253
 30
0.0
 10
83.8125
 20
6.8898
 30
0.0
 10
84.2563
 20
5.1685
 30
0.0
 10
83.2476
 20
4.2136
 30
0.0
 10
83.2476
 20
4.2136
 30
0.0
 10
77.3569
 20
5.4378
 30
0.0
 10
76.593
 20
-0.2194
 30
0.0
 10
79.9796
 20
0.3402
 30
0.0
 10
79.9796
 20
0.3402
 30
0.0
 10
78.9884
 20
2.0408
 30
0.0
 10
80.1769
 20
3.3738
 30
0.0
 10
80.9075
 20
2.8014
 30
0.0
 10
80.9075
 20
2.8014
 30
0.0
 10
82.2105
 20
0.0532
 30
0.0
 10
81.3945
 20
-2.1168
 30
0.0
 10
79.7374
 20
-4.0574
 30
0.0
 10
79.7374
 20
-4.0574
 30
0.0
 10
75.8661
 20
-7.1488
 30
0.0
 10
72.1365
 20
-8.7966
 30
0.0
 10
68.8036
 20
-6.3975
 30
0.0
 10
68.8036
 20
-6.3975
 30
0.0
 10
68.8036
 20
-6.3975
 30
0.0
 10
64.8494
 20
-3.3716
 30
0.0
 10
64.8494
 20
-3.3716
 30
0.0
 10
64.8494
 20
-3.3716
 30
0.0
 10
65.529
 20
-1.407
 30
0.0
 10
65.4878
 20
0.1104
 30
0.0
 10
64.6074
 20
1.1068
 30
0.0
 10
64.6074
 20
1.1068
 30
0.0
 10
63.3835
 20
2.1465
 30
0.0
 10
61.622
 20
1.4926
 30
0.0
 10
61.0568
 20
-0.507
 30
0.0
 10
61.0568
 20
-0.507
 30
0.0
 10
62.1343
 20
0.1213
 30
0.0
 10
63.2139
 20
0.4389
 30
0.0
 10
63.3163
 20
-0.7087
 30
0.0
 10
63.3163
 20
-0.7087
 30
0.0
 10
63.2858
 20
-2.369
 30
0.0
 10
62.1497
 20
-2.7606
 30
0.0
 10
60.2903
 20
-2.3225
 30
0.0
 10
60.2903
 20
-2.3225
 30
0.0
 10
57.076
 20
-1.1927
 30
0.0
 10
53.8618
 20
-1.7577
 30
0.0
 10
50.2844
 20
-0.8701
 30
0.0
 10
50.2844
 20
-0.8701
 30
0.0
 10
53.3911
 20
1.6448
 30
0.0
 10
55.8523
 20
5.0878
 30
0.0
 10
59.6044
 20
6.6746
 30
0.0
 10
59.6044
 20
6.6746
 30
0.0
 10
61.2214
 20
7.3478
 30
0.0
 10
63.0575
 20
7.4267
 30
0.0
 10
65.0511
 20
7.0779
 30
0.0
 10
65.0511
 20
7.0779
 30
0.0
 10
66.3907
 20
6.647
 30
0.0
 10
67.1684
 20
5.6136
 30
0.0
 10
67.7543
 20
4.3748
 30
0.0
 10
67.7543
 20
4.3748
 30
0.0
 10
67.7188
 20
3.9319
 30
0.0
 10
67.5205
 20
3.594
 30
0.0
 10
67.0274
 20
3.4469
 30
0.0
 10
67.0274
 20
3.4469
 30
0.0
 10
67.0274
 20
3.4469
 30
0.0
 10
65.4943
 20
3.6486
 30
0.0
 10
65.4943
 20
3.6486
 30
0.0
 10
65.4943
 20
3.6486
 30
0.0
 10
65.6437
 20
2.3487
 30
0.0
 10
66.4069
 20
1.2635
 30
0.0
 10
67.6326
 20
0.3402
 30
0.0
 10
67.6326
 20
0.3402
 30
0.0
 10
67.6326
 20
0.3402
 30
0.0
 10
70.9006
 20
-2.0805
 30
0.0
 10
70.9006
 20
-2.0805
 30
0.0
 10
70.9006
 20
-2.0805
 30
0.0
 10
70.9605
 20
-0.6413
 30
0.0
 10
70.4359
 20
0.5322
 30
0.0
 10
68.8284
 20
1.9179
 30
0.0
 10
68.8284
 20
1.9179
 30
0.0
 10
68.3719
 20
2.486
 30
0.0
 10
68.4524
 20
3.2758
 30
0.0
 10
69.2868
 20
3.2855
 30
0.0
 10
69.2868
 20
3.2855
 30
0.0
 10
72.0331
 20
2.8909
 30
0.0
 10
73.8967
 20
3.9085
 30
0.0
 10
75.2983
 20
5.6659
 30
0.0
 10
75.2983
 20
5.6659
 30
0.0
 10
73.4102
 20
6.4625
 30
0.0
 10
71.8402
 20
6.6783
 30
0.0
 10
70.2752
 20
5.4844
 30
0.0
 10
70.2752
 20
5.4844
 30
0.0
 10
69.0936
 20
4.9475
 30
0.0
 10
67.2608
 20
6.6066
 30
0.0
 10
67.8746
 20
7.8446
 30
0.0
 10
67.8746
 20
7.8446
 30
0.0
 10
68.1971
 20
8.6919
 30
0.0
 10
76.4277
 20
7.5622
 30
0.0
 10
81.1884
 20
10.2654
 30
0.0
 10
81.1884
 20
10.2654
 30
0.0
 10
83.5201
 20
11.4248
 30
0.0
 10
85.3659
 20
12.8046
 30
0.0
 10
86.5139
 20
14.5015
 30
0.0
 10
86.5139
 20
14.5015
 30
0.0
 10
90.9121
 20
15.2596
 30
0.0
 10
93.7621
 20
17.4286
 30
0.0
 10
94.5024
 20
21.5218
 30
0.0
 10
94.5024
 20
21.5218
 30
0.0
 10
94.5024
 20
21.5218
 30
0.0
 10
90.0644
 20
20.15
 30
0.0
 10
90.0644
 20
20.15
 30
0.0
 10
90.0644
 20
20.15
 30
0.0
 10
91.8963
 20
23.4041
 30
0.0
 10
92.6974
 20
26.8211
 30
0.0
 10
92.4852
 20
30.3979
 30
0.0
 10
92.4852
 20
30.3979
 30
0.0
 10
90.4273
 20
27.2778
 30
0.0
 10
87.1595
 20
26.0943
 30
0.0
 10
84.4966
 20
23.9426
 30
0.0
 10
84.4966
 20
23.9426
 30
0.0
 10
84.4966
 20
23.9426
 30
0.0
 10
84.1738
 20
20.5535
 30
0.0
 10
84.1738
 20
20.5535
 30
0.0
 10
84.1738
 20
20.5535
 30
0.0
 10
84.1738
 20
20.5535
 30
0.0
 10
81.3497
 20
21.0376
 30
0.0
 10
81.3497
 20
21.0376
 30
0.0
 10
81.3497
 20
21.0376
 30
0.0
 10
84.0073
 20
18.8186
 30
0.0
 10
85.1744
 20
16.7745
 30
0.0
 10
84.1738
 20
14.9857
 30
0.0
 10
84.1738
 20
14.9857
 30
0.0
 10
82.4609
 20
18.3131
 30
0.0
 10
80.0769
 20
20.1308
 30
0.0
 10
77.073
 20
20.5535
 30
0.0
 10
77.073
 20
20.5535
 30
0.0
 10
77.0915
 20
17.5687
 30
0.0
 10
79.0404
 20
15.1984
 30
0.0
 10
81.4304
 20
12.9684
 30
0.0
 10
81.4304
 20
12.9684
 30
0.0
 10
78.8092
 20
10.7492
 30
0.0
 10
75.0689
 20
10.1292
 30
0.0
 10
70.9404
 20
10.0635
 30
0.0
 10
70.9404
 20
10.0635
 30
0.0
 10
73.0392
 20
12.6531
 30
0.0
 10
73.4139
 20
15.0051
 30
0.0
 10
72.3928
 20
17.1644
 30
0.0
 10
72.3928
 20
17.1644
 30
0.0
 10
69.6718
 20
16.8326
 30
0.0
 10
67.7977
 20
15.2905
 30
0.0
 10
66.583
 20
12.8071
 30
0.0
 10
66.583
 20
12.8071
 30
0.0
 10
66.0129
 20
10.5535
 30
0.0
 10
67.7916
 20
9.4388
 30
0.0
 10
64.8884
 20
9.7407
 30
0.0
 10
64.8884
 20
9.7407
 30
0.0
 10
64.9003
 20
12.6677
 30
0.0
 10
64.7271
 20
15.5624
 30
0.0
 10
60.2891
 20
17.7293
 30
0.0
 10
60.2891
 20
17.7293
 30
0.0
 10
59.4029
 20
14.308
 30
0.0
 10
59.897
 20
11.5213
 30
0.0
 10
61.7009
 20
9.3374
 30
0.0
 10
61.7009
 20
9.3374
 30
0.0
 10
56.7518
 20
8.544
 30
0.0
 10
54.7879
 20
4.9666
 30
0.0
 10
50.8474
 20
4.0521
 30
0.0
 10
50.8474
 20
4.0521
 30
0.0
 10
49.9631
 20
5.8678
 30
0.0
 10
48.6789
 20
6.6339
 30
0.0
 10
46.9338
 20
6.1905
 30
0.0
 10
46.9338
 20
6.1905
 30
0.0
 10
45.4963
 20
5.8063
 30
0.0
 10
45.5738
 20
4.3421
 30
0.0
 10
47.418
 20
4.1732
 30
0.0
 10
47.418
 20
4.1732
 30
0.0
 10
48.1745
 20
4.1059
 30
0.0
 10
48.7897
 20
4.9465
 30
0.0
 10
48.9915
 20
4.3345
 30
0.0
 10
48.9915
 20
4.3345
 30
0.0
 10
49.24
 20
2.5679
 30
0.0
 10
48.006
 20
1.9491
 30
0.0
 10
46.369
 20
1.1876
 30
0.0
 10
46.369
 20
1.1876
 30
0.0
 10
41.4991
 20
-0.5938
 30
0.0
 10
35.1808
 20
-0.555
 30
0.0
 10
31.3194
 20
2.0752
 30
0.0
 10
31.3194
 20
2.0752
 30
0.0
 10
29.0097
 20
4.2969
 30
0.0
 10
26.024
 20
8.2457
 30
0.0
 10
26.3367
 20
9.9627
 30
0.0
 10
26.3367
 20
9.9627
 30
0.0
 10
26.7664
 20
11.2648
 30
0.0
 10
27.4165
 20
12.3879
 30
0.0
 10
28.9222
 20
13.0445
 30
0.0
 10
28.9222
 20
13.0445
 30
0.0
 10
28.9222
 20
13.0445
 30
0.0
 10
32.6026
 20
14.4451
 30
0.0
 10
32.6026
 20
14.4451
 30
0.0
 10
32.6026
 20
14.4451
 30
0.0
 10
33.4468
 20
14.5622
 30
0.0
 10
34.859
 20
14.5053
 30
0.0
 10
35.1118
 20
13.6545
 30
0.0
 10
35.1118
 20
13.6545
 30
0.0
 10
35.5385
 20
12.3316
 30
0.0
 10
35.5771
 20
10.1504
 30
0.0
 10
34.1769
 20
9.5649
 30
0.0
 10
34.1769
 20
9.5649
 30
0.0
 10
33.7082
 20
9.2846
 30
0.0
 10
33.3751
 20
9.2302
 30
0.0
 10
33.0137
 20
9.8619
 30
0.0
 10
33.0137
 20
9.8619
 30
0.0
 10
33.7262
 20
10.8964
 30
0.0
 10
33.6466
 20
11.396
 30
0.0
 10
32.2876
 20
11.032
 30
0.0
 10
32.2876
 20
11.032
 30
0.0
 10
31.4593
 20
10.5236
 30
0.0
 10
31.3966
 20
10.3018
 30
0.0
 10
31.2385
 20
8.2884
 30
0.0
 10
31.2385
 20
8.2884
 30
0.0
 10
31.0346
 20
5.6412
 30
0.0
 10
31.5624
 20
5.3454
 30
0.0
 10
32.5296
 20
5.5852
 30
0.0
 10
32.5296
 20
5.5852
 30
0.0
 10
33.0947
 20
5.9738
 30
0.0
 10
33.3768
 20
6.676
 30
0.0
 10
33.4576
 20
7.6026
 30
0.0
 10
33.4576
 20
7.6026
 30
0.0
 10
33.6457
 20
7.9268
 30
0.0
 10
33.8884
 20
7.9506
 30
0.0
 10
34.1838
 20
7.6833
 30
0.0
 10
34.1838
 20
7.6833
 30
0.0
 10
34.8898
 20
6.9001
 30
0.0
 10
34.9908
 20
5.1886
 30
0.0
 10
35.7573
 20
4.0925
 30
0.0
 10
35.7573
 20
4.0925
 30
0.0
 10
36.2058
 20
3.2826
 30
0.0
 10
36.7476
 20
2.7906
 30
0.0
 10
37.3308
 20
2.4383
 30
0.0
 10
37.3308
 20
2.4383
 30
0.0
 10
37.8295
 20
3.6716
 30
0.0
 10
37.8414
 20
5.0515
 30
0.0
 10
36.645
 20
6.7957
 30
0.0
 10
36.645
 20
6.7957
 30
0.0
 10
36.645
 20
6.7957
 30
0.0
 10
35.5556
 20
8.5305
 30
0.0
 10
35.5556
 20
8.5305
 30
0.0
 10
35.5556
 20
8.5305
 30
0.0
 10
35.2604
 20
9.5649
 30
0.0
 10
36.5301
 20
10.7372
 30
0.0
 10
37.1291
 20
9.9427
 30
0.0
 10
37.1291
 20
9.9427
 30
0.0
 10
37.8957
 20
7.6643
 30
0.0
 10
39.5636
 20
6.3567
 30
0.0
 10
41.7286
 20
5.5852
 30
0.0
 10
41.7286
 20
5.5852
 30
0.0
 10
42.8076
 20
7.3472
 30
0.0
 10
43.2854
 20
9.4313
 30
0.0
 10
42.8582
 20
12.0003
 30
0.0
 10
42.8582
 20
12.0003
 30
0.0
 10
43.2924
 20
12.7282
 30
0.0
 10
44.4946
 20
12.7651
 30
0.0
 10
46.0053
 20
12.5248
 30
0.0
 10
46.0053
 20
12.5248
 30
0.0
 10
46.9452
 20
10.732
 30
0.0
 10
48.1854
 20
9.7854
 30
0.0
 10
49.717
 20
9.6602
 30
0.0
 10
49.717
 20
9.6602
 30
0.0
 10
49.8776
 20
10.9396
 30
0.0
 10
49.624
 20
12.1467
 30
0.0
 10
48.547
 20
13.2107
 30
0.0
 10
48.547
 20
13.2107
 30
0.0
 10
48.2923
 20
13.4893
 30
0.0
 10
48.4024
 20
13.8312
 30
0.0
 10
48.7487
 20
13.8562
 30
0.0
 10
48.7487
 20
13.8562
 30
0.0
 10
51.7198
 20
13.8169
 30
0.0
 10
53.645
 20
14.8233
 30
0.0
 10
54.6796
 20
16.7209
 30
0.0
 10
54.6796
 20
16.7209
 30
0.0
 10
52.8838
 20
17.234
 30
0.0
 10
51.0627
 20
17.2968
 30
0.0
 10
49.2128
 20
16.8419
 30
0.0
 10
49.2128
 20
16.8419
 30
0.0
 10
48.5481
 20
18.1486
 30
0.0
 10
47.5843
 20
18.8031
 30
0.0
 10
46.328
 20
18.8188
 30
0.0
 10
46.328
 20
18.8188
 30
0.0
 10
45.447
 20
18.589
 30
0.0
 10
45.447
 20
17.1054
 30
0.0
 10
46.3684
 20
17.3261
 30
0.0
 10
46.3684
 20
17.3261
 30
0.0
 10
46.9829
 20
17.5289
 30
0.0
 10
47.3274
 20
17.3111
 30
0.0
 10
47.4578
 20
16.7611
 30
0.0
 10
47.4578
 20
16.7611
 30
0.0
 10
47.932
 20
14.6377
 30
0.0
 10
46.0543
 20
13.7513
 30
0.0
 10
43.0318
 20
13.5105
 30
0.0
 10
43.0318
 20
13.5105
 30
0.0
 10
40.9977
 20
13.6883
 30
0.0
 10
39.0959
 20
14.4553
 30
0.0
 10
37.815
 20
15.7089
 30
0.0
 10
37.815
 20
15.7089
 30
0.0
 10
36.2014
 20
16.9159
 30
0.0
 10
33.1348
 20
16.6571
 30
0.0
 10
30.7947
 20
15.6315
 30
0.0
 10
30.7947
 20
15.6315
 30
0.0
 10
29.3642
 20
15.0034
 30
0.0
 10
29.0579
 20
16.2396
 30
0.0
 10
29.9071
 20
16.9227
 30
0.0
 10
29.9071
 20
16.9227
 30
0.0
 10
34.5737
 20
20.3923
 30
0.0
 10
40.1278
 20
21.8041
 30
0.0
 10
45.1172
 20
24.6686
 30
0.0
 10
45.1172
 20
24.6686
 30
0.0
 10
45.1172
 20
24.6686
 30
0.0
 10
50.4828
 20
27.0491
 30
0.0
 10
50.4828
 20
27.0491
 30
0.0
 10
50.4828
 20
27.0491
 30
0.0
 10
51.3028
 20
27.4763
 30
0.0
 10
51.4376
 20
26.7432
 30
0.0
 10
51.209
 20
25.3949
 30
0.0
 10
51.209
 20
25.3949
 30
0.0
 10
50.8122
 20
23.0458
 30
0.0
 10
52.748
 20
21.4498
 30
0.0
 10
55.8487
 20
20.2305
 30
0.0
 10
55.8487
 20
20.2305
 30
0.0
 10
56.4213
 20
22.0416
 30
0.0
 10
56.4624
 20
24.0133
 30
0.0
 10
54.7191
 20
26.5245
 30
0.0
 10
54.7191
 20
26.5245
 30
0.0
 10
54.4702
 20
27.1029
 30
0.0
 10
53.4353
 20
26.9652
 30
0.0
 10
52.8636
 20
28.0074
 30
0.0
 10
52.8636
 20
28.0074
 30
0.0
 10
52.8572
 20
28.971
 30
0.0
 10
53.9588
 20
29.9386
 30
0.0
 10
55.7277
 20
29.8733
 30
0.0
 10
55.7277
 20
29.8733
 30
0.0
 10
58.0095
 20
26.6314
 30
0.0
 10
61.3941
 20
25.9068
 30
0.0
 10
65.7739
 20
27.4525
 30
0.0
 10
65.7739
 20
27.4525
 30
0.0
 10
64.3395
 20
29.889
 30
0.0
 10
62.0033
 20
31.3235
 30
0.0
 10
58.6327
 20
31.6082
 30
0.0
 10
58.6327
 20
31.6082
 30
0.0
 10
57.6754
 20
31.7263
 30
0.0
 10
57.6667
 20
32.8686
 30
0.0
 10
58.7537
 20
34.3517
 30
0.0
 10
58.7537
 20
34.3517
 30
0.0
 10
58.7537
 20
34.3517
 30
0.0
 10
61.8357
 20
38.5711
 30
0.0
 10
61.8357
 20
38.5711
 30
0.0
 10
61.8357
 20
38.5711
 30
0.0
 10
62.3932
 20
39.2262
 30
0.0
 10
62.969
 20
39.6746
 30
0.0
 10
63.5801
 20
39.7378
 30
0.0
 10
63.5801
 20
39.7378
 30
0.0
 10
63.5801
 20
39.7378
 30
0.0
 10
70.8115
 20
39.7163
 30
0.0
 10
70.8115
 20
39.7163
 30
0.0
 10
70.8115
 20
39.7163
 30
0.0
 10
75.066
 20
39.4906
 30
0.0
 10
75.3388
 20
35.1149
 30
0.0
 10
72.068
 20
35.2796
 30
0.0
 10
72.068
 20
35.2796
 30
0.0
 10
70.3868
 20
35.6294
 30
0.0
 10
71.6511
 20
33.8406
 30
0.0
 10
70.898
 20
32.6975
 30
0.0
 10
70.898
 20
32.6975
 30
0.0
 10
68.6983
 20
30.2069
 30
0.0
 10
69.2275
 20
27.1613
 30
0.0
 10
70.2121
 20
24.0231
 30
0.0
 10
70.2121
 20
24.0231
 30
0.0
 10
72.9595
 20
25.0159
 30
0.0
 10
74.4308
 20
27.3071
 30
0.0
 10
74.166
 20
31.3662
 30
0.0
 10
74.166
 20
31.3662
 30
0.0
 10
73.8701
 20
32.7414
 30
0.0
 10
75.0737
 20
33.9513
 30
0.0
 10
75.7798
 20
33.0203
 30
0.0
 10
75.7798
 20
33.0203
 30
0.0
 10
77.8736
 20
28.4648
 30
0.0
 10
81.7666
 20
27.7534
 30
0.0
 10
86.2295
 20
28.2595
 30
0.0
 10
86.2295
 20
28.2595
 30
0.0
 10
85.2743
 20
30.7341
 30
0.0
 10
83.4726
 20
32.926
 30
0.0
 10
79.9354
 20
35.4007
 30
0.0
 10
79.9354
 20
35.4007
 30
0.0
 10
78.8795
 20
35.9117
 30
0.0
 10
77.6021
 20
35.8579
 30
0.0
 10
76.5867
 20
36.4901
 30
0.0
 10
76.5867
 20
36.4901
 30
0.0
 10
75.8645
 20
36.9154
 30
0.0
 10
75.7857
 20
38.7374
 30
0.0
 10
77.2324
 20
38.3056
 30
0.0
 10
77.2324
 20
38.3056
 30
0.0
 10
81.9659
 20
37.8513
 30
0.0
 10
85.3423
 20
39.8897
 30
0.0
 10
87.4399
 20
44.2769
 30
0.0
 10
87.4399
 20
44.2769
 30
0.0
 10
87.4399
 20
44.2769
 30
0.0
 10
80.9442
 20
43.833
 30
0.0
 10
80.9442
 20
43.833
 30
0.0
 10
80.9442
 20
43.833
 30
0.0
 10
79.7626
 20
43.7258
 30
0.0
 10
79.2943
 20
44.5854
 30
0.0
 10
80.3187
 20
46.4151
 30
0.0
 10
80.3187
 20
46.4151
 30
0.0
 10
81.2329
 20
48.392
 30
0.0
 10
81.3076
 20
49.9251
 30
0.0
 10
80.8434
 20
51.8011
 30
0.0
 10
80.8434
 20
51.8011
 30
0.0
 10
80.5876
 20
53.6418
 30
0.0
 10
80.9755
 20
54.2294
 30
0.0
 10
82.8002
 20
55.6541
 30
0.0
 10
82.8002
 20
55.6541
 30
0.0
 10
84.3475
 20
57.3259
 30
0.0
 10
84.6287
 20
60.0337
 30
0.0
 10
83.8089
 20
63.6426
 30
0.0
 10
83.8089
 20
63.6426
 30
0.0
 10
79.7216
 20
62.0016
 30
0.0
 10
78.0381
 20
59.5145
 30
0.0
 10
78.362
 20
55.6137
 30
0.0
 10
78.362
 20
55.6137
 30
0.0
 10
78.636
 20
54.4267
 30
0.0
 10
78.1487
 20
54.1376
 30
0.0
 10
77.5149
 20
53.9596
 30
0.0
 10
77.5149
 20
53.9596
 30
0.0
 10
75.4711
 20
53.8651
 30
0.0
 10
74.8406
 20
52.4289
 30
0.0
 10
74.6805
 20
51.3653
 30
0.0
 10
74.6805
 20
51.3653
 30
0.0
 10
74.3215
 20
49.6385
 30
0.0
 10
76.3139
 20
49.7281
 30
0.0
 10
76.708
 20
51.1354
 30
0.0
 10
76.708
 20
51.1354
 30
0.0
 10
76.8184
 20
52.0415
 30
0.0
 10
77.2429
 20
52.3542
 30
0.0
 10
77.8376
 20
52.3457
 30
0.0
 10
77.8376
 20
52.3457
 30
0.0
 10
80.036
 20
52.3011
 30
0.0
 10
79.8173
 20
48.4441
 30
0.0
 10
77.9183
 20
45.9105
 30
0.0
 10
77.9183
 20
45.9105
 30
0.0
 10
75.5719
 20
43.1317
 30
0.0
 10
72.909
 20
42.171
 30
0.0
 10
69.7685
 20
42.1785
 30
0.0
 10
69.7685
 20
42.1785
 30
0.0
 10
68.6044
 20
42.1158
 30
0.0
 10
68.189
 20
42.7792
 30
0.0
 10
68.8002
 20
44.4379
 30
0.0
 10
68.8002
 20
44.4379
 30
0.0
 10
69.8292
 20
47.2532
 30
0.0
 10
69.4934
 20
50.3638
 30
0.0
 10
66.5408
 20
54.0403
 30
0.0
 10
66.5408
 20
54.0403
 30
0.0
 10
64.8193
 20
51.6734
 30
0.0
 10
64.4697
 20
48.6608
 30
0.0
 10
63.4341
 20
45.971
 30
0.0
 10
63.4341
 20
45.971
 30
0.0
 10
62.9299
 20
45.2124
 30
0.0
 10
62.3246
 20
47.8829
 30
0.0
 10
61.195
 20
48.1127
 30
0.0
 10
61.195
 20
48.1127
 30
0.0
 10
61.195
 20
48.1127
 30
0.0
 10
58.512
 20
48.1934
 30
0.0
 10
58.512
 20
48.1934
 30
0.0
 10
58.512
 20
48.1934
 30
0.0
 10
58.8023
 20
51.2153
 30
0.0
 10
57.508
 20
53.7454
 30
0.0
 10
54.6789
 20
55.7988
 30
0.0
 10
54.6789
 20
55.7988
 30
0.0
 10
54.3348
 20
52.5274
 30
0.0
 10
54.8344
 20
49.9656
 30
0.0
 10
56.5348
 20
48.4154
 30
0.0
 10
56.5348
 20
48.4154
 30
0.0
 10
57.0923
 20
47.4523
 30
0.0
 10
55.297
 20
47.3332
 30
0.0
 10
54.1198
 20
48.058
 30
0.0
 10
54.1198
 20
48.058
 30
0.0
 10
51.7683
 20
48.9435
 30
0.0
 10
49.176
 20
48.3503
 30
0.0
 10
46.4481
 20
46.9226
 30
0.0
 10
46.4481
 20
46.9226
 30
0.0
 10
48.2217
 20
45.1886
 30
0.0
 10
51.3584
 20
44.7835
 30
0.0
 10
55.2839
 20
45.1475
 30
0.0
 10
55.2839
 20
45.1475
 30
0.0
 10
55.2839
 20
45.1475
 30
0.0
 10
55.6472
 20
43.2511
 30
0.0
 10
55.6472
 20
43.2511
 30
0.0
 10
55.6472
 20
43.2511
 30
0.0
 10
55.8673
 20
42.553
 30
0.0
 10
56.7916
 20
42.8621
 30
0.0
 10
56.7768
 20
43.4528
 30
0.0
 10
56.7768
 20
43.4528
 30
0.0
 10
56.4075
 20
45.9665
 30
0.0
 10
59.0374
 20
48.816
 30
0.0
 10
61.2148
 20
45.1475
 30
0.0
 10
61.2148
 20
45.1475
 30
0.0
 10
62.2281
 20
43.1014
 30
0.0
 10
61.3191
 20
40.94
 30
0.0
 10
59.6414
 20
38.7324
 30
0.0
 10
59.6414
 20
38.7324
 30
0.0
 10
59.6414
 20
38.7324
 30
0.0
 10
54.0732
 20
31.9944
 30
0.0
 10
54.0732
 20
31.9944
 30
0.0
 10
54.0732
 20
31.9944
 30
0.0
 10
53.7627
 20
34.5858
 30
0.0
 10
52.3528
 20
36.4773
 30
0.0
 10
49.6756
 20
37.5622
 30
0.0
 10
49.6756
 20
37.5622
 30
0.0
 10
48.7809
 20
34.7682
 30
0.0
 10
49.8976
 20
32.623
 30
0.0
 10
52.3383
 20
30.905
 30
0.0
 10
52.3383
 20
30.905
 30
0.0
 10
50.5757
 20
28.7562
 30
0.0
 10
47.8745
 20
27.4865
 30
0.0
 10
44.3901
 20
26.9512
 30
0.0
 10
44.3901
 20
26.9512
 30
0.0
 10
46.4423
 20
30.0772
 30
0.0
 10
48.1851
 20
33.1544
 30
0.0
 10
42.857
 20
37.8849
 30
0.0
 10
42.857
 20
37.8849
 30
0.0
 10
42.857
 20
37.8849
 30
0.0
 10
43.1798
 20
40.5074
 30
0.0
 10
43.1798
 20
40.5074
 30
0.0
 10
43.1798
 20
40.5074
 30
0.0
 10
43.2306
 20
41.2123
 30
0.0
 10
44.571
 20
41.1506
 30
0.0
 10
44.5515
 20
39.7812
 30
0.0
 10
44.5515
 20
39.7812
 30
0.0
 10
44.792
 20
38.2853
 30
0.0
 10
46.2877
 20
38.4932
 30
0.0
 10
46.5285
 20
40.0636
 30
0.0
 10
46.5285
 20
40.0636
 30
0.0
 10
46.564
 20
41.7348
 30
0.0
 10
45.2054
 20
41.922
 30
0.0
 10
43.7043
 20
41.6774
 30
0.0
 10
43.7043
 20
41.6774
 30
0.0
 10
44.3627
 20
45.6912
 30
0.0
 10
43.382
 20
48.7053
 30
0.0
 10
39.6293
 20
50.0292
 30
0.0
 10
39.6293
 20
50.0292
 30
0.0
 10
38.9823
 20
48.363
 30
0.0
 10
38.9985
 20
46.6388
 30
0.0
 10
39.589
 20
44.8649
 30
0.0
 10
39.589
 20
44.8649
 30
0.0
 10
40.1069
 20
43.5067
 30
0.0
 10
41.5322
 20
42.8745
 30
0.0
 10
42.0501
 20
41.2741
 30
0.0
 10
42.0501
 20
41.2741
 30
0.0
 10
42.0501
 20
41.2741
 30
0.0
 10
41.4447
 20
38.4494
 30
0.0
 10
41.4447
 20
38.4494
 30
0.0
 10
41.4447
 20
38.4494
 30
0.0
 10
41.3219
 20
37.7367
 30
0.0
 10
40.9958
 20
37.5616
 30
0.0
 10
40.4965
 20
37.8443
 30
0.0
 10
40.4965
 20
37.8443
 30
0.0
 10
40.4965
 20
37.8443
 30
0.0
 10
38.6204
 20
39.3976
 30
0.0
 10
38.6204
 20
39.3976
 30
0.0
 10
38.6204
 20
39.3976
 30
0.0
 10
38.4455
 20
37.0642
 30
0.0
 10
39.9045
 20
35.8002
 30
0.0
 10
40.2745
 20
33.9107
 30
0.0
 10
40.2745
 20
33.9107
 30
0.0
 10
40.6194
 20
32.6933
 30
0.0
 10
39.8974
 20
32.289
 30
0.0
 10
38.2571
 20
32.3573
 30
0.0
 10
38.2571
 20
32.3573
 30
0.0
 10
35.3915
 20
32.7912
 30
0.0
 10
33.2228
 20
30.7365
 30
0.0
 10
31.1153
 20
28.4638
 30
0.0
 10
31.1153
 20
28.4638
 30
0.0
 10
34.4708
 20
28.1392
 30
0.0
 10
37.6718
 20
28.8153
 30
0.0
 10
40.5965
 20
31.2881
 30
0.0
 10
40.5965
 20
31.2881
 30
0.0
 10
40.5965
 20
31.2881
 30
0.0
 10
42.5736
 20
32.4984
 30
0.0
 10
42.5736
 20
32.4984
 30
0.0
 10
42.5736
 20
32.4984
 30
0.0
 10
43.8142
 20
33.1649
 30
0.0
 10
45.1456
 20
32.3492
 30
0.0
 10
44.6312
 20
31.3285
 30
0.0
 10
44.6312
 20
31.3285
 30
0.0
 10
42.3854
 20
26.8502
 30
0.0
 10
34.4102
 20
23.2593
 30
0.0
 10
29.2997
 20
19.2247
 30
0.0
 10
29.2997
 20
19.2247
 30
0.0
 10
26.0737
 20
16.6098
 30
0.0
 10
23.0591
 20
13.7106
 30
0.0
 10
19.8581
 20
9.7029
 30
0.0
 10
19.8581
 20
9.7029
 30
0.0
 10
19.0754
 20
9.0751
 30
0.0
 10
18.344
 20
9.0797
 30
0.0
 10
17.7228
 20
10.4427
 30
0.0
 10
17.7228
 20
10.4427
 30
0.0
 10
15.4869
 20
14.8158
 30
0.0
 10
14.6435
 20
17.824
 30
0.0
 10
14.3711
 20
21.0805
 30
0.0
 10
14.3711
 20
21.0805
 30
0.0
 10
14.1258
 20
23.7773
 30
0.0
 10
14.4012
 20
26.116
 30
0.0
 10
15.0166
 20
28.2214
 30
0.0
 10
15.0166
 20
28.2214
 30
0.0
 10
15.4669
 20
29.2763
 30
0.0
 10
16.4411
 20
29.5471
 30
0.0
 10
17.8597
 20
29.4719
 30
0.0
 10
17.8597
 20
29.4719
 30
0.0
 10
18.596
 20
29.2675
 30
0.0
 10
18.5124
 20
28.3707
 30
0.0
 10
18.325
 20
27.5759
 30
0.0
 10
18.325
 20
27.5759
 30
0.0
 10
17.5464
 20
25.5722
 30
0.0
 10
18.31
 20
23.2454
 30
0.0
 10
18.8091
 20
21.0802
 30
0.0
 10
18.8091
 20
21.0802
 30
0.0
 10
19.8182
 20
18.426
 30
0.0
 10
22.1601
 20
17.7204
 30
0.0
 10
24.5785
 20
17.1263
 30
0.0
 10
24.5785
 20
17.1263
 30
0.0
 10
24.9448
 20
21.0274
 30
0.0
 10
23.5262
 20
24.4418
 30
0.0
 10
20.3423
 20
27.3742
 30
0.0
 10
20.3423
 20
27.3742
 30
0.0
 10
22.6554
 20
26.903
 30
0.0
 10
24.7127
 20
27.4553
 30
0.0
 10
26.5958
 20
28.7055
 30
0.0
 10
26.5958
 20
28.7055
 30
0.0
 10
24.5143
 20
30.4573
 30
0.0
 10
22.5445
 20
31.0558
 30
0.0
 10
20.786
 20
29.4721
 30
0.0
 10
20.786
 20
29.4721
 30
0.0
 10
19.3201
 20
31.3683
 30
0.0
 10
18.3787
 20
30.3597
 30
0.0
 10
16.5093
 20
31.2878
 30
0.0
 10
16.5093
 20
31.2878
 30
0.0
 10
18.195
 20
36.7656
 30
0.0
 10
18.5971
 20
43.6337
 30
0.0
 10
12.3927
 20
46.1751
 30
0.0
 10
12.3927
 20
46.1751
 30
0.0
 10
10.9311
 20
42.0027
 30
0.0
 10
11.5951
 20
38.6334
 30
0.0
 10
14.975
 20
36.2903
 30
0.0
 10
14.975
 20
36.2903
 30
0.0
 10
15.7679
 20
34.3834
 30
0.0
 10
9.5686
 20
37.3931
 30
0.0
 10
6.7444
 20
35.8868
 30
0.0
 10
6.7444
 20
35.8868
 30
0.0
 10
9.0049
 20
34.0663
 30
0.0
 10
11.4235
 20
33.5114
 30
0.0
 10
14.0067
 20
34.2729
 30
0.0
 10
14.0067
 20
34.2729
 30
0.0
 10
15.6785
 20
35.2083
 30
0.0
 10
16.4771
 20
34.393
 30
0.0
 10
15.6204
 20
32.0539
 30
0.0
 10
15.6204
 20
32.0539
 30
0.0
 10
13.1128
 20
29.8181
 30
0.0
 10
12.3514
 20
27.6857
 30
0.0
 10
12.11
 20
22.9358
 30
0.0
 10
12.11
 20
22.9358
 30
0.0
 10
12.1118
 20
20.0675
 30
0.0
 10
12.8885
 20
16.9011
 30
0.0
 10
14.2886
 20
13.495
 30
0.0
 10
14.2886
 20
13.495
 30
0.0
 10
14.2886
 20
13.495
 30
0.0
 10
11.9485
 20
12.1232
 30
0.0
 10
11.9485
 20
12.1232
 30
0.0
 10
11.9485
 20
12.1232
 30
0.0
 10
10.8364
 20
13.6349
 30
0.0
 10
9.3756
 20
14.3497
 30
0.0
 10
7.5105
 20
14.1404
 30
0.0
 10
7.5105
 20
14.1404
 30
0.0
 10
7.7167
 20
12.7379
 30
0.0
 10
9.0526
 20
11.4545
 30
0.0
 10
11.303
 20
10.2672
 30
0.0
 10
11.303
 20
10.2672
 30
0.0
 10
8.2115
 20
9.2041
 30
0.0
 10
6.0831
 20
7.7797
 30
0.0
 10
5.5739
 20
5.7484
 30
0.0
 10
5.5739
 20
5.7484
 30
0.0
 10
7.9004
 20
5.1032
 30
0.0
 10
9.2254
 20
5.896
 30
0.0
 10
10.4759
 20
7.4026
 30
0.0
 10
10.4759
 20
7.4026
 30
0.0
 10
10.4759
 20
7.4026
 30
0.0
 10
13.6431
 20
7.5639
 30
0.0
 10
13.6431
 20
7.5639
 30
0.0
 10
13.6431
 20
7.5639
 30
0.0
 10
12.4461
 20
8.4516
 30
0.0
 10
11.8796
 20
8.8953
 30
0.0
 10
13.159
 20
9.7831
 30
0.0
 10
13.159
 20
9.7831
 30
0.0
 10
14.4777
 20
10.5997
 30
0.0
 10
15.2025
 20
10.56
 30
0.0
 10
15.8217
 20
9.3796
 30
0.0
 10
15.8217
 20
9.3796
 30
0.0
 10
16.7094
 20
6.1921
 30
0.0
 10
12.9976
 20
2.198
 30
0.0
 10
13.159
 20
-2.24
 30
0.0
 10
13.159
 20
-2.24
 30
0.0
 10
13.3002
 20
-2.9224
 30
0.0
 10
11.969
 20
-3.2185
 30
0.0
 10
11.8274
 20
-2.5427
 30
0.0
 10
11.8274
 20
-2.5427
 30
0.0
 10
11.8274
 20
-2.5427
 30
0.0
 10
11.4845
 20
0.221
 30
0.0
 10
11.4845
 20
0.221
 30
0.0
 10
11.4845
 20
0.221
 30
0.0
 10
10.3884
 20
-1.05
 30
0.0
 10
10.5026
 20
-2.6034
 30
0.0
 10
9.7698
 20
-3.9551
 30
0.0
 10
9.7698
 20
-3.9551
 30
0.0
 10
9.3207
 20
-4.9694
 30
0.0
 10
9.1052
 20
-4.8862
 30
0.0
 10
8.1156
 20
-4.2777
 30
0.0
 10
8.1156
 20
-4.2777
 30
0.0
 10
7.2089
 20
-2.1119
 30
0.0
 10
5.5121
 20
-1.4941
 30
0.0
 10
3.3143
 20
-1.857
 30
0.0
 10
3.3143
 20
-1.857
 30
0.0
 10
3.4508
 20
-4.3162
 30
0.0
 10
4.7383
 20
-5.6512
 30
0.0
 10
7.1877
 20
-5.8513
 30
0.0
 10
7.1877
 20
-5.8513
 30
0.0
 10
8.0514
 20
-6.1376
 30
0.0
 10
7.0367
 20
-8.9404
 30
0.0
 10
6.421
 20
-8.6755
 30
0.0
 10
6.421
 20
-8.6755
 30
0.0
 10
5.3145
 20
-15.5673
 30
0.0
 10
2.5537
 20
-9.1891
 30
0.0
 10
-2.7785
 20
-16.3008
 30
0.0
 10
-2.7785
 20
-16.3008
 30
0.0
 10
-3.1329
 20
-17.993
 30
0.0
 10
-4.1591
 20
-18.4416
 30
0.0
 10
-4.5942
 20
-16.7043
 30
0.0
 10
-4.5942
 20
-16.7043
 30
0.0
 10
-7.134
 20
-8.2182
 30
0.0
 10
-7.8372
 20
-1.3356
 30
0.0
 10
-9.0726
 20
7.0192
 30
0.0
 10
-9.0726
 20
7.0192
 30
0.0
 10
-9.255
 20
8.5417
 30
0.0
 10
-8.3318
 20
9.1695
 30
0.0
 10
-6.1677
 20
10.0855
 30
0.0
 10
-6.1677
 20
10.0855
 30
0.0
 10
-6.1677
 20
10.0855
 30
0.0
 10
-1.8104
 20
12.1029
 30
0.0
 10
-1.8104
 20
12.1029
 30
0.0
 10
-1.8104
 20
12.1029
 30
0.0
 10
-0.3855
 20
12.6342
 30
0.0
 10
1.3843
 20
12.2577
 30
0.0
 10
2.2242
 20
10.8118
 30
0.0
 10
2.2242
 20
10.8118
 30
0.0
 10
3.1862
 20
7.9537
 30
0.0
 10
1.5589
 20
6.9052
 30
0.0
 10
0.8121
 20
8.5121
 30
0.0
 10
0.8121
 20
8.5121
 30
0.0
 10
-0.2638
 20
6.0308
 30
0.0
 10
-2.671
 20
5.3045
 30
0.0
 10
-3.1417
 20
3.0654
 30
0.0
 10
-3.1417
 20
3.0654
 30
0.0
 10
-3.5923
 20
0.2631
 30
0.0
 10
-3.4847
 20
-2.282
 30
0.0
 10
-2.5367
 20
-4.4391
 30
0.0
 10
-2.5367
 20
-4.4391
 30
0.0
 10
-0.716
 20
-3.2869
 30
0.0
 10
0.6869
 20
-1.6252
 30
0.0
 10
2.0627
 20
1.7137
 30
0.0
 10
2.0627
 20
1.7137
 30
0.0
 10
2.3292
 20
2.7309
 30
0.0
 10
2.473
 20
3.4504
 30
0.0
 10
2.0359
 20
5.1185
 30
0.0
 10
2.0359
 20
5.1185
 30
0.0
 10
1.898
 20
5.9668
 30
0.0
 10
2.1606
 20
6.6281
 30
0.0
 10
2.8294
 20
7.0999
 30
0.0
 10
2.8294
 20
7.0999
 30
0.0
 10
3.7523
 20
8.9424
 30
0.0
 10
3.709
 20
10.7848
 30
0.0
 10
2.2646
 20
12.6273
 30
0.0
 10
2.2646
 20
12.6273
 30
0.0
 10
2.2646
 20
12.6273
 30
0.0
 10
0.6104
 20
14.0798
 30
0.0
 10
0.6104
 20
14.0798
 30
0.0
 10
0.6104
 20
14.0798
 30
0.0
 10
-0.0032
 20
14.8969
 30
0.0
 10
0.3971
 20
15.986
 30
0.0
 10
1.377
 20
16.0568
 30
0.0
 10
1.377
 20
16.0568
 30
0.0
 10
4.6279
 20
15.7375
 30
0.0
 10
7.2577
 20
16.8866
 30
0.0
 10
9.3251
 20
19.3652
 30
0.0
 10
9.3251
 20
19.3652
 30
0.0
 10
7.496
 20
19.9972
 30
0.0
 10
5.0618
 20
19.0155
 30
0.0
 10
2.9907
 20
19.7686
 30
0.0
 10
2.9907
 20
19.7686
 30
0.0
 10
3.4773
 20
22.034
 30
0.0
 10
3.7637
 20
24.3425
 30
0.0
 10
2.2041
 20
25.6388
 30
0.0
 10
2.2041
 20
25.6388
 30
0.0
 10
1.7374
 20
26.2994
 30
0.0
 10
1.6147
 20
27.3516
 30
0.0
 10
2.7487
 20
28.1604
 30
0.0
 10
2.7487
 20
28.1604
 30
0.0
 10
4.5286
 20
30.0544
 30
0.0
 10
4.3313
 20
32.8153
 30
0.0
 10
2.1839
 20
36.4312
 30
0.0
 10
2.1839
 20
36.4312
 30
0.0
 10
-0.0317
 20
34.9704
 30
0.0
 10
-1.1347
 20
31.7526
 30
0.0
 10
-0.7614
 20
29.6935
 30
0.0
 10
-0.7614
 20
29.6935
 30
0.0
 10
-0.0958
 20
28.0707
 30
0.0
 10
-0.3105
 20
27.2278
 30
0.0
 10
-1.528
 20
27.2728
 30
0.0
 10
-1.528
 20
27.2728
 30
0.0
 10
-3.4414
 20
26.9359
 30
0.0
 10
-4.2878
 20
25.1282
 30
0.0
 10
-3.3839
 20
23.1574
 30
0.0
 10
-3.3839
 20
23.1574
 30
0.0
 10
-2.8596
 20
22.1623
 30
0.0
 10
-1.6152
 20
22.1217
 30
0.0
 10
-1.891
 20
23.1574
 30
0.0
 10
-1.891
 20
23.1574
 30
0.0
 10
-4.0356
 20
25.8654
 30
0.0
 10
1.5403
 20
27.2961
 30
0.0
 10
1.5384
 20
23.2785
 30
0.0
 10
1.5384
 20
23.2785
 30
0.0
 10
1.6023
 20
20.2674
 30
0.0
 10
0.4465
 20
18.3508
 30
0.0
 10
-1.3262
 20
16.5004
 30
0.0
 10
-1.3262
 20
16.5004
 30
0.0
 10
-3.2131
 20
15.0098
 30
0.0
 10
-8.4442
 20
9.9946
 30
0.0
 10
-8.3867
 20
15.0479
 30
0.0
 10
-8.3867
 20
15.0479
 30
0.0
 10
-8.5348
 20
19.6781
 30
0.0
 10
-8.3463
 20
23.7318
 30
0.0
 10
-7.7412
 20
27.071
 30
0.0
 10
-7.7412
 20
27.071
 30
0.0
 10
-6.3911
 20
31.1373
 30
0.0
 10
-3.5243
 20
34.987
 30
0.0
 10
0.0854
 20
38.7309
 30
0.0
 10
0.0854
 20
38.7309
 30
0.0
 10
3.3334
 20
42.4161
 30
0.0
 10
6.6926
 20
45.8634
 30
0.0
 10
10.6958
 20
47.9298
 30
0.0
 10
10.6958
 20
47.9298
 30
0.0
 10
16.1949
 20
50.15
 30
0.0
 10
21.4178
 20
48.3563
 30
0.0
 10
24.9985
 20
45.7309
 30
0.0
 10
24.9985
 20
45.7309
 30
0.0
 10
25.9794
 20
44.6528
 30
0.0
 10
26.0167
 20
43.4265
 30
0.0
 10
25.6643
 20
42.5638
 30
0.0
 10
25.6643
 20
42.5638
 30
0.0
 10
25.0301
 20
41.6204
 30
0.0
 10
24.3079
 20
41.4226
 30
0.0
 10
24.0907
 20
42.3621
 30
0.0
 10
24.0907
 20
42.3621
 30
0.0
 10
24.0907
 20
42.3621
 30
0.0
 10
23.6874
 20
44.097
 30
0.0
 10
23.6874
 20
44.097
 30
0.0
 10
23.6874
 20
44.097
 30
0.0
 10
22.0657
 20
43.6554
 30
0.0
 10
21.9467
 20
43.0454
 30
0.0
 10
22.7998
 20
41.313
 30
0.0
 10
22.7998
 20
41.313
 30
0.0
 10
22.7998
 20
41.313
 30
0.0
 10
23.6066
 20
40.1431
 30
0.0
 10
23.6066
 20
40.1431
 30
0.0
 10
23.6066
 20
40.1431
 30
0.0
 10
22.32
 20
37.4349
 30
0.0
 10
23.3858
 20
35.5352
 30
0.0
 10
25.5432
 20
34.0105
 30
0.0
 10
25.5432
 20
34.0105
 30
0.0
 10
26.7722
 20
35.932
 30
0.0
 10
26.8158
 20
37.9662
 30
0.0
 10
25.7853
 20
40.1027
 30
0.0
 10
25.7853
 20
40.1027
 30
0.0
 10
25.5726
 20
40.5332
 30
0.0
 10
26.3474
 20
40.816
 30
0.0
 10
27.1571
 20
39.9816
 30
0.0
 10
27.1571
 20
39.9816
 30
0.0
 10
29.551
 20
38.2879
 30
0.0
 10
31.9446
 20
38.5546
 30
0.0
 10
34.3387
 20
39.6589
 30
0.0
 10
34.3387
 20
39.6589
 30
0.0
 10
32.5125
 20
41.6529
 30
0.0
 10
30.7313
 20
42.5333
 30
0.0
 10
29.0131
 20
41.8375
 30
0.0
 10
29.0131
 20
41.8375
 30
0.0
 10
27.1437
 20
41.528
 30
0.0
 10
29.3087
 20
45.6973
 30
0.0
 10
26.673
 20
47.0825
 30
0.0
 10
26.673
 20
47.0825
 30
0.0
 10
25.7927
 20
47.6602
 30
0.0
 10
25.0188
 20
48.3468
 30
0.0
 10
24.1311
 20
49.0998
 30
0.0
 10
24.1311
 20
49.0998
 30
0.0
 10
23.2211
 20
49.6636
 30
0.0
 10
23.1648
 20
50.7281
 30
0.0
 10
24.696
 20
50.8751
 30
0.0
 10
24.696
 20
50.8751
 30
0.0
 10
29.0204
 20
51.1334
 30
0.0
 10
39.2394
 20
51.5052
 30
0.0
 10
42.0043
 20
55.0711
 30
0.0
 10
42.0043
 20
55.0711
 30
0.0
 10
43.2813
 20
53.4453
 30
0.0
 10
44.9231
 20
52.4878
 30
0.0
 10
46.846
 20
52.0451
 30
0.0
 10
46.846
 20
52.0451
 30
0.0
 10
47.3969
 20
54.3636
 30
0.0
 10
46.7661
 20
56.0072
 30
0.0
 10
44.3041
 20
56.6042
 30
0.0
 10
44.3041
 20
56.6042
 30
0.0
 10
43.3698
 20
57.4534
 30
0.0
 10
44.431
 20
61.3222
 30
0.0
 10
48.0563
 20
62.5348
 30
0.0
 10
48.0563
 20
62.5348
 30
0.0
 10
50.3296
 20
63.567
 30
0.0
 10
52.5747
 20
63.4263
 30
0.0
 10
54.6328
 20
63.0592
 30
0.0
 10
54.6328
 20
63.0592
 30
0.0
 10
55.6703
 20
62.6723
 30
0.0
 10
56.6819
 20
62.4087
 30
0.0
 10
57.4569
 20
61.3044
 30
0.0
 10
57.4569
 20
61.3044
 30
0.0
 10
58.2625
 20
59.9545
 30
0.0
 10
57.6197
 20
59.272
 30
0.0
 10
55.8431
 20
59.8316
 30
0.0
 10
55.8431
 20
59.8316
 30
0.0
 10
54.645
 20
60.22
 30
0.0
 10
54.297
 20
58.3209
 30
0.0
 10
55.0361
 20
57.9757
 30
0.0
 10
55.0361
 20
57.9757
 30
0.0
 10
56.2434
 20
57.4019
 30
0.0
 10
57.3794
 20
57.5405
 30
0.0
 10
58.4252
 20
58.5806
 30
0.0
 10
58.4252
 20
58.5806
 30
0.0
 10
59.0408
 20
59.2848
 30
0.0
 10
60.8888
 20
58.8723
 30
0.0
 10
63.2264
 20
58.0158
 30
0.0
 10
63.2264
 20
58.0158
 30
0.0
 10
66.7131
 20
57.9662
 30
0.0
 10
69.6377
 20
60.4451
 30
0.0
 10
72.264
 20
64.2694
 30
0.0
 10
72.264
 20
64.2694
 30
0.0
 10
67.9839
 20
66.8977
 30
0.0
 10
63.6914
 20
65.4022
 30
0.0
 10
60.6846
 20
61.8486
 30
0.0
 10
60.6846
 20
61.8486
 30
0.0
 10
59.5806
 20
61.1551
 30
0.0
 10
58.8435
 20
61.3988
 30
0.0
 10
58.7076
 20
63.1801
 30
0.0
 10
58.7076
 20
63.1801
 30
0.0
 10
58.7485
 20
64.3718
 30
0.0
 10
58.0347
 20
65.2968
 30
0.0
 10
56.2466
 20
65.8429
 30
0.0
 10
56.2466
 20
65.8429
 30
0.0
 10
55.1479
 20
65.9333
 30
0.0
 10
55.0447
 20
66.8546
 30
0.0
 10
56.0851
 20
68.5461
 30
0.0
 10
56.0851
 20
68.5461
 30
0.0
 10
56.0851
 20
68.5461
 30
0.0
 10
57.6182
 20
71.2489
 30
0.0
 10
57.6182
 20
71.2489
 30
0.0
 10
57.6182
 20
71.2489
 30
0.0
 10
58.6519
 20
72.9306
 30
0.0
 10
59.8388
 20
72.4325
 30
0.0
 10
61.0879
 20
71.0472
 30
0.0
 10
61.0879
 20
71.0472
 30
0.0
 10
65.3514
 20
68.9788
 30
0.0
 10
69.6143
 20
71.5016
 30
0.0
 10
73.8776
 20
77.1798
 30
0.0
 10
73.8776
 20
77.1798
 30
0.0
 10
73.8776
 20
77.1798
 30
0.0
 10
66.8573
 20
79.6408
 30
0.0
 10
66.8573
 20
79.6408
 30
0.0
 10
66.8573
 20
79.6408
 30
0.0
 10
63.7727
 20
80.2753
 30
0.0
 10
61.5767
 20
78.7509
 30
0.0
 10
59.9984
 20
75.7272
 30
0.0
 10
59.9984
 20
75.7272
 30
0.0
 10
59.1405
 20
74.0931
 30
0.0
 10
56.816
 20
77.3137
 30
0.0
 10
58.0618
 20
78.7936
 30
0.0
 10
58.0618
 20
78.7936
 30
0.0
 10
61.6733
 20
80.3246
 30
0.0
 10
63.6225
 20
83.9331
 30
0.0
 10
63.791
 20
89.7677
 30
0.0
 10
63.791
 20
89.7677
 30
0.0
 10
59.7329
 20
87.4225
 30
0.0
 10
56.7121
 20
84.8513
 30
0.0
 10
56.3674
 20
81.6985
 30
0.0
 10
56.3674
 20
81.6985
 30
0.0
 10
56.4579
 20
80.1393
 30
0.0
 10
54.2334
 20
79.0449
 30
0.0
 10
54.0474
 20
81.7589
 30
0.0
 10
54.0474
 20
81.7589
 30
0.0
 10
54.5226
 20
86.3387
 30
0.0
 10
51.723
 20
89.0475
 30
0.0
 10
46.9263
 20
90.615
 30
0.0
 10
46.9263
 20
90.615
 30
0.0
 10
46.4492
 20
88.8034
 30
0.0
 10
46.7382
 20
86.8386
 30
0.0
 10
47.8747
 20
84.704
 30
0.0
 10
47.8747
 20
84.704
 30
0.0
 10
48.1578
 20
84.1709
 30
0.0
 10
46.9093
 20
83.9541
 30
0.0
 10
45.4306
 20
84.981
 30
0.0
 10
45.4306
 20
84.981
 30
0.0
 10
43.0911
 20
87.0286
 30
0.0
 10
41.7477
 20
87.2021
 30
0.0
 10
39.2604
 20
86.4991
 30
0.0
 10
39.2604
 20
86.4991
 30
0.0
 10
38.2327
 20
86.3639
 30
0.0
 10
37.733
 20
87.2867
 30
0.0
 10
38.3728
 20
87.8305
 30
0.0
 10
38.3728
 20
87.8305
 30
0.0
 10
42.4458
 20
90.1451
 30
0.0
 10
44.2113
 20
94.2308
 30
0.0
 10
43.6581
 20
100.0958
 30
0.0
 10
43.6581
 20
100.0958
 30
0.0
 10
39.6359
 20
97.3052
 30
0.0
 10
36.7226
 20
95.5132
 30
0.0
 10
36.4362
 20
90.1706
 30
0.0
 10
36.4362
 20
90.1706
 30
0.0
 10
34.9084
 20
90.8777
 30
0.0
 10
32.5175
 20
90.0841
 30
0.0
 10
32.8728
 20
87.8058
 30
0.0
 10
32.8728
 20
87.8058
 30
0.0
 10
33.1124
 20
87.0542
 30
0.0
 10
33.9169
 20
87.1297
 30
0.0
 10
33.8337
 20
88.0928
 30
0.0
 10
33.8337
 20
88.0928
 30
0.0
 10
34.0452
 20
88.8526
 30
0.0
 10
35.3165
 20
88.7581
 30
0.0
 10
35.7099
 20
88.0725
 30
0.0
 10
35.7099
 20
88.0725
 30
0.0
 10
36.9842
 20
86.203
 30
0.0
 10
36.5066
 20
84.7374
 30
0.0
 10
34.9837
 20
83.5134
 30
0.0
 10
34.9837
 20
83.5134
 30
0.0
 10
32.3551
 20
81.0905
 30
0.0
 10
29.8926
 20
79.6954
 30
0.0
 10
27.8021
 20
80.6085
 30
0.0
 10
27.8021
 20
80.6085
 30
0.0
 10
26.2603
 20
81.2121
 30
0.0
 10
25.443
 20
84.7364
 30
0.0
 10
24.6147
 20
89.4847
 30
0.0
 10
24.6147
 20
89.4847
 30
0.0
 10
24.0177
 20
93.8477
 30
0.0
 10
23.702
 20
97.688
 30
0.0
 10
24.6142
 20
99.2484
 30
0.0
 10
24.6142
 20
99.2484
 30
0.0
 10
25.6632
 20
100.4056
 30
0.0
 10
26.7123
 20
100.6472
 30
0.0
 10
27.7613
 20
100.4588
 30
0.0
 10
27.7613
 20
100.4588
 30
0.0
 10
28.4309
 20
100.2054
 30
0.0
 10
29.2849
 20
100.1665
 30
0.0
 10
29.7584
 20
99.0062
 30
0.0
 10
29.7584
 20
99.0062
 30
0.0
 10
30.043
 20
98.3473
 30
0.0
 10
29.9074
 20
97.4931
 30
0.0
 10
29.6
 20
96.8342
 30
0.0
 10
29.6
 20
96.8342
 30
0.0
 10
29.6
 20
96.8342
 30
0.0
 10
29.6776
 20
95.6172
 30
0.0
 10
29.6776
 20
95.6172
 30
0.0
 10
29.6776
 20
95.6172
 30
0.0
 10
31.4835
 20
96.2707
 30
0.0
 10
31.1933
 20
98.5479
 30
0.0
 10
30.7064
 20
100.2167
 30
0.0
 10
30.7064
 20
100.2167
 30
0.0
 10
33.3393
 20
102.1692
 30
0.0
 10
34.2869
 20
104.908
 30
0.0
 10
33.6922
 20
108.3666
 30
0.0
 10
33.6922
 20
108.3666
 30
0.0
 10
31.8172
 20
107.1145
 30
0.0
 10
30.1595
 20
105.6927
 30
0.0
 10
29.254
 20
103.6866
 30
0.0
 10
29.254
 20
103.6866
 30
0.0
 10
28.6758
 20
102.779
 30
0.0
 10
27.6397
 20
102.7178
 30
0.0
 10
27.5998
 20
103.4444
 30
0.0
 10
27.5998
 20
103.4444
 30
0.0
 10
27.7024
 20
109.2998
 30
0.0
 10
25.1029
 20
112.5706
 30
0.0
 10
20.2566
 20
113.692
 30
0.0
 10
20.2566
 20
113.692
 30
0.0
 10
20.3165
 20
108.8039
 30
0.0
 10
21.1915
 20
105.0503
 30
0.0
 10
23.7263
 20
103.6054
 30
0.0
 10
23.7263
 20
103.6054
 30
0.0
 10
24.8106
 20
102.8493
 30
0.0
 10
24.9212
 20
101.8799
 30
0.0
 10
23.9684
 20
101.588
 30
0.0
 10
23.9684
 20
101.588
 30
0.0
 10
21.618
 20
100.8384
 30
0.0
 10
21.3662
 20
98.4937
 30
0.0
 10
21.709
 20
95.6975
 30
0.0
 10
21.709
 20
95.6975
 30
0.0
 10
21.709
 20
95.6975
 30
0.0
 10
22.758
 20
88.7581
 30
0.0
 10
22.758
 20
88.7581
 30
0.0
 10
22.758
 20
88.7581
 30
0.0
 10
23.1185
 20
87.0007
 30
0.0
 10
22.1822
 20
85.7949
 30
0.0
 10
20.902
 20
87.6283
 30
0.0
 10
20.902
 20
87.6283
 30
0.0
 10
20.902
 20
87.6283
 30
0.0
 10
18.8848
 20
91.0175
 30
0.0
 10
18.8848
 20
91.0175
 30
0.0
 10
18.8848
 20
91.0175
 30
0.0
 10
18.8848
 20
91.0175
 30
0.0
 10
18.562
 20
84.6427
 30
0.0
 10
18.562
 20
84.6427
 30
0.0
 10
18.562
 20
84.6427
 30
0.0
 10
18.3299
 20
83.5337
 30
0.0
 10
16.7365
 20
83.3445
 30
0.0
 10
15.0922
 20
84.2393
 30
0.0
 10
15.0922
 20
84.2393
 30
0.0
 10
13.9742
 20
86.6638
 30
0.0
 10
11.3967
 20
86.6306
 30
0.0
 10
8.2334
 20
85.611
 30
0.0
 10
8.2334
 20
85.611
 30
0.0
 10
9.3934
 20
83.1072
 30
0.0
 10
11.377
 20
81.6323
 30
0.0
 10
14.6887
 20
81.8185
 30
0.0
 10
14.6887
 20
81.8185
 30
0.0
 10
14.6364
 20
80.8993
 30
0.0
 10
15.0774
 20
80.3302
 30
0.0
 10
16.1413
 20
80.2451
 30
0.0
 10
16.1413
 20
80.2451
 30
0.0
 10
16.1413
 20
80.2451
 30
0.0
 10
18.32
 20
80.2047
 30
0.0
 10
18.32
 20
80.2047
 30
0.0
 10
18.32
 20
80.2047
 30
0.0
 10
17.0021
 20
80.5005
 30
0.0
 10
16.3294
 20
81.7648
 30
0.0
 10
17.0288
 20
82.5448
 30
0.0
 10
17.0288
 20
82.5448
 30
0.0
 10
18.7285
 20
83.3481
 30
0.0
 10
20.09
 20
82.5748
 30
0.0
 10
21.1442
 20
80.366
 30
0.0
 10
21.1442
 20
80.366
 30
0.0
 10
25.1758
 20
74.2604
 30
0.0
 10
24.7556
 20
69.6877
 30
0.0
 10
24.4524
 20
64.3488
 30
0.0
 10
24.4524
 20
64.3488
 30
0.0
 10
21.8838
 20
66.5117
 30
0.0
 10
19.3149
 20
66.9736
 30
0.0
 10
16.7463
 20
65.8013
 30
0.0
 10
16.7463
 20
65.8013
 30
0.0
 10
17.9735
 20
62.8884
 30
0.0
 10
20.6565
 20
61.8282
 30
0.0
 10
24.2507
 20
61.9281
 30
0.0
 10
24.2507
 20
61.9281
 30
0.0
 10
24.2507
 20
61.9281
 30
0.0
 10
22.2738
 20
56.9655
 30
0.0
 10
22.2738
 20
56.9655
 30
0.0
 10
22.2738
 20
56.9655
 30
0.0
 10
19.2544
 20
59.3713
 30
0.0
 10
16.686
 20
60.0866
 30
0.0
 10
14.5274
 20
59.2651
 30
0.0
 10
14.5274
 20
59.2651
 30
0.0
 10
14.9989
 20
56.1277
 30
0.0
 10
17.2836
 20
54.5618
 30
0.0
 10
20.9826
 20
54.2217
 30
0.0
 10
20.9826
 20
54.2217
 30
0.0
 10
22.2197
 20
51.8682
 30
0.0
 10
13.774
 20
52.9035
 30
0.0
 10
10.1696
 20
51.1552
 30
0.0
 10
10.1696
 20
51.1552
 30
0.0
 10
10.006
 20
54.3016
 30
0.0
 10
8.0131
 20
55.2094
 30
0.0
 10
6.0065
 20
53.0305
 30
0.0
 10
6.0065
 20
53.0305
 30
0.0
 10
5.1263
 20
51.5788
 30
0.0
 10
6.3133
 20
50.5997
 30
0.0
 10
7.1343
 20
52.0459
 30
0.0
 10
7.1343
 20
52.0459
 30
0.0
 10
7.8731
 20
52.807
 30
0.0
 10
8.3509
 20
53.116
 30
0.0
 10
8.9552
 20
52.4782
 30
0.0
 10
8.9552
 20
52.4782
 30
0.0
 10
9.6543
 20
51.6676
 30
0.0
 10
9.2152
 20
50.6611
 30
0.0
 10
8.5154
 20
50.0657
 30
0.0
 10
8.5154
 20
50.0657
 30
0.0
 10
8.052
 20
49.3191
 30
0.0
 10
6.8835
 20
48.1847
 30
0.0
 10
4.2387
 20
46.6362
 30
0.0
 10
4.2387
 20
46.6362
 30
0.0
 10
4.5397
 20
50.2209
 30
0.0
 10
3.3055
 20
52.6674
 30
0.0
 10
0.4864
 20
53.9389
 30
0.0
 10
0.4864
 20
53.9389
 30
0.0
 10
-0.5686
 20
49.556
 30
0.0
 10
0.6267
 20
47.0243
 30
0.0
 10
2.9073
 20
45.3855
 30
0.0
 10
2.9073
 20
45.3855
 30
0.0
 10
1.0174
 20
44.1287
 30
0.0
 10
-0.7704
 20
42.6343
 30
0.0
 10
-2.3375
 20
40.6245
 30
0.0
 10
-2.3375
 20
40.6245
 30
0.0
 10
-3.7765
 20
38.8358
 30
0.0
 10
-5.1752
 20
39.6696
 30
0.0
 10
-4.1128
 20
42.1576
 30
0.0
 10
-4.1128
 20
42.1576
 30
0.0
 10
-1.9689
 20
47.3259
 30
0.0
 10
-1.1193
 20
53.1412
 30
0.0
 10
-1.1271
 20
59.3853
 30
0.0
 10
-1.1271
 20
59.3853
 30
0.0
 10
-1.1271
 20
59.3853
 30
0.0
 10
1.5357
 20
62.7744
 30
0.0
 10
1.5357
 20
62.7744
 30
0.0
 10
1.5357
 20
62.7744
 30
0.0
 10
2.5438
 20
63.7041
 30
0.0
 10
3.7957
 20
63.7675
 30
0.0
 10
5.2878
 20
62.9761
 30
0.0
 10
5.2878
 20
62.9761
 30
0.0
 10
6.0599
 20
62.3195
 30
0.0
 10
5.7244
 20
62.0366
 30
0.0
 10
5.0862
 20
61.4026
 30
0.0
 10
5.0862
 20
61.4026
 30
0.0
 10
4.4504
 20
59.8469
 30
0.0
 10
5.7482
 20
56.9264
 30
0.0
 10
7.9103
 20
55.956
 30
0.0
 10
7.9103
 20
55.956
 30
0.0
 10
8.4283
 20
56.922
 30
0.0
 10
8.4012
 20
58.0695
 30
0.0
 10
7.6279
 20
59.466
 30
0.0
 10
7.6279
 20
59.466
 30
0.0
 10
7.3521
 20
60.4517
 30
0.0
 10
7.8905
 20
60.7394
 30
0.0
 10
9.1208
 20
60.4343
 30
0.0
 10
9.1208
 20
60.4343
 30
0.0
 10
11.147
 20
60.3012
 30
0.0
 10
12.7832
 20
61.0785
 30
0.0
 10
14.164
 20
62.4517
 30
0.0
 10
14.164
 20
62.4517
 30
0.0
 10
12.1332
 20
63.5142
 30
0.0
 10
9.9008
 20
63.9308
 30
0.0
 10
7.8297
 20
62.855
 30
0.0
 10
7.8297
 20
62.855
 30
0.0
 10
7.8297
 20
62.855
 30
0.0
 10
4.1582
 20
65.0339
 30
0.0
 10
4.1582
 20
65.0339
 30
0.0
 10
4.1582
 20
65.0339
 30
0.0
 10
5.6581
 20
68.1101
 30
0.0
 10
6.0474
 20
71.3711
 30
0.0
 10
4.965
 20
74.878
 30
0.0
 10
4.965
 20
74.878
 30
0.0
 10
2.0749
 20
72.3537
 30
0.0
 10
1.2383
 20
69.1447
 30
0.0
 10
1.8986
 20
65.4371
 30
0.0
 10
1.8986
 20
65.4371
 30
0.0
 10
2.0061
 20
64.2806
 30
0.0
 10
-0.307
 20
62.8012
 30
0.0
 10
-1.4098
 20
61.4832
 30
0.0
 10
-1.4098
 20
61.4832
 30
0.0
 10
-2.1612
 20
66.9885
 30
0.0
 10
-1.7884
 20
71.4447
 30
0.0
 10
-0.9256
 20
75.443
 30
0.0
 10
-0.9256
 20
75.443
 30
0.0
 10
0.4732
 20
76.5592
 30
0.0
 10
1.9528
 20
75.9808
 30
0.0
 10
3.3919
 20
76.2498
 30
0.0
 10
3.3919
 20
76.2498
 30
0.0
 10
2.6402
 20
77.4631
 30
0.0
 10
1.5076
 20
77.9143
 30
0.0
 10
0.0029
 20
77.6216
 30
0.0
 10
0.0029
 20
77.6216
 30
0.0
 10
0.0029
 20
77.6216
 30
0.0
 10
-0.1585
 20
78.9531
 30
0.0
 10
-0.1585
 20
78.9531
 30
0.0
 10
-0.1585
 20
78.9531
 30
0.0
 10
2.3511
 20
78.9351
 30
0.0
 10
4.3793
 20
80.1681
 30
0.0
 10
5.8127
 20
82.9472
 30
0.0
 10
5.8127
 20
82.9472
 30
0.0
 10
3.6359
 20
84.1372
 30
0.0
 10
1.507
 20
83.9488
 30
0.0
 10
-0.5619
 20
82.0193
 30
0.0
 10
-0.5619
 20
82.0193
 30
0.0
 10
-0.5619
 20
82.0193
 30
0.0
 10
-0.8443
 20
85.2873
 30
0.0
 10
-0.8443
 20
85.2873
 30
0.0
 10
-0.8443
 20
85.2873
 30
0.0
 10
1.3869
 20
86.88
 30
0.0
 10
3.3268
 20
88.5893
 30
0.0
 10
4.4813
 20
90.6131
 30
0.0
 10
4.4813
 20
90.6131
 30
0.0
 10
5.0071
 20
91.1407
 30
0.0
 10
5.5834
 20
91.1346
 30
0.0
 10
6.2163
 20
90.5325
 30
0.0
 10
6.2163
 20
90.5325
 30
0.0
 10
8.6031
 20
88.9498
 30
0.0
 10
11.1188
 20
89.2369
 30
0.0
 10
13.7206
 20
90.7745
 30
0.0
 10
13.7206
 20
90.7745
 30
0.0
 10
11.6763
 20
92.5959
 30
0.0
 10
9.6322
 20
93.5924
 30
0.0
 10
7.588
 20
93.4776
 30
0.0
 10
7.588
 20
93.4776
 30
0.0
 10
6.4714
 20
93.3009
 30
0.0
 10
6.2166
 20
94.0976
 30
0.0
 10
7.1442
 20
95.1722
 30
0.0
 10
7.1442
 20
95.1722
 30
0.0
 10
11.9397
 20
96.9176
 30
0.0
 10
14.641
 20
101.2805
 30
0.0
 10
15.1329
 20
108.4055
 30
0.0
 10
15.1329
 20
108.4055
 30
0.0
 10
11.3244
 20
106.5213
 30
0.0
 10
7.8812
 20
104.3234
 30
0.0
 10
6.3376
 20
100.4976
 30
0.0
 10
6.3376
 20
100.4976
 30
0.0
 10
6.1724
 20
97.9481
 30
0.0
 10
5.1847
 20
97.1026
 30
0.0
 10
3.5133
 20
97.6733
 30
0.0
 10
3.5133
 20
97.6733
 30
0.0
 10
1.6122
 20
97.7577
 30
0.0
 10
1.6353
 20
95.3024
 30
0.0
 10
3.8764
 20
94.3245
 30
0.0
 10
3.8764
 20
94.3245
 30
0.0
 10
4.3476
 20
94.1075
 30
0.0
 10
4.0728
 20
93.3283
 30
0.0
 10
3.6747
 20
92.8721
 30
0.0
 10
3.6747
 20
92.8721
 30
0.0
 10
3.6747
 20
92.8721
 30
0.0
 10
0.0323
 20
88.4571
 30
0.0
 10
0.0323
 20
88.4571
 30
0.0
 10
0.0323
 20
88.4571
 30
0.0
 10
-0.9296
 20
87.7322
 30
0.0
 10
-2.2088
 20
87.6919
 30
0.0
 10
-3.0634
 20
90.4108
 30
0.0
 10
-3.0634
 20
90.4108
 30
0.0
 10
-3.5821
 20
97.4943
 30
0.0
 10
-2.8424
 20
103.8107
 30
0.0
 10
1.0518
 20
108.2031
 30
0.0
 10
1.0518
 20
108.2031
 30
0.0
 10
2.4665
 20
110.1073
 30
0.0
 10
4.5053
 20
110.7639
 30
0.0
 10
7.1037
 20
110.3011
 30
0.0
 10
7.1037
 20
110.3011
 30
0.0
 10
7.1037
 20
110.3011
 30
0.0
 10
10.4525
 20
109.3328
 30
0.0
 10
10.4525
 20
109.3328
 30
0.0
 10
10.4525
 20
109.3328
 30
0.0
 10
12.7256
 20
109.2189
 30
0.0
 10
12.9267
 20
112.1634
 30
0.0
 10
10.5735
 20
111.9957
 30
0.0
 10
10.5735
 20
111.9957
 30
0.0
 10
10.5735
 20
111.9957
 30
0.0
 10
8.3948
 20
112.399
 30
0.0
 10
8.3948
 20
112.399
 30
0.0
 10
8.3948
 20
112.399
 30
0.0
 10
9.5462
 20
114.4269
 30
0.0
 10
9.3817
 20
116.5174
 30
0.0
 10
8.2737
 20
118.6527
 30
0.0
 10
8.2737
 20
118.6527
 30
0.0
 10
6.9039
 20
117.0319
 30
0.0
 10
6.1735
 20
115.0555
 30
0.0
 10
6.7406
 20
112.3587
 30
0.0
 10
6.7406
 20
112.3587
 30
0.0
 10
6.7406
 20
112.3587
 30
0.0
 10
4.6426
 20
112.3183
 30
0.0
 10
4.6426
 20
112.3183
 30
0.0
 10
4.6426
 20
112.3183
 30
0.0
 10
4.1474
 20
116.1851
 30
0.0
 10
2.1118
 20
117.6772
 30
0.0
 10
-0.9656
 20
117.5633
 30
0.0
 10
-0.9656
 20
117.5633
 30
0.0
 10
0.0431
 20
115.5326
 30
0.0
 10
0.4465
 20
113.0581
 30
0.0
 10
2.0604
 20
111.4711
 30
0.0
 10
2.0604
 20
111.4711
 30
0.0
 10
0.9378
 20
110.6952
 30
0.0
 10
-0.475
 20
110.8482
 30
0.0
 10
-2.1356
 20
111.7939
 30
0.0
 10
-2.1356
 20
111.7939
 30
0.0
 10
-6.0596
 20
117.7629
 30
0.0
 10
-11.8287
 20
113.7687
 30
0.0
 10
-17.9116
 20
108.0819
 30
0.0
 10
-17.9116
 20
108.0819
 30
0.0
 10
-15.4235
 20
108.0592
 30
0.0
 10
-12.9353
 20
107.5677
 30
0.0
 10
-10.4475
 20
105.8225
 30
0.0
 10
-10.4475
 20
105.8225
 30
0.0
 10
-9.423
 20
104.8966
 30
0.0
 10
-8.5078
 20
104.6038
 30
0.0
 10
-7.6232
 20
104.2489
 30
0.0
 10
-7.6232
 20
104.2489
 30
0.0
 10
-8.6319
 20
102.9982
 30
0.0
 10
-9.0757
 20
101.1827
 30
0.0
 10
-9.802
 20
99.6496
 30
0.0
 10
-9.802
 20
99.6496
 30
0.0
 10
-12.8123
 20
101.3561
 30
0.0
 10
-16.0307
 20
101.8168
 30
0.0
 10
-19.3641
 20
101.5862
 30
0.0
 10
-19.3641
 20
101.5862
 30
0.0
 10
-15.195
 20
99.2461
 30
0.0
 10
-16.7548
 20
92.5484
 30
0.0
 10
-9.7617
 20
94.5658
 30
0.0
 10
-9.7617
 20
94.5658
 30
0.0
 10
-7.704
 20
90.733
 30
0.0
 10
-4.1939
 20
89.4016
 30
0.0
 10
-3.5887
 20
83.0674
 30
0.0
 10
-3.5887
 20
83.0674
 30
0.0
 10
-3.343
 20
79.9871
 30
0.0
 10
-3.6373
 20
77.1112
 30
0.0
 10
-3.9115
 20
72.0932
 30
0.0
 10
-3.9115
 20
72.0932
 30
0.0
 10
-4.1151
 20
69.4781
 30
0.0
 10
-5.2165
 20
68.2737
 30
0.0
 10
-7.3006
 20
68.3814
 30
0.0
 10
-7.3006
 20
68.3814
 30
0.0
 10
-7.3006
 20
68.3814
 30
0.0
 10
-9.6004
 20
69.1681
 30
0.0
 10
-9.6004
 20
69.1681
 30
0.0
 10
-9.6004
 20
69.1681
 30
0.0
 10
-9.9734
 20
69.3495
 30
0.0
 10
-9.9905
 20
69.6821
 30
0.0
 10
-9.6811
 20
70.2573
 30
0.0
 10
-9.6811
 20
70.2573
 30
0.0
 10
-8.0314
 20
71.219
 30
0.0
 10
-7.0335
 20
73.0278
 30
0.0
 10
-6.998
 20
76.0874
 30
0.0
 10
-6.998
 20
76.0874
 30
0.0
 10
-9.4714
 20
75.7179
 30
0.0
 10
-10.9729
 20
74.0631
 30
0.0
 10
-11.7787
 20
71.488
 30
0.0
 10
-11.7787
 20
71.488
 30
0.0
 10
-14.669
 20
73.0911
 30
0.0
 10
-17.3747
 20
75.0363
 30
0.0
 10
-19.8883
 20
77.3382
 30
0.0
 10
-19.8883
 20
77.3382
 30
0.0
 10
-20.7381
 20
78.4354
 30
0.0
 10
-19.9598
 20
80.3497
 30
0.0
 10
-18.8796
 20
79.759
 30
0.0
 10
-18.8796
 20
79.759
 30
0.0
 10
-16.9285
 20
77.0799
 30
0.0
 10
-14.1869
 20
76.2916
 30
0.0
 10
-10.7297
 20
77.2172
 30
0.0
 10
-10.7297
 20
77.2172
 30
0.0
 10
-11.7912
 20
79.3849
 30
0.0
 10
-13.0953
 20
81.2392
 30
0.0
 10
-15.4503
 20
81.736
 30
0.0
 10
-15.4503
 20
81.736
 30
0.0
 10
-13.3239
 20
82.7766
 30
0.0
 10
-12.3319
 20
84.6491
 30
0.0
 10
-12.6261
 20
87.4651
 30
0.0
 10
-12.6261
 20
87.4651
 30
0.0
 10
-14.2101
 20
87.1576
 30
0.0
 10
-15.7756
 20
86.4682
 30
0.0
 10
-17.3061
 20
85.0845
 30
0.0
 10
-17.3061
 20
85.0845
 30
0.0
 10
-18.1408
 20
88.2903
 30
0.0
 10
-19.6181
 20
90.9965
 30
0.0
 10
-21.9054
 20
93.0729
 30
0.0
 10
-21.9054
 20
93.0729
 30
0.0
 10
-21.9054
 20
93.0729
 30
0.0
 10
-22.7528
 20
83.7934
 30
0.0
 10
-22.7528
 20
83.7934
 30
0.0
 10
-22.7528
 20
83.7934
 30
0.0
 10
-23.6886
 20
83.9517
 30
0.0
 10
-24.3587
 20
84.6709
 30
0.0
 10
-24.8105
 20
85.8511
 30
0.0
 10
-24.8105
 20
85.8511
 30
0.0
 10
-25.7225
 20
82.2096
 30
0.0
 10
-24.2623
 20
80.2932
 30
0.0
 10
-21.623
 20
79.2343
 30
0.0
 10
-21.623
 20
79.2343
 30
0.0
 10
-22.9158
 20
78.2376
 30
0.0
 10
-24.9692
 20
77.2678
 30
0.0
 10
-26.5856
 20
76.9346
 30
0.0
 10
-26.5856
 20
76.9346
 30
0.0
 10
-24.864
 20
75.6503
 30
0.0
 10
-23.1426
 20
75.2862
 30
0.0
 10
-21.4213
 20
76.6924
 30
0.0
 10
-21.4213
 20
76.6924
 30
0.0
 10
-21.4213
 20
76.6924
 30
0.0
 10
-13.8362
 20
70.2774
 30
0.0
 10
-13.8362
 20
70.2774
 30
0.0
 10
-13.8362
 20
70.2774
 30
0.0
 10
-13.216
 20
69.6441
 30
0.0
 10
-13.7769
 20
69.0139
 30
0.0
 10
-14.401
 20
69.2283
 30
0.0
 10
-14.401
 20
69.2283
 30
0.0
 10
-16.7013
 20
70.1951
 30
0.0
 10
-18.7515
 20
70.1383
 30
0.0
 10
-19.868
 20
67.6148
 30
0.0
 10
-19.868
 20
67.6148
 30
0.0
 10
-20.5376
 20
65.1973
 30
0.0
 10
-18.823
 20
65.5083
 30
0.0
 10
-18.8392
 20
63.3784
 30
0.0
 10
-18.8392
 20
63.3784
 30
0.0
 10
-18.5463
 20
61.8582
 30
0.0
 10
-20.6111
 20
60.6485
 30
0.0
 10
-21.4213
 20
61.6031
 30
0.0
 10
-21.4213
 20
61.6031
 30
0.0
 10
-23.0979
 20
65.1957
 30
0.0
 10
-20.9059
 20
67.3051
 30
0.0
 10
-24.9718
 20
69.0671
 30
0.0
 10
-24.9718
 20
69.0671
 30
0.0
 10
-24.4776
 20
71.6536
 30
0.0
 10
-25.762
 20
73.4469
 30
0.0
 10
-28.7644
 20
74.4736
 30
0.0
 10
-28.7644
 20
74.4736
 30
0.0
 10
-28.993
 20
72.3891
 30
0.0
 10
-27.7086
 20
71.1315
 30
0.0
 10
-27.6346
 20
69.3093
 30
0.0
 10
-27.6346
 20
69.3093
 30
0.0
 10
-27.5545
 20
68.2106
 30
0.0
 10
-28.0105
 20
67.3011
 30
0.0
 10
-28.845
 20
66.5253
 30
0.0
 10
-28.845
 20
66.5253
 30
0.0
 10
-31.4151
 20
67.3536
 30
0.0
 10
-33.4159
 20
66.1273
 30
0.0
 10
-35.0179
 20
63.459
 30
0.0
 10
-35.0179
 20
63.459
 30
0.0
 10
-33.3709
 20
61.9207
 30
0.0
 10
-31.6489
 20
61.9976
 30
0.0
 10
-29.894
 20
62.7731
 30
0.0
 10
-29.894
 20
62.7731
 30
0.0
 10
-29.894
 20
62.7731
 30
0.0
 10
-28.8853
 20
55.5511
 30
0.0
 10
-28.8853
 20
55.5511
 30
0.0
 10
-28.8853
 20
55.5511
 30
0.0
 10
-26.126
 20
57.56
 30
0.0
 10
-24.2553
 20
59.968
 30
0.0
 10
-25.698
 20
63.8625
 30
0.0
 10
-25.698
 20
63.8625
 30
0.0
 10
-25.698
 20
63.8625
 30
0.0
 10
-26.8276
 20
66.5657
 30
0.0
 10
-26.8276
 20
66.5657
 30
0.0
 10
-26.8276
 20
66.5657
 30
0.0
 10
-27.0681
 20
67.7278
 30
0.0
 10
-25.9816
 20
68.1202
 30
0.0
 10
-25.2138
 20
67.1709
 30
0.0
 10
-25.2138
 20
67.1709
 30
0.0
 10
-23.7143
 20
65.9068
 30
0.0
 10
-23.2638
 20
63.3314
 30
0.0
 10
-22.9544
 20
59.5052
 30
0.0
 10
-22.9544
 20
59.5052
 30
0.0
 10
-22.9544
 20
59.5052
 30
0.0
 10
-22.3896
 20
52.9286
 30
0.0
 10
-22.3896
 20
52.9286
 30
0.0
 10
-22.3896
 20
52.9286
 30
0.0
 10
-26.6259
 20
53.3051
 30
0.0
 10
-27.1504
 20
50.4541
 30
0.0
 10
-30.2571
 20
49.3378
 30
0.0
 10
-30.2571
 20
49.3378
 30
0.0
 10
-27.6447
 20
47.985
 30
0.0
 10
-25.0964
 20
48.243
 30
0.0
 10
-22.5913
 20
49.5798
 30
0.0
 10
-22.5913
 20
49.5798
 30
0.0
 10
-21.6
 20
47.3376
 30
0.0
 10
-22.3583
 20
44.6938
 30
0.0
 10
-26.7872
 20
45.7066
 30
0.0
 10
-26.7872
 20
45.7066
 30
0.0
 10
-31.9686
 20
47.0215
 30
0.0
 10
-37.0579
 20
49.7146
 30
0.0
 10
-41.9168
 20
55.8733
 30
0.0
 10
-41.9168
 20
55.8733
 30
0.0
 10
-44.2912
 20
58.842
 30
0.0
 10
-45.245
 20
62.6751
 30
0.0
 10
-45.1445
 20
67.1502
 30
0.0
 10
-45.1445
 20
67.1502
 30
0.0
 10
-44.8056
 20
68.9485
 30
0.0
 10
-43.7023
 20
71.1486
 30
0.0
 10
-42.1391
 20
70.741
 30
0.0
 10
-42.1391
 20
70.741
 30
0.0
 10
-41.8502
 20
66.9381
 30
0.0
 10
-40.307
 20
65.74
 30
0.0
 10
-38.5079
 20
64.7294
 30
0.0
 10
-38.5079
 20
64.7294
 30
0.0
 10
-37.7216
 20
66.8678
 30
0.0
 10
-37.5986
 20
69.0061
 30
0.0
 10
-39.0728
 20
71.1445
 30
0.0
 10
-39.0728
 20
71.1445
 30
0.0
 10
-39.398
 20
71.9447
 30
0.0
 10
-39.0166
 20
72.2808
 30
0.0
 10
-37.6203
 20
71.9513
 30
0.0
 10
-37.6203
 20
71.9513
 30
0.0
 10
-33.6382
 20
71.7816
 30
0.0
 10
-31.2202
 20
73.7479
 30
0.0
 10
-30.0352
 20
77.398
 30
0.0
 10
-30.0352
 20
77.398
 30
0.0
 10
-32.7918
 20
77.5377
 30
0.0
 10
-35.1866
 20
76.7608
 30
0.0
 10
-37.1362
 20
74.8563
 30
0.0
 10
-37.1362
 20
74.8563
 30
0.0
 10
-37.93
 20
73.899
 30
0.0
 10
-38.73
 20
73.3121
 30
0.0
 10
-39.0728
 20
74.0494
 30
0.0
 10
-39.0728
 20
74.0494
 30
0.0
 10
-39.8386
 20
76.9904
 30
0.0
 10
-40.225
 20
80.0071
 30
0.0
 10
-40.001
 20
83.0866
 30
0.0
 10
-40.001
 20
83.0866
 30
0.0
 10
-39.8303
 20
84.498
 30
0.0
 10
-39.0124
 20
85.6673
 30
0.0
 10
-37.2682
 20
86.0839
 30
0.0
 10
-37.2682
 20
86.0839
 30
0.0
 10
-36.4577
 20
86.2654
 30
0.0
 10
-35.2233
 20
86.2344
 30
0.0
 10
-34.8366
 20
85.7495
 30
0.0
 10
-34.8366
 20
85.7495
 30
0.0
 10
-34.6562
 20
85.4422
 30
0.0
 10
-34.6881
 20
85.135
 30
0.0
 10
-34.777
 20
84.828
 30
0.0
 10
-34.777
 20
84.828
 30
0.0
 10
-35.2721
 20
83.6398
 30
0.0
 10
-34.5088
 20
83.6122
 30
0.0
 10
-34.0018
 20
83.8705
 30
0.0
 10
-34.0018
 20
83.8705
 30
0.0
 10
-33.3226
 20
84.0936
 30
0.0
 10
-33.4917
 20
85.7095
 30
0.0
 10
-33.5858
 20
87.202
 30
0.0
 10
-33.5858
 20
87.202
 30
0.0
 10
-30.4119
 20
87.7802
 30
0.0
 10
-28.6904
 20
92.8774
 30
0.0
 10
-26.2428
 20
95.7151
 30
0.0
 10
-26.2428
 20
95.7151
 30
0.0
 10
-30.2479
 20
96.5561
 30
0.0
 10
-33.4679
 20
95.2779
 30
0.0
 10
-35.3208
 20
90.3086
 30
0.0
 10
-35.3208
 20
90.3086
 30
0.0
 10
-35.4251
 20
88.8656
 30
0.0
 10
-36.3999
 20
88.1054
 30
0.0
 10
-36.8135
 20
90.1877
 30
0.0
 10
-36.8135
 20
90.1877
 30
0.0
 10
-36.6522
 20
95.5403
 30
0.0
 10
-40.4043
 20
95.6074
 30
0.0
 10
-41.8971
 20
99.4672
 30
0.0
 10
-41.8971
 20
99.4672
 30
0.0
 10
-42.0092
 20
97.7871
 30
0.0
 10
-42.4171
 20
96.2919
 30
0.0
 10
-43.39
 20
95.1501
 30
0.0
 10
-43.39
 20
95.1501
 30
0.0
 10
-43.39
 20
95.1501
 30
0.0
 10
-44.0759
 20
98.9427
 30
0.0
 10
-44.0759
 20
98.9427
 30
0.0
 10
-44.0759
 20
98.9427
 30
0.0
 10
-47.0478
 20
96.8061
 30
0.0
 10
-49.012
 20
94.3817
 30
0.0
 10
-49.7245
 20
91.5994
 30
0.0
 10
-49.7245
 20
91.5994
 30
0.0
 10
-50.0338
 20
90.216
 30
0.0
 10
-50.8697
 20
90.256
 30
0.0
 10
-52.226
 20
91.3574
 30
0.0
 10
-52.226
 20
91.3574
 30
0.0
 10
-52.8795
 20
94.718
 30
0.0
 10
-55.0415
 20
97.6529
 30
0.0
 10
-59.8917
 20
99.83
 30
0.0
 10
-59.8917
 20
99.83
 30
0.0
 10
-59.1974
 20
97.1335
 30
0.0
 10
-58.9992
 20
94.753
 30
0.0
 10
-59.4882
 20
92.8099
 30
0.0
 10
-59.4882
 20
92.8099
 30
0.0
 10
-63.233
 20
91.1151
 30
0.0
 10
-64.3503
 20
87.9687
 30
0.0
 10
-64.0066
 20
84.0143
 30
0.0
 10
-64.0066
 20
84.0143
 30
0.0
 10
-64.0066
 20
84.0143
 30
0.0
 10
-63.5225
 20
82.1584
 30
0.0
 10
-63.5225
 20
82.1584
 30
0.0
 10
-63.5225
 20
82.1584
 30
0.0
 10
-63.059
 20
80.5406
 30
0.0
 10
-63.7301
 20
80.2794
 30
0.0
 10
-64.8942
 20
81.7549
 30
0.0
 10
-64.8942
 20
81.7549
 30
0.0
 10
-67.0282
 20
84.2309
 30
0.0
 10
-70.128
 20
85.0388
 30
0.0
 10
-73.4476
 20
85.4668
 30
0.0
 10
-73.4476
 20
85.4668
 30
0.0
 10
-73.0443
 20
82.3106
 30
0.0
 10
-71.3227
 20
79.8814
 30
0.0
 10
-67.7992
 20
78.4465
 30
0.0
 10
-67.7992
 20
78.4465
 30
0.0
 10
-66.6021
 20
78.0229
 30
0.0
 10
-65.3648
 20
78.2247
 30
0.0
 10
-64.3294
 20
77.7202
 30
0.0
 10
-64.3294
 20
77.7202
 30
0.0
 10
-62.8773
 20
77.2672
 30
0.0
 10
-62.8091
 20
75.5771
 30
0.0
 10
-64.4101
 20
75.2188
 30
0.0
 10
-64.4101
 20
75.2188
 30
0.0
 10
-66.9115
 20
75.4341
 30
0.0
 10
-68.7273
 20
73.9547
 30
0.0
 10
-71.9145
 20
73.9278
 30
0.0
 10
-71.9145
 20
73.9278
 30
0.0
 10
-69.2993
 20
70.9772
 30
0.0
 10
-65.0893
 20
70.1531
 30
0.0
 10
-60.2141
 20
70.216
 30
0.0
 10
-60.2141
 20
70.216
 30
0.0
 10
-58.9199
 20
70.1347
 30
0.0
 10
-58.6765
 20
67.9501
 30
0.0
 10
-59.6492
 20
68.118
 30
0.0
 10
-59.6492
 20
68.118
 30
0.0
 10
-61.8953
 20
68.3063
 30
0.0
 10
-63.5562
 20
64.7223
 30
0.0
 10
-65.2977
 20
61.9047
 30
0.0
 10
-65.2977
 20
61.9047
 30
0.0
 10
-62.6745
 20
61.9078
 30
0.0
 10
-58.1201
 20
62.1206
 30
0.0
 10
-57.6722
 20
65.2535
 30
0.0
 10
-57.6722
 20
65.2535
 30
0.0
 10
-57.5843
 20
65.8818
 30
0.0
 10
-57.0547
 20
66.2659
 30
0.0
 10
-56.5426
 20
65.6973
 30
0.0
 10
-56.5426
 20
65.6973
 30
0.0
 10
-56.5426
 20
65.6973
 30
0.0
 10
-50.4908
 20
57.7488
 30
0.0
 10
-50.4908
 20
57.7488
 30
0.0
 10
-50.4908
 20
57.7488
 30
0.0
 10
-48.6283
 20
55.4578
 30
0.0
 10
-49.2523
 20
54.3506
 30
0.0
 10
-51.1564
 20
53.3513
 30
0.0
 10
-51.1564
 20
53.3513
 30
0.0
 10
-52.0721
 20
52.9831
 30
0.0
 10
-53.5688
 20
53.0486
 30
0.0
 10
-55.3323
 20
53.5729
 30
0.0
 10
-55.3323
 20
53.5729
 30
0.0
 10
-56.2085
 20
53.9247
 30
0.0
 10
-56.2651
 20
54.7414
 30
0.0
 10
-55.655
 20
55.3686
 30
0.0
 10
-55.655
 20
55.3686
 30
0.0
 10
-54.875
 20
56.2695
 30
0.0
 10
-55.7693
 20
56.8078
 30
0.0
 10
-56.583
 20
56.2562
 30
0.0
 10
-56.583
 20
56.2562
 30
0.0
 10
-57.4635
 20
55.6417
 30
0.0
 10
-58.4728
 20
55.4513
 30
0.0
 10
-59.7298
 20
56.0743
 30
0.0
 10
-59.7298
 20
56.0743
 30
0.0
 10
-63.018
 20
57.695
 30
0.0
 10
-64.9343
 20
54.716
 30
0.0
 10
-67.5367
 20
54.0368
 30
0.0
 10
-67.5367
 20
54.0368
 30
0.0
 10
-64.1332
 20
52.2652
 30
0.0
 10
-61.1298
 20
51.6929
 30
0.0
 10
-58.802
 20
53.1491
 30
0.0
 10
-58.802
 20
53.1491
 30
0.0
 10
-57.702
 20
54.3834
 30
0.0
 10
-56.2236
 20
53.3141
 30
0.0
 10
-56.7645
 20
52.3422
 30
0.0
 10
-56.7645
 20
52.3422
 30
0.0
 10
-58.6381
 20
51.7931
 30
0.0
 10
-59.3235
 20
49.8006
 30
0.0
 10
-59.6892
 20
47.42
 30
0.0
 10
-59.6892
 20
47.42
 30
0.0
 10
-56.9292
 20
46.5093
 30
0.0
 10
-55.0119
 20
47.631
 30
0.0
 10
-54.0811
 20
51.1317
 30
0.0
 10
-54.0811
 20
51.1317
 30
0.0
 10
-53.8835
 20
52.1133
 30
0.0
 10
-51.3737
 20
51.993
 30
0.0
 10
-51.4989
 20
50.5266
 30
0.0
 10
-51.4989
 20
50.5266
 30
0.0
 10
-52.2453
 20
49.0804
 30
0.0
 10
-52.4205
 20
47.0638
 30
0.0
 10
-52.3059
 20
44.7571
 30
0.0
 10
-52.3059
 20
44.7571
 30
0.0
 10
-50.2361
 20
45.5566
 30
0.0
 10
-49.0758
 20
46.5456
 30
0.0
 10
-49.1588
 20
49.175
 30
0.0
 10
-49.1588
 20
49.175
 30
0.0
 10
-49.4147
 20
50.453
 30
0.0
 10
-48.7218
 20
51.0779
 30
0.0
 10
-47.3636
 20
51.0106
 30
0.0
 10
-47.3636
 20
51.0106
 30
0.0
 10
-47.3636
 20
51.0106
 30
0.0
 10
-41.3215
 20
49.3566
 30
0.0
 10
-41.3215
 20
49.3566
 30
0.0
 10
-41.3215
 20
49.3566
 30
0.0
 10
-40.7318
 20
49.0323
 30
0.0
 10
-40.4854
 20
48.5705
 30
0.0
 10
-40.434
 20
48.0312
 30
0.0
 10
-40.434
 20
48.0312
 30
0.0
 10
-42.4245
 20
46.7132
 30
0.0
 10
-43.0431
 20
45.0322
 30
0.0
 10
-46.4053
 20
44.0773
 30
0.0
 10
-46.4053
 20
44.0773
 30
0.0
 10
-44.24
 20
43.2142
 30
0.0
 10
-42.0748
 20
42.8557
 30
0.0
 10
-39.9095
 20
43.3914
 30
0.0
 10
-39.9095
 20
43.3914
 30
0.0
 10
-39.9095
 20
43.3914
 30
0.0
 10
-36.6819
 20
46.1752
 30
0.0
 10
-36.6819
 20
46.1752
 30
0.0
 10
-36.6819
 20
46.1752
 30
0.0
 10
-34.7415
 20
46.7683
 30
0.0
 10
-33.1217
 20
45.1118
 30
0.0
 10
-35.189
 20
43.4317
 30
0.0
 10
-35.189
 20
43.4317
 30
0.0
 10
-36.2284
 20
42.132
 30
0.0
 10
-31.2184
 20
41.6825
 30
0.0
 10
-27.8286
 20
41.191
 30
0.0
  0
SPLINE
  5
4A
330
1F
100
AcDbEntity
  8
Camada 1
 62
   240
370
     9
100
AcDbSpline
210
0.0
220
0.0
230
1.0
 70
    11
 71
     3
 72
    36
 73
    32
 74
     0
 42
0.0000000001
 43
0.0000000001
 12
1.0
 22
0.0
 32
0.0
 13
1.0
 23
0.0
 33
0.0
 40
0.0
 40
0.0
 40
0.0
 40
0.0
 40
0.1111111111111111
 40
0.1111111111111111
 40
0.1111111111111111
 40
0.1111111111111111
 40
0.2222222222222222
 40
0.2222222222222222
 40
0.2222222222222222
 40
0.2222222222222222
 40
0.3333333333333333
 40
0.3333333333333333
 40
0.3333333333333333
 40
0.3333333333333333
 40
0.4444444444444444
 40
0.4444444444444444
 40
0.4444444444444444
 40
0.4444444444444444
 40
0.5555555555555556
 40
0.5555555555555556
 40
0.5555555555555556
 40
0.5555555555555556
 40
0.6666666666666666
 40
0.6666666666666666
 40
0.6666666666666666
 40
0.6666666666666666
 40
0.7777777777777778
 40
0.7777777777777778
 40
0.7777777777777778
 40
0.7777777777777778
 40
1.0
 40
1.0
 40
1.0
 40
1.0
 10
4.1591
 20
-156.3689
 30
0.0
 10
4.1591
 20
-156.3689
 30
0.0
 10
-54.0044
 20
-156.3689
 30
0.0
 10
-54.0044
 20
-156.3689
 30
0.0
 10
-54.0044
 20
-156.3689
 30
0.0
 10
-70.562
 20
-156.3689
 30
0.0
 10
-84.1089
 20
-147.5997
 30
0.0
 10
-84.1089
 20
-136.8816
 30
0.0
 10
-84.1089
 20
-136.8816
 30
0.0
 10
-84.1089
 20
-136.8816
 30
0.0
 10
-84.1089
 20
-136.8816
 30
0.0
 10
-84.1089
 20
-136.8816
 30
0.0
 10
-84.1089
 20
-136.8816
 30
0.0
 10
-84.1089
 20
-125.5994
 30
0.0
 10
-69.8488
 20
-116.3687
 30
0.0
 10
-52.4198
 20
-116.3687
 30
0.0
 10
-52.4198
 20
-116.3687
 30
0.0
 10
-52.4198
 20
-116.3687
 30
0.0
 10
5.8292
 20
-116.3687
 30
0.0
 10
5.8292
 20
-116.3687
 30
0.0
 10
5.8292
 20
-116.3687
 30
0.0
 10
22.363
 20
-116.3687
 30
0.0
 10
35.8911
 20
-125.1255
 30
0.0
 10
35.8911
 20
-135.8282
 30
0.0
 10
35.8911
 20
-135.8282
 30
0.0
 10
35.8911
 20
-135.8282
 30
0.0
 10
35.8911
 20
-135.8284
 30
0.0
 10
35.8911
 20
-135.8284
 30
0.0
 10
35.8911
 20
-135.8284
 30
0.0
 10
35.8911
 20
-147.1256
 30
0.0
 10
21.6116
 20
-156.3689
 30
0.0
 10
4.1591
 20
-156.3689
 30
0.0
  0
SPLINE
  5
4B
330
1F
100
AcDbEntity
  8
Camada 1
 62
   240
370
     9
100
AcDbSpline
210
0.0
220
0.0
230
1.0
 70
    11
 71
     3
 72
    20
 73
    16
 74
     0
 42
0.0000000001
 43
0.0000000001
 12
1.0
 22
0.0
 32
0.0
 13
1.0
 23
0.0
 33
0.0
 40
0.0
 40
0.0
 40
0.0
 40
0.0
 40
0.2
 40
0.2
 40
0.2
 40
0.2
 40
0.4
 40
0.4
 40
0.4
 40
0.4
 40
0.6
 40
0.6
 40
0.6
 40
0.6
 40
1.0
 40
1.0
 40
1.0
 40
1.0
 10
-9.8599
 20
-139.4688
 30
0.0
 10
-9.8599
 20
-139.4688
 30
0.0
 10
-38.3579
 20
-139.4688
 30
0.0
 10
-38.3579
 20
-139.4688
 30
0.0
 10
-38.3579
 20
-139.4688
 30
0.0
 10
-38.3579
 20
-139.4688
 30
0.0
 10
-38.3579
 20
-133.2688
 30
0.0
 10
-38.3579
 20
-133.2688
 30
0.0
 10
-38.3579
 20
-133.2688
 30
0.0
 10
-38.3579
 20
-133.2688
 30
0.0
 10
-9.8599
 20
-133.2688
 30
0.0
 10
-9.8599
 20
-133.2688
 30
0.0
 10
-9.8599
 20
-133.2688
 30
0.0
 10
-9.8599
 20
-133.2688
 30
0.0
 10
-9.8599
 20
-139.4688
 30
0.0
 10
-9.8599
 20
-139.4688
 30
0.0
  0
SPLINE
  5
4C
330
1F
100
AcDbEntity
  8
Camada 1
 62
   250
370
    20
100
AcDbSpline
210
0.0
220
0.0
230
1.0
 70
    24
 71
     3
 72
     8
 73
     4
 74
     0
 42
0.0000000001
 43
0.0000000001
 12
1.0
 22
0.0
 32
0.0
 13
1.0
 23
0.0
 33
0.0
 40
0.0
 40
0.0
 40
0.0
 40
0.0
 40
1.0
 40
1.0
 40
1.0
 40
1.0
 10
-78.5025
 20
-1.0072
 30
0.0
 10
-78.5025
 20
-1.0072
 30
0.0
 10
-76.9697
 20
1.2529
 30
0.0
 10
-76.9697
 20
1.2529
 30
0.0
  0
SPLINE
  5
4D
330
1F
100
AcDbEntity
  8
Camada 1
 62
   250
370
    20
100
AcDbSpline
210
0.0
220
0.0
230
1.0
 70
    24
 71
     3
 72
     8
 73
     4
 74
     0
 42
0.0000000001
 43
0.0000000001
 12
1.0
 22
0.0
 32
0.0
 13
1.0
 23
0.0
 33
0.0
 40
0.0
 40
0.0
 40
0.0
 40
0.0
 40
1.0
 40
1.0
 40
1.0
 40
1.0
 10
-107.2292
 20
31.8351
 30
0.0
 10
-107.2292
 20
31.8351
 30
0.0
 10
-108.7623
 20
36.9187
 30
0.0
 10
-108.7623
 20
36.9187
 30
0.0
  0
SPLINE
  5
4E
330
1F
100
AcDbEntity
  8
Camada 1
 62
   250
370
    20
100
AcDbSpline
210
0.0
220
0.0
230
1.0
 70
    24
 71
     3
 72
     8
 73
     4
 74
     0
 42
0.0000000001
 43
0.0000000001
 12
1.0
 22
0.0
 32
0.0
 13
1.0
 23
0.0
 33
0.0
 40
0.0
 40
0.0
 40
0.0
 40
0.0
 40
1.0
 40
1.0
 40
1.0
 40
1.0
 10
89.0989
 20
-28.4025
 30
0.0
 10
89.0989
 20
-28.4025
 30
0.0
 10
92.8914
 20
-23.2615
 30
0.0
 10
92.8914
 20
-23.2615
 30
0.0
  0
SPLINE
  5
4F
330
1F
100
AcDbEntity
  8
Camada 1
 62
   250
370
    20
100
AcDbSpline
210
0.0
220
0.0
230
1.0
 70
    24
 71
     3
 72
     8
 73
     4
 74
     0
 42
0.0000000001
 43
0.0000000001
 12
1.0
 22
0.0
 32
0.0
 13
1.0
 23
0.0
 33
0.0
 40
0.0
 40
0.0
 40
0.0
 40
0.0
 40
1.0
 40
1.0
 40
1.0
 40
1.0
 10
89.5588
 20
10.7976
 30
0.0
 10
89.5588
 20
10.7976
 30
0.0
 10
88.7563
 20
15.0581
 30
0.0
 10
88.7563
 20
15.0581
 30
0.0
  0
SPLINE
  5
50
330
1F
100
AcDbEntity
  8
Camada 1
 62
   250
370
    20
100
AcDbSpline
210
0.0
220
0.0
230
1.0
 70
    24
 71
     3
 72
     8
 73
     4
 74
     0
 42
0.0000000001
 43
0.0000000001
 12
1.0
 22
0.0
 32
0.0
 13
1.0
 23
0.0
 33
0.0
 40
0.0
 40
0.0
 40
0.0
 40
0.0
 40
1.0
 40
1.0
 40
1.0
 40
1.0
 10
87.6916
 20
26.1334
 30
0.0
 10
87.6916
 20
26.1334
 30
0.0
 10
86.2295
 20
28.2595
 30
0.0
 10
86.2295
 20
28.2595
 30
0.0
  0
ENDSEC
  0
SECTION
  2
OBJECTS
  0
DICTIONARY
  5
C
330
0
100
AcDbDictionary
281
     1
  3
ACAD_GROUP
350
D
  3
ACAD_LAYOUT
350
1A
  3
ACAD_MATERIAL
350
3B
  3
ACAD_MLEADERSTYLE
350
53
  3
ACAD_MLINESTYLE
350
17
  3
ACAD_PLOTSETTINGS
350
19
  3
ACAD_PLOTSTYLENAME
350
E
  3
ACAD_VISUALSTYLE
350
2A
  3
AcDbVariableDictionary
350
51
  0
DICTIONARY
  5
D
102
{ACAD_REACTORS
330
C
102
}
330
C
100
AcDbDictionary
281
     1
  0
DICTIONARY
  5
1A
102
{ACAD_REACTORS
330
C
102
}
330
C
100
AcDbDictionary
281
     1
  3
Layout1
350
1E
  3
Layout2
350
26
  3
Model
350
22
  0
DICTIONARY
  5
3B
102
{ACAD_REACTORS
330
C
102
}
330
C
100
AcDbDictionary
281
     1
  3
ByBlock
350
3D
  3
ByLayer
350
3C
  3
Global
350
3E
  0
DICTIONARY
  5
53
102
{ACAD_REACTORS
330
C
102
}
330
C
100
AcDbDictionary
281
     1
  0
DICTIONARY
  5
17
102
{ACAD_REACTORS
330
C
102
}
330
C
100
AcDbDictionary
281
     1
  3
Standard
350
18
  0
DICTIONARY
  5
19
102
{ACAD_REACTORS
330
C
102
}
330
C
100
AcDbDictionary
281
     1
  0
ACDBDICTIONARYWDFLT
  5
E
102
{ACAD_REACTORS
330
C
102
}
330
C
100
AcDbDictionary
281
     1
  3
Normal
350
F
100
AcDbDictionaryWithDefault
340
F
  0
DICTIONARY
  5
2A
102
{ACAD_REACTORS
330
C
102
}
330
C
100
AcDbDictionary
281
     1
  3
2dWireframe
350
2F
  3
3D Hidden
350
31
  3
3dWireframe
350
30
  3
Basic
350
32
  3
Brighten
350
36
  3
ColorChange
350
3A
  3
Conceptual
350
34
  3
Dim
350
35
  3
Facepattern
350
39
  3
Flat
350
2B
  3
FlatWithEdges
350
2C
  3
Gouraud
350
2D
  3
GouraudWithEdges
350
2E
  3
Linepattern
350
38
  3
Realistic
350
33
  3
Thicken
350
37
  0
DICTIONARY
  5
51
102
{ACAD_REACTORS
330
C
102
}
330
C
100
AcDbDictionary
281
     1
  3
DIMASSOC
350
54
  3
HIDETEXT
350
55
  0
LAYOUT
  5
1E
102
{ACAD_REACTORS
330
1A
102
}
330
1A
100
AcDbPlotSettings
  1

  2
none_device
  4

  6

 40
0.0
 41
0.0
 42
0.0
 43
0.0
 44
0.0
 45
0.0
 46
0.0
 47
0.0
 48
0.0
 49
0.0
140
0.0
141
0.0
142
1.0
143
1.0
 70
   688
 72
     0
 73
     0
 74
     5
  7

 75
    16
147
1.0
148
0.0
149
0.0
100
AcDbLayout
  1
Layout1
 70
     1
 71
     1
 10
0.0
 20
0.0
 11
12.0
 21
9.0
 12
0.0
 22
0.0
 32
0.0
 14
1.000000000000000E+20
 24
1.000000000000000E+20
 34
1.000000000000000E+20
 15
-1.000000000000000E+20
 25
-1.000000000000000E+20
 35
-1.000000000000000E+20
146
0.0
 13
0.0
 23
0.0
 33
0.0
 16
1.0
 26
0.0
 36
0.0
 17
0.0
 27
1.0
 37
0.0
 76
     0
330
1B
  0
LAYOUT
  5
26
102
{ACAD_REACTORS
330
1A
102
}
330
1A
100
AcDbPlotSettings
  1

  2
none_device
  4

  6

 40
0.0
 41
0.0
 42
0.0
 43
0.0
 44
0.0
 45
0.0
 46
0.0
 47
0.0
 48
0.0
 49
0.0
140
0.0
141
0.0
142
1.0
143
1.0
 70
   688
 72
     0
 73
     0
 74
     5
  7

 75
    16
147
1.0
148
0.0
149
0.0
100
AcDbLayout
  1
Layout2
 70
     1
 71
     2
 10
0.0
 20
0.0
 11
0.0
 21
0.0
 12
0.0
 22
0.0
 32
0.0
 14
0.0
 24
0.0
 34
0.0
 15
0.0
 25
0.0
 35
0.0
146
0.0
 13
0.0
 23
0.0
 33
0.0
 16
1.0
 26
0.0
 36
0.0
 17
0.0
 27
1.0
 37
0.0
 76
     0
330
23
  0
LAYOUT
  5
22
102
{ACAD_REACTORS
330
1A
102
}
330
1A
100
AcDbPlotSettings
  1

  2
none_device
  4

  6

 40
0.0
 41
0.0
 42
0.0
 43
0.0
 44
0.0
 45
0.0
 46
0.0
 47
0.0
 48
0.0
 49
0.0
140
0.0
141
0.0
142
1.0
143
1.0
 70
  1712
 72
     0
 73
     0
 74
     0
  7

 75
     0
147
1.0
148
0.0
149
0.0
100
AcDbLayout
  1
Model
 70
     1
 71
     0
 10
0.0
 20
0.0
 11
12.0
 21
9.0
 12
0.0
 22
0.0
 32
0.0
 14
-108.976
 24
-156.407
 34
0.0
 15
97.5532
 25
118.7207
 35
0.0
146
0.0
 13
0.0
 23
0.0
 33
0.0
 16
1.0
 26
0.0
 36
0.0
 17
0.0
 27
1.0
 37
0.0
 76
     0
330
1F
331
29
  0
MATERIAL
  5
3D
102
{ACAD_REACTORS
330
3B
102
}
102
{ACAD_XDICTIONARY
360
78
102
}
330
3B
100
AcDbMaterial
  1
ByBlock
  0
MATERIAL
  5
3C
102
{ACAD_REACTORS
330
3B
102
}
102
{ACAD_XDICTIONARY
360
76
102
}
330
3B
100
AcDbMaterial
  1
ByLayer
  0
MATERIAL
  5
3E
102
{ACAD_REACTORS
330
3B
102
}
102
{ACAD_XDICTIONARY
360
7A
102
}
330
3B
100
AcDbMaterial
  1
Global
  0
MLINESTYLE
  5
18
102
{ACAD_REACTORS
330
17
102
}
330
17
100
AcDbMlineStyle
  2
Standard
 70
     0
  3

 62
   256
 51
90.0
 52
90.0
 71
     2
 49
0.5
 62
   256
  6
BYLAYER
 49
-0.5
 62
   256
  6
BYLAYER
  0
ACDBPLACEHOLDER
  5
F
102
{ACAD_REACTORS
330
E
102
}
330
E
  0
VISUALSTYLE
  5
2F
102
{ACAD_REACTORS
330
2A
102
}
102
{ACAD_XDICTIONARY
360
5E
102
}
330
2A
100
AcDbVisualStyle
  2
2dWireframe
 70
     4
 71
     0
 72
     2
 73
     0
 90
        0
 40
-0.6
 41
-30.0
 62
     5
 63
     7
 74
     1
 91
        4
 64
     7
 65
   257
 75
     1
175
     1
 42
1.0
 92
        0
 66
   257
 43
1.0
 76
     1
 77
     6
 78
     2
 67
     7
 79
     5
170
     0
171
     0
290
     0
174
     0
 93
        1
 44
0.0
173
     0
291
     0
 45
0.0
1001
ACAD
1000
AcDbSavedByObjectVersion
1070
     0
  0
VISUALSTYLE
  5
31
102
{ACAD_REACTORS
330
2A
102
}
102
{ACAD_XDICTIONARY
360
62
102
}
330
2A
100
AcDbVisualStyle
  2
3D Hidden
 70
     6
 71
     1
 72
     2
 73
     2
 90
        0
 40
-0.6
 41
-30.0
 62
     5
 63
     7
 74
     2
 91
        2
 64
     7
 65
   257
 75
     2
175
     1
 42
40.0
 92
        0
 66
   257
 43
1.0
 76
     1
 77
     6
 78
     2
 67
     7
 79
     3
170
     0
171
     0
290
     0
174
     0
 93
        1
 44
0.0
173
     0
291
     0
 45
0.0
1001
ACAD
1000
AcDbSavedByObjectVersion
1070
     0
  0
VISUALSTYLE
  5
30
102
{ACAD_REACTORS
330
2A
102
}
102
{ACAD_XDICTIONARY
360
60
102
}
330
2A
100
AcDbVisualStyle
  2
3dWireframe
 70
     5
 71
     0
 72
     2
 73
     0
 90
        0
 40
-0.6
 41
-30.0
 62
     5
 63
     7
 74
     1
 91
        4
 64
     7
 65
   257
 75
     1
175
     1
 42
1.0
 92
        0
 66
   257
 43
1.0
 76
     1
 77
     6
 78
     2
 67
     7
 79
     5
170
     0
171
     0
290
     0
174
     0
 93
        1
 44
0.0
173
     0
291
     0
 45
0.0
1001
ACAD
1000
AcDbSavedByObjectVersion
1070
     0
  0
VISUALSTYLE
  5
32
102
{ACAD_REACTORS
330
2A
102
}
102
{ACAD_XDICTIONARY
360
64
102
}
330
2A
100
AcDbVisualStyle
  2
Basic
 70
     7
 71
     1
 72
     0
 73
     1
 90
        0
 40
-0.6
 41
-30.0
 62
     5
 63
     7
 74
     0
 91
        4
 64
     7
 65
   257
 75
     1
175
     1
 42
1.0
 92
        8
 66
     7
 43
1.0
 76
     1
 77
     6
 78
     2
 67
     7
 79
     5
170
     0
171
     0
290
     0
174
     0
 93
        1
 44
0.0
173
     0
291
     1
 45
0.0
1001
ACAD
1000
AcDbSavedByObjectVersion
1070
     0
  0
VISUALSTYLE
  5
36
102
{ACAD_REACTORS
330
2A
102
}
102
{ACAD_XDICTIONARY
360
6C
102
}
330
2A
100
AcDbVisualStyle
  2
Brighten
 70
    12
 71
     2
 72
     2
 73
     0
 90
        0
 40
-0.6
 41
-30.0
 62
     5
 63
     7
 74
     1
 91
        4
 64
     7
 65
   257
 75
     1
175
     1
 42
1.0
 92
        8
 66
     7
 43
1.0
 76
     1
 77
     6
 78
     2
 67
     7
 79
     5
170
     0
171
     0
290
     0
174
     0
 93
        1
 44
50.0
173
     0
291
     1
 45
0.0
1001
ACAD
1000
AcDbSavedByObjectVersion
1070
     0
  0
VISUALSTYLE
  5
3A
102
{ACAD_REACTORS
330
2A
102
}
102
{ACAD_XDICTIONARY
360
74
102
}
330
2A
100
AcDbVisualStyle
  2
ColorChange
 70
    16
 71
     2
 72
     2
 73
     3
 90
        0
 40
-0.6
 41
-30.0
 62
     5
 63
     8
 74
     1
 91
        4
 64
     7
 65
   257
 75
     1
175
     1
 42
1.0
 92
        8
 66
     8
 43
1.0
 76
     1
 77
     6
 78
     2
 67
     7
 79
     5
170
     0
171
     0
290
     0
174
     0
 93
        1
 44
0.0
173
     0
291
     1
 45
0.0
1001
ACAD
1000
AcDbSavedByObjectVersion
1070
     0
  0
VISUALSTYLE
  5
34
102
{ACAD_REACTORS
330
2A
102
}
102
{ACAD_XDICTIONARY
360
68
102
}
330
2A
100
AcDbVisualStyle
  2
Conceptual
 70
     9
 71
     3
 72
     2
 73
     0
 90
        0
 40
-0.6
 41
-30.0
 62
     5
 63
     7
 74
     2
 91
        2
 64
     7
 65
   257
 75
     1
175
     1
 42
40.0
 92
        8
 66
     7
 43
1.0
 76
     1
 77
     6
 78
     2
 67
     7
 79
     3
170
     0
171
     0
290
     0
174
     0
 93
        1
 44
0.0
173
     0
291
     0
 45
0.0
1001
ACAD
1000
AcDbSavedByObjectVersion
1070
     0
  0
VISUALSTYLE
  5
35
102
{ACAD_REACTORS
330
2A
102
}
102
{ACAD_XDICTIONARY
360
6A
102
}
330
2A
100
AcDbVisualStyle
  2
Dim
 70
    11
 71
     2
 72
     2
 73
     0
 90
        0
 40
-0.6
 41
-30.0
 62
     5
 63
     7
 74
     1
 91
        4
 64
     7
 65
   257
 75
     1
175
     1
 42
1.0
 92
        8
 66
     7
 43
1.0
 76
     1
 77
     6
 78
     2
 67
     7
 79
     5
170
     0
171
     0
290
     0
174
     0
 93
        1
 44
-50.0
173
     0
291
     1
 45
0.0
1001
ACAD
1000
AcDbSavedByObjectVersion
1070
     0
  0
VISUALSTYLE
  5
39
102
{ACAD_REACTORS
330
2A
102
}
102
{ACAD_XDICTIONARY
360
72
102
}
330
2A
100
AcDbVisualStyle
  2
Facepattern
 70
    15
 71
     2
 72
     2
 73
     0
 90
        0
 40
-0.6
 41
-30.0
 62
     5
 63
     7
 74
     1
 91
        4
 64
     7
 65
   257
 75
     1
175
     1
 42
1.0
 92
        8
 66
     7
 43
1.0
 76
     1
 77
     6
 78
     2
 67
     7
 79
     5
170
     0
171
     0
290
     0
174
     0
 93
        1
 44
0.0
173
     0
291
     1
 45
0.0
1001
ACAD
1000
AcDbSavedByObjectVersion
1070
     0
  0
VISUALSTYLE
  5
2B
102
{ACAD_REACTORS
330
2A
102
}
102
{ACAD_XDICTIONARY
360
56
102
}
330
2A
100
AcDbVisualStyle
  2
Flat
 70
     0
 71
     2
 72
     1
 73
     1
 90
        2
 40
-0.6
 41
30.0
 62
     5
 63
     7
 74
     0
 91
        4
 64
     7
 65
   257
 75
     1
175
     1
 42
1.0
 92
        8
 66
     7
 43
1.0
 76
     1
 77
     6
 78
     2
 67
     7
 79
     5
170
     0
171
     0
290
     0
174
     0
 93
       13
 44
0.0
173
     0
291
     1
 45
0.0
1001
ACAD
1000
AcDbSavedByObjectVersion
1070
     0
  0
VISUALSTYLE
  5
2C
102
{ACAD_REACTORS
330
2A
102
}
102
{ACAD_XDICTIONARY
360
58
102
}
330
2A
100
AcDbVisualStyle
  2
FlatWithEdges
 70
     1
 71
     2
 72
     1
 73
     1
 90
        2
 40
-0.6
 41
30.0
 62
     5
 63
     7
 74
     1
 91
        4
 64
     7
 65
   257
 75
     1
175
     1
 42
1.0
 92
        0
 66
   257
 43
1.0
 76
     1
 77
     6
 78
     2
 67
     7
 79
     5
170
     0
171
     0
290
     0
174
     0
 93
       13
 44
0.0
173
     0
291
     1
 45
0.0
1001
ACAD
1000
AcDbSavedByObjectVersion
1070
     0
  0
VISUALSTYLE
  5
2D
102
{ACAD_REACTORS
330
2A
102
}
102
{ACAD_XDICTIONARY
360
5A
102
}
330
2A
100
AcDbVisualStyle
  2
Gouraud
 70
     2
 71
     2
 72
     2
 73
     1
 90
        2
 40
-0.6
 41
30.0
 62
     5
 63
     7
 74
     0
 91
        4
 64
     7
 65
   257
 75
     1
175
     1
 42
1.0
 92
        0
 66
     7
 43
1.0
 76
     1
 77
     6
 78
     2
 67
     7
 79
     5
170
     0
171
     0
290
     0
174
     0
 93
       13
 44
0.0
173
     0
291
     1
 45
0.0
1001
ACAD
1000
AcDbSavedByObjectVersion
1070
     0
  0
VISUALSTYLE
  5
2E
102
{ACAD_REACTORS
330
2A
102
}
102
{ACAD_XDICTIONARY
360
5C
102
}
330
2A
100
AcDbVisualStyle
  2
GouraudWithEdges
 70
     3
 71
     2
 72
     2
 73
     1
 90
        2
 40
-0.6
 41
30.0
 62
     5
 63
     7
 74
     1
 91
        4
 64
     7
 65
   257
 75
     1
175
     1
 42
1.0
 92
        0
 66
   257
 43
1.0
 76
     1
 77
     6
 78
     2
 67
     7
 79
     5
170
     0
171
     0
290
     0
174
     0
 93
       13
 44
0.0
173
     0
291
     1
 45
0.0
1001
ACAD
1000
AcDbSavedByObjectVersion
1070
     0
  0
VISUALSTYLE
  5
38
102
{ACAD_REACTORS
330
2A
102
}
102
{ACAD_XDICTIONARY
360
70
102
}
330
2A
100
AcDbVisualStyle
  2
Linepattern
 70
    14
 71
     2
 72
     2
 73
     0
 90
        0
 40
-0.6
 41
-30.0
 62
     5
 63
     7
 74
     1
 91
        4
 64
     7
 65
   257
 75
     7
175
     7
 42
1.0
 92
        8
 66
     7
 43
1.0
 76
     1
 77
     6
 78
     2
 67
     7
 79
     5
170
     0
171
     0
290
     0
174
     0
 93
        1
 44
0.0
173
     0
291
     1
 45
0.0
1001
ACAD
1000
AcDbSavedByObjectVersion
1070
     0
  0
VISUALSTYLE
  5
33
102
{ACAD_REACTORS
330
2A
102
}
102
{ACAD_XDICTIONARY
360
66
102
}
330
2A
100
AcDbVisualStyle
  2
Realistic
 70
     8
 71
     2
 72
     2
 73
     0
 90
        0
 40
-0.6
 41
-30.0
 62
     5
 63
     7
 74
     1
 91
        0
 64
     7
 65
   257
 75
     1
175
     1
 42
1.0
 92
        8
 66
     8
 43
1.0
 76
     1
 77
     6
 78
     2
 67
     7
 79
     5
170
     0
171
     0
290
     0
174
     0
 93
       13
 44
0.0
173
     0
291
     0
 45
0.0
1001
ACAD
1000
AcDbSavedByObjectVersion
1070
     0
  0
VISUALSTYLE
  5
37
102
{ACAD_REACTORS
330
2A
102
}
102
{ACAD_XDICTIONARY
360
6E
102
}
330
2A
100
AcDbVisualStyle
  2
Thicken
 70
    13
 71
     2
 72
     2
 73
     0
 90
        0
 40
-0.6
 41
-30.0
 62
     5
 63
     7
 74
     1
 91
        4
 64
     7
 65
   257
 75
     1
175
     1
 42
1.0
 92
       12
 66
     7
 43
1.0
 76
     1
 77
     6
 78
     2
 67
     7
 79
     5
170
     0
171
     0
290
     0
174
     0
 93
        1
 44
0.0
173
     0
291
     1
 45
0.0
1001
ACAD
1000
AcDbSavedByObjectVersion
1070
     0
  0
DICTIONARYVAR
  5
54
102
{ACAD_REACTORS
330
51
102
}
330
51
100
DictionaryVariables
280
     0
  1
2
  0
DICTIONARYVAR
  5
55
102
{ACAD_REACTORS
330
51
102
}
330
51
100
DictionaryVariables
280
     0
  1
1
  0
DICTIONARY
  5
78
330
3D
100
AcDbDictionary
280
     1
281
     1
  3
ACAD_XREC_ROUNDTRIP
360
79
  0
DICTIONARY
  5
76
330
3C
100
AcDbDictionary
280
     1
281
     1
  3
ACAD_XREC_ROUNDTRIP
360
77
  0
DICTIONARY
  5
7A
330
3E
100
AcDbDictionary
280
     1
281
     1
  3
ACAD_XREC_ROUNDTRIP
360
7B
  0
DICTIONARY
  5
5E
330
2F
100
AcDbDictionary
280
     1
281
     1
  3
ACAD_XREC_ROUNDTRIP
360
5F
  0
DICTIONARY
  5
62
330
31
100
AcDbDictionary
280
     1
281
     1
  3
ACAD_XREC_ROUNDTRIP
360
63
  0
DICTIONARY
  5
60
330
30
100
AcDbDictionary
280
     1
281
     1
  3
ACAD_XREC_ROUNDTRIP
360
61
  0
DICTIONARY
  5
64
330
32
100
AcDbDictionary
280
     1
281
     1
  3
ACAD_XREC_ROUNDTRIP
360
65
  0
DICTIONARY
  5
6C
330
36
100
AcDbDictionary
280
     1
281
     1
  3
ACAD_XREC_ROUNDTRIP
360
6D
  0
DICTIONARY
  5
74
330
3A
100
AcDbDictionary
280
     1
281
     1
  3
ACAD_XREC_ROUNDTRIP
360
75
  0
DICTIONARY
  5
68
330
34
100
AcDbDictionary
280
     1
281
     1
  3
ACAD_XREC_ROUNDTRIP
360
69
  0
DICTIONARY
  5
6A
330
35
100
AcDbDictionary
280
     1
281
     1
  3
ACAD_XREC_ROUNDTRIP
360
6B
  0
DICTIONARY
  5
72
330
39
100
AcDbDictionary
280
     1
281
     1
  3
ACAD_XREC_ROUNDTRIP
360
73
  0
DICTIONARY
  5
56
330
2B
100
AcDbDictionary
280
     1
281
     1
  3
ACAD_XREC_ROUNDTRIP
360
57
  0
DICTIONARY
  5
58
330
2C
100
AcDbDictionary
280
     1
281
     1
  3
ACAD_XREC_ROUNDTRIP
360
59
  0
DICTIONARY
  5
5A
330
2D
100
AcDbDictionary
280
     1
281
     1
  3
ACAD_XREC_ROUNDTRIP
360
5B
  0
DICTIONARY
  5
5C
330
2E
100
AcDbDictionary
280
     1
281
     1
  3
ACAD_XREC_ROUNDTRIP
360
5D
  0
DICTIONARY
  5
70
330
38
100
AcDbDictionary
280
     1
281
     1
  3
ACAD_XREC_ROUNDTRIP
360
71
  0
DICTIONARY
  5
66
330
33
100
AcDbDictionary
280
     1
281
     1
  3
ACAD_XREC_ROUNDTRIP
360
67
  0
DICTIONARY
  5
6E
330
37
100
AcDbDictionary
280
     1
281
     1
  3
ACAD_XREC_ROUNDTRIP
360
6F
  0
XRECORD
  5
79
102
{ACAD_REACTORS
330
78
102
}
330
78
100
AcDbXrecord
280
     1
102
MATERIAL
148
0.0
149
0.0
149
0.0
 93
        0
 94
      127
282
     0
 72
     1
 77
     1
171
     1
175
     1
179
     1
273
     0
  0
XRECORD
  5
77
102
{ACAD_REACTORS
330
76
102
}
330
76
100
AcDbXrecord
280
     1
102
MATERIAL
148
0.0
149
0.0
149
0.0
 93
        0
 94
      127
282
     0
 72
     1
 77
     1
171
     1
175
     1
179
     1
273
     0
  0
XRECORD
  5
7B
102
{ACAD_REACTORS
330
7A
102
}
330
7A
100
AcDbXrecord
280
     1
102
MATERIAL
148
0.0
149
0.0
149
0.0
 93
        0
 94
      127
282
     0
 72
     1
 77
     1
171
     1
175
     1
179
     1
273
     0
  0
XRECORD
  5
5F
102
{ACAD_REACTORS
330
5E
102
}
330
5E
100
AcDbXrecord
280
     1
102
RTVSPropertyOp0
 70
     1
102
RTVSPropertyOp1
 70
     1
102
RTVSPropertyOp2
 70
     1
102
RTVSPropertyOp3
 70
     1
102
RTVSPropertyOp4
 70
     1
102
RTVSPropertyOp5
 70
     1
102
RTVSPropertyOp6
 70
     1
102
RTVSPropertyOp7
 70
     1
102
RTVSPropertyOp8
 70
     1
102
RTVSPropertyOp9
 70
     1
102
RTVSPropertyOp10
 70
     1
102
RTVSPropertyOp11
 70
     1
102
RTVSPropertyOp12
 70
     1
102
RTVSPropertyOp13
 70
     1
102
RTVSPropertyOp14
 70
     1
102
RTVSPropertyOp15
 70
     1
102
RTVSPropertyOp16
 70
     1
102
RTVSPropertyOp17
 70
     1
102
RTVSPropertyOp18
 70
     1
102
RTVSPropertyOp19
 70
     1
102
RTVSPropertyOp20
 70
     1
102
RTVSPropertyOp21
 70
     1
102
RTVSPropertyOp22
 70
     1
102
RTVSPropertyOp23
 70
     1
102
RTVSPropertyOp24
 70
     1
102
RTVSPropertyOp25
 70
     1
102
RTVSPropertyOp26
 70
     1
102
RTVSPropertyOp27
 70
     1
102
RTVSPropertyOp28
 70
     1
102
RTVSPropertyOp29
 70
     1
102
RTVSPropertyOp30
 70
     1
102
RTVSPropertyOp31
 70
     1
102
RTVSPropertyOp32
 70
     1
  0
XRECORD
  5
63
102
{ACAD_REACTORS
330
62
102
}
330
62
100
AcDbXrecord
280
     1
102
RTVSPropertyOp0
 70
     1
102
RTVSPropertyOp1
 70
     1
102
RTVSPropertyOp2
 70
     1
102
RTVSPropertyOp3
 70
     1
102
RTVSPropertyOp4
 70
     1
102
RTVSPropertyOp5
 70
     1
102
RTVSPropertyOp6
 70
     1
102
RTVSPropertyOp7
 70
     1
102
RTVSPropertyOp8
 70
     1
102
RTVSPropertyOp9
 70
     1
102
RTVSPropertyOp10
 70
     1
102
RTVSPropertyOp11
 70
     1
102
RTVSPropertyOp12
 70
     1
102
RTVSPropertyOp13
 70
     1
102
RTVSPropertyOp14
 70
     1
102
RTVSPropertyOp15
 70
     1
102
RTVSPropertyOp16
 70
     1
102
RTVSPropertyOp17
 70
     1
102
RTVSPropertyOp18
 70
     1
102
RTVSPropertyOp19
 70
     1
102
RTVSPropertyOp20
 70
     1
102
RTVSPropertyOp21
 70
     1
102
RTVSPropertyOp22
 70
     1
102
RTVSPropertyOp23
 70
     1
102
RTVSPropertyOp24
 70
     1
102
RTVSPropertyOp25
 70
     1
102
RTVSPropertyOp26
 70
     1
102
RTVSPropertyOp27
 70
     1
102
RTVSPropertyOp28
 70
     1
102
RTVSPropertyOp29
 70
     1
102
RTVSPropertyOp30
 70
     1
102
RTVSPropertyOp31
 70
     1
102
RTVSPropertyOp32
 70
     1
  0
XRECORD
  5
61
102
{ACAD_REACTORS
330
60
102
}
330
60
100
AcDbXrecord
280
     1
102
RTVSPropertyOp0
 70
     1
102
RTVSPropertyOp1
 70
     1
102
RTVSPropertyOp2
 70
     1
102
RTVSPropertyOp3
 70
     1
102
RTVSPropertyOp4
 70
     1
102
RTVSPropertyOp5
 70
     1
102
RTVSPropertyOp6
 70
     1
102
RTVSPropertyOp7
 70
     1
102
RTVSPropertyOp8
 70
     1
102
RTVSPropertyOp9
 70
     1
102
RTVSPropertyOp10
 70
     1
102
RTVSPropertyOp11
 70
     1
102
RTVSPropertyOp12
 70
     1
102
RTVSPropertyOp13
 70
     1
102
RTVSPropertyOp14
 70
     1
102
RTVSPropertyOp15
 70
     1
102
RTVSPropertyOp16
 70
     1
102
RTVSPropertyOp17
 70
     1
102
RTVSPropertyOp18
 70
     1
102
RTVSPropertyOp19
 70
     1
102
RTVSPropertyOp20
 70
     1
102
RTVSPropertyOp21
 70
     1
102
RTVSPropertyOp22
 70
     1
102
RTVSPropertyOp23
 70
     1
102
RTVSPropertyOp24
 70
     1
102
RTVSPropertyOp25
 70
     1
102
RTVSPropertyOp26
 70
     1
102
RTVSPropertyOp27
 70
     1
102
RTVSPropertyOp28
 70
     1
102
RTVSPropertyOp29
 70
     1
102
RTVSPropertyOp30
 70
     1
102
RTVSPropertyOp31
 70
     1
102
RTVSPropertyOp32
 70
     1
  0
XRECORD
  5
65
102
{ACAD_REACTORS
330
64
102
}
330
64
100
AcDbXrecord
280
     1
102
RTVSPropertyOp0
 70
     1
102
RTVSPropertyOp1
 70
     1
102
RTVSPropertyOp2
 70
     1
102
RTVSPropertyOp3
 70
     1
102
RTVSPropertyOp4
 70
     1
102
RTVSPropertyOp5
 70
     1
102
RTVSPropertyOp6
 70
     1
102
RTVSPropertyOp7
 70
     1
102
RTVSPropertyOp8
 70
     1
102
RTVSPropertyOp9
 70
     1
102
RTVSPropertyOp10
 70
     1
102
RTVSPropertyOp11
 70
     1
102
RTVSPropertyOp12
 70
     1
102
RTVSPropertyOp13
 70
     1
102
RTVSPropertyOp14
 70
     1
102
RTVSPropertyOp15
 70
     1
102
RTVSPropertyOp16
 70
     1
102
RTVSPropertyOp17
 70
     1
102
RTVSPropertyOp18
 70
     1
102
RTVSPropertyOp19
 70
     1
102
RTVSPropertyOp20
 70
     1
102
RTVSPropertyOp21
 70
     1
102
RTVSPropertyOp22
 70
     1
102
RTVSPropertyOp23
 70
     1
102
RTVSPropertyOp24
 70
     1
102
RTVSPropertyOp25
 70
     1
102
RTVSPropertyOp26
 70
     1
102
RTVSPropertyOp27
 70
     1
102
RTVSPropertyOp28
 70
     1
102
RTVSPropertyOp29
 70
     1
102
RTVSPropertyOp30
 70
     1
102
RTVSPropertyOp31
 70
     1
102
RTVSPropertyOp32
 70
     1
  0
XRECORD
  5
6D
102
{ACAD_REACTORS
330
6C
102
}
330
6C
100
AcDbXrecord
280
     1
102
RTVSPropertyOp0
 70
     1
102
RTVSPropertyOp1
 70
     1
102
RTVSPropertyOp2
 70
     1
102
RTVSPropertyOp3
 70
     1
102
RTVSPropertyOp4
 70
     1
102
RTVSPropertyOp5
 70
     1
102
RTVSPropertyOp6
 70
     1
102
RTVSPropertyOp7
 70
     1
102
RTVSPropertyOp8
 70
     1
102
RTVSPropertyOp9
 70
     1
102
RTVSPropertyOp10
 70
     1
102
RTVSPropertyOp11
 70
     1
102
RTVSPropertyOp12
 70
     1
102
RTVSPropertyOp13
 70
     1
102
RTVSPropertyOp14
 70
     1
102
RTVSPropertyOp15
 70
     1
102
RTVSPropertyOp16
 70
     1
102
RTVSPropertyOp17
 70
     1
102
RTVSPropertyOp18
 70
     1
102
RTVSPropertyOp19
 70
     1
102
RTVSPropertyOp20
 70
     1
102
RTVSPropertyOp21
 70
     1
102
RTVSPropertyOp22
 70
     1
102
RTVSPropertyOp23
 70
     1
102
RTVSPropertyOp24
 70
     1
102
RTVSPropertyOp25
 70
     1
102
RTVSPropertyOp26
 70
     1
102
RTVSPropertyOp27
 70
     1
102
RTVSPropertyOp28
 70
     1
102
RTVSPropertyOp29
 70
     1
102
RTVSPropertyOp30
 70
     1
102
RTVSPropertyOp31
 70
     1
102
RTVSPropertyOp32
 70
     1
  0
XRECORD
  5
75
102
{ACAD_REACTORS
330
74
102
}
330
74
100
AcDbXrecord
280
     1
102
RTVSPropertyOp0
 70
     1
102
RTVSPropertyOp1
 70
     1
102
RTVSPropertyOp2
 70
     1
102
RTVSPropertyOp3
 70
     1
102
RTVSPropertyOp4
 70
     1
102
RTVSPropertyOp5
 70
     1
102
RTVSPropertyOp6
 70
     1
102
RTVSPropertyOp7
 70
     1
102
RTVSPropertyOp8
 70
     1
102
RTVSPropertyOp9
 70
     1
102
RTVSPropertyOp10
 70
     1
102
RTVSPropertyOp11
 70
     1
102
RTVSPropertyOp12
 70
     1
102
RTVSPropertyOp13
 70
     1
102
RTVSPropertyOp14
 70
     1
102
RTVSPropertyOp15
 70
     1
102
RTVSPropertyOp16
 70
     1
102
RTVSPropertyOp17
 70
     1
102
RTVSPropertyOp18
 70
     1
102
RTVSPropertyOp19
 70
     1
102
RTVSPropertyOp20
 70
     1
102
RTVSPropertyOp21
 70
     1
102
RTVSPropertyOp22
 70
     1
102
RTVSPropertyOp23
 70
     1
102
RTVSPropertyOp24
 70
     1
102
RTVSPropertyOp25
 70
     1
102
RTVSPropertyOp26
 70
     1
102
RTVSPropertyOp27
 70
     1
102
RTVSPropertyOp28
 70
     1
102
RTVSPropertyOp29
 70
     1
102
RTVSPropertyOp30
 70
     1
102
RTVSPropertyOp31
 70
     1
102
RTVSPropertyOp32
 70
     1
  0
XRECORD
  5
69
102
{ACAD_REACTORS
330
68
102
}
330
68
100
AcDbXrecord
280
     1
102
RTVSPropertyOp0
 70
     1
102
RTVSPropertyOp1
 70
     1
102
RTVSPropertyOp2
 70
     1
102
RTVSPropertyOp3
 70
     1
102
RTVSPropertyOp4
 70
     1
102
RTVSPropertyOp5
 70
     1
102
RTVSPropertyOp6
 70
     1
102
RTVSPropertyOp7
 70
     1
102
RTVSPropertyOp8
 70
     1
102
RTVSPropertyOp9
 70
     1
102
RTVSPropertyOp10
 70
     1
102
RTVSPropertyOp11
 70
     1
102
RTVSPropertyOp12
 70
     1
102
RTVSPropertyOp13
 70
     1
102
RTVSPropertyOp14
 70
     1
102
RTVSPropertyOp15
 70
     1
102
RTVSPropertyOp16
 70
     1
102
RTVSPropertyOp17
 70
     1
102
RTVSPropertyOp18
 70
     1
102
RTVSPropertyOp19
 70
     1
102
RTVSPropertyOp20
 70
     1
102
RTVSPropertyOp21
 70
     1
102
RTVSPropertyOp22
 70
     1
102
RTVSPropertyOp23
 70
     1
102
RTVSPropertyOp24
 70
     1
102
RTVSPropertyOp25
 70
     1
102
RTVSPropertyOp26
 70
     1
102
RTVSPropertyOp27
 70
     1
102
RTVSPropertyOp28
 70
     1
102
RTVSPropertyOp29
 70
     1
102
RTVSPropertyOp30
 70
     1
102
RTVSPropertyOp31
 70
     1
102
RTVSPropertyOp32
 70
     1
  0
XRECORD
  5
6B
102
{ACAD_REACTORS
330
6A
102
}
330
6A
100
AcDbXrecord
280
     1
102
RTVSPropertyOp0
 70
     1
102
RTVSPropertyOp1
 70
     1
102
RTVSPropertyOp2
 70
     1
102
RTVSPropertyOp3
 70
     1
102
RTVSPropertyOp4
 70
     1
102
RTVSPropertyOp5
 70
     1
102
RTVSPropertyOp6
 70
     1
102
RTVSPropertyOp7
 70
     1
102
RTVSPropertyOp8
 70
     1
102
RTVSPropertyOp9
 70
     1
102
RTVSPropertyOp10
 70
     1
102
RTVSPropertyOp11
 70
     1
102
RTVSPropertyOp12
 70
     1
102
RTVSPropertyOp13
 70
     1
102
RTVSPropertyOp14
 70
     1
102
RTVSPropertyOp15
 70
     1
102
RTVSPropertyOp16
 70
     1
102
RTVSPropertyOp17
 70
     1
102
RTVSPropertyOp18
 70
     1
102
RTVSPropertyOp19
 70
     1
102
RTVSPropertyOp20
 70
     1
102
RTVSPropertyOp21
 70
     1
102
RTVSPropertyOp22
 70
     1
102
RTVSPropertyOp23
 70
     1
102
RTVSPropertyOp24
 70
     1
102
RTVSPropertyOp25
 70
     1
102
RTVSPropertyOp26
 70
     1
102
RTVSPropertyOp27
 70
     1
102
RTVSPropertyOp28
 70
     1
102
RTVSPropertyOp29
 70
     1
102
RTVSPropertyOp30
 70
     1
102
RTVSPropertyOp31
 70
     1
102
RTVSPropertyOp32
 70
     1
  0
XRECORD
  5
73
102
{ACAD_REACTORS
330
72
102
}
330
72
100
AcDbXrecord
280
     1
102
RTVSPropertyOp0
 70
     1
102
RTVSPropertyOp1
 70
     1
102
RTVSPropertyOp2
 70
     1
102
RTVSPropertyOp3
 70
     1
102
RTVSPropertyOp4
 70
     1
102
RTVSPropertyOp5
 70
     1
102
RTVSPropertyOp6
 70
     1
102
RTVSPropertyOp7
 70
     1
102
RTVSPropertyOp8
 70
     1
102
RTVSPropertyOp9
 70
     1
102
RTVSPropertyOp10
 70
     1
102
RTVSPropertyOp11
 70
     1
102
RTVSPropertyOp12
 70
     1
102
RTVSPropertyOp13
 70
     1
102
RTVSPropertyOp14
 70
     1
102
RTVSPropertyOp15
 70
     1
102
RTVSPropertyOp16
 70
     1
102
RTVSPropertyOp17
 70
     1
102
RTVSPropertyOp18
 70
     1
102
RTVSPropertyOp19
 70
     1
102
RTVSPropertyOp20
 70
     1
102
RTVSPropertyOp21
 70
     1
102
RTVSPropertyOp22
 70
     1
102
RTVSPropertyOp23
 70
     1
102
RTVSPropertyOp24
 70
     1
102
RTVSPropertyOp25
 70
     1
102
RTVSPropertyOp26
 70
     1
102
RTVSPropertyOp27
 70
     1
102
RTVSPropertyOp28
 70
     1
102
RTVSPropertyOp29
 70
     1
102
RTVSPropertyOp30
 70
     1
102
RTVSPropertyOp31
 70
     1
102
RTVSPropertyOp32
 70
     1
  0
XRECORD
  5
57
102
{ACAD_REACTORS
330
56
102
}
330
56
100
AcDbXrecord
280
     1
102
RTVSPropertyOp0
 70
     1
102
RTVSPropertyOp1
 70
     1
102
RTVSPropertyOp2
 70
     1
102
RTVSPropertyOp3
 70
     1
102
RTVSPropertyOp4
 70
     1
102
RTVSPropertyOp5
 70
     1
102
RTVSPropertyOp6
 70
     1
102
RTVSPropertyOp7
 70
     1
102
RTVSPropertyOp8
 70
     1
102
RTVSPropertyOp9
 70
     1
102
RTVSPropertyOp10
 70
     1
102
RTVSPropertyOp11
 70
     1
102
RTVSPropertyOp12
 70
     1
102
RTVSPropertyOp13
 70
     1
102
RTVSPropertyOp14
 70
     1
102
RTVSPropertyOp15
 70
     1
102
RTVSPropertyOp16
 70
     1
102
RTVSPropertyOp17
 70
     1
102
RTVSPropertyOp18
 70
     1
102
RTVSPropertyOp19
 70
     1
102
RTVSPropertyOp20
 70
     1
102
RTVSPropertyOp21
 70
     1
102
RTVSPropertyOp22
 70
     1
102
RTVSPropertyOp23
 70
     1
102
RTVSPropertyOp24
 70
     1
102
RTVSPropertyOp25
 70
     1
102
RTVSPropertyOp26
 70
     1
102
RTVSPropertyOp27
 70
     1
102
RTVSPropertyOp28
 70
     1
102
RTVSPropertyOp29
 70
     1
102
RTVSPropertyOp30
 70
     1
102
RTVSPropertyOp31
 70
     1
102
RTVSPropertyOp32
 70
     1
  0
XRECORD
  5
59
102
{ACAD_REACTORS
330
58
102
}
330
58
100
AcDbXrecord
280
     1
102
RTVSPropertyOp0
 70
     1
102
RTVSPropertyOp1
 70
     1
102
RTVSPropertyOp2
 70
     1
102
RTVSPropertyOp3
 70
     1
102
RTVSPropertyOp4
 70
     1
102
RTVSPropertyOp5
 70
     1
102
RTVSPropertyOp6
 70
     1
102
RTVSPropertyOp7
 70
     1
102
RTVSPropertyOp8
 70
     1
102
RTVSPropertyOp9
 70
     1
102
RTVSPropertyOp10
 70
     1
102
RTVSPropertyOp11
 70
     1
102
RTVSPropertyOp12
 70
     1
102
RTVSPropertyOp13
 70
     1
102
RTVSPropertyOp14
 70
     1
102
RTVSPropertyOp15
 70
     1
102
RTVSPropertyOp16
 70
     1
102
RTVSPropertyOp17
 70
     1
102
RTVSPropertyOp18
 70
     1
102
RTVSPropertyOp19
 70
     1
102
RTVSPropertyOp20
 70
     1
102
RTVSPropertyOp21
 70
     1
102
RTVSPropertyOp22
 70
     1
102
RTVSPropertyOp23
 70
     1
102
RTVSPropertyOp24
 70
     1
102
RTVSPropertyOp25
 70
     1
102
RTVSPropertyOp26
 70
     1
102
RTVSPropertyOp27
 70
     1
102
RTVSPropertyOp28
 70
     1
102
RTVSPropertyOp29
 70
     1
102
RTVSPropertyOp30
 70
     1
102
RTVSPropertyOp31
 70
     1
102
RTVSPropertyOp32
 70
     1
  0
XRECORD
  5
5B
102
{ACAD_REACTORS
330
5A
102
}
330
5A
100
AcDbXrecord
280
     1
102
RTVSPropertyOp0
 70
     1
102
RTVSPropertyOp1
 70
     1
102
RTVSPropertyOp2
 70
     1
102
RTVSPropertyOp3
 70
     1
102
RTVSPropertyOp4
 70
     1
102
RTVSPropertyOp5
 70
     1
102
RTVSPropertyOp6
 70
     1
102
RTVSPropertyOp7
 70
     1
102
RTVSPropertyOp8
 70
     1
102
RTVSPropertyOp9
 70
     1
102
RTVSPropertyOp10
 70
     1
102
RTVSPropertyOp11
 70
     1
102
RTVSPropertyOp12
 70
     1
102
RTVSPropertyOp13
 70
     1
102
RTVSPropertyOp14
 70
     1
102
RTVSPropertyOp15
 70
     1
102
RTVSPropertyOp16
 70
     1
102
RTVSPropertyOp17
 70
     1
102
RTVSPropertyOp18
 70
     1
102
RTVSPropertyOp19
 70
     1
102
RTVSPropertyOp20
 70
     1
102
RTVSPropertyOp21
 70
     1
102
RTVSPropertyOp22
 70
     1
102
RTVSPropertyOp23
 70
     1
102
RTVSPropertyOp24
 70
     1
102
RTVSPropertyOp25
 70
     1
102
RTVSPropertyOp26
 70
     1
102
RTVSPropertyOp27
 70
     1
102
RTVSPropertyOp28
 70
     1
102
RTVSPropertyOp29
 70
     1
102
RTVSPropertyOp30
 70
     1
102
RTVSPropertyOp31
 70
     1
102
RTVSPropertyOp32
 70
     1
  0
XRECORD
  5
5D
102
{ACAD_REACTORS
330
5C
102
}
330
5C
100
AcDbXrecord
280
     1
102
RTVSPropertyOp0
 70
     1
102
RTVSPropertyOp1
 70
     1
102
RTVSPropertyOp2
 70
     1
102
RTVSPropertyOp3
 70
     1
102
RTVSPropertyOp4
 70
     1
102
RTVSPropertyOp5
 70
     1
102
RTVSPropertyOp6
 70
     1
102
RTVSPropertyOp7
 70
     1
102
RTVSPropertyOp8
 70
     1
102
RTVSPropertyOp9
 70
     1
102
RTVSPropertyOp10
 70
     1
102
RTVSPropertyOp11
 70
     1
102
RTVSPropertyOp12
 70
     1
102
RTVSPropertyOp13
 70
     1
102
RTVSPropertyOp14
 70
     1
102
RTVSPropertyOp15
 70
     1
102
RTVSPropertyOp16
 70
     1
102
RTVSPropertyOp17
 70
     1
102
RTVSPropertyOp18
 70
     1
102
RTVSPropertyOp19
 70
     1
102
RTVSPropertyOp20
 70
     1
102
RTVSPropertyOp21
 70
     1
102
RTVSPropertyOp22
 70
     1
102
RTVSPropertyOp23
 70
     1
102
RTVSPropertyOp24
 70
     1
102
RTVSPropertyOp25
 70
     1
102
RTVSPropertyOp26
 70
     1
102
RTVSPropertyOp27
 70
     1
102
RTVSPropertyOp28
 70
     1
102
RTVSPropertyOp29
 70
     1
102
RTVSPropertyOp30
 70
     1
102
RTVSPropertyOp31
 70
     1
102
RTVSPropertyOp32
 70
     1
  0
XRECORD
  5
71
102
{ACAD_REACTORS
330
70
102
}
330
70
100
AcDbXrecord
280
     1
102
RTVSPropertyOp0
 70
     1
102
RTVSPropertyOp1
 70
     1
102
RTVSPropertyOp2
 70
     1
102
RTVSPropertyOp3
 70
     1
102
RTVSPropertyOp4
 70
     1
102
RTVSPropertyOp5
 70
     1
102
RTVSPropertyOp6
 70
     1
102
RTVSPropertyOp7
 70
     1
102
RTVSPropertyOp8
 70
     1
102
RTVSPropertyOp9
 70
     1
102
RTVSPropertyOp10
 70
     1
102
RTVSPropertyOp11
 70
     1
102
RTVSPropertyOp12
 70
     1
102
RTVSPropertyOp13
 70
     1
102
RTVSPropertyOp14
 70
     1
102
RTVSPropertyOp15
 70
     1
102
RTVSPropertyOp16
 70
     1
102
RTVSPropertyOp17
 70
     1
102
RTVSPropertyOp18
 70
     1
102
RTVSPropertyOp19
 70
     1
102
RTVSPropertyOp20
 70
     1
102
RTVSPropertyOp21
 70
     1
102
RTVSPropertyOp22
 70
     1
102
RTVSPropertyOp23
 70
     1
102
RTVSPropertyOp24
 70
     1
102
RTVSPropertyOp25
 70
     1
102
RTVSPropertyOp26
 70
     1
102
RTVSPropertyOp27
 70
     1
102
RTVSPropertyOp28
 70
     1
102
RTVSPropertyOp29
 70
     1
102
RTVSPropertyOp30
 70
     1
102
RTVSPropertyOp31
 70
     1
102
RTVSPropertyOp32
 70
     1
  0
XRECORD
  5
67
102
{ACAD_REACTORS
330
66
102
}
330
66
100
AcDbXrecord
280
     1
102
RTVSPropertyOp0
 70
     1
102
RTVSPropertyOp1
 70
     1
102
RTVSPropertyOp2
 70
     1
102
RTVSPropertyOp3
 70
     1
102
RTVSPropertyOp4
 70
     1
102
RTVSPropertyOp5
 70
     1
102
RTVSPropertyOp6
 70
     1
102
RTVSPropertyOp7
 70
     1
102
RTVSPropertyOp8
 70
     1
102
RTVSPropertyOp9
 70
     1
102
RTVSPropertyOp10
 70
     1
102
RTVSPropertyOp11
 70
     1
102
RTVSPropertyOp12
 70
     1
102
RTVSPropertyOp13
 70
     1
102
RTVSPropertyOp14
 70
     1
102
RTVSPropertyOp15
 70
     1
102
RTVSPropertyOp16
 70
     1
102
RTVSPropertyOp17
 70
     1
102
RTVSPropertyOp18
 70
     1
102
RTVSPropertyOp19
 70
     1
102
RTVSPropertyOp20
 70
     1
102
RTVSPropertyOp21
 70
     1
102
RTVSPropertyOp22
 70
     1
102
RTVSPropertyOp23
 70
     1
102
RTVSPropertyOp24
 70
     1
102
RTVSPropertyOp25
 70
     1
102
RTVSPropertyOp26
 70
     1
102
RTVSPropertyOp27
 70
     1
102
RTVSPropertyOp28
 70
     1
102
RTVSPropertyOp29
 70
     1
102
RTVSPropertyOp30
 70
     1
102
RTVSPropertyOp31
 70
     1
102
RTVSPropertyOp32
 70
     1
  0
XRECORD
  5
6F
102
{ACAD_REACTORS
330
6E
102
}
330
6E
100
AcDbXrecord
280
     1
102
RTVSPropertyOp0
 70
     1
102
RTVSPropertyOp1
 70
     1
102
RTVSPropertyOp2
 70
     1
102
RTVSPropertyOp3
 70
     1
102
RTVSPropertyOp4
 70
     1
102
RTVSPropertyOp5
 70
     1
102
RTVSPropertyOp6
 70
     1
102
RTVSPropertyOp7
 70
     1
102
RTVSPropertyOp8
 70
     1
102
RTVSPropertyOp9
 70
     1
102
RTVSPropertyOp10
 70
     1
102
RTVSPropertyOp11
 70
     1
102
RTVSPropertyOp12
 70
     1
102
RTVSPropertyOp13
 70
     1
102
RTVSPropertyOp14
 70
     1
102
RTVSPropertyOp15
 70
     1
102
RTVSPropertyOp16
 70
     1
102
RTVSPropertyOp17
 70
     1
102
RTVSPropertyOp18
 70
     1
102
RTVSPropertyOp19
 70
     1
102
RTVSPropertyOp20
 70
     1
102
RTVSPropertyOp21
 70
     1
102
RTVSPropertyOp22
 70
     1
102
RTVSPropertyOp23
 70
     1
102
RTVSPropertyOp24
 70
     1
102
RTVSPropertyOp25
 70
     1
102
RTVSPropertyOp26
 70
     1
102
RTVSPropertyOp27
 70
     1
102
RTVSPropertyOp28
 70
     1
102
RTVSPropertyOp29
 70
     1
102
RTVSPropertyOp30
 70
     1
102
RTVSPropertyOp31
 70
     1
102
RTVSPropertyOp32
 70
     1
  0
ENDSEC
  0
EOF
