  0
SECTION
  2
HEADER
  9
$ACADVER
  1
AC1015
  9
$ACADMAINTVER
 70
     6
  9
$DWGCODEPAGE
  3
ANSI_1252
  9
$INSBASE
 10
0.0
 20
0.0
 30
0.0
  9
$EXTMIN
 10
-69.5861
 20
-104.2974
 30
0.0
  9
$EXTMAX
 10
69.5871
 20
104.296
 30
0.0
  9
$LIMMIN
 10
0.0
 20
0.0
  9
$LIMMAX
 10
12.0
 20
9.0
  9
$ORTHOMODE
 70
     0
  9
$REGENMODE
 70
     1
  9
$FILLMODE
 70
     1
  9
$QTEXTMODE
 70
     0
  9
$MIRRTEXT
 70
     1
  9
$LTSCALE
 40
1.0
  9
$ATTMODE
 70
     1
  9
$TEXTSIZE
 40
0.2
  9
$TRACEWID
 40
0.05
  9
$TEXTSTYLE
  7
Standard
  9
$CLAYER
  8
0
  9
$CELTYPE
  6
ByLayer
  9
$CECOLOR
 62
   256
  9
$CELTSCALE
 40
1.0
  9
$DISPSILH
 70
     0
  9
$DIMSCALE
 40
1.0
  9
$DIMASZ
 40
0.18
  9
$DIMEXO
 40
0.0625
  9
$DIMDLI
 40
0.38
  9
$DIMRND
 40
0.0
  9
$DIMDLE
 40
0.0
  9
$DIMEXE
 40
0.18
  9
$DIMTP
 40
0.0
  9
$DIMTM
 40
0.0
  9
$DIMTXT
 40
0.18
  9
$DIMCEN
 40
0.09
  9
$DIMTSZ
 40
0.0
  9
$DIMTOL
 70
     0
  9
$DIMLIM
 70
     0
  9
$DIMTIH
 70
     1
  9
$DIMTOH
 70
     1
  9
$DIMSE1
 70
     0
  9
$DIMSE2
 70
     0
  9
$DIMTAD
 70
     0
  9
$DIMZIN
 70
     0
  9
$DIMBLK
  1

  9
$DIMASO
 70
     1
  9
$DIMSHO
 70
     1
  9
$DIMPOST
  1

  9
$DIMAPOST
  1

  9
$DIMALT
 70
     0
  9
$DIMALTD
 70
     2
  9
$DIMALTF
 40
25.4
  9
$DIMLFAC
 40
1.0
  9
$DIMTOFL
 70
     0
  9
$DIMTVP
 40
0.0
  9
$DIMTIX
 70
     0
  9
$DIMSOXD
 70
     0
  9
$DIMSAH
 70
     0
  9
$DIMBLK1
  1

  9
$DIMBLK2
  1

  9
$DIMSTYLE
  2
Standard
  9
$DIMCLRD
 70
     0
  9
$DIMCLRE
 70
     0
  9
$DIMCLRT
 70
     0
  9
$DIMTFAC
 40
1.0
  9
$DIMGAP
 40
0.09
  9
$DIMJUST
 70
     0
  9
$DIMSD1
 70
     0
  9
$DIMSD2
 70
     0
  9
$DIMTOLJ
 70
     1
  9
$DIMTZIN
 70
     0
  9
$DIMALTZ
 70
     0
  9
$DIMALTTZ
 70
     0
  9
$DIMUPT
 70
     0
  9
$DIMDEC
 70
     4
  9
$DIMTDEC
 70
     4
  9
$DIMALTU
 70
     2
  9
$DIMALTTD
 70
     2
  9
$DIMTXSTY
  7
Standard
  9
$DIMAUNIT
 70
     0
  9
$DIMADEC
 70
     0
  9
$DIMALTRND
 40
0.0
  9
$DIMAZIN
 70
     0
  9
$DIMDSEP
 70
    46
  9
$DIMATFIT
 70
     3
  9
$DIMFRAC
 70
     0
  9
$DIMLDRBLK
  1

  9
$DIMLUNIT
 70
     2
  9
$DIMLWD
 70
    -2
  9
$DIMLWE
 70
    -2
  9
$DIMTMOVE
 70
     0
  9
$LUNITS
 70
     2
  9
$LUPREC
 70
     4
  9
$SKETCHINC
 40
0.1
  9
$FILLETRAD
 40
0.5
  9
$AUNITS
 70
     0
  9
$AUPREC
 70
     0
  9
$MENU
  1
.
  9
$ELEVATION
 40
0.0
  9
$PELEVATION
 40
0.0
  9
$THICKNESS
 40
0.0
  9
$LIMCHECK
 70
     0
  9
$CHAMFERA
 40
0.5
  9
$CHAMFERB
 40
0.5
  9
$CHAMFERC
 40
1.0
  9
$CHAMFERD
 40
0.0
  9
$SKPOLY
 70
     0
  9
$TDCREATE
 40
2457268.923539711
  9
$TDUCREATE
 40
2457269.048539711
  9
$TDUPDATE
 40
2457268.923539919
  9
$TDUUPDATE
 40
2457269.048539919
  9
$TDINDWG
 40
0.0000000116
  9
$TDUSRTIMER
 40
0.0000000116
  9
$USRTIMER
 70
     1
  9
$ANGBASE
 50
0.0
  9
$ANGDIR
 70
     0
  9
$PDMODE
 70
     0
  9
$PDSIZE
 40
0.0
  9
$PLINEWID
 40
0.0
  9
$SPLFRAME
 70
     0
  9
$SPLINETYPE
 70
     6
  9
$SPLINESEGS
 70
     8
  9
$HANDSEED
  5
82
  9
$SURFTAB1
 70
     6
  9
$SURFTAB2
 70
     6
  9
$SURFTYPE
 70
     6
  9
$SURFU
 70
     6
  9
$SURFV
 70
     6
  9
$UCSBASE
  2

  9
$UCSNAME
  2

  9
$UCSORG
 10
0.0
 20
0.0
 30
0.0
  9
$UCSXDIR
 10
1.0
 20
0.0
 30
0.0
  9
$UCSYDIR
 10
0.0
 20
1.0
 30
0.0
  9
$UCSORTHOREF
  2

  9
$UCSORTHOVIEW
 70
     0
  9
$UCSORGTOP
 10
0.0
 20
0.0
 30
0.0
  9
$UCSORGBOTTOM
 10
0.0
 20
0.0
 30
0.0
  9
$UCSORGLEFT
 10
0.0
 20
0.0
 30
0.0
  9
$UCSORGRIGHT
 10
0.0
 20
0.0
 30
0.0
  9
$UCSORGFRONT
 10
0.0
 20
0.0
 30
0.0
  9
$UCSORGBACK
 10
0.0
 20
0.0
 30
0.0
  9
$PUCSBASE
  2

  9
$PUCSNAME
  2

  9
$PUCSORG
 10
0.0
 20
0.0
 30
0.0
  9
$PUCSXDIR
 10
1.0
 20
0.0
 30
0.0
  9
$PUCSYDIR
 10
0.0
 20
1.0
 30
0.0
  9
$PUCSORTHOREF
  2

  9
$PUCSORTHOVIEW
 70
     0
  9
$PUCSORGTOP
 10
0.0
 20
0.0
 30
0.0
  9
$PUCSORGBOTTOM
 10
0.0
 20
0.0
 30
0.0
  9
$PUCSORGLEFT
 10
0.0
 20
0.0
 30
0.0
  9
$PUCSORGRIGHT
 10
0.0
 20
0.0
 30
0.0
  9
$PUCSORGFRONT
 10
0.0
 20
0.0
 30
0.0
  9
$PUCSORGBACK
 10
0.0
 20
0.0
 30
0.0
  9
$USERI1
 70
     0
  9
$USERI2
 70
     0
  9
$USERI3
 70
     0
  9
$USERI4
 70
     0
  9
$USERI5
 70
     0
  9
$USERR1
 40
0.0
  9
$USERR2
 40
0.0
  9
$USERR3
 40
0.0
  9
$USERR4
 40
0.0
  9
$USERR5
 40
0.0
  9
$WORLDVIEW
 70
     1
  9
$SHADEDGE
 70
     3
  9
$SHADEDIF
 70
    70
  9
$TILEMODE
 70
     1
  9
$MAXACTVP
 70
    64
  9
$PINSBASE
 10
0.0
 20
0.0
 30
0.0
  9
$PLIMCHECK
 70
     0
  9
$PEXTMIN
 10
1.000000000000000E+20
 20
1.000000000000000E+20
 30
1.000000000000000E+20
  9
$PEXTMAX
 10
-1.000000000000000E+20
 20
-1.000000000000000E+20
 30
-1.000000000000000E+20
  9
$PLIMMIN
 10
0.0
 20
0.0
  9
$PLIMMAX
 10
12.0
 20
9.0
  9
$UNITMODE
 70
     0
  9
$VISRETAIN
 70
     1
  9
$PLINEGEN
 70
     0
  9
$PSLTSCALE
 70
     1
  9
$TREEDEPTH
 70
  3020
  9
$CMLSTYLE
  2
Standard
  9
$CMLJUST
 70
     0
  9
$CMLSCALE
 40
1.0
  9
$PROXYGRAPHICS
 70
     1
  9
$MEASUREMENT
 70
     0
  9
$CELWEIGHT
370
    -1
  9
$ENDCAPS
280
     0
  9
$JOINSTYLE
280
     0
  9
$LWDISPLAY
290
     0
  9
$INSUNITS
 70
     4
  9
$HYPERLINKBASE
  1

  9
$STYLESHEET
  1

  9
$XEDIT
290
     1
  9
$CEPSNTYPE
380
     0
  9
$PSTYLEMODE
290
     1
  9
$FINGERPRINTGUID
  2
{BBCFBB53-5605-406A-8567-06EA0B76EBD2}
  9
$VERSIONGUID
  2
{FAEB1C32-E019-11D5-929B-00C0DF256EC4}
  9
$EXTNAMES
290
     1
  9
$PSVPSCALE
 40
0.0
  9
$OLESTARTUP
290
     0
  0
ENDSEC
  0
SECTION
  2
CLASSES
  0
CLASS
  1
ACDBDICTIONARYWDFLT
  2
AcDbDictionaryWithDefault
  3
ObjectDBX Classes
 90
        0
280
     0
281
     0
  0
CLASS
  1
VISUALSTYLE
  2
AcDbVisualStyle
  3
ObjectDBX Classes
 90
     4095
280
     0
281
     0
  0
CLASS
  1
MATERIAL
  2
AcDbMaterial
  3
ObjectDBX Classes
 90
     1153
280
     0
281
     0
  0
CLASS
  1
DICTIONARYVAR
  2
AcDbDictionaryVar
  3
ObjectDBX Classes
 90
        0
280
     0
281
     0
  0
CLASS
  1
ACDBPLACEHOLDER
  2
AcDbPlaceHolder
  3
ObjectDBX Classes
 90
        0
280
     0
281
     0
  0
CLASS
  1
LAYOUT
  2
AcDbLayout
  3
ObjectDBX Classes
 90
        0
280
     0
281
     0
  0
ENDSEC
  0
SECTION
  2
TABLES
  0
TABLE
  2
VPORT
  5
8
330
0
100
AcDbSymbolTable
 70
     1
  0
VPORT
  5
29
330
8
100
AcDbSymbolTableRecord
100
AcDbViewportTableRecord
  2
*Active
 70
     0
 10
0.0
 20
0.0
 11
1.0
 21
1.0
 12
10.42990654205607
 22
4.5
 13
0.0
 23
0.0
 14
0.5
 24
0.5
 15
0.5
 25
0.5
 16
0.0
 26
0.0
 36
1.0
 17
0.0
 27
0.0
 37
0.0
 40
9.0
 41
1.972972972850329
 42
50.0
 43
0.0
 44
0.0
 50
0.0
 51
0.0
 71
     0
 72
   100
 73
     1
 74
     3
 75
     0
 76
     0
 77
     0
 78
     0
281
     0
 65
     1
110
0.0
120
0.0
130
0.0
111
1.0
121
0.0
131
0.0
112
0.0
122
1.0
132
0.0
 79
     0
146
0.0
  0
ENDTAB
  0
TABLE
  2
LTYPE
  5
5
330
0
100
AcDbSymbolTable
 70
     1
  0
LTYPE
  5
14
330
5
100
AcDbSymbolTableRecord
100
AcDbLinetypeTableRecord
  2
ByBlock
 70
     0
  3

 72
    65
 73
     0
 40
0.0
  0
LTYPE
  5
15
330
5
100
AcDbSymbolTableRecord
100
AcDbLinetypeTableRecord
  2
ByLayer
 70
     0
  3

 72
    65
 73
     0
 40
0.0
  0
LTYPE
  5
16
330
5
100
AcDbSymbolTableRecord
100
AcDbLinetypeTableRecord
  2
Continuous
 70
     0
  3
Solid line
 72
    65
 73
     0
 40
0.0
  0
ENDTAB
  0
TABLE
  2
LAYER
  5
2
330
0
100
AcDbSymbolTable
 70
     2
  0
LAYER
  5
10
330
2
100
AcDbSymbolTableRecord
100
AcDbLayerTableRecord
  2
0
 70
     0
 62
     7
  6
Continuous
370
    -3
390
F
  0
LAYER
  5
40
330
2
100
AcDbSymbolTableRecord
100
AcDbLayerTableRecord
  2
Camada 1
 70
     0
 62
     7
  6
Continuous
370
    -3
390
F
  0
ENDTAB
  0
TABLE
  2
STYLE
  5
3
330
0
100
AcDbSymbolTable
 70
     1
  0
STYLE
  5
11
330
3
100
AcDbSymbolTableRecord
100
AcDbTextStyleTableRecord
  2
Standard
 70
     0
 40
0.0
 41
1.0
 50
0.0
 71
     0
 42
0.2
  3
txt
  4

  0
ENDTAB
  0
TABLE
  2
VIEW
  5
6
330
0
100
AcDbSymbolTable
 70
     0
  0
ENDTAB
  0
TABLE
  2
UCS
  5
7
330
0
100
AcDbSymbolTable
 70
     0
  0
ENDTAB
  0
TABLE
  2
APPID
  5
9
330
0
100
AcDbSymbolTable
 70
     2
  0
APPID
  5
12
330
9
100
AcDbSymbolTableRecord
100
AcDbRegAppTableRecord
  2
ACAD
 70
     0
  0
APPID
  5
3F
330
9
100
AcDbSymbolTableRecord
100
AcDbRegAppTableRecord
  2
ODA
 70
     0
  0
ENDTAB
  0
TABLE
  2
DIMSTYLE
  5
A
330
0
100
AcDbSymbolTable
 70
     1
100
AcDbDimStyleTable
  0
DIMSTYLE
105
27
330
A
100
AcDbSymbolTableRecord
100
AcDbDimStyleTableRecord
  2
Standard
 70
     0
178
     0
340
11
  0
ENDTAB
  0
TABLE
  2
BLOCK_RECORD
  5
1
330
0
100
AcDbSymbolTable
 70
     1
  0
BLOCK_RECORD
  5
1F
330
1
100
AcDbSymbolTableRecord
100
AcDbBlockTableRecord
  2
*Model_Space
340
22
  0
BLOCK_RECORD
  5
1B
330
1
100
AcDbSymbolTableRecord
100
AcDbBlockTableRecord
  2
*Paper_Space
340
1E
  0
BLOCK_RECORD
  5
23
330
1
100
AcDbSymbolTableRecord
100
AcDbBlockTableRecord
  2
*Paper_Space0
340
26
  0
ENDTAB
  0
ENDSEC
  0
SECTION
  2
BLOCKS
  0
BLOCK
  5
20
330
1F
100
AcDbEntity
  8
0
100
AcDbBlockBegin
  2
*Model_Space
 70
     0
 10
0.0
 20
0.0
 30
0.0
  3
*Model_Space
  1

  0
ENDBLK
  5
21
330
1F
100
AcDbEntity
  8
0
100
AcDbBlockEnd
  0
BLOCK
  5
1C
330
1B
100
AcDbEntity
 67
     1
  8
0
100
AcDbBlockBegin
  2
*Paper_Space
 70
     0
 10
0.0
 20
0.0
 30
0.0
  3
*Paper_Space
  1

  0
ENDBLK
  5
1D
330
1B
100
AcDbEntity
 67
     1
  8
0
100
AcDbBlockEnd
  0
BLOCK
  5
24
330
23
100
AcDbEntity
  8
0
100
AcDbBlockBegin
  2
*Paper_Space0
 70
     0
 10
0.0
 20
0.0
 30
0.0
  3
*Paper_Space0
  1

  0
ENDBLK
  5
25
330
23
100
AcDbEntity
  8
0
100
AcDbBlockEnd
  0
ENDSEC
  0
SECTION
  2
ENTITIES
  0
SPLINE
  5
41
330
1F
100
AcDbEntity
  8
Camada 1
 62
   250
370
     9
100
AcDbSpline
210
0.0
220
0.0
230
1.0
 70
    11
 71
     3
 72
   340
 73
   336
 74
     0
 42
0.0000000001
 43
0.0000000001
 12
1.0
 22
0.0
 32
0.0
 13
1.0
 23
0.0
 33
0.0
 40
0.0
 40
0.0
 40
0.0
 40
0.0
 40
0.0117647058823529
 40
0.0117647058823529
 40
0.0117647058823529
 40
0.0117647058823529
 40
0.0235294117647059
 40
0.0235294117647059
 40
0.0235294117647059
 40
0.0235294117647059
 40
0.0352941176470588
 40
0.0352941176470588
 40
0.0352941176470588
 40
0.0352941176470588
 40
0.0470588235294118
 40
0.0470588235294118
 40
0.0470588235294118
 40
0.0470588235294118
 40
0.0588235294117647
 40
0.0588235294117647
 40
0.0588235294117647
 40
0.0588235294117647
 40
0.0705882352941176
 40
0.0705882352941176
 40
0.0705882352941176
 40
0.0705882352941176
 40
0.0823529411764706
 40
0.0823529411764706
 40
0.0823529411764706
 40
0.0823529411764706
 40
0.0941176470588235
 40
0.0941176470588235
 40
0.0941176470588235
 40
0.0941176470588235
 40
0.1058823529411765
 40
0.1058823529411765
 40
0.1058823529411765
 40
0.1058823529411765
 40
0.1176470588235294
 40
0.1176470588235294
 40
0.1176470588235294
 40
0.1176470588235294
 40
0.1294117647058824
 40
0.1294117647058824
 40
0.1294117647058824
 40
0.1294117647058824
 40
0.1411764705882353
 40
0.1411764705882353
 40
0.1411764705882353
 40
0.1411764705882353
 40
0.1529411764705882
 40
0.1529411764705882
 40
0.1529411764705882
 40
0.1529411764705882
 40
0.1647058823529412
 40
0.1647058823529412
 40
0.1647058823529412
 40
0.1647058823529412
 40
0.1764705882352941
 40
0.1764705882352941
 40
0.1764705882352941
 40
0.1764705882352941
 40
0.1882352941176471
 40
0.1882352941176471
 40
0.1882352941176471
 40
0.1882352941176471
 40
0.2
 40
0.2
 40
0.2
 40
0.2
 40
0.2117647058823529
 40
0.2117647058823529
 40
0.2117647058823529
 40
0.2117647058823529
 40
0.2235294117647059
 40
0.2235294117647059
 40
0.2235294117647059
 40
0.2235294117647059
 40
0.2352941176470588
 40
0.2352941176470588
 40
0.2352941176470588
 40
0.2352941176470588
 40
0.2470588235294118
 40
0.2470588235294118
 40
0.2470588235294118
 40
0.2470588235294118
 40
0.2588235294117647
 40
0.2588235294117647
 40
0.2588235294117647
 40
0.2588235294117647
 40
0.2705882352941176
 40
0.2705882352941176
 40
0.2705882352941176
 40
0.2705882352941176
 40
0.2823529411764706
 40
0.2823529411764706
 40
0.2823529411764706
 40
0.2823529411764706
 40
0.2941176470588235
 40
0.2941176470588235
 40
0.2941176470588235
 40
0.2941176470588235
 40
0.3058823529411765
 40
0.3058823529411765
 40
0.3058823529411765
 40
0.3058823529411765
 40
0.3176470588235294
 40
0.3176470588235294
 40
0.3176470588235294
 40
0.3176470588235294
 40
0.3294117647058823
 40
0.3294117647058823
 40
0.3294117647058823
 40
0.3294117647058823
 40
0.3411764705882353
 40
0.3411764705882353
 40
0.3411764705882353
 40
0.3411764705882353
 40
0.3529411764705883
 40
0.3529411764705883
 40
0.3529411764705883
 40
0.3529411764705883
 40
0.3647058823529412
 40
0.3647058823529412
 40
0.3647058823529412
 40
0.3647058823529412
 40
0.3764705882352941
 40
0.3764705882352941
 40
0.3764705882352941
 40
0.3764705882352941
 40
0.3882352941176471
 40
0.3882352941176471
 40
0.3882352941176471
 40
0.3882352941176471
 40
0.4
 40
0.4
 40
0.4
 40
0.4
 40
0.4117647058823529
 40
0.4117647058823529
 40
0.4117647058823529
 40
0.4117647058823529
 40
0.4235294117647059
 40
0.4235294117647059
 40
0.4235294117647059
 40
0.4235294117647059
 40
0.4352941176470588
 40
0.4352941176470588
 40
0.4352941176470588
 40
0.4352941176470588
 40
0.4470588235294118
 40
0.4470588235294118
 40
0.4470588235294118
 40
0.4470588235294118
 40
0.4588235294117647
 40
0.4588235294117647
 40
0.4588235294117647
 40
0.4588235294117647
 40
0.4705882352941176
 40
0.4705882352941176
 40
0.4705882352941176
 40
0.4705882352941176
 40
0.4823529411764706
 40
0.4823529411764706
 40
0.4823529411764706
 40
0.4823529411764706
 40
0.4941176470588236
 40
0.4941176470588236
 40
0.4941176470588236
 40
0.4941176470588236
 40
0.5058823529411764
 40
0.5058823529411764
 40
0.5058823529411764
 40
0.5058823529411764
 40
0.5176470588235295
 40
0.5176470588235295
 40
0.5176470588235295
 40
0.5176470588235295
 40
0.5294117647058824
 40
0.5294117647058824
 40
0.5294117647058824
 40
0.5294117647058824
 40
0.5411764705882353
 40
0.5411764705882353
 40
0.5411764705882353
 40
0.5411764705882353
 40
0.5529411764705883
 40
0.5529411764705883
 40
0.5529411764705883
 40
0.5529411764705883
 40
0.5647058823529412
 40
0.5647058823529412
 40
0.5647058823529412
 40
0.5647058823529412
 40
0.5764705882352941
 40
0.5764705882352941
 40
0.5764705882352941
 40
0.5764705882352941
 40
0.5882352941176471
 40
0.5882352941176471
 40
0.5882352941176471
 40
0.5882352941176471
 40
0.6
 40
0.6
 40
0.6
 40
0.6
 40
0.611764705882353
 40
0.611764705882353
 40
0.611764705882353
 40
0.611764705882353
 40
0.6235294117647059
 40
0.6235294117647059
 40
0.6235294117647059
 40
0.6235294117647059
 40
0.6352941176470588
 40
0.6352941176470588
 40
0.6352941176470588
 40
0.6352941176470588
 40
0.6470588235294118
 40
0.6470588235294118
 40
0.6470588235294118
 40
0.6470588235294118
 40
0.6588235294117647
 40
0.6588235294117647
 40
0.6588235294117647
 40
0.6588235294117647
 40
0.6705882352941176
 40
0.6705882352941176
 40
0.6705882352941176
 40
0.6705882352941176
 40
0.6823529411764706
 40
0.6823529411764706
 40
0.6823529411764706
 40
0.6823529411764706
 40
0.6941176470588235
 40
0.6941176470588235
 40
0.6941176470588235
 40
0.6941176470588235
 40
0.7058823529411765
 40
0.7058823529411765
 40
0.7058823529411765
 40
0.7058823529411765
 40
0.7176470588235294
 40
0.7176470588235294
 40
0.7176470588235294
 40
0.7176470588235294
 40
0.7294117647058823
 40
0.7294117647058823
 40
0.7294117647058823
 40
0.7294117647058823
 40
0.7411764705882353
 40
0.7411764705882353
 40
0.7411764705882353
 40
0.7411764705882353
 40
0.7529411764705882
 40
0.7529411764705882
 40
0.7529411764705882
 40
0.7529411764705882
 40
0.7647058823529411
 40
0.7647058823529411
 40
0.7647058823529411
 40
0.7647058823529411
 40
0.7764705882352941
 40
0.7764705882352941
 40
0.7764705882352941
 40
0.7764705882352941
 40
0.788235294117647
 40
0.788235294117647
 40
0.788235294117647
 40
0.788235294117647
 40
0.8
 40
0.8
 40
0.8
 40
0.8
 40
0.8117647058823529
 40
0.8117647058823529
 40
0.8117647058823529
 40
0.8117647058823529
 40
0.8235294117647058
 40
0.8235294117647058
 40
0.8235294117647058
 40
0.8235294117647058
 40
0.8352941176470589
 40
0.8352941176470589
 40
0.8352941176470589
 40
0.8352941176470589
 40
0.8470588235294118
 40
0.8470588235294118
 40
0.8470588235294118
 40
0.8470588235294118
 40
0.8588235294117647
 40
0.8588235294117647
 40
0.8588235294117647
 40
0.8588235294117647
 40
0.8705882352941177
 40
0.8705882352941177
 40
0.8705882352941177
 40
0.8705882352941177
 40
0.8823529411764706
 40
0.8823529411764706
 40
0.8823529411764706
 40
0.8823529411764706
 40
0.8941176470588236
 40
0.8941176470588236
 40
0.8941176470588236
 40
0.8941176470588236
 40
0.9058823529411765
 40
0.9058823529411765
 40
0.9058823529411765
 40
0.9058823529411765
 40
0.9176470588235294
 40
0.9176470588235294
 40
0.9176470588235294
 40
0.9176470588235294
 40
0.9294117647058824
 40
0.9294117647058824
 40
0.9294117647058824
 40
0.9294117647058824
 40
0.9411764705882353
 40
0.9411764705882353
 40
0.9411764705882353
 40
0.9411764705882353
 40
0.9529411764705882
 40
0.9529411764705882
 40
0.9529411764705882
 40
0.9529411764705882
 40
0.9647058823529412
 40
0.9647058823529412
 40
0.9647058823529412
 40
0.9647058823529412
 40
0.9764705882352941
 40
0.9764705882352941
 40
0.9764705882352941
 40
0.9764705882352941
 40
1.0
 40
1.0
 40
1.0
 40
1.0
 10
-38.0602
 20
-90.6573
 30
0.0
 10
-42.7694
 20
-91.6006
 30
0.0
 10
-44.9322
 20
-96.4852
 30
0.0
 10
-42.6553
 20
-101.6406
 30
0.0
 10
-42.6553
 20
-101.6406
 30
0.0
 10
-41.1098
 20
-104.642
 30
0.0
 10
-37.1589
 20
-105.2518
 30
0.0
 10
-34.8101
 20
-102.4812
 30
0.0
 10
-34.8101
 20
-102.4812
 30
0.0
 10
-33.4655
 20
-100.7284
 30
0.0
 10
-33.3234
 20
-97.6875
 30
0.0
 10
-36.099
 20
-95.5887
 30
0.0
 10
-36.099
 20
-95.5887
 30
0.0
 10
-38.8159
 20
-94.225
 30
0.0
 10
-40.8256
 20
-97.3097
 30
0.0
 10
-39.139
 20
-99.7215
 30
0.0
 10
-39.139
 20
-99.7215
 30
0.0
 10
-38.5039
 20
-100.5059
 30
0.0
 10
-37.2945
 20
-100.4595
 30
0.0
 10
-36.4352
 20
-99.2872
 30
0.0
 10
-36.4352
 20
-99.2872
 30
0.0
 10
-35.6299
 20
-102.3797
 30
0.0
 10
-39.5665
 20
-102.1082
 30
0.0
 10
-40.6379
 20
-99.5112
 30
0.0
 10
-40.6379
 20
-99.5112
 30
0.0
 10
-41.5151
 20
-96.4624
 30
0.0
 10
-39.7963
 20
-93.1761
 30
0.0
 10
-35.9099
 20
-92.92
 30
0.0
 10
-35.9099
 20
-92.92
 30
0.0
 10
-35.9099
 20
-92.92
 30
0.0
 10
-29.2481
 20
-92.7869
 30
0.0
 10
-29.2481
 20
-92.7869
 30
0.0
 10
-29.2481
 20
-92.7869
 30
0.0
 10
-31.3103
 20
-96.5228
 30
0.0
 10
-30.6928
 20
-100.5482
 30
0.0
 10
-28.5614
 20
-102.7337
 30
0.0
 10
-28.5614
 20
-102.7337
 30
0.0
 10
-26.5374
 20
-104.4544
 30
0.0
 10
-22.6186
 20
-104.4315
 30
0.0
 10
-21.3607
 20
-101.3607
 30
0.0
 10
-21.3607
 20
-101.3607
 30
0.0
 10
-20.3225
 20
-98.5617
 30
0.0
 10
-21.2302
 20
-94.8854
 30
0.0
 10
-24.8349
 20
-95.0285
 30
0.0
 10
-24.8349
 20
-95.0285
 30
0.0
 10
-26.9693
 20
-95.2518
 30
0.0
 10
-27.2963
 20
-98.5035
 30
0.0
 10
-26.0678
 20
-99.5676
 30
0.0
 10
-26.0678
 20
-99.5676
 30
0.0
 10
-25.1973
 20
-100.1208
 30
0.0
 10
-24.2295
 20
-99.7986
 30
0.0
 10
-23.2098
 20
-99.0072
 30
0.0
 10
-23.2098
 20
-99.0072
 30
0.0
 10
-23.0096
 20
-101.7613
 30
0.0
 10
-25.9782
 20
-102.3519
 30
0.0
 10
-27.3286
 20
-100.296
 30
0.0
 10
-27.3286
 20
-100.296
 30
0.0
 10
-28.5718
 20
-98.0031
 30
0.0
 10
-27.9087
 20
-95.8396
 30
0.0
 10
-27.0484
 20
-94.5243
 30
0.0
 10
-27.0484
 20
-94.5243
 30
0.0
 10
-26.1255
 20
-93.0708
 30
0.0
 10
-24.8423
 20
-92.6807
 30
0.0
 10
-23.462
 20
-92.6469
 30
0.0
 10
-23.462
 20
-92.6469
 30
0.0
 10
-23.462
 20
-92.6469
 30
0.0
 10
-16.7376
 20
-92.675
 30
0.0
 10
-16.7376
 20
-92.675
 30
0.0
 10
-16.7376
 20
-92.675
 30
0.0
 10
-18.3289
 20
-95.2853
 30
0.0
 10
-18.5081
 20
-98.9556
 30
0.0
 10
-16.9053
 20
-101.4447
 30
0.0
 10
-16.9053
 20
-101.4447
 30
0.0
 10
-14.674
 20
-104.3521
 30
0.0
 10
-10.7358
 20
-104.2903
 30
0.0
 10
-8.9902
 20
-101.5848
 30
0.0
 10
-8.9902
 20
-101.5848
 30
0.0
 10
-7.4593
 20
-99.1177
 30
0.0
 10
-7.9386
 20
-95.394
 30
0.0
 10
-12.2543
 20
-94.8041
 30
0.0
 10
-12.2543
 20
-94.8041
 30
0.0
 10
-14.676
 20
-94.5693
 30
0.0
 10
-15.0539
 20
-98.644
 30
0.0
 10
-13.8794
 20
-99.2312
 30
0.0
 10
-13.8794
 20
-99.2312
 30
0.0
 10
-12.5885
 20
-99.9197
 30
0.0
 10
-11.6304
 20
-99.6455
 30
0.0
 10
-10.6012
 20
-98.6148
 30
0.0
 10
-10.6012
 20
-98.6148
 30
0.0
 10
-10.9806
 20
-100.9184
 30
0.0
 10
-12.7529
 20
-101.9896
 30
0.0
 10
-14.5798
 20
-100.3799
 30
0.0
 10
-14.5798
 20
-100.3799
 30
0.0
 10
-15.8075
 20
-98.9027
 30
0.0
 10
-15.7803
 20
-96.5433
 30
0.0
 10
-15.1122
 20
-94.7202
 30
0.0
 10
-15.1122
 20
-94.7202
 30
0.0
 10
-14.5067
 20
-92.8519
 30
0.0
 10
-12.1682
 20
-92.2454
 30
0.0
 10
-9.7042
 20
-92.2826
 30
0.0
 10
-9.7042
 20
-92.2826
 30
0.0
 10
-9.7042
 20
-92.2826
 30
0.0
 10
13.1307
 20
-92.0021
 30
0.0
 10
13.1307
 20
-92.0021
 30
0.0
 10
13.1307
 20
-92.0021
 30
0.0
 10
15.0522
 20
-92.0066
 30
0.0
 10
16.6262
 20
-93.2579
 30
0.0
 10
17.4176
 20
-95.1682
 30
0.0
 10
17.4176
 20
-95.1682
 30
0.0
 10
18.224
 20
-98.5028
 30
0.0
 10
17.1719
 20
-100.4822
 30
0.0
 10
14.6438
 20
-100.968
 30
0.0
 10
14.6438
 20
-100.968
 30
0.0
 10
13.4664
 20
-101.0765
 30
0.0
 10
12.2439
 20
-98.6367
 30
0.0
 10
13.0187
 20
-98.2783
 30
0.0
 10
13.0187
 20
-98.2783
 30
0.0
 10
15.356
 20
-99.7483
 30
0.0
 10
18.201
 20
-97.0728
 30
0.0
 10
15.8486
 20
-95.0841
 30
0.0
 10
15.8486
 20
-95.0841
 30
0.0
 10
13.0008
 20
-93.5592
 30
0.0
 10
10.3375
 20
-95.4978
 30
0.0
 10
10.8613
 20
-99.5952
 30
0.0
 10
10.8613
 20
-99.5952
 30
0.0
 10
11.589
 20
-103.7275
 30
0.0
 10
14.7753
 20
-103.9527
 30
0.0
 10
17.1374
 20
-102.7892
 30
0.0
 10
17.1374
 20
-102.7892
 30
0.0
 10
19.5743
 20
-101.4903
 30
0.0
 10
20.9815
 20
-99.01
 30
0.0
 10
19.8272
 20
-95.0282
 30
0.0
 10
19.8272
 20
-95.0282
 30
0.0
 10
19.8272
 20
-95.0282
 30
0.0
 10
18.6784
 20
-91.918
 30
0.0
 10
18.6784
 20
-91.918
 30
0.0
 10
18.6784
 20
-91.918
 30
0.0
 10
18.6784
 20
-91.918
 30
0.0
 10
24.7304
 20
-91.8341
 30
0.0
 10
24.7304
 20
-91.8341
 30
0.0
 10
24.7304
 20
-91.8341
 30
0.0
 10
26.0511
 20
-91.7964
 30
0.0
 10
27.6591
 20
-92.1796
 30
0.0
 10
28.5689
 20
-93.207
 30
0.0
 10
28.5689
 20
-93.207
 30
0.0
 10
30.2609
 20
-94.947
 30
0.0
 10
30.3232
 20
-97.9112
 30
0.0
 10
28.9052
 20
-100.0995
 30
0.0
 10
28.9052
 20
-100.0995
 30
0.0
 10
28.2988
 20
-100.8849
 30
0.0
 10
25.5422
 20
-100.8041
 30
0.0
 10
25.1507
 20
-99.4271
 30
0.0
 10
25.1507
 20
-99.4271
 30
0.0
 10
25.0111
 20
-98.8493
 30
0.0
 10
25.0102
 20
-98.2866
 30
0.0
 10
25.2067
 20
-97.7459
 30
0.0
 10
25.2067
 20
-97.7459
 30
0.0
 10
27.1406
 20
-100.8196
 30
0.0
 10
29.855
 20
-97.5209
 30
0.0
 10
28.2887
 20
-95.0841
 30
0.0
 10
28.2887
 20
-95.0841
 30
0.0
 10
27.0964
 20
-93.2427
 30
0.0
 10
22.1639
 20
-93.7067
 30
0.0
 10
22.9933
 20
-99.6793
 30
0.0
 10
22.9933
 20
-99.6793
 30
0.0
 10
23.5764
 20
-102.2133
 30
0.0
 10
25.2271
 20
-103.1289
 30
0.0
 10
27.224
 20
-103.1816
 30
0.0
 10
27.224
 20
-103.1816
 30
0.0
 10
30.4667
 20
-103.0214
 30
0.0
 10
31.7804
 20
-100.522
 30
0.0
 10
32.1553
 20
-97.2697
 30
0.0
 10
32.1553
 20
-97.2697
 30
0.0
 10
32.2705
 20
-95.378
 30
0.0
 10
31.9187
 20
-93.5108
 30
0.0
 10
30.614
 20
-91.6941
 30
0.0
 10
30.614
 20
-91.6941
 30
0.0
 10
30.614
 20
-91.6941
 30
0.0
 10
35.8534
 20
-91.3858
 30
0.0
 10
35.8534
 20
-91.3858
 30
0.0
 10
35.8534
 20
-91.3858
 30
0.0
 10
38.0974
 20
-91.546
 30
0.0
 10
40.6794
 20
-92.4024
 30
0.0
 10
41.6533
 20
-93.9635
 30
0.0
 10
41.6533
 20
-93.9635
 30
0.0
 10
42.7533
 20
-97.5287
 30
0.0
 10
41.9355
 20
-100.6998
 30
0.0
 10
39.4398
 20
-100.772
 30
0.0
 10
39.4398
 20
-100.772
 30
0.0
 10
37.933
 20
-100.5757
 30
0.0
 10
37.1079
 20
-99.5022
 30
0.0
 10
37.2264
 20
-97.5219
 30
0.0
 10
37.2264
 20
-97.5219
 30
0.0
 10
40.0955
 20
-100.6727
 30
0.0
 10
41.8175
 20
-97.0172
 30
0.0
 10
40.6167
 20
-95.0563
 30
0.0
 10
40.6167
 20
-95.0563
 30
0.0
 10
38.1989
 20
-92.2663
 30
0.0
 10
34.4291
 20
-95.516
 30
0.0
 10
35.4528
 20
-99.5916
 30
0.0
 10
35.4528
 20
-99.5916
 30
0.0
 10
36.6183
 20
-103.333
 30
0.0
 10
39.4508
 20
-103.5569
 30
0.0
 10
42.0176
 20
-102.089
 30
0.0
 10
42.0176
 20
-102.089
 30
0.0
 10
44.2641
 20
-100.4799
 30
0.0
 10
45.3465
 20
-97.3287
 30
0.0
 10
43.6424
 20
-92.7028
 30
0.0
 10
43.6424
 20
-92.7028
 30
0.0
 10
42.8951
 20
-91.3721
 30
0.0
 10
41.8029
 20
-90.2135
 30
0.0
 10
40.3083
 20
-89.2565
 30
0.0
 10
40.3083
 20
-89.2565
 30
0.0
 10
52.6482
 20
-82.2262
 30
0.0
 10
61.1328
 20
-73.1996
 30
0.0
 10
66.7294
 20
-58.7725
 30
0.0
 10
66.7294
 20
-58.7725
 30
0.0
 10
70.9374
 20
-45.8251
 30
0.0
 10
70.6371
 20
-27.8149
 30
0.0
 10
64.4597
 20
-7.1344
 30
0.0
 10
64.4597
 20
-7.1344
 30
0.0
 10
60.8464
 20
4.0171
 30
0.0
 10
56.3615
 20
15.1683
 30
0.0
 10
50.5067
 20
26.3197
 30
0.0
 10
50.5067
 20
26.3197
 30
0.0
 10
54.5682
 20
27.5105
 30
0.0
 10
57.7662
 20
29.8523
 30
0.0
 10
58.6879
 20
35.2295
 30
0.0
 10
58.6879
 20
35.2295
 30
0.0
 10
59.1518
 20
41.5283
 30
0.0
 10
52.5924
 20
45.6683
 30
0.0
 10
49.2456
 20
39.7405
 30
0.0
 10
49.2456
 20
39.7405
 30
0.0
 10
48.1736
 20
37.5807
 30
0.0
 10
48.3686
 20
34.6398
 30
0.0
 10
50.0582
 20
33.1561
 30
0.0
 10
50.0582
 20
33.1561
 30
0.0
 10
51.9364
 20
31.8143
 30
0.0
 10
54.9794
 20
32.5878
 30
0.0
 10
54.7092
 20
36.2381
 30
0.0
 10
54.7092
 20
36.2381
 30
0.0
 10
54.22
 20
38.0385
 30
0.0
 10
51.1919
 20
38.3509
 30
0.0
 10
51.0108
 20
36.1261
 30
0.0
 10
51.0108
 20
36.1261
 30
0.0
 10
50.2057
 20
37.928
 30
0.0
 10
51.2743
 20
40.0677
 30
0.0
 10
53.0281
 20
40.2168
 30
0.0
 10
53.0281
 20
40.2168
 30
0.0
 10
55.3347
 20
40.1526
 30
0.0
 10
56.1476
 20
38.3384
 30
0.0
 10
55.942
 20
35.3415
 30
0.0
 10
55.942
 20
35.3415
 30
0.0
 10
55.4941
 20
30.3873
 30
0.0
 10
49.8494
 20
29.1592
 30
0.0
 10
48.2059
 20
30.7338
 30
0.0
 10
48.2059
 20
30.7338
 30
0.0
 10
37.3795
 20
50.2039
 30
0.0
 10
26.929
 20
66.2546
 30
0.0
 10
13.9421
 20
84.1496
 30
0.0
 10
13.9421
 20
84.1496
 30
0.0
 10
16.0091
 20
90.6089
 30
0.0
 10
15.9546
 20
96.3049
 30
0.0
 10
11.1263
 20
99.672
 30
0.0
 10
11.1263
 20
99.672
 30
0.0
 10
7.4912
 20
101.7523
 30
0.0
 10
2.9284
 20
101.3131
 30
0.0
 10
-0.8936
 20
98.2008
 30
0.0
 10
-0.8936
 20
98.2008
 30
0.0
 10
-0.8936
 20
98.2008
 30
0.0
 10
-0.9387
 20
102.0391
 30
0.0
 10
-0.9387
 20
102.0391
 30
0.0
 10
-0.9387
 20
102.0391
 30
0.0
 10
-1.334
 20
105.1181
 30
0.0
 10
-5.9155
 20
104.9096
 30
0.0
 10
-6.0211
 20
101.9411
 30
0.0
 10
-6.0211
 20
101.9411
 30
0.0
 10
-6.0211
 20
101.9411
 30
0.0
 10
-6.1612
 20
98.2709
 30
0.0
 10
-6.1612
 20
98.2709
 30
0.0
 10
-6.1612
 20
98.2709
 30
0.0
 10
-10.4039
 20
101.9831
 30
0.0
 10
-16.4412
 20
100.8627
 30
0.0
 10
-19.47
 20
97.15
 30
0.0
 10
-19.47
 20
97.15
 30
0.0
 10
-22.4418
 20
93.4625
 30
0.0
 10
-22.3458
 20
86.2678
 30
0.0
 10
-19.0508
 20
82.4404
 30
0.0
 10
-19.0508
 20
82.4404
 30
0.0
 10
-30.1913
 20
66.5798
 30
0.0
 10
-40.2906
 20
49.5298
 30
0.0
 10
-49.3388
 20
31.2784
 30
0.0
 10
-49.3388
 20
31.2784
 30
0.0
 10
-53.1282
 20
30.0149
 30
0.0
 10
-56.2805
 20
31.3736
 30
0.0
 10
-57.8003
 20
35.425
 30
0.0
 10
-57.8003
 20
35.425
 30
0.0
 10
-58.4527
 20
37.9769
 30
0.0
 10
-57.718
 20
40.2326
 30
0.0
 10
-56.2313
 20
41.0847
 30
0.0
 10
-56.2313
 20
41.0847
 30
0.0
 10
-54.2993
 20
41.9728
 30
0.0
 10
-53.3157
 20
40.7482
 30
0.0
 10
-52.757
 20
38.2829
 30
0.0
 10
-52.757
 20
38.2829
 30
0.0
 10
-56.2822
 20
40.186
 30
0.0
 10
-57.8003
 20
35.425
 30
0.0
 10
-55.0479
 20
33.8545
 30
0.0
 10
-55.0479
 20
33.8545
 30
0.0
 10
-52.3426
 20
32.8862
 30
0.0
 10
-49.4836
 20
34.7672
 30
0.0
 10
-50.6276
 20
39.7679
 30
0.0
 10
-50.6276
 20
39.7679
 30
0.0
 10
-51.5404
 20
44.435
 30
0.0
 10
-56.8176
 20
44.935
 30
0.0
 10
-58.655
 20
42.8218
 30
0.0
 10
-58.655
 20
42.8218
 30
0.0
 10
-61.5127
 20
39.823
 30
0.0
 10
-61.3496
 20
35.0104
 30
0.0
 10
-58.6969
 20
31.0961
 30
0.0
 10
-58.6969
 20
31.0961
 30
0.0
 10
-56.9818
 20
28.5969
 30
0.0
 10
-54.6494
 20
27.4454
 30
0.0
 10
-51.1318
 20
27.5097
 30
0.0
 10
-51.1318
 20
27.5097
 30
0.0
 10
-58.4657
 20
12.2956
 30
0.0
 10
-64.3925
 20
-2.9183
 30
0.0
 10
-67.2424
 20
-18.1323
 30
0.0
 10
-67.2424
 20
-18.1323
 30
0.0
 10
-70.841
 20
-35.4007
 30
0.0
 10
-70.2186
 20
-49.6536
 30
0.0
 10
-65.4491
 20
-60.9446
 30
0.0
 10
-65.4491
 20
-60.9446
 30
0.0
 10
-59.9431
 20
-74.5105
 30
0.0
 10
-49.9224
 20
-83.672
 30
0.0
 10
-38.0602
 20
-90.6573
 30
0.0
  0
SPLINE
  5
42
330
1F
100
AcDbEntity
  8
Camada 1
 62
   250
370
     9
100
AcDbSpline
210
0.0
220
0.0
230
1.0
 70
    11
 71
     3
 72
    36
 73
    32
 74
     0
 42
0.0000000001
 43
0.0000000001
 12
1.0
 22
0.0
 32
0.0
 13
1.0
 23
0.0
 33
0.0
 40
0.0
 40
0.0
 40
0.0
 40
0.0
 40
0.1111111111111111
 40
0.1111111111111111
 40
0.1111111111111111
 40
0.1111111111111111
 40
0.2222222222222222
 40
0.2222222222222222
 40
0.2222222222222222
 40
0.2222222222222222
 40
0.3333333333333333
 40
0.3333333333333333
 40
0.3333333333333333
 40
0.3333333333333333
 40
0.4444444444444444
 40
0.4444444444444444
 40
0.4444444444444444
 40
0.4444444444444444
 40
0.5555555555555556
 40
0.5555555555555556
 40
0.5555555555555556
 40
0.5555555555555556
 40
0.6666666666666666
 40
0.6666666666666666
 40
0.6666666666666666
 40
0.6666666666666666
 40
0.7777777777777778
 40
0.7777777777777778
 40
0.7777777777777778
 40
0.7777777777777778
 40
1.0
 40
1.0
 40
1.0
 40
1.0
 10
-24.6983
 20
-89.059
 30
0.0
 10
-24.6983
 20
-89.059
 30
0.0
 10
-32.8236
 20
-89.087
 30
0.0
 10
-32.8236
 20
-89.087
 30
0.0
 10
-32.8236
 20
-89.087
 30
0.0
 10
-46.8725
 20
-82.5018
 30
0.0
 10
-56.2569
 20
-73.0076
 30
0.0
 10
-61.4304
 20
-60.5364
 30
0.0
 10
-61.4304
 20
-60.5364
 30
0.0
 10
-67.1959
 20
-45.0204
 30
0.0
 10
-67.8815
 20
-26.1424
 30
0.0
 10
-57.7885
 20
2.3927
 30
0.0
 10
-57.7885
 20
2.3927
 30
0.0
 10
-54.144
 20
12.2937
 30
0.0
 10
-50.488
 20
21.9164
 30
0.0
 10
-46.6931
 20
28.0573
 30
0.0
 10
-46.6931
 20
28.0573
 30
0.0
 10
-46.6931
 20
28.0573
 30
0.0
 10
-35.0009
 20
29.9673
 30
0.0
 10
-35.0009
 20
29.9673
 30
0.0
 10
-35.0009
 20
29.9673
 30
0.0
 10
-38.4763
 20
18.7714
 30
0.0
 10
-42.3858
 20
6.976
 30
0.0
 10
-44.8153
 20
-6.9098
 30
0.0
 10
-44.8153
 20
-6.9098
 30
0.0
 10
-47.7855
 20
-22.0926
 30
0.0
 10
-48.6439
 20
-37.8899
 30
0.0
 10
-47.3931
 20
-49.61
 30
0.0
 10
-47.3931
 20
-49.61
 30
0.0
 10
-44.7309
 20
-70.522
 30
0.0
 10
-35.4671
 20
-80.6807
 30
0.0
 10
-24.6983
 20
-89.059
 30
0.0
  0
SPLINE
  5
43
330
1F
100
AcDbEntity
  8
Camada 1
 62
   250
370
     9
100
AcDbSpline
210
0.0
220
0.0
230
1.0
 70
    11
 71
     3
 72
    32
 73
    28
 74
     0
 42
0.0000000001
 43
0.0000000001
 12
1.0
 22
0.0
 32
0.0
 13
1.0
 23
0.0
 33
0.0
 40
0.0
 40
0.0
 40
0.0
 40
0.0
 40
0.125
 40
0.125
 40
0.125
 40
0.125
 40
0.25
 40
0.25
 40
0.25
 40
0.25
 40
0.375
 40
0.375
 40
0.375
 40
0.375
 40
0.5
 40
0.5
 40
0.5
 40
0.5
 40
0.625
 40
0.625
 40
0.625
 40
0.625
 40
0.75
 40
0.75
 40
0.75
 40
0.75
 40
1.0
 40
1.0
 40
1.0
 40
1.0
 10
-31.8416
 20
30.4388
 30
0.0
 10
-31.8416
 20
30.4388
 30
0.0
 10
-20.244
 20
31.4169
 30
0.0
 10
-20.244
 20
31.4169
 30
0.0
 10
-20.244
 20
31.4169
 30
0.0
 10
-22.9315
 20
11.9303
 30
0.0
 10
-26.1279
 20
-7.531
 30
0.0
 10
-26.5179
 20
-27.7276
 30
0.0
 10
-26.5179
 20
-27.7276
 30
0.0
 10
-26.9115
 20
-56.3559
 30
0.0
 10
-23.7372
 20
-71.9266
 30
0.0
 10
-14.5299
 20
-88.6376
 30
0.0
 10
-14.5299
 20
-88.6376
 30
0.0
 10
-14.5299
 20
-88.6376
 30
0.0
 10
-21.5304
 20
-88.8074
 30
0.0
 10
-21.5304
 20
-88.8074
 30
0.0
 10
-21.5304
 20
-88.8074
 30
0.0
 10
-32.9328
 20
-81.1985
 30
0.0
 10
-41.6891
 20
-66.7675
 30
0.0
 10
-43.3288
 20
-48.6852
 30
0.0
 10
-43.3288
 20
-48.6852
 30
0.0
 10
-45.4297
 20
-26.4029
 30
0.0
 10
-41.9698
 20
-8.8037
 30
0.0
 10
-37.5007
 20
9.4252
 30
0.0
 10
-37.5007
 20
9.4252
 30
0.0
 10
-37.5007
 20
9.4252
 30
0.0
 10
-31.8416
 20
30.4388
 30
0.0
 10
-31.8416
 20
30.4388
 30
0.0
  0
SPLINE
  5
44
330
1F
100
AcDbEntity
  8
Camada 1
 62
   250
370
     9
100
AcDbSpline
210
0.0
220
0.0
230
1.0
 70
    11
 71
     3
 72
    52
 73
    48
 74
     0
 42
0.0000000001
 43
0.0000000001
 12
1.0
 22
0.0
 32
0.0
 13
1.0
 23
0.0
 33
0.0
 40
0.0
 40
0.0
 40
0.0
 40
0.0
 40
0.0769230769230769
 40
0.0769230769230769
 40
0.0769230769230769
 40
0.0769230769230769
 40
0.1538461538461539
 40
0.1538461538461539
 40
0.1538461538461539
 40
0.1538461538461539
 40
0.2307692307692308
 40
0.2307692307692308
 40
0.2307692307692308
 40
0.2307692307692308
 40
0.3076923076923077
 40
0.3076923076923077
 40
0.3076923076923077
 40
0.3076923076923077
 40
0.3846153846153846
 40
0.3846153846153846
 40
0.3846153846153846
 40
0.3846153846153846
 40
0.4615384615384616
 40
0.4615384615384616
 40
0.4615384615384616
 40
0.4615384615384616
 40
0.5384615384615384
 40
0.5384615384615384
 40
0.5384615384615384
 40
0.5384615384615384
 40
0.6153846153846154
 40
0.6153846153846154
 40
0.6153846153846154
 40
0.6153846153846154
 40
0.6923076923076923
 40
0.6923076923076923
 40
0.6923076923076923
 40
0.6923076923076923
 40
0.7692307692307693
 40
0.7692307692307693
 40
0.7692307692307693
 40
0.7692307692307693
 40
0.8461538461538461
 40
0.8461538461538461
 40
0.8461538461538461
 40
0.8461538461538461
 40
1.0
 40
1.0
 40
1.0
 40
1.0
 10
-15.9247
 20
31.729
 30
0.0
 10
-15.9247
 20
31.729
 30
0.0
 10
-5.2193
 20
32.1212
 30
0.0
 10
-5.2193
 20
32.1212
 30
0.0
 10
-5.2193
 20
32.1212
 30
0.0
 10
-5.2193
 20
32.1212
 30
0.0
 10
-4.5469
 20
10.1547
 30
0.0
 10
-4.5469
 20
10.1547
 30
0.0
 10
-4.5469
 20
10.1547
 30
0.0
 10
-4.5469
 20
10.1547
 30
0.0
 10
-13.0084
 20
18.6164
 30
0.0
 10
-13.0084
 20
18.6164
 30
0.0
 10
-13.0084
 20
18.6164
 30
0.0
 10
-13.0084
 20
18.6164
 30
0.0
 10
-13.6809
 20
15.5904
 30
0.0
 10
-13.6809
 20
15.5904
 30
0.0
 10
-13.6809
 20
15.5904
 30
0.0
 10
-13.6809
 20
15.5904
 30
0.0
 10
-16.6508
 20
12.7885
 30
0.0
 10
-16.6508
 20
12.7885
 30
0.0
 10
-16.6508
 20
12.7885
 30
0.0
 10
-16.6508
 20
12.7885
 30
0.0
 10
-4.9951
 20
5.0834
 30
0.0
 10
-4.9951
 20
5.0834
 30
0.0
 10
-4.9951
 20
5.0834
 30
0.0
 10
-4.343
 20
4.5532
 30
0.0
 10
-4.6429
 20
3.7692
 30
0.0
 10
-5.4574
 20
4.0607
 30
0.0
 10
-5.4574
 20
4.0607
 30
0.0
 10
-5.4574
 20
4.0607
 30
0.0
 10
-7.4607
 20
4.6771
 30
0.0
 10
-7.4607
 20
4.6771
 30
0.0
 10
-7.4607
 20
4.6771
 30
0.0
 10
-6.949
 20
1.7538
 30
0.0
 10
-5.8708
 20
-1.1693
 30
0.0
 10
-4.2385
 20
-4.0928
 30
0.0
 10
-4.2385
 20
-4.0928
 30
0.0
 10
-4.2385
 20
-4.0928
 30
0.0
 10
-3.8184
 20
-13.0393
 30
0.0
 10
-3.8184
 20
-13.0393
 30
0.0
 10
-3.8184
 20
-13.0393
 30
0.0
 10
-10.6985
 20
-13.2049
 30
0.0
 10
-14.4987
 20
-14.2179
 30
0.0
 10
-20.8559
 20
-16.8497
 30
0.0
 10
-20.8559
 20
-16.8497
 30
0.0
 10
-19.7514
 20
1.2199
 30
0.0
 10
-18.3761
 20
17.7004
 30
0.0
 10
-15.9247
 20
31.729
 30
0.0
  0
SPLINE
  5
45
330
1F
100
AcDbEntity
  8
Camada 1
 62
   250
370
     9
100
AcDbSpline
210
0.0
220
0.0
230
1.0
 70
    11
 71
     3
 72
    24
 73
    20
 74
     0
 42
0.0000000001
 43
0.0000000001
 12
1.0
 22
0.0
 32
0.0
 13
1.0
 23
0.0
 33
0.0
 40
0.0
 40
0.0
 40
0.0
 40
0.0
 40
0.1666666666666667
 40
0.1666666666666667
 40
0.1666666666666667
 40
0.1666666666666667
 40
0.3333333333333333
 40
0.3333333333333333
 40
0.3333333333333333
 40
0.3333333333333333
 40
0.5
 40
0.5
 40
0.5
 40
0.5
 40
0.6666666666666666
 40
0.6666666666666666
 40
0.6666666666666666
 40
0.6666666666666666
 40
1.0
 40
1.0
 40
1.0
 40
1.0
 10
0.5364
 20
32.2331
 30
0.0
 10
0.5364
 20
32.2331
 30
0.0
 10
12.2768
 20
31.869
 30
0.0
 10
12.2768
 20
31.869
 30
0.0
 10
12.2768
 20
31.869
 30
0.0
 10
12.2768
 20
31.869
 30
0.0
 10
17.6844
 20
1.9733
 30
0.0
 10
17.6844
 20
1.9733
 30
0.0
 10
17.6844
 20
1.9733
 30
0.0
 10
16.3031
 20
1.6501
 30
0.0
 10
15.1771
 20
2.1509
 30
0.0
 10
14.0421
 20
2.898
 30
0.0
 10
14.0421
 20
2.898
 30
0.0
 10
7.3363
 20
7.9039
 30
0.0
 10
5.449
 20
5.5969
 30
0.0
 10
1.0968
 20
8.5296
 30
0.0
 10
1.0968
 20
8.5296
 30
0.0
 10
1.0968
 20
8.5296
 30
0.0
 10
0.5364
 20
32.2331
 30
0.0
 10
0.5364
 20
32.2331
 30
0.0
  0
SPLINE
  5
46
330
1F
100
AcDbEntity
  8
Camada 1
 62
   250
370
     9
100
AcDbSpline
210
0.0
220
0.0
230
1.0
 70
    11
 71
     3
 72
    16
 73
    12
 74
     0
 42
0.0000000001
 43
0.0000000001
 12
1.0
 22
0.0
 32
0.0
 13
1.0
 23
0.0
 33
0.0
 40
0.0
 40
0.0
 40
0.0
 40
0.0
 40
0.25
 40
0.25
 40
0.25
 40
0.25
 40
0.5
 40
0.5
 40
0.5
 40
0.5
 40
1.0
 40
1.0
 40
1.0
 40
1.0
 10
2.0931
 20
-6.5443
 30
0.0
 10
2.0931
 20
-6.5443
 30
0.0
 10
2.1772
 20
-13.0531
 30
0.0
 10
2.1772
 20
-13.0531
 30
0.0
 10
2.1772
 20
-13.0531
 30
0.0
 10
2.1772
 20
-13.0531
 30
0.0
 10
8.9838
 20
-13.4453
 30
0.0
 10
8.9838
 20
-13.4453
 30
0.0
 10
8.9838
 20
-13.4453
 30
0.0
 10
5.8517
 20
-11.2674
 30
0.0
 10
4.5529
 20
-9.5443
 30
0.0
 10
2.0931
 20
-6.5443
 30
0.0
  0
SPLINE
  5
47
330
1F
100
AcDbEntity
  8
Camada 1
 62
   250
370
     9
100
AcDbSpline
210
0.0
220
0.0
230
1.0
 70
    11
 71
     3
 72
    28
 73
    24
 74
     0
 42
0.0000000001
 43
0.0000000001
 12
1.0
 22
0.0
 32
0.0
 13
1.0
 23
0.0
 33
0.0
 40
0.0
 40
0.0
 40
0.0
 40
0.0
 40
0.1428571428571428
 40
0.1428571428571428
 40
0.1428571428571428
 40
0.1428571428571428
 40
0.2857142857142857
 40
0.2857142857142857
 40
0.2857142857142857
 40
0.2857142857142857
 40
0.4285714285714285
 40
0.4285714285714285
 40
0.4285714285714285
 40
0.4285714285714285
 40
0.5714285714285714
 40
0.5714285714285714
 40
0.5714285714285714
 40
0.5714285714285714
 40
0.7142857142857143
 40
0.7142857142857143
 40
0.7142857142857143
 40
0.7142857142857143
 40
1.0
 40
1.0
 40
1.0
 40
1.0
 10
19.2945
 20
-9.6124
 30
0.0
 10
19.2945
 20
-9.6124
 30
0.0
 10
20.1631
 20
-17.1158
 30
0.0
 10
20.1631
 20
-17.1158
 30
0.0
 10
20.1631
 20
-17.1158
 30
0.0
 10
20.1631
 20
-17.1158
 30
0.0
 10
12.9343
 20
-14.0898
 30
0.0
 10
12.9343
 20
-14.0898
 30
0.0
 10
12.9343
 20
-14.0898
 30
0.0
 10
12.9343
 20
-14.0898
 30
0.0
 10
13.5507
 20
-13.2493
 30
0.0
 10
13.5507
 20
-13.2493
 30
0.0
 10
13.5507
 20
-13.2493
 30
0.0
 10
13.5507
 20
-13.2493
 30
0.0
 10
10.3286
 20
-13.0812
 30
0.0
 10
10.3286
 20
-13.0812
 30
0.0
 10
10.3286
 20
-13.0812
 30
0.0
 10
10.3286
 20
-13.0812
 30
0.0
 10
7.3025
 20
-11.6157
 30
0.0
 10
7.3025
 20
-11.6157
 30
0.0
 10
7.3025
 20
-11.6157
 30
0.0
 10
11.8307
 20
-11.9865
 30
0.0
 10
15.8122
 20
-11.3339
 30
0.0
 10
19.2945
 20
-9.6124
 30
0.0
  0
SPLINE
  5
48
330
1F
100
AcDbEntity
  8
Camada 1
 62
   250
370
     9
100
AcDbSpline
210
0.0
220
0.0
230
1.0
 70
    11
 71
     3
 72
    20
 73
    16
 74
     0
 42
0.0000000001
 43
0.0000000001
 12
1.0
 22
0.0
 32
0.0
 13
1.0
 23
0.0
 33
0.0
 40
0.0
 40
0.0
 40
0.0
 40
0.0
 40
0.2
 40
0.2
 40
0.2
 40
0.2
 40
0.4
 40
0.4
 40
0.4
 40
0.4
 40
0.6
 40
0.6
 40
0.6
 40
0.6
 40
1.0
 40
1.0
 40
1.0
 40
1.0
 10
19.3103
 20
-3.1121
 30
0.0
 10
19.3103
 20
-2.7319
 30
0.0
 10
19.0021
 20
-2.4238
 30
0.0
 10
18.6219
 20
-2.4238
 30
0.0
 10
18.6219
 20
-2.4238
 30
0.0
 10
18.2417
 20
-2.4237
 30
0.0
 10
17.9335
 20
-2.7319
 30
0.0
 10
17.9335
 20
-3.112
 30
0.0
 10
17.9335
 20
-3.112
 30
0.0
 10
17.9335
 20
-3.4922
 30
0.0
 10
18.2417
 20
-3.8003
 30
0.0
 10
18.6219
 20
-3.8003
 30
0.0
 10
18.6219
 20
-3.8003
 30
0.0
 10
19.0021
 20
-3.8004
 30
0.0
 10
19.3103
 20
-3.4922
 30
0.0
 10
19.3103
 20
-3.1121
 30
0.0
  0
SPLINE
  5
49
330
1F
100
AcDbEntity
  8
Camada 1
 62
   250
370
     9
100
AcDbSpline
210
0.0
220
0.0
230
1.0
 70
    11
 71
     3
 72
    60
 73
    56
 74
     0
 42
0.0000000001
 43
0.0000000001
 12
1.0
 22
0.0
 32
0.0
 13
1.0
 23
0.0
 33
0.0
 40
0.0
 40
0.0
 40
0.0
 40
0.0
 40
0.0666666666666667
 40
0.0666666666666667
 40
0.0666666666666667
 40
0.0666666666666667
 40
0.1333333333333333
 40
0.1333333333333333
 40
0.1333333333333333
 40
0.1333333333333333
 40
0.2
 40
0.2
 40
0.2
 40
0.2
 40
0.2666666666666667
 40
0.2666666666666667
 40
0.2666666666666667
 40
0.2666666666666667
 40
0.3333333333333333
 40
0.3333333333333333
 40
0.3333333333333333
 40
0.3333333333333333
 40
0.4
 40
0.4
 40
0.4
 40
0.4
 40
0.4666666666666667
 40
0.4666666666666667
 40
0.4666666666666667
 40
0.4666666666666667
 40
0.5333333333333333
 40
0.5333333333333333
 40
0.5333333333333333
 40
0.5333333333333333
 40
0.6
 40
0.6
 40
0.6
 40
0.6
 40
0.6666666666666666
 40
0.6666666666666666
 40
0.6666666666666666
 40
0.6666666666666666
 40
0.7333333333333333
 40
0.7333333333333333
 40
0.7333333333333333
 40
0.7333333333333333
 40
0.8
 40
0.8
 40
0.8
 40
0.8
 40
0.8666666666666667
 40
0.8666666666666667
 40
0.8666666666666667
 40
0.8666666666666667
 40
1.0
 40
1.0
 40
1.0
 40
1.0
 10
15.9454
 20
31.8135
 30
0.0
 10
15.9454
 20
31.8135
 30
0.0
 10
28.708
 20
30.8889
 30
0.0
 10
28.708
 20
30.8889
 30
0.0
 10
28.708
 20
30.8889
 30
0.0
 10
33.8239
 20
17.3965
 30
0.0
 10
37.9561
 20
2.6522
 30
0.0
 10
41.4285
 20
-12.9321
 30
0.0
 10
41.4285
 20
-12.9321
 30
0.0
 10
45.7323
 20
-35.1657
 30
0.0
 10
45.0629
 20
-53.7021
 30
0.0
 10
40.3636
 20
-66.4469
 30
0.0
 10
40.3636
 20
-66.4469
 30
0.0
 10
37.1427
 20
-75.572
 30
0.0
 10
31.4253
 20
-82.4086
 30
0.0
 10
24.617
 20
-88.2452
 30
0.0
 10
24.617
 20
-88.2452
 30
0.0
 10
24.617
 20
-88.2452
 30
0.0
 10
14.9786
 20
-88.1892
 30
0.0
 10
14.9786
 20
-88.1892
 30
0.0
 10
14.9786
 20
-88.1892
 30
0.0
 10
20.0838
 20
-80.3095
 30
0.0
 10
23.1879
 20
-71.8217
 30
0.0
 10
23.9446
 20
-61.9639
 30
0.0
 10
23.9446
 20
-61.9639
 30
0.0
 10
23.9446
 20
-61.9639
 30
0.0
 10
24.8973
 20
-46.6098
 30
0.0
 10
24.8973
 20
-46.6098
 30
0.0
 10
24.8973
 20
-46.6098
 30
0.0
 10
29.2447
 20
-45.2274
 30
0.0
 10
31.4237
 20
-38.6759
 30
0.0
 10
24.8413
 20
-34.898
 30
0.0
 10
24.8413
 20
-34.898
 30
0.0
 10
24.3016
 20
-25.3525
 30
0.0
 10
23.6623
 20
-16.4054
 30
0.0
 10
22.8235
 20
-8.953
 30
0.0
 10
22.8235
 20
-8.953
 30
0.0
 10
22.8225
 20
-8.4384
 30
0.0
 10
22.8992
 20
-7.9548
 30
0.0
 10
23.6081
 20
-7.8882
 30
0.0
 10
23.6081
 20
-7.8882
 30
0.0
 10
23.6081
 20
-7.8882
 30
0.0
 10
26.1297
 20
-7.734
 30
0.0
 10
26.1297
 20
-7.734
 30
0.0
 10
26.1297
 20
-7.734
 30
0.0
 10
26.1297
 20
-7.734
 30
0.0
 10
25.0507
 20
-5.7587
 30
0.0
 10
25.0507
 20
-5.7587
 30
0.0
 10
25.0507
 20
-5.7587
 30
0.0
 10
25.0105
 20
-1.6134
 30
0.0
 10
24.1073
 20
0.8324
 30
0.0
 10
21.3523
 20
1.6943
 30
0.0
 10
21.3523
 20
1.6943
 30
0.0
 10
21.3523
 20
1.6943
 30
0.0
 10
15.9454
 20
31.8135
 30
0.0
 10
15.9454
 20
31.8135
 30
0.0
  0
SPLINE
  5
4A
330
1F
100
AcDbEntity
  8
Camada 1
 62
   250
370
     9
100
AcDbSpline
210
0.0
220
0.0
230
1.0
 70
    11
 71
     3
 72
    32
 73
    28
 74
     0
 42
0.0000000001
 43
0.0000000001
 12
1.0
 22
0.0
 32
0.0
 13
1.0
 23
0.0
 33
0.0
 40
0.0
 40
0.0
 40
0.0
 40
0.0
 40
0.125
 40
0.125
 40
0.125
 40
0.125
 40
0.25
 40
0.25
 40
0.25
 40
0.25
 40
0.375
 40
0.375
 40
0.375
 40
0.375
 40
0.5
 40
0.5
 40
0.5
 40
0.5
 40
0.625
 40
0.625
 40
0.625
 40
0.625
 40
0.75
 40
0.75
 40
0.75
 40
0.75
 40
1.0
 40
1.0
 40
1.0
 40
1.0
 10
34.0319
 20
29.9534
 30
0.0
 10
34.0319
 20
29.9534
 30
0.0
 10
45.6342
 20
27.753
 30
0.0
 10
45.6342
 20
27.753
 30
0.0
 10
45.6342
 20
27.753
 30
0.0
 10
55.1985
 20
10.7738
 30
0.0
 10
59.5121
 20
-5.4208
 30
0.0
 10
63.3977
 20
-22.3999
 30
0.0
 10
63.3977
 20
-22.3999
 30
0.0
 10
68.37
 20
-44.5814
 30
0.0
 10
61.3385
 20
-64.9976
 30
0.0
 10
52.4705
 20
-74.0098
 30
0.0
 10
52.4705
 20
-74.0098
 30
0.0
 10
47.4848
 20
-79.0164
 30
0.0
 10
43.1802
 20
-84.2137
 30
0.0
 10
35.4351
 20
-88.4672
 30
0.0
 10
35.4351
 20
-88.4672
 30
0.0
 10
35.4351
 20
-88.4672
 30
0.0
 10
27.4779
 20
-88.2432
 30
0.0
 10
27.4779
 20
-88.2432
 30
0.0
 10
27.4779
 20
-88.2432
 30
0.0
 10
49.2645
 20
-74.4169
 30
0.0
 10
50.7446
 20
-52.2059
 30
0.0
 10
48.1551
 20
-25.3417
 30
0.0
 10
48.1551
 20
-25.3417
 30
0.0
 10
46.1409
 20
-9.661
 30
0.0
 10
41.2389
 20
9.304
 30
0.0
 10
34.0319
 20
29.9534
 30
0.0
  0
SPLINE
  5
4B
330
1F
100
AcDbEntity
  8
Camada 1
 62
   250
370
     9
100
AcDbSpline
210
0.0
220
0.0
230
1.0
 70
    11
 71
     3
 72
    20
 73
    16
 74
     0
 42
0.0000000001
 43
0.0000000001
 12
1.0
 22
0.0
 32
0.0
 13
1.0
 23
0.0
 33
0.0
 40
0.0
 40
0.0
 40
0.0
 40
0.0
 40
0.2
 40
0.2
 40
0.2
 40
0.2
 40
0.4
 40
0.4
 40
0.4
 40
0.4
 40
0.6
 40
0.6
 40
0.6
 40
0.6
 40
1.0
 40
1.0
 40
1.0
 40
1.0
 10
-21.0374
 20
-20.4656
 30
0.0
 10
-21.5007
 20
-35.197
 30
0.0
 10
-21.0968
 20
-48.7514
 30
0.0
 10
-19.4683
 20
-60.6436
 30
0.0
 10
-19.4683
 20
-60.6436
 30
0.0
 10
-16.7701
 20
-63.0506
 30
0.0
 10
-11.0808
 20
-64.9603
 30
0.0
 10
-2.5528
 20
-64.8464
 30
0.0
 10
-2.5528
 20
-64.8464
 30
0.0
 10
-2.5528
 20
-64.8464
 30
0.0
 10
-3.6734
 20
-16.7667
 30
0.0
 10
-3.6734
 20
-16.7667
 30
0.0
 10
-3.6734
 20
-16.7667
 30
0.0
 10
-10.6259
 20
-16.7889
 30
0.0
 10
-14.6824
 20
-18.0527
 30
0.0
 10
-21.0374
 20
-20.4656
 30
0.0
  0
SPLINE
  5
4C
330
1F
100
AcDbEntity
  8
Camada 1
 62
   250
370
     9
100
AcDbSpline
210
0.0
220
0.0
230
1.0
 70
    11
 71
     3
 72
    56
 73
    52
 74
     0
 42
0.0000000001
 43
0.0000000001
 12
1.0
 22
0.0
 32
0.0
 13
1.0
 23
0.0
 33
0.0
 40
0.0
 40
0.0
 40
0.0
 40
0.0
 40
0.0714285714285714
 40
0.0714285714285714
 40
0.0714285714285714
 40
0.0714285714285714
 40
0.1428571428571428
 40
0.1428571428571428
 40
0.1428571428571428
 40
0.1428571428571428
 40
0.2142857142857143
 40
0.2142857142857143
 40
0.2142857142857143
 40
0.2142857142857143
 40
0.2857142857142857
 40
0.2857142857142857
 40
0.2857142857142857
 40
0.2857142857142857
 40
0.3571428571428572
 40
0.3571428571428572
 40
0.3571428571428572
 40
0.3571428571428572
 40
0.4285714285714285
 40
0.4285714285714285
 40
0.4285714285714285
 40
0.4285714285714285
 40
0.5
 40
0.5
 40
0.5
 40
0.5
 40
0.5714285714285714
 40
0.5714285714285714
 40
0.5714285714285714
 40
0.5714285714285714
 40
0.6428571428571429
 40
0.6428571428571429
 40
0.6428571428571429
 40
0.6428571428571429
 40
0.7142857142857143
 40
0.7142857142857143
 40
0.7142857142857143
 40
0.7142857142857143
 40
0.7857142857142857
 40
0.7857142857142857
 40
0.7857142857142857
 40
0.7857142857142857
 40
0.8571428571428571
 40
0.8571428571428571
 40
0.8571428571428571
 40
0.8571428571428571
 40
1.0
 40
1.0
 40
1.0
 40
1.0
 10
20.6544
 20
-22.2018
 30
0.0
 10
17.589
 20
-18.7113
 30
0.0
 10
12.5894
 20
-17.0063
 30
0.0
 10
2.5008
 20
-16.8783
 30
0.0
 10
2.5008
 20
-16.8783
 30
0.0
 10
2.5008
 20
-16.8783
 30
0.0
 10
3.3969
 20
-64.8457
 30
0.0
 10
3.3969
 20
-64.8457
 30
0.0
 10
3.3969
 20
-64.8457
 30
0.0
 10
12.3967
 20
-64.9852
 30
0.0
 10
16.5578
 20
-62.6425
 30
0.0
 10
21.0737
 20
-59.27
 30
0.0
 10
21.0737
 20
-59.27
 30
0.0
 10
21.8009
 20
-51.406
 30
0.0
 10
21.9707
 20
-43.542
 30
0.0
 10
21.3533
 20
-35.6782
 30
0.0
 10
21.3533
 20
-35.6782
 30
0.0
 10
19.975
 20
-34.6409
 30
0.0
 10
15.0459
 20
-34.5827
 30
0.0
 10
13.5081
 20
-38.424
 30
0.0
 10
13.5081
 20
-38.424
 30
0.0
 10
12.518
 20
-41.5413
 30
0.0
 10
13.7511
 20
-45.113
 30
0.0
 10
15.8337
 20
-45.3165
 30
0.0
 10
15.8337
 20
-45.3165
 30
0.0
 10
18.9218
 20
-45.1168
 30
0.0
 10
19.0834
 20
-42.0167
 30
0.0
 10
17.4308
 20
-40.5534
 30
0.0
 10
17.4308
 20
-40.5534
 30
0.0
 10
17.1466
 20
-44.5366
 30
0.0
 10
13.7173
 20
-41.5208
 30
0.0
 10
15.2172
 20
-39.6849
 30
0.0
 10
15.2172
 20
-39.6849
 30
0.0
 10
16.9061
 20
-37.9699
 30
0.0
 10
19.7589
 20
-38.8376
 30
0.0
 10
19.5041
 20
-43.3272
 30
0.0
 10
19.5041
 20
-43.3272
 30
0.0
 10
19.1719
 20
-47.4247
 30
0.0
 10
13.5869
 20
-48.1283
 30
0.0
 10
11.9391
 20
-43.4113
 30
0.0
 10
11.9391
 20
-43.4113
 30
0.0
 10
11.1448
 20
-40.3134
 30
0.0
 10
11.547
 20
-37.5525
 30
0.0
 10
13.9004
 20
-35.2299
 30
0.0
 10
13.9004
 20
-35.2299
 30
0.0
 10
15.9884
 20
-33.2971
 30
0.0
 10
18.5275
 20
-32.9224
 30
0.0
 10
21.4373
 20
-33.8289
 30
0.0
 10
21.4373
 20
-33.8289
 30
0.0
 10
21.4373
 20
-33.8289
 30
0.0
 10
20.6544
 20
-22.2018
 30
0.0
 10
20.6544
 20
-22.2018
 30
0.0
  0
SPLINE
  5
4D
330
1F
100
AcDbEntity
  8
Camada 1
 62
   250
370
     9
100
AcDbSpline
210
0.0
220
0.0
230
1.0
 70
    11
 71
     3
 72
    12
 73
     8
 74
     0
 42
0.0000000001
 43
0.0000000001
 12
1.0
 22
0.0
 32
0.0
 13
1.0
 23
0.0
 33
0.0
 40
0.0
 40
0.0
 40
0.0
 40
0.0
 40
0.3333333333333333
 40
0.3333333333333333
 40
0.3333333333333333
 40
0.3333333333333333
 40
1.0
 40
1.0
 40
1.0
 40
1.0
 10
24.7767
 20
-37.8504
 30
0.0
 10
26.9119
 20
-40.98
 30
0.0
 10
26.7894
 20
-43.4769
 30
0.0
 10
24.7299
 20
-44.3063
 30
0.0
 10
24.7299
 20
-44.3063
 30
0.0
 10
24.7299
 20
-44.3063
 30
0.0
 10
24.7767
 20
-37.8504
 30
0.0
 10
24.7767
 20
-37.8504
 30
0.0
  0
SPLINE
  5
4E
330
1F
100
AcDbEntity
  8
Camada 1
 62
   250
370
     9
100
AcDbSpline
210
0.0
220
0.0
230
1.0
 70
    11
 71
     3
 72
    20
 73
    16
 74
     0
 42
0.0000000001
 43
0.0000000001
 12
1.0
 22
0.0
 32
0.0
 13
1.0
 23
0.0
 33
0.0
 40
0.0
 40
0.0
 40
0.0
 40
0.0
 40
0.2
 40
0.2
 40
0.2
 40
0.2
 40
0.4
 40
0.4
 40
0.4
 40
0.4
 40
0.6
 40
0.6
 40
0.6
 40
0.6
 40
1.0
 40
1.0
 40
1.0
 40
1.0
 10
-18.9945
 20
-65.8036
 30
0.0
 10
-12.7725
 20
-68.1243
 30
0.0
 10
-9.062
 20
-69.2733
 30
0.0
 10
-2.6907
 20
-69.0537
 30
0.0
 10
-2.6907
 20
-69.0537
 30
0.0
 10
-2.6907
 20
-69.0537
 30
0.0
 10
-2.0183
 20
-88.184
 30
0.0
 10
-2.0183
 20
-88.184
 30
0.0
 10
-2.0183
 20
-88.184
 30
0.0
 10
-2.0183
 20
-88.184
 30
0.0
 10
-9.7484
 20
-88.4081
 30
0.0
 10
-9.7484
 20
-88.4081
 30
0.0
 10
-9.7484
 20
-88.4081
 30
0.0
 10
-14.9656
 20
-80.559
 30
0.0
 10
-17.6628
 20
-73.9513
 30
0.0
 10
-18.9945
 20
-65.8036
 30
0.0
  0
SPLINE
  5
4F
330
1F
100
AcDbEntity
  8
Camada 1
 62
   250
370
     9
100
AcDbSpline
210
0.0
220
0.0
230
1.0
 70
    11
 71
     3
 72
    20
 73
    16
 74
     0
 42
0.0000000001
 43
0.0000000001
 12
1.0
 22
0.0
 32
0.0
 13
1.0
 23
0.0
 33
0.0
 40
0.0
 40
0.0
 40
0.0
 40
0.0
 40
0.2
 40
0.2
 40
0.2
 40
0.2
 40
0.4
 40
0.4
 40
0.4
 40
0.4
 40
0.6
 40
0.6
 40
0.6
 40
0.6
 40
1.0
 40
1.0
 40
1.0
 40
1.0
 10
20.5173
 20
-64.7583
 30
0.0
 10
14.4304
 20
-67.4134
 30
0.0
 10
10.3415
 20
-68.9019
 30
0.0
 10
3.9677
 20
-69.0285
 30
0.0
 10
3.9677
 20
-69.0285
 30
0.0
 10
3.9677
 20
-69.0285
 30
0.0
 10
4.4123
 20
-88.165
 30
0.0
 10
4.4123
 20
-88.165
 30
0.0
 10
4.4123
 20
-88.165
 30
0.0
 10
4.4123
 20
-88.165
 30
0.0
 10
12.5894
 20
-87.8292
 30
0.0
 10
12.5894
 20
-87.8292
 30
0.0
 10
12.5894
 20
-87.8292
 30
0.0
 10
17.373
 20
-79.7085
 30
0.0
 10
19.6297
 20
-72.9663
 30
0.0
 10
20.5173
 20
-64.7583
 30
0.0
  0
SPLINE
  5
50
330
1F
100
AcDbEntity
  8
Camada 1
 62
   250
370
     9
100
AcDbSpline
210
0.0
220
0.0
230
1.0
 70
    11
 71
     3
 72
    72
 73
    68
 74
     0
 42
0.0000000001
 43
0.0000000001
 12
1.0
 22
0.0
 32
0.0
 13
1.0
 23
0.0
 33
0.0
 40
0.0
 40
0.0
 40
0.0
 40
0.0
 40
0.0555555555555556
 40
0.0555555555555556
 40
0.0555555555555556
 40
0.0555555555555556
 40
0.1111111111111111
 40
0.1111111111111111
 40
0.1111111111111111
 40
0.1111111111111111
 40
0.1666666666666667
 40
0.1666666666666667
 40
0.1666666666666667
 40
0.1666666666666667
 40
0.2222222222222222
 40
0.2222222222222222
 40
0.2222222222222222
 40
0.2222222222222222
 40
0.2777777777777778
 40
0.2777777777777778
 40
0.2777777777777778
 40
0.2777777777777778
 40
0.3333333333333333
 40
0.3333333333333333
 40
0.3333333333333333
 40
0.3333333333333333
 40
0.3888888888888889
 40
0.3888888888888889
 40
0.3888888888888889
 40
0.3888888888888889
 40
0.4444444444444444
 40
0.4444444444444444
 40
0.4444444444444444
 40
0.4444444444444444
 40
0.5
 40
0.5
 40
0.5
 40
0.5
 40
0.5555555555555556
 40
0.5555555555555556
 40
0.5555555555555556
 40
0.5555555555555556
 40
0.6111111111111112
 40
0.6111111111111112
 40
0.6111111111111112
 40
0.6111111111111112
 40
0.6666666666666666
 40
0.6666666666666666
 40
0.6666666666666666
 40
0.6666666666666666
 40
0.7222222222222222
 40
0.7222222222222222
 40
0.7222222222222222
 40
0.7222222222222222
 40
0.7777777777777778
 40
0.7777777777777778
 40
0.7777777777777778
 40
0.7777777777777778
 40
0.8333333333333334
 40
0.8333333333333334
 40
0.8333333333333334
 40
0.8333333333333334
 40
0.8888888888888888
 40
0.8888888888888888
 40
0.8888888888888888
 40
0.8888888888888888
 40
1.0
 40
1.0
 40
1.0
 40
1.0
 10
-30.6917
 20
33.3929
 30
0.0
 10
-30.6917
 20
33.3929
 30
0.0
 10
-20.1149
 20
34.2184
 30
0.0
 10
-20.1149
 20
34.2184
 30
0.0
 10
-20.1149
 20
34.2184
 30
0.0
 10
-17.2505
 20
53.876
 30
0.0
 10
-12.4106
 20
70.66
 30
0.0
 10
-9.3968
 20
82.8456
 30
0.0
 10
-9.3968
 20
82.8456
 30
0.0
 10
-10.3026
 20
84.7041
 30
0.0
 10
-9.5042
 20
87.2489
 30
0.0
 10
-8.4443
 20
88.7014
 30
0.0
 10
-8.4443
 20
88.7014
 30
0.0
 10
-7.3681
 20
90.0753
 30
0.0
 10
-5.5135
 20
89.154
 30
0.0
 10
-5.4182
 20
87.1885
 30
0.0
 10
-5.4182
 20
87.1885
 30
0.0
 10
-5.5444
 20
86.436
 30
0.0
 10
-6.5949
 20
86.2365
 30
0.0
 10
-7.1834
 20
87.0763
 30
0.0
 10
-7.1834
 20
87.0763
 30
0.0
 10
-8.2842
 20
87.0897
 30
0.0
 10
-8.1605
 20
84.1911
 30
0.0
 10
-7.2114
 20
83.8542
 30
0.0
 10
-7.2114
 20
83.8542
 30
0.0
 10
-5.3158
 20
83.7387
 30
0.0
 10
-4.0732
 20
84.7726
 30
0.0
 10
-4.0453
 20
87.945
 30
0.0
 10
-4.0453
 20
87.945
 30
0.0
 10
-4.0585
 20
93.0742
 30
0.0
 10
-7.2843
 20
98.1195
 30
0.0
 10
-12.6605
 20
97.9614
 30
0.0
 10
-12.6605
 20
97.9614
 30
0.0
 10
-16.6162
 20
97.6858
 30
0.0
 10
-19.5808
 20
94.3285
 30
0.0
 10
-19.483
 20
89.9903
 30
0.0
 10
-19.483
 20
89.9903
 30
0.0
 10
-19.2174
 20
86.5138
 30
0.0
 10
-17.4324
 20
83.8185
 30
0.0
 10
-15.9528
 20
83.574
 30
0.0
 10
-15.9528
 20
83.574
 30
0.0
 10
-12.7789
 20
83.2733
 30
0.0
 10
-11.739
 20
85.3782
 30
0.0
 10
-12.6745
 20
89.7101
 30
0.0
 10
-12.6745
 20
89.7101
 30
0.0
 10
-12.8388
 20
90.2673
 30
0.0
 10
-13.3318
 20
90.5351
 30
0.0
 10
-13.9914
 20
90.4666
 30
0.0
 10
-13.9914
 20
90.4666
 30
0.0
 10
-13.0776
 20
87.5412
 30
0.0
 10
-15.4651
 20
86.8309
 30
0.0
 10
-16.6952
 20
88.4352
 30
0.0
 10
-16.6952
 20
88.4352
 30
0.0
 10
-17.6979
 20
89.5943
 30
0.0
 10
-17.1005
 20
92.0913
 30
0.0
 10
-14.944
 20
92.3999
 30
0.0
 10
-14.944
 20
92.3999
 30
0.0
 10
-12.3698
 20
92.5536
 30
0.0
 10
-10.9804
 20
91.0039
 30
0.0
 10
-10.7973
 20
87.7207
 30
0.0
 10
-10.7973
 20
87.7207
 30
0.0
 10
-10.6834
 20
85.5671
 30
0.0
 10
-12.6825
 20
81.0875
 30
0.0
 10
-15.3359
 20
75.6445
 30
0.0
 10
-15.3359
 20
75.6445
 30
0.0
 10
-20.6418
 20
64.0915
 30
0.0
 10
-25.6856
 20
48.9964
 30
0.0
 10
-30.6917
 20
33.3929
 30
0.0
  0
SPLINE
  5
51
330
1F
100
AcDbEntity
  8
Camada 1
 62
   250
370
     9
100
AcDbSpline
210
0.0
220
0.0
230
1.0
 70
    11
 71
     3
 72
    72
 73
    68
 74
     0
 42
0.0000000001
 43
0.0000000001
 12
1.0
 22
0.0
 32
0.0
 13
1.0
 23
0.0
 33
0.0
 40
0.0
 40
0.0
 40
0.0
 40
0.0
 40
0.0555555555555556
 40
0.0555555555555556
 40
0.0555555555555556
 40
0.0555555555555556
 40
0.1111111111111111
 40
0.1111111111111111
 40
0.1111111111111111
 40
0.1111111111111111
 40
0.1666666666666667
 40
0.1666666666666667
 40
0.1666666666666667
 40
0.1666666666666667
 40
0.2222222222222222
 40
0.2222222222222222
 40
0.2222222222222222
 40
0.2222222222222222
 40
0.2777777777777778
 40
0.2777777777777778
 40
0.2777777777777778
 40
0.2777777777777778
 40
0.3333333333333333
 40
0.3333333333333333
 40
0.3333333333333333
 40
0.3333333333333333
 40
0.3888888888888889
 40
0.3888888888888889
 40
0.3888888888888889
 40
0.3888888888888889
 40
0.4444444444444444
 40
0.4444444444444444
 40
0.4444444444444444
 40
0.4444444444444444
 40
0.5
 40
0.5
 40
0.5
 40
0.5
 40
0.5555555555555556
 40
0.5555555555555556
 40
0.5555555555555556
 40
0.5555555555555556
 40
0.6111111111111112
 40
0.6111111111111112
 40
0.6111111111111112
 40
0.6111111111111112
 40
0.6666666666666666
 40
0.6666666666666666
 40
0.6666666666666666
 40
0.6666666666666666
 40
0.7222222222222222
 40
0.7222222222222222
 40
0.7222222222222222
 40
0.7222222222222222
 40
0.7777777777777778
 40
0.7777777777777778
 40
0.7777777777777778
 40
0.7777777777777778
 40
0.8333333333333334
 40
0.8333333333333334
 40
0.8333333333333334
 40
0.8333333333333334
 40
0.8888888888888888
 40
0.8888888888888888
 40
0.8888888888888888
 40
0.8888888888888888
 40
1.0
 40
1.0
 40
1.0
 40
1.0
 10
27.6158
 20
33.9532
 30
0.0
 10
27.6158
 20
33.9532
 30
0.0
 10
15.379
 20
34.7031
 30
0.0
 10
15.379
 20
34.7031
 30
0.0
 10
15.379
 20
34.7031
 30
0.0
 10
11.5801
 20
55.4508
 30
0.0
 10
5.5671
 20
71.8464
 30
0.0
 10
2.9116
 20
82.5039
 30
0.0
 10
2.9116
 20
82.5039
 30
0.0
 10
4.77
 20
85.3151
 30
0.0
 10
3.3181
 20
87.6412
 30
0.0
 10
2.1742
 20
89.0937
 30
0.0
 10
2.1742
 20
89.0937
 30
0.0
 10
1.0979
 20
90.4676
 30
0.0
 10
-0.7566
 20
89.5463
 30
0.0
 10
-0.8519
 20
87.5807
 30
0.0
 10
-0.8519
 20
87.5807
 30
0.0
 10
-0.7257
 20
86.8281
 30
0.0
 10
0.3248
 20
86.6286
 30
0.0
 10
0.9133
 20
87.4685
 30
0.0
 10
0.9133
 20
87.4685
 30
0.0
 10
2.014
 20
87.4819
 30
0.0
 10
1.8904
 20
84.5834
 30
0.0
 10
0.9413
 20
84.2465
 30
0.0
 10
0.9413
 20
84.2465
 30
0.0
 10
-0.9543
 20
84.1309
 30
0.0
 10
-2.1969
 20
85.1648
 30
0.0
 10
-2.2248
 20
88.3371
 30
0.0
 10
-2.2248
 20
88.3371
 30
0.0
 10
-2.2116
 20
93.4664
 30
0.0
 10
1.0142
 20
98.5118
 30
0.0
 10
6.3904
 20
98.3537
 30
0.0
 10
6.3904
 20
98.3537
 30
0.0
 10
10.3461
 20
98.078
 30
0.0
 10
13.3106
 20
94.7208
 30
0.0
 10
13.2129
 20
90.3825
 30
0.0
 10
13.2129
 20
90.3825
 30
0.0
 10
12.9473
 20
86.906
 30
0.0
 10
11.1623
 20
84.2108
 30
0.0
 10
9.6826
 20
83.9663
 30
0.0
 10
9.6826
 20
83.9663
 30
0.0
 10
6.5088
 20
83.6656
 30
0.0
 10
5.4689
 20
85.7705
 30
0.0
 10
6.4044
 20
90.1023
 30
0.0
 10
6.4044
 20
90.1023
 30
0.0
 10
6.5686
 20
90.6596
 30
0.0
 10
7.0617
 20
90.9274
 30
0.0
 10
7.7213
 20
90.8589
 30
0.0
 10
7.7213
 20
90.8589
 30
0.0
 10
6.8074
 20
87.9334
 30
0.0
 10
9.195
 20
87.2231
 30
0.0
 10
10.4251
 20
88.8274
 30
0.0
 10
10.4251
 20
88.8274
 30
0.0
 10
11.4278
 20
89.9865
 30
0.0
 10
10.8303
 20
92.4835
 30
0.0
 10
8.6739
 20
92.7921
 30
0.0
 10
8.6739
 20
92.7921
 30
0.0
 10
6.0996
 20
92.9459
 30
0.0
 10
4.7103
 20
91.3962
 30
0.0
 10
4.5272
 20
88.113
 30
0.0
 10
4.5272
 20
88.113
 30
0.0
 10
4.5391
 20
85.6952
 30
0.0
 10
6.7229
 20
81.7869
 30
0.0
 10
9.5002
 20
75.7845
 30
0.0
 10
9.5002
 20
75.7845
 30
0.0
 10
14.8061
 20
64.2315
 30
0.0
 10
22.6096
 20
49.5567
 30
0.0
 10
27.6158
 20
33.9532
 30
0.0
  0
SPLINE
  5
52
330
1F
100
AcDbEntity
  8
Camada 1
 62
   250
370
     9
100
AcDbSpline
210
0.0
220
0.0
230
1.0
 70
    11
 71
     3
 72
    20
 73
    16
 74
     0
 42
0.0000000001
 43
0.0000000001
 12
1.0
 22
0.0
 32
0.0
 13
1.0
 23
0.0
 33
0.0
 40
0.0
 40
0.0
 40
0.0
 40
0.0
 40
0.2
 40
0.2
 40
0.2
 40
0.2
 40
0.4
 40
0.4
 40
0.4
 40
0.4
 40
0.6
 40
0.6
 40
0.6
 40
0.6
 40
1.0
 40
1.0
 40
1.0
 40
1.0
 10
-4.448
 20
83.5878
 30
0.0
 10
-5.1736
 20
82.3718
 30
0.0
 10
-5.5622
 20
82.0952
 30
0.0
 10
-6.8857
 20
82.4109
 30
0.0
 10
-6.8857
 20
82.4109
 30
0.0
 10
-9.9176
 20
68.9662
 30
0.0
 10
-12.726
 20
52.2807
 30
0.0
 10
-15.4591
 20
34.4994
 30
0.0
 10
-15.4591
 20
34.4994
 30
0.0
 10
-15.4591
 20
34.4994
 30
0.0
 10
-5.2569
 20
34.9477
 30
0.0
 10
-5.2569
 20
34.9477
 30
0.0
 10
-5.2569
 20
34.9477
 30
0.0
 10
-5.2569
 20
34.9477
 30
0.0
 10
-4.448
 20
83.5878
 30
0.0
 10
-4.448
 20
83.5878
 30
0.0
  0
SPLINE
  5
53
330
1F
100
AcDbEntity
  8
Camada 1
 62
   250
370
     9
100
AcDbSpline
210
0.0
220
0.0
230
1.0
 70
    11
 71
     3
 72
    20
 73
    16
 74
     0
 42
0.0000000001
 43
0.0000000001
 12
1.0
 22
0.0
 32
0.0
 13
1.0
 23
0.0
 33
0.0
 40
0.0
 40
0.0
 40
0.0
 40
0.0
 40
0.2
 40
0.2
 40
0.2
 40
0.2
 40
0.4
 40
0.4
 40
0.4
 40
0.4
 40
0.6
 40
0.6
 40
0.6
 40
0.6
 40
1.0
 40
1.0
 40
1.0
 40
1.0
 10
-1.9535
 20
83.7292
 30
0.0
 10
-1.2279
 20
82.5132
 30
0.0
 10
-0.887
 20
82.0289
 30
0.0
 10
0.4365
 20
82.3446
 30
0.0
 10
0.4365
 20
82.3446
 30
0.0
 10
3.4684
 20
68.8999
 30
0.0
 10
8.0502
 20
52.6098
 30
0.0
 10
11.6068
 20
34.8917
 30
0.0
 10
11.6068
 20
34.8917
 30
0.0
 10
11.6068
 20
34.8917
 30
0.0
 10
0.2993
 20
35.0318
 30
0.0
 10
0.2993
 20
35.0318
 30
0.0
 10
0.2993
 20
35.0318
 30
0.0
 10
0.2993
 20
35.0318
 30
0.0
 10
-1.9535
 20
83.7292
 30
0.0
 10
-1.9535
 20
83.7292
 30
0.0
  0
SPLINE
  5
54
330
1F
100
AcDbEntity
  8
Camada 1
 62
   250
370
     9
100
AcDbSpline
210
0.0
220
0.0
230
1.0
 70
    11
 71
     3
 72
    16
 73
    12
 74
     0
 42
0.0000000001
 43
0.0000000001
 12
1.0
 22
0.0
 32
0.0
 13
1.0
 23
0.0
 33
0.0
 40
0.0
 40
0.0
 40
0.0
 40
0.0
 40
0.25
 40
0.25
 40
0.25
 40
0.25
 40
0.5
 40
0.5
 40
0.5
 40
0.5
 40
1.0
 40
1.0
 40
1.0
 40
1.0
 10
-44.8794
 20
31.1887
 30
0.0
 10
-44.8794
 20
31.1887
 30
0.0
 10
-34.4272
 20
32.9183
 30
0.0
 10
-34.4272
 20
32.9183
 30
0.0
 10
-34.4272
 20
32.9183
 30
0.0
 10
-28.7591
 20
50.0963
 30
0.0
 10
-22.7379
 20
64.5293
 30
0.0
 10
-16.1731
 20
79.4659
 30
0.0
 10
-16.1731
 20
79.4659
 30
0.0
 10
-27.3401
 20
64.2011
 30
0.0
 10
-35.9539
 20
49.4423
 30
0.0
 10
-44.8794
 20
31.1887
 30
0.0
  0
SPLINE
  5
55
330
1F
100
AcDbEntity
  8
Camada 1
 62
   250
370
     9
100
AcDbSpline
210
0.0
220
0.0
230
1.0
 70
    11
 71
     3
 72
    20
 73
    16
 74
     0
 42
0.0000000001
 43
0.0000000001
 12
1.0
 22
0.0
 32
0.0
 13
1.0
 23
0.0
 33
0.0
 40
0.0
 40
0.0
 40
0.0
 40
0.0
 40
0.2
 40
0.2
 40
0.2
 40
0.2
 40
0.4
 40
0.4
 40
0.4
 40
0.4
 40
0.6
 40
0.6
 40
0.6
 40
0.6
 40
1.0
 40
1.0
 40
1.0
 40
1.0
 10
43.8315
 20
30.9841
 30
0.0
 10
43.8315
 20
30.9841
 30
0.0
 10
33.1333
 20
32.9675
 30
0.0
 10
33.1333
 20
32.9675
 30
0.0
 10
33.1333
 20
32.9675
 30
0.0
 10
28.5299
 20
48.1282
 30
0.0
 10
18.7439
 20
65.0101
 30
0.0
 10
9.2565
 20
81.8374
 30
0.0
 10
9.2565
 20
81.8374
 30
0.0
 10
9.2565
 20
81.8374
 30
0.0
 10
10.8159
 20
82.3842
 30
0.0
 10
10.8159
 20
82.3842
 30
0.0
 10
10.8159
 20
82.3842
 30
0.0
 10
26.1557
 20
62.111
 30
0.0
 10
36.6959
 20
45.4497
 30
0.0
 10
43.8315
 20
30.9841
 30
0.0
  0
SPLINE
  5
56
330
1F
100
AcDbEntity
  8
Camada 1
 62
   250
370
     9
100
AcDbSpline
210
0.0
220
0.0
230
1.0
 70
    11
 71
     3
 72
    20
 73
    16
 74
     0
 42
0.0000000001
 43
0.0000000001
 12
1.0
 22
0.0
 32
0.0
 13
1.0
 23
0.0
 33
0.0
 40
0.0
 40
0.0
 40
0.0
 40
0.0
 40
0.2
 40
0.2
 40
0.2
 40
0.2
 40
0.4
 40
0.4
 40
0.4
 40
0.4
 40
0.6
 40
0.6
 40
0.6
 40
0.6
 40
1.0
 40
1.0
 40
1.0
 40
1.0
 10
-3.5385
 20
97.6691
 30
0.0
 10
-4.2545
 20
97.6691
 30
0.0
 10
-4.8349
 20
97.0887
 30
0.0
 10
-4.8349
 20
96.3728
 30
0.0
 10
-4.8349
 20
96.3728
 30
0.0
 10
-4.8349
 20
95.6568
 30
0.0
 10
-4.2545
 20
95.0764
 30
0.0
 10
-3.5385
 20
95.0764
 30
0.0
 10
-3.5385
 20
95.0764
 30
0.0
 10
-2.8225
 20
95.0763
 30
0.0
 10
-2.2421
 20
95.6568
 30
0.0
 10
-2.2421
 20
96.3727
 30
0.0
 10
-2.2421
 20
96.3727
 30
0.0
 10
-2.2421
 20
97.0887
 30
0.0
 10
-2.8225
 20
97.6691
 30
0.0
 10
-3.5385
 20
97.6691
 30
0.0
  0
ENDSEC
  0
SECTION
  2
OBJECTS
  0
DICTIONARY
  5
C
330
0
100
AcDbDictionary
281
     1
  3
ACAD_GROUP
350
D
  3
ACAD_LAYOUT
350
1A
  3
ACAD_MATERIAL
350
3B
  3
ACAD_MLEADERSTYLE
350
59
  3
ACAD_MLINESTYLE
350
17
  3
ACAD_PLOTSETTINGS
350
19
  3
ACAD_PLOTSTYLENAME
350
E
  3
ACAD_VISUALSTYLE
350
2A
  3
AcDbVariableDictionary
350
57
  0
DICTIONARY
  5
D
102
{ACAD_REACTORS
330
C
102
}
330
C
100
AcDbDictionary
281
     1
  0
DICTIONARY
  5
1A
102
{ACAD_REACTORS
330
C
102
}
330
C
100
AcDbDictionary
281
     1
  3
Layout1
350
1E
  3
Layout2
350
26
  3
Model
350
22
  0
DICTIONARY
  5
3B
102
{ACAD_REACTORS
330
C
102
}
330
C
100
AcDbDictionary
281
     1
  3
ByBlock
350
3D
  3
ByLayer
350
3C
  3
Global
350
3E
  0
DICTIONARY
  5
59
102
{ACAD_REACTORS
330
C
102
}
330
C
100
AcDbDictionary
281
     1
  0
DICTIONARY
  5
17
102
{ACAD_REACTORS
330
C
102
}
330
C
100
AcDbDictionary
281
     1
  3
Standard
350
18
  0
DICTIONARY
  5
19
102
{ACAD_REACTORS
330
C
102
}
330
C
100
AcDbDictionary
281
     1
  0
ACDBDICTIONARYWDFLT
  5
E
102
{ACAD_REACTORS
330
C
102
}
330
C
100
AcDbDictionary
281
     1
  3
Normal
350
F
100
AcDbDictionaryWithDefault
340
F
  0
DICTIONARY
  5
2A
102
{ACAD_REACTORS
330
C
102
}
330
C
100
AcDbDictionary
281
     1
  3
2dWireframe
350
2F
  3
3D Hidden
350
31
  3
3dWireframe
350
30
  3
Basic
350
32
  3
Brighten
350
36
  3
ColorChange
350
3A
  3
Conceptual
350
34
  3
Dim
350
35
  3
Facepattern
350
39
  3
Flat
350
2B
  3
FlatWithEdges
350
2C
  3
Gouraud
350
2D
  3
GouraudWithEdges
350
2E
  3
Linepattern
350
38
  3
Realistic
350
33
  3
Thicken
350
37
  0
DICTIONARY
  5
57
102
{ACAD_REACTORS
330
C
102
}
330
C
100
AcDbDictionary
281
     1
  3
DIMASSOC
350
5A
  3
HIDETEXT
350
5B
  0
LAYOUT
  5
1E
102
{ACAD_REACTORS
330
1A
102
}
330
1A
100
AcDbPlotSettings
  1

  2
none_device
  4

  6

 40
0.0
 41
0.0
 42
0.0
 43
0.0
 44
0.0
 45
0.0
 46
0.0
 47
0.0
 48
0.0
 49
0.0
140
0.0
141
0.0
142
1.0
143
1.0
 70
   688
 72
     0
 73
     0
 74
     5
  7

 75
    16
147
1.0
148
0.0
149
0.0
100
AcDbLayout
  1
Layout1
 70
     1
 71
     1
 10
0.0
 20
0.0
 11
12.0
 21
9.0
 12
0.0
 22
0.0
 32
0.0
 14
1.000000000000000E+20
 24
1.000000000000000E+20
 34
1.000000000000000E+20
 15
-1.000000000000000E+20
 25
-1.000000000000000E+20
 35
-1.000000000000000E+20
146
0.0
 13
0.0
 23
0.0
 33
0.0
 16
1.0
 26
0.0
 36
0.0
 17
0.0
 27
1.0
 37
0.0
 76
     0
330
1B
  0
LAYOUT
  5
26
102
{ACAD_REACTORS
330
1A
102
}
330
1A
100
AcDbPlotSettings
  1

  2
none_device
  4

  6

 40
0.0
 41
0.0
 42
0.0
 43
0.0
 44
0.0
 45
0.0
 46
0.0
 47
0.0
 48
0.0
 49
0.0
140
0.0
141
0.0
142
1.0
143
1.0
 70
   688
 72
     0
 73
     0
 74
     5
  7

 75
    16
147
1.0
148
0.0
149
0.0
100
AcDbLayout
  1
Layout2
 70
     1
 71
     2
 10
0.0
 20
0.0
 11
0.0
 21
0.0
 12
0.0
 22
0.0
 32
0.0
 14
0.0
 24
0.0
 34
0.0
 15
0.0
 25
0.0
 35
0.0
146
0.0
 13
0.0
 23
0.0
 33
0.0
 16
1.0
 26
0.0
 36
0.0
 17
0.0
 27
1.0
 37
0.0
 76
     0
330
23
  0
LAYOUT
  5
22
102
{ACAD_REACTORS
330
1A
102
}
330
1A
100
AcDbPlotSettings
  1

  2
none_device
  4

  6

 40
0.0
 41
0.0
 42
0.0
 43
0.0
 44
0.0
 45
0.0
 46
0.0
 47
0.0
 48
0.0
 49
0.0
140
0.0
141
0.0
142
1.0
143
1.0
 70
  1712
 72
     0
 73
     0
 74
     0
  7

 75
     0
147
1.0
148
0.0
149
0.0
100
AcDbLayout
  1
Model
 70
     1
 71
     0
 10
0.0
 20
0.0
 11
12.0
 21
9.0
 12
0.0
 22
0.0
 32
0.0
 14
-69.5861
 24
-104.2974
 34
0.0
 15
69.5871
 25
104.296
 35
0.0
146
0.0
 13
0.0
 23
0.0
 33
0.0
 16
1.0
 26
0.0
 36
0.0
 17
0.0
 27
1.0
 37
0.0
 76
     0
330
1F
331
29
  0
MATERIAL
  5
3D
102
{ACAD_REACTORS
330
3B
102
}
102
{ACAD_XDICTIONARY
360
7E
102
}
330
3B
100
AcDbMaterial
  1
ByBlock
  0
MATERIAL
  5
3C
102
{ACAD_REACTORS
330
3B
102
}
102
{ACAD_XDICTIONARY
360
7C
102
}
330
3B
100
AcDbMaterial
  1
ByLayer
  0
MATERIAL
  5
3E
102
{ACAD_REACTORS
330
3B
102
}
102
{ACAD_XDICTIONARY
360
80
102
}
330
3B
100
AcDbMaterial
  1
Global
  0
MLINESTYLE
  5
18
102
{ACAD_REACTORS
330
17
102
}
330
17
100
AcDbMlineStyle
  2
Standard
 70
     0
  3

 62
   256
 51
90.0
 52
90.0
 71
     2
 49
0.5
 62
   256
  6
BYLAYER
 49
-0.5
 62
   256
  6
BYLAYER
  0
ACDBPLACEHOLDER
  5
F
102
{ACAD_REACTORS
330
E
102
}
330
E
  0
VISUALSTYLE
  5
2F
102
{ACAD_REACTORS
330
2A
102
}
102
{ACAD_XDICTIONARY
360
64
102
}
330
2A
100
AcDbVisualStyle
  2
2dWireframe
 70
     4
 71
     0
 72
     2
 73
     0
 90
        0
 40
-0.6
 41
-30.0
 62
     5
 63
     7
 74
     1
 91
        4
 64
     7
 65
   257
 75
     1
175
     1
 42
1.0
 92
        0
 66
   257
 43
1.0
 76
     1
 77
     6
 78
     2
 67
     7
 79
     5
170
     0
171
     0
290
     0
174
     0
 93
        1
 44
0.0
173
     0
291
     0
 45
0.0
1001
ACAD
1000
AcDbSavedByObjectVersion
1070
     0
  0
VISUALSTYLE
  5
31
102
{ACAD_REACTORS
330
2A
102
}
102
{ACAD_XDICTIONARY
360
68
102
}
330
2A
100
AcDbVisualStyle
  2
3D Hidden
 70
     6
 71
     1
 72
     2
 73
     2
 90
        0
 40
-0.6
 41
-30.0
 62
     5
 63
     7
 74
     2
 91
        2
 64
     7
 65
   257
 75
     2
175
     1
 42
40.0
 92
        0
 66
   257
 43
1.0
 76
     1
 77
     6
 78
     2
 67
     7
 79
     3
170
     0
171
     0
290
     0
174
     0
 93
        1
 44
0.0
173
     0
291
     0
 45
0.0
1001
ACAD
1000
AcDbSavedByObjectVersion
1070
     0
  0
VISUALSTYLE
  5
30
102
{ACAD_REACTORS
330
2A
102
}
102
{ACAD_XDICTIONARY
360
66
102
}
330
2A
100
AcDbVisualStyle
  2
3dWireframe
 70
     5
 71
     0
 72
     2
 73
     0
 90
        0
 40
-0.6
 41
-30.0
 62
     5
 63
     7
 74
     1
 91
        4
 64
     7
 65
   257
 75
     1
175
     1
 42
1.0
 92
        0
 66
   257
 43
1.0
 76
     1
 77
     6
 78
     2
 67
     7
 79
     5
170
     0
171
     0
290
     0
174
     0
 93
        1
 44
0.0
173
     0
291
     0
 45
0.0
1001
ACAD
1000
AcDbSavedByObjectVersion
1070
     0
  0
VISUALSTYLE
  5
32
102
{ACAD_REACTORS
330
2A
102
}
102
{ACAD_XDICTIONARY
360
6A
102
}
330
2A
100
AcDbVisualStyle
  2
Basic
 70
     7
 71
     1
 72
     0
 73
     1
 90
        0
 40
-0.6
 41
-30.0
 62
     5
 63
     7
 74
     0
 91
        4
 64
     7
 65
   257
 75
     1
175
     1
 42
1.0
 92
        8
 66
     7
 43
1.0
 76
     1
 77
     6
 78
     2
 67
     7
 79
     5
170
     0
171
     0
290
     0
174
     0
 93
        1
 44
0.0
173
     0
291
     1
 45
0.0
1001
ACAD
1000
AcDbSavedByObjectVersion
1070
     0
  0
VISUALSTYLE
  5
36
102
{ACAD_REACTORS
330
2A
102
}
102
{ACAD_XDICTIONARY
360
72
102
}
330
2A
100
AcDbVisualStyle
  2
Brighten
 70
    12
 71
     2
 72
     2
 73
     0
 90
        0
 40
-0.6
 41
-30.0
 62
     5
 63
     7
 74
     1
 91
        4
 64
     7
 65
   257
 75
     1
175
     1
 42
1.0
 92
        8
 66
     7
 43
1.0
 76
     1
 77
     6
 78
     2
 67
     7
 79
     5
170
     0
171
     0
290
     0
174
     0
 93
        1
 44
50.0
173
     0
291
     1
 45
0.0
1001
ACAD
1000
AcDbSavedByObjectVersion
1070
     0
  0
VISUALSTYLE
  5
3A
102
{ACAD_REACTORS
330
2A
102
}
102
{ACAD_XDICTIONARY
360
7A
102
}
330
2A
100
AcDbVisualStyle
  2
ColorChange
 70
    16
 71
     2
 72
     2
 73
     3
 90
        0
 40
-0.6
 41
-30.0
 62
     5
 63
     8
 74
     1
 91
        4
 64
     7
 65
   257
 75
     1
175
     1
 42
1.0
 92
        8
 66
     8
 43
1.0
 76
     1
 77
     6
 78
     2
 67
     7
 79
     5
170
     0
171
     0
290
     0
174
     0
 93
        1
 44
0.0
173
     0
291
     1
 45
0.0
1001
ACAD
1000
AcDbSavedByObjectVersion
1070
     0
  0
VISUALSTYLE
  5
34
102
{ACAD_REACTORS
330
2A
102
}
102
{ACAD_XDICTIONARY
360
6E
102
}
330
2A
100
AcDbVisualStyle
  2
Conceptual
 70
     9
 71
     3
 72
     2
 73
     0
 90
        0
 40
-0.6
 41
-30.0
 62
     5
 63
     7
 74
     2
 91
        2
 64
     7
 65
   257
 75
     1
175
     1
 42
40.0
 92
        8
 66
     7
 43
1.0
 76
     1
 77
     6
 78
     2
 67
     7
 79
     3
170
     0
171
     0
290
     0
174
     0
 93
        1
 44
0.0
173
     0
291
     0
 45
0.0
1001
ACAD
1000
AcDbSavedByObjectVersion
1070
     0
  0
VISUALSTYLE
  5
35
102
{ACAD_REACTORS
330
2A
102
}
102
{ACAD_XDICTIONARY
360
70
102
}
330
2A
100
AcDbVisualStyle
  2
Dim
 70
    11
 71
     2
 72
     2
 73
     0
 90
        0
 40
-0.6
 41
-30.0
 62
     5
 63
     7
 74
     1
 91
        4
 64
     7
 65
   257
 75
     1
175
     1
 42
1.0
 92
        8
 66
     7
 43
1.0
 76
     1
 77
     6
 78
     2
 67
     7
 79
     5
170
     0
171
     0
290
     0
174
     0
 93
        1
 44
-50.0
173
     0
291
     1
 45
0.0
1001
ACAD
1000
AcDbSavedByObjectVersion
1070
     0
  0
VISUALSTYLE
  5
39
102
{ACAD_REACTORS
330
2A
102
}
102
{ACAD_XDICTIONARY
360
78
102
}
330
2A
100
AcDbVisualStyle
  2
Facepattern
 70
    15
 71
     2
 72
     2
 73
     0
 90
        0
 40
-0.6
 41
-30.0
 62
     5
 63
     7
 74
     1
 91
        4
 64
     7
 65
   257
 75
     1
175
     1
 42
1.0
 92
        8
 66
     7
 43
1.0
 76
     1
 77
     6
 78
     2
 67
     7
 79
     5
170
     0
171
     0
290
     0
174
     0
 93
        1
 44
0.0
173
     0
291
     1
 45
0.0
1001
ACAD
1000
AcDbSavedByObjectVersion
1070
     0
  0
VISUALSTYLE
  5
2B
102
{ACAD_REACTORS
330
2A
102
}
102
{ACAD_XDICTIONARY
360
5C
102
}
330
2A
100
AcDbVisualStyle
  2
Flat
 70
     0
 71
     2
 72
     1
 73
     1
 90
        2
 40
-0.6
 41
30.0
 62
     5
 63
     7
 74
     0
 91
        4
 64
     7
 65
   257
 75
     1
175
     1
 42
1.0
 92
        8
 66
     7
 43
1.0
 76
     1
 77
     6
 78
     2
 67
     7
 79
     5
170
     0
171
     0
290
     0
174
     0
 93
       13
 44
0.0
173
     0
291
     1
 45
0.0
1001
ACAD
1000
AcDbSavedByObjectVersion
1070
     0
  0
VISUALSTYLE
  5
2C
102
{ACAD_REACTORS
330
2A
102
}
102
{ACAD_XDICTIONARY
360
5E
102
}
330
2A
100
AcDbVisualStyle
  2
FlatWithEdges
 70
     1
 71
     2
 72
     1
 73
     1
 90
        2
 40
-0.6
 41
30.0
 62
     5
 63
     7
 74
     1
 91
        4
 64
     7
 65
   257
 75
     1
175
     1
 42
1.0
 92
        0
 66
   257
 43
1.0
 76
     1
 77
     6
 78
     2
 67
     7
 79
     5
170
     0
171
     0
290
     0
174
     0
 93
       13
 44
0.0
173
     0
291
     1
 45
0.0
1001
ACAD
1000
AcDbSavedByObjectVersion
1070
     0
  0
VISUALSTYLE
  5
2D
102
{ACAD_REACTORS
330
2A
102
}
102
{ACAD_XDICTIONARY
360
60
102
}
330
2A
100
AcDbVisualStyle
  2
Gouraud
 70
     2
 71
     2
 72
     2
 73
     1
 90
        2
 40
-0.6
 41
30.0
 62
     5
 63
     7
 74
     0
 91
        4
 64
     7
 65
   257
 75
     1
175
     1
 42
1.0
 92
        0
 66
     7
 43
1.0
 76
     1
 77
     6
 78
     2
 67
     7
 79
     5
170
     0
171
     0
290
     0
174
     0
 93
       13
 44
0.0
173
     0
291
     1
 45
0.0
1001
ACAD
1000
AcDbSavedByObjectVersion
1070
     0
  0
VISUALSTYLE
  5
2E
102
{ACAD_REACTORS
330
2A
102
}
102
{ACAD_XDICTIONARY
360
62
102
}
330
2A
100
AcDbVisualStyle
  2
GouraudWithEdges
 70
     3
 71
     2
 72
     2
 73
     1
 90
        2
 40
-0.6
 41
30.0
 62
     5
 63
     7
 74
     1
 91
        4
 64
     7
 65
   257
 75
     1
175
     1
 42
1.0
 92
        0
 66
   257
 43
1.0
 76
     1
 77
     6
 78
     2
 67
     7
 79
     5
170
     0
171
     0
290
     0
174
     0
 93
       13
 44
0.0
173
     0
291
     1
 45
0.0
1001
ACAD
1000
AcDbSavedByObjectVersion
1070
     0
  0
VISUALSTYLE
  5
38
102
{ACAD_REACTORS
330
2A
102
}
102
{ACAD_XDICTIONARY
360
76
102
}
330
2A
100
AcDbVisualStyle
  2
Linepattern
 70
    14
 71
     2
 72
     2
 73
     0
 90
        0
 40
-0.6
 41
-30.0
 62
     5
 63
     7
 74
     1
 91
        4
 64
     7
 65
   257
 75
     7
175
     7
 42
1.0
 92
        8
 66
     7
 43
1.0
 76
     1
 77
     6
 78
     2
 67
     7
 79
     5
170
     0
171
     0
290
     0
174
     0
 93
        1
 44
0.0
173
     0
291
     1
 45
0.0
1001
ACAD
1000
AcDbSavedByObjectVersion
1070
     0
  0
VISUALSTYLE
  5
33
102
{ACAD_REACTORS
330
2A
102
}
102
{ACAD_XDICTIONARY
360
6C
102
}
330
2A
100
AcDbVisualStyle
  2
Realistic
 70
     8
 71
     2
 72
     2
 73
     0
 90
        0
 40
-0.6
 41
-30.0
 62
     5
 63
     7
 74
     1
 91
        0
 64
     7
 65
   257
 75
     1
175
     1
 42
1.0
 92
        8
 66
     8
 43
1.0
 76
     1
 77
     6
 78
     2
 67
     7
 79
     5
170
     0
171
     0
290
     0
174
     0
 93
       13
 44
0.0
173
     0
291
     0
 45
0.0
1001
ACAD
1000
AcDbSavedByObjectVersion
1070
     0
  0
VISUALSTYLE
  5
37
102
{ACAD_REACTORS
330
2A
102
}
102
{ACAD_XDICTIONARY
360
74
102
}
330
2A
100
AcDbVisualStyle
  2
Thicken
 70
    13
 71
     2
 72
     2
 73
     0
 90
        0
 40
-0.6
 41
-30.0
 62
     5
 63
     7
 74
     1
 91
        4
 64
     7
 65
   257
 75
     1
175
     1
 42
1.0
 92
       12
 66
     7
 43
1.0
 76
     1
 77
     6
 78
     2
 67
     7
 79
     5
170
     0
171
     0
290
     0
174
     0
 93
        1
 44
0.0
173
     0
291
     1
 45
0.0
1001
ACAD
1000
AcDbSavedByObjectVersion
1070
     0
  0
DICTIONARYVAR
  5
5A
102
{ACAD_REACTORS
330
57
102
}
330
57
100
DictionaryVariables
280
     0
  1
2
  0
DICTIONARYVAR
  5
5B
102
{ACAD_REACTORS
330
57
102
}
330
57
100
DictionaryVariables
280
     0
  1
1
  0
DICTIONARY
  5
7E
330
3D
100
AcDbDictionary
280
     1
281
     1
  3
ACAD_XREC_ROUNDTRIP
360
7F
  0
DICTIONARY
  5
7C
330
3C
100
AcDbDictionary
280
     1
281
     1
  3
ACAD_XREC_ROUNDTRIP
360
7D
  0
DICTIONARY
  5
80
330
3E
100
AcDbDictionary
280
     1
281
     1
  3
ACAD_XREC_ROUNDTRIP
360
81
  0
DICTIONARY
  5
64
330
2F
100
AcDbDictionary
280
     1
281
     1
  3
ACAD_XREC_ROUNDTRIP
360
65
  0
DICTIONARY
  5
68
330
31
100
AcDbDictionary
280
     1
281
     1
  3
ACAD_XREC_ROUNDTRIP
360
69
  0
DICTIONARY
  5
66
330
30
100
AcDbDictionary
280
     1
281
     1
  3
ACAD_XREC_ROUNDTRIP
360
67
  0
DICTIONARY
  5
6A
330
32
100
AcDbDictionary
280
     1
281
     1
  3
ACAD_XREC_ROUNDTRIP
360
6B
  0
DICTIONARY
  5
72
330
36
100
AcDbDictionary
280
     1
281
     1
  3
ACAD_XREC_ROUNDTRIP
360
73
  0
DICTIONARY
  5
7A
330
3A
100
AcDbDictionary
280
     1
281
     1
  3
ACAD_XREC_ROUNDTRIP
360
7B
  0
DICTIONARY
  5
6E
330
34
100
AcDbDictionary
280
     1
281
     1
  3
ACAD_XREC_ROUNDTRIP
360
6F
  0
DICTIONARY
  5
70
330
35
100
AcDbDictionary
280
     1
281
     1
  3
ACAD_XREC_ROUNDTRIP
360
71
  0
DICTIONARY
  5
78
330
39
100
AcDbDictionary
280
     1
281
     1
  3
ACAD_XREC_ROUNDTRIP
360
79
  0
DICTIONARY
  5
5C
330
2B
100
AcDbDictionary
280
     1
281
     1
  3
ACAD_XREC_ROUNDTRIP
360
5D
  0
DICTIONARY
  5
5E
330
2C
100
AcDbDictionary
280
     1
281
     1
  3
ACAD_XREC_ROUNDTRIP
360
5F
  0
DICTIONARY
  5
60
330
2D
100
AcDbDictionary
280
     1
281
     1
  3
ACAD_XREC_ROUNDTRIP
360
61
  0
DICTIONARY
  5
62
330
2E
100
AcDbDictionary
280
     1
281
     1
  3
ACAD_XREC_ROUNDTRIP
360
63
  0
DICTIONARY
  5
76
330
38
100
AcDbDictionary
280
     1
281
     1
  3
ACAD_XREC_ROUNDTRIP
360
77
  0
DICTIONARY
  5
6C
330
33
100
AcDbDictionary
280
     1
281
     1
  3
ACAD_XREC_ROUNDTRIP
360
6D
  0
DICTIONARY
  5
74
330
37
100
AcDbDictionary
280
     1
281
     1
  3
ACAD_XREC_ROUNDTRIP
360
75
  0
XRECORD
  5
7F
102
{ACAD_REACTORS
330
7E
102
}
330
7E
100
AcDbXrecord
280
     1
102
MATERIAL
148
0.0
149
0.0
149
0.0
 93
        0
 94
      127
282
     0
 72
     1
 77
     1
171
     1
175
     1
179
     1
273
     0
  0
XRECORD
  5
7D
102
{ACAD_REACTORS
330
7C
102
}
330
7C
100
AcDbXrecord
280
     1
102
MATERIAL
148
0.0
149
0.0
149
0.0
 93
        0
 94
      127
282
     0
 72
     1
 77
     1
171
     1
175
     1
179
     1
273
     0
  0
XRECORD
  5
81
102
{ACAD_REACTORS
330
80
102
}
330
80
100
AcDbXrecord
280
     1
102
MATERIAL
148
0.0
149
0.0
149
0.0
 93
        0
 94
      127
282
     0
 72
     1
 77
     1
171
     1
175
     1
179
     1
273
     0
  0
XRECORD
  5
65
102
{ACAD_REACTORS
330
64
102
}
330
64
100
AcDbXrecord
280
     1
102
RTVSPropertyOp0
 70
     1
102
RTVSPropertyOp1
 70
     1
102
RTVSPropertyOp2
 70
     1
102
RTVSPropertyOp3
 70
     1
102
RTVSPropertyOp4
 70
     1
102
RTVSPropertyOp5
 70
     1
102
RTVSPropertyOp6
 70
     1
102
RTVSPropertyOp7
 70
     1
102
RTVSPropertyOp8
 70
     1
102
RTVSPropertyOp9
 70
     1
102
RTVSPropertyOp10
 70
     1
102
RTVSPropertyOp11
 70
     1
102
RTVSPropertyOp12
 70
     1
102
RTVSPropertyOp13
 70
     1
102
RTVSPropertyOp14
 70
     1
102
RTVSPropertyOp15
 70
     1
102
RTVSPropertyOp16
 70
     1
102
RTVSPropertyOp17
 70
     1
102
RTVSPropertyOp18
 70
     1
102
RTVSPropertyOp19
 70
     1
102
RTVSPropertyOp20
 70
     1
102
RTVSPropertyOp21
 70
     1
102
RTVSPropertyOp22
 70
     1
102
RTVSPropertyOp23
 70
     1
102
RTVSPropertyOp24
 70
     1
102
RTVSPropertyOp25
 70
     1
102
RTVSPropertyOp26
 70
     1
102
RTVSPropertyOp27
 70
     1
102
RTVSPropertyOp28
 70
     1
102
RTVSPropertyOp29
 70
     1
102
RTVSPropertyOp30
 70
     1
102
RTVSPropertyOp31
 70
     1
102
RTVSPropertyOp32
 70
     1
  0
XRECORD
  5
69
102
{ACAD_REACTORS
330
68
102
}
330
68
100
AcDbXrecord
280
     1
102
RTVSPropertyOp0
 70
     1
102
RTVSPropertyOp1
 70
     1
102
RTVSPropertyOp2
 70
     1
102
RTVSPropertyOp3
 70
     1
102
RTVSPropertyOp4
 70
     1
102
RTVSPropertyOp5
 70
     1
102
RTVSPropertyOp6
 70
     1
102
RTVSPropertyOp7
 70
     1
102
RTVSPropertyOp8
 70
     1
102
RTVSPropertyOp9
 70
     1
102
RTVSPropertyOp10
 70
     1
102
RTVSPropertyOp11
 70
     1
102
RTVSPropertyOp12
 70
     1
102
RTVSPropertyOp13
 70
     1
102
RTVSPropertyOp14
 70
     1
102
RTVSPropertyOp15
 70
     1
102
RTVSPropertyOp16
 70
     1
102
RTVSPropertyOp17
 70
     1
102
RTVSPropertyOp18
 70
     1
102
RTVSPropertyOp19
 70
     1
102
RTVSPropertyOp20
 70
     1
102
RTVSPropertyOp21
 70
     1
102
RTVSPropertyOp22
 70
     1
102
RTVSPropertyOp23
 70
     1
102
RTVSPropertyOp24
 70
     1
102
RTVSPropertyOp25
 70
     1
102
RTVSPropertyOp26
 70
     1
102
RTVSPropertyOp27
 70
     1
102
RTVSPropertyOp28
 70
     1
102
RTVSPropertyOp29
 70
     1
102
RTVSPropertyOp30
 70
     1
102
RTVSPropertyOp31
 70
     1
102
RTVSPropertyOp32
 70
     1
  0
XRECORD
  5
67
102
{ACAD_REACTORS
330
66
102
}
330
66
100
AcDbXrecord
280
     1
102
RTVSPropertyOp0
 70
     1
102
RTVSPropertyOp1
 70
     1
102
RTVSPropertyOp2
 70
     1
102
RTVSPropertyOp3
 70
     1
102
RTVSPropertyOp4
 70
     1
102
RTVSPropertyOp5
 70
     1
102
RTVSPropertyOp6
 70
     1
102
RTVSPropertyOp7
 70
     1
102
RTVSPropertyOp8
 70
     1
102
RTVSPropertyOp9
 70
     1
102
RTVSPropertyOp10
 70
     1
102
RTVSPropertyOp11
 70
     1
102
RTVSPropertyOp12
 70
     1
102
RTVSPropertyOp13
 70
     1
102
RTVSPropertyOp14
 70
     1
102
RTVSPropertyOp15
 70
     1
102
RTVSPropertyOp16
 70
     1
102
RTVSPropertyOp17
 70
     1
102
RTVSPropertyOp18
 70
     1
102
RTVSPropertyOp19
 70
     1
102
RTVSPropertyOp20
 70
     1
102
RTVSPropertyOp21
 70
     1
102
RTVSPropertyOp22
 70
     1
102
RTVSPropertyOp23
 70
     1
102
RTVSPropertyOp24
 70
     1
102
RTVSPropertyOp25
 70
     1
102
RTVSPropertyOp26
 70
     1
102
RTVSPropertyOp27
 70
     1
102
RTVSPropertyOp28
 70
     1
102
RTVSPropertyOp29
 70
     1
102
RTVSPropertyOp30
 70
     1
102
RTVSPropertyOp31
 70
     1
102
RTVSPropertyOp32
 70
     1
  0
XRECORD
  5
6B
102
{ACAD_REACTORS
330
6A
102
}
330
6A
100
AcDbXrecord
280
     1
102
RTVSPropertyOp0
 70
     1
102
RTVSPropertyOp1
 70
     1
102
RTVSPropertyOp2
 70
     1
102
RTVSPropertyOp3
 70
     1
102
RTVSPropertyOp4
 70
     1
102
RTVSPropertyOp5
 70
     1
102
RTVSPropertyOp6
 70
     1
102
RTVSPropertyOp7
 70
     1
102
RTVSPropertyOp8
 70
     1
102
RTVSPropertyOp9
 70
     1
102
RTVSPropertyOp10
 70
     1
102
RTVSPropertyOp11
 70
     1
102
RTVSPropertyOp12
 70
     1
102
RTVSPropertyOp13
 70
     1
102
RTVSPropertyOp14
 70
     1
102
RTVSPropertyOp15
 70
     1
102
RTVSPropertyOp16
 70
     1
102
RTVSPropertyOp17
 70
     1
102
RTVSPropertyOp18
 70
     1
102
RTVSPropertyOp19
 70
     1
102
RTVSPropertyOp20
 70
     1
102
RTVSPropertyOp21
 70
     1
102
RTVSPropertyOp22
 70
     1
102
RTVSPropertyOp23
 70
     1
102
RTVSPropertyOp24
 70
     1
102
RTVSPropertyOp25
 70
     1
102
RTVSPropertyOp26
 70
     1
102
RTVSPropertyOp27
 70
     1
102
RTVSPropertyOp28
 70
     1
102
RTVSPropertyOp29
 70
     1
102
RTVSPropertyOp30
 70
     1
102
RTVSPropertyOp31
 70
     1
102
RTVSPropertyOp32
 70
     1
  0
XRECORD
  5
73
102
{ACAD_REACTORS
330
72
102
}
330
72
100
AcDbXrecord
280
     1
102
RTVSPropertyOp0
 70
     1
102
RTVSPropertyOp1
 70
     1
102
RTVSPropertyOp2
 70
     1
102
RTVSPropertyOp3
 70
     1
102
RTVSPropertyOp4
 70
     1
102
RTVSPropertyOp5
 70
     1
102
RTVSPropertyOp6
 70
     1
102
RTVSPropertyOp7
 70
     1
102
RTVSPropertyOp8
 70
     1
102
RTVSPropertyOp9
 70
     1
102
RTVSPropertyOp10
 70
     1
102
RTVSPropertyOp11
 70
     1
102
RTVSPropertyOp12
 70
     1
102
RTVSPropertyOp13
 70
     1
102
RTVSPropertyOp14
 70
     1
102
RTVSPropertyOp15
 70
     1
102
RTVSPropertyOp16
 70
     1
102
RTVSPropertyOp17
 70
     1
102
RTVSPropertyOp18
 70
     1
102
RTVSPropertyOp19
 70
     1
102
RTVSPropertyOp20
 70
     1
102
RTVSPropertyOp21
 70
     1
102
RTVSPropertyOp22
 70
     1
102
RTVSPropertyOp23
 70
     1
102
RTVSPropertyOp24
 70
     1
102
RTVSPropertyOp25
 70
     1
102
RTVSPropertyOp26
 70
     1
102
RTVSPropertyOp27
 70
     1
102
RTVSPropertyOp28
 70
     1
102
RTVSPropertyOp29
 70
     1
102
RTVSPropertyOp30
 70
     1
102
RTVSPropertyOp31
 70
     1
102
RTVSPropertyOp32
 70
     1
  0
XRECORD
  5
7B
102
{ACAD_REACTORS
330
7A
102
}
330
7A
100
AcDbXrecord
280
     1
102
RTVSPropertyOp0
 70
     1
102
RTVSPropertyOp1
 70
     1
102
RTVSPropertyOp2
 70
     1
102
RTVSPropertyOp3
 70
     1
102
RTVSPropertyOp4
 70
     1
102
RTVSPropertyOp5
 70
     1
102
RTVSPropertyOp6
 70
     1
102
RTVSPropertyOp7
 70
     1
102
RTVSPropertyOp8
 70
     1
102
RTVSPropertyOp9
 70
     1
102
RTVSPropertyOp10
 70
     1
102
RTVSPropertyOp11
 70
     1
102
RTVSPropertyOp12
 70
     1
102
RTVSPropertyOp13
 70
     1
102
RTVSPropertyOp14
 70
     1
102
RTVSPropertyOp15
 70
     1
102
RTVSPropertyOp16
 70
     1
102
RTVSPropertyOp17
 70
     1
102
RTVSPropertyOp18
 70
     1
102
RTVSPropertyOp19
 70
     1
102
RTVSPropertyOp20
 70
     1
102
RTVSPropertyOp21
 70
     1
102
RTVSPropertyOp22
 70
     1
102
RTVSPropertyOp23
 70
     1
102
RTVSPropertyOp24
 70
     1
102
RTVSPropertyOp25
 70
     1
102
RTVSPropertyOp26
 70
     1
102
RTVSPropertyOp27
 70
     1
102
RTVSPropertyOp28
 70
     1
102
RTVSPropertyOp29
 70
     1
102
RTVSPropertyOp30
 70
     1
102
RTVSPropertyOp31
 70
     1
102
RTVSPropertyOp32
 70
     1
  0
XRECORD
  5
6F
102
{ACAD_REACTORS
330
6E
102
}
330
6E
100
AcDbXrecord
280
     1
102
RTVSPropertyOp0
 70
     1
102
RTVSPropertyOp1
 70
     1
102
RTVSPropertyOp2
 70
     1
102
RTVSPropertyOp3
 70
     1
102
RTVSPropertyOp4
 70
     1
102
RTVSPropertyOp5
 70
     1
102
RTVSPropertyOp6
 70
     1
102
RTVSPropertyOp7
 70
     1
102
RTVSPropertyOp8
 70
     1
102
RTVSPropertyOp9
 70
     1
102
RTVSPropertyOp10
 70
     1
102
RTVSPropertyOp11
 70
     1
102
RTVSPropertyOp12
 70
     1
102
RTVSPropertyOp13
 70
     1
102
RTVSPropertyOp14
 70
     1
102
RTVSPropertyOp15
 70
     1
102
RTVSPropertyOp16
 70
     1
102
RTVSPropertyOp17
 70
     1
102
RTVSPropertyOp18
 70
     1
102
RTVSPropertyOp19
 70
     1
102
RTVSPropertyOp20
 70
     1
102
RTVSPropertyOp21
 70
     1
102
RTVSPropertyOp22
 70
     1
102
RTVSPropertyOp23
 70
     1
102
RTVSPropertyOp24
 70
     1
102
RTVSPropertyOp25
 70
     1
102
RTVSPropertyOp26
 70
     1
102
RTVSPropertyOp27
 70
     1
102
RTVSPropertyOp28
 70
     1
102
RTVSPropertyOp29
 70
     1
102
RTVSPropertyOp30
 70
     1
102
RTVSPropertyOp31
 70
     1
102
RTVSPropertyOp32
 70
     1
  0
XRECORD
  5
71
102
{ACAD_REACTORS
330
70
102
}
330
70
100
AcDbXrecord
280
     1
102
RTVSPropertyOp0
 70
     1
102
RTVSPropertyOp1
 70
     1
102
RTVSPropertyOp2
 70
     1
102
RTVSPropertyOp3
 70
     1
102
RTVSPropertyOp4
 70
     1
102
RTVSPropertyOp5
 70
     1
102
RTVSPropertyOp6
 70
     1
102
RTVSPropertyOp7
 70
     1
102
RTVSPropertyOp8
 70
     1
102
RTVSPropertyOp9
 70
     1
102
RTVSPropertyOp10
 70
     1
102
RTVSPropertyOp11
 70
     1
102
RTVSPropertyOp12
 70
     1
102
RTVSPropertyOp13
 70
     1
102
RTVSPropertyOp14
 70
     1
102
RTVSPropertyOp15
 70
     1
102
RTVSPropertyOp16
 70
     1
102
RTVSPropertyOp17
 70
     1
102
RTVSPropertyOp18
 70
     1
102
RTVSPropertyOp19
 70
     1
102
RTVSPropertyOp20
 70
     1
102
RTVSPropertyOp21
 70
     1
102
RTVSPropertyOp22
 70
     1
102
RTVSPropertyOp23
 70
     1
102
RTVSPropertyOp24
 70
     1
102
RTVSPropertyOp25
 70
     1
102
RTVSPropertyOp26
 70
     1
102
RTVSPropertyOp27
 70
     1
102
RTVSPropertyOp28
 70
     1
102
RTVSPropertyOp29
 70
     1
102
RTVSPropertyOp30
 70
     1
102
RTVSPropertyOp31
 70
     1
102
RTVSPropertyOp32
 70
     1
  0
XRECORD
  5
79
102
{ACAD_REACTORS
330
78
102
}
330
78
100
AcDbXrecord
280
     1
102
RTVSPropertyOp0
 70
     1
102
RTVSPropertyOp1
 70
     1
102
RTVSPropertyOp2
 70
     1
102
RTVSPropertyOp3
 70
     1
102
RTVSPropertyOp4
 70
     1
102
RTVSPropertyOp5
 70
     1
102
RTVSPropertyOp6
 70
     1
102
RTVSPropertyOp7
 70
     1
102
RTVSPropertyOp8
 70
     1
102
RTVSPropertyOp9
 70
     1
102
RTVSPropertyOp10
 70
     1
102
RTVSPropertyOp11
 70
     1
102
RTVSPropertyOp12
 70
     1
102
RTVSPropertyOp13
 70
     1
102
RTVSPropertyOp14
 70
     1
102
RTVSPropertyOp15
 70
     1
102
RTVSPropertyOp16
 70
     1
102
RTVSPropertyOp17
 70
     1
102
RTVSPropertyOp18
 70
     1
102
RTVSPropertyOp19
 70
     1
102
RTVSPropertyOp20
 70
     1
102
RTVSPropertyOp21
 70
     1
102
RTVSPropertyOp22
 70
     1
102
RTVSPropertyOp23
 70
     1
102
RTVSPropertyOp24
 70
     1
102
RTVSPropertyOp25
 70
     1
102
RTVSPropertyOp26
 70
     1
102
RTVSPropertyOp27
 70
     1
102
RTVSPropertyOp28
 70
     1
102
RTVSPropertyOp29
 70
     1
102
RTVSPropertyOp30
 70
     1
102
RTVSPropertyOp31
 70
     1
102
RTVSPropertyOp32
 70
     1
  0
XRECORD
  5
5D
102
{ACAD_REACTORS
330
5C
102
}
330
5C
100
AcDbXrecord
280
     1
102
RTVSPropertyOp0
 70
     1
102
RTVSPropertyOp1
 70
     1
102
RTVSPropertyOp2
 70
     1
102
RTVSPropertyOp3
 70
     1
102
RTVSPropertyOp4
 70
     1
102
RTVSPropertyOp5
 70
     1
102
RTVSPropertyOp6
 70
     1
102
RTVSPropertyOp7
 70
     1
102
RTVSPropertyOp8
 70
     1
102
RTVSPropertyOp9
 70
     1
102
RTVSPropertyOp10
 70
     1
102
RTVSPropertyOp11
 70
     1
102
RTVSPropertyOp12
 70
     1
102
RTVSPropertyOp13
 70
     1
102
RTVSPropertyOp14
 70
     1
102
RTVSPropertyOp15
 70
     1
102
RTVSPropertyOp16
 70
     1
102
RTVSPropertyOp17
 70
     1
102
RTVSPropertyOp18
 70
     1
102
RTVSPropertyOp19
 70
     1
102
RTVSPropertyOp20
 70
     1
102
RTVSPropertyOp21
 70
     1
102
RTVSPropertyOp22
 70
     1
102
RTVSPropertyOp23
 70
     1
102
RTVSPropertyOp24
 70
     1
102
RTVSPropertyOp25
 70
     1
102
RTVSPropertyOp26
 70
     1
102
RTVSPropertyOp27
 70
     1
102
RTVSPropertyOp28
 70
     1
102
RTVSPropertyOp29
 70
     1
102
RTVSPropertyOp30
 70
     1
102
RTVSPropertyOp31
 70
     1
102
RTVSPropertyOp32
 70
     1
  0
XRECORD
  5
5F
102
{ACAD_REACTORS
330
5E
102
}
330
5E
100
AcDbXrecord
280
     1
102
RTVSPropertyOp0
 70
     1
102
RTVSPropertyOp1
 70
     1
102
RTVSPropertyOp2
 70
     1
102
RTVSPropertyOp3
 70
     1
102
RTVSPropertyOp4
 70
     1
102
RTVSPropertyOp5
 70
     1
102
RTVSPropertyOp6
 70
     1
102
RTVSPropertyOp7
 70
     1
102
RTVSPropertyOp8
 70
     1
102
RTVSPropertyOp9
 70
     1
102
RTVSPropertyOp10
 70
     1
102
RTVSPropertyOp11
 70
     1
102
RTVSPropertyOp12
 70
     1
102
RTVSPropertyOp13
 70
     1
102
RTVSPropertyOp14
 70
     1
102
RTVSPropertyOp15
 70
     1
102
RTVSPropertyOp16
 70
     1
102
RTVSPropertyOp17
 70
     1
102
RTVSPropertyOp18
 70
     1
102
RTVSPropertyOp19
 70
     1
102
RTVSPropertyOp20
 70
     1
102
RTVSPropertyOp21
 70
     1
102
RTVSPropertyOp22
 70
     1
102
RTVSPropertyOp23
 70
     1
102
RTVSPropertyOp24
 70
     1
102
RTVSPropertyOp25
 70
     1
102
RTVSPropertyOp26
 70
     1
102
RTVSPropertyOp27
 70
     1
102
RTVSPropertyOp28
 70
     1
102
RTVSPropertyOp29
 70
     1
102
RTVSPropertyOp30
 70
     1
102
RTVSPropertyOp31
 70
     1
102
RTVSPropertyOp32
 70
     1
  0
XRECORD
  5
61
102
{ACAD_REACTORS
330
60
102
}
330
60
100
AcDbXrecord
280
     1
102
RTVSPropertyOp0
 70
     1
102
RTVSPropertyOp1
 70
     1
102
RTVSPropertyOp2
 70
     1
102
RTVSPropertyOp3
 70
     1
102
RTVSPropertyOp4
 70
     1
102
RTVSPropertyOp5
 70
     1
102
RTVSPropertyOp6
 70
     1
102
RTVSPropertyOp7
 70
     1
102
RTVSPropertyOp8
 70
     1
102
RTVSPropertyOp9
 70
     1
102
RTVSPropertyOp10
 70
     1
102
RTVSPropertyOp11
 70
     1
102
RTVSPropertyOp12
 70
     1
102
RTVSPropertyOp13
 70
     1
102
RTVSPropertyOp14
 70
     1
102
RTVSPropertyOp15
 70
     1
102
RTVSPropertyOp16
 70
     1
102
RTVSPropertyOp17
 70
     1
102
RTVSPropertyOp18
 70
     1
102
RTVSPropertyOp19
 70
     1
102
RTVSPropertyOp20
 70
     1
102
RTVSPropertyOp21
 70
     1
102
RTVSPropertyOp22
 70
     1
102
RTVSPropertyOp23
 70
     1
102
RTVSPropertyOp24
 70
     1
102
RTVSPropertyOp25
 70
     1
102
RTVSPropertyOp26
 70
     1
102
RTVSPropertyOp27
 70
     1
102
RTVSPropertyOp28
 70
     1
102
RTVSPropertyOp29
 70
     1
102
RTVSPropertyOp30
 70
     1
102
RTVSPropertyOp31
 70
     1
102
RTVSPropertyOp32
 70
     1
  0
XRECORD
  5
63
102
{ACAD_REACTORS
330
62
102
}
330
62
100
AcDbXrecord
280
     1
102
RTVSPropertyOp0
 70
     1
102
RTVSPropertyOp1
 70
     1
102
RTVSPropertyOp2
 70
     1
102
RTVSPropertyOp3
 70
     1
102
RTVSPropertyOp4
 70
     1
102
RTVSPropertyOp5
 70
     1
102
RTVSPropertyOp6
 70
     1
102
RTVSPropertyOp7
 70
     1
102
RTVSPropertyOp8
 70
     1
102
RTVSPropertyOp9
 70
     1
102
RTVSPropertyOp10
 70
     1
102
RTVSPropertyOp11
 70
     1
102
RTVSPropertyOp12
 70
     1
102
RTVSPropertyOp13
 70
     1
102
RTVSPropertyOp14
 70
     1
102
RTVSPropertyOp15
 70
     1
102
RTVSPropertyOp16
 70
     1
102
RTVSPropertyOp17
 70
     1
102
RTVSPropertyOp18
 70
     1
102
RTVSPropertyOp19
 70
     1
102
RTVSPropertyOp20
 70
     1
102
RTVSPropertyOp21
 70
     1
102
RTVSPropertyOp22
 70
     1
102
RTVSPropertyOp23
 70
     1
102
RTVSPropertyOp24
 70
     1
102
RTVSPropertyOp25
 70
     1
102
RTVSPropertyOp26
 70
     1
102
RTVSPropertyOp27
 70
     1
102
RTVSPropertyOp28
 70
     1
102
RTVSPropertyOp29
 70
     1
102
RTVSPropertyOp30
 70
     1
102
RTVSPropertyOp31
 70
     1
102
RTVSPropertyOp32
 70
     1
  0
XRECORD
  5
77
102
{ACAD_REACTORS
330
76
102
}
330
76
100
AcDbXrecord
280
     1
102
RTVSPropertyOp0
 70
     1
102
RTVSPropertyOp1
 70
     1
102
RTVSPropertyOp2
 70
     1
102
RTVSPropertyOp3
 70
     1
102
RTVSPropertyOp4
 70
     1
102
RTVSPropertyOp5
 70
     1
102
RTVSPropertyOp6
 70
     1
102
RTVSPropertyOp7
 70
     1
102
RTVSPropertyOp8
 70
     1
102
RTVSPropertyOp9
 70
     1
102
RTVSPropertyOp10
 70
     1
102
RTVSPropertyOp11
 70
     1
102
RTVSPropertyOp12
 70
     1
102
RTVSPropertyOp13
 70
     1
102
RTVSPropertyOp14
 70
     1
102
RTVSPropertyOp15
 70
     1
102
RTVSPropertyOp16
 70
     1
102
RTVSPropertyOp17
 70
     1
102
RTVSPropertyOp18
 70
     1
102
RTVSPropertyOp19
 70
     1
102
RTVSPropertyOp20
 70
     1
102
RTVSPropertyOp21
 70
     1
102
RTVSPropertyOp22
 70
     1
102
RTVSPropertyOp23
 70
     1
102
RTVSPropertyOp24
 70
     1
102
RTVSPropertyOp25
 70
     1
102
RTVSPropertyOp26
 70
     1
102
RTVSPropertyOp27
 70
     1
102
RTVSPropertyOp28
 70
     1
102
RTVSPropertyOp29
 70
     1
102
RTVSPropertyOp30
 70
     1
102
RTVSPropertyOp31
 70
     1
102
RTVSPropertyOp32
 70
     1
  0
XRECORD
  5
6D
102
{ACAD_REACTORS
330
6C
102
}
330
6C
100
AcDbXrecord
280
     1
102
RTVSPropertyOp0
 70
     1
102
RTVSPropertyOp1
 70
     1
102
RTVSPropertyOp2
 70
     1
102
RTVSPropertyOp3
 70
     1
102
RTVSPropertyOp4
 70
     1
102
RTVSPropertyOp5
 70
     1
102
RTVSPropertyOp6
 70
     1
102
RTVSPropertyOp7
 70
     1
102
RTVSPropertyOp8
 70
     1
102
RTVSPropertyOp9
 70
     1
102
RTVSPropertyOp10
 70
     1
102
RTVSPropertyOp11
 70
     1
102
RTVSPropertyOp12
 70
     1
102
RTVSPropertyOp13
 70
     1
102
RTVSPropertyOp14
 70
     1
102
RTVSPropertyOp15
 70
     1
102
RTVSPropertyOp16
 70
     1
102
RTVSPropertyOp17
 70
     1
102
RTVSPropertyOp18
 70
     1
102
RTVSPropertyOp19
 70
     1
102
RTVSPropertyOp20
 70
     1
102
RTVSPropertyOp21
 70
     1
102
RTVSPropertyOp22
 70
     1
102
RTVSPropertyOp23
 70
     1
102
RTVSPropertyOp24
 70
     1
102
RTVSPropertyOp25
 70
     1
102
RTVSPropertyOp26
 70
     1
102
RTVSPropertyOp27
 70
     1
102
RTVSPropertyOp28
 70
     1
102
RTVSPropertyOp29
 70
     1
102
RTVSPropertyOp30
 70
     1
102
RTVSPropertyOp31
 70
     1
102
RTVSPropertyOp32
 70
     1
  0
XRECORD
  5
75
102
{ACAD_REACTORS
330
74
102
}
330
74
100
AcDbXrecord
280
     1
102
RTVSPropertyOp0
 70
     1
102
RTVSPropertyOp1
 70
     1
102
RTVSPropertyOp2
 70
     1
102
RTVSPropertyOp3
 70
     1
102
RTVSPropertyOp4
 70
     1
102
RTVSPropertyOp5
 70
     1
102
RTVSPropertyOp6
 70
     1
102
RTVSPropertyOp7
 70
     1
102
RTVSPropertyOp8
 70
     1
102
RTVSPropertyOp9
 70
     1
102
RTVSPropertyOp10
 70
     1
102
RTVSPropertyOp11
 70
     1
102
RTVSPropertyOp12
 70
     1
102
RTVSPropertyOp13
 70
     1
102
RTVSPropertyOp14
 70
     1
102
RTVSPropertyOp15
 70
     1
102
RTVSPropertyOp16
 70
     1
102
RTVSPropertyOp17
 70
     1
102
RTVSPropertyOp18
 70
     1
102
RTVSPropertyOp19
 70
     1
102
RTVSPropertyOp20
 70
     1
102
RTVSPropertyOp21
 70
     1
102
RTVSPropertyOp22
 70
     1
102
RTVSPropertyOp23
 70
     1
102
RTVSPropertyOp24
 70
     1
102
RTVSPropertyOp25
 70
     1
102
RTVSPropertyOp26
 70
     1
102
RTVSPropertyOp27
 70
     1
102
RTVSPropertyOp28
 70
     1
102
RTVSPropertyOp29
 70
     1
102
RTVSPropertyOp30
 70
     1
102
RTVSPropertyOp31
 70
     1
102
RTVSPropertyOp32
 70
     1
  0
ENDSEC
  0
EOF
