  0
SECTION
  2
HEADER
  9
$ACADVER
  1
AC1015
  9
$ACADMAINTVER
 70
     6
  9
$DWGCODEPAGE
  3
ANSI_1252
  9
$INSBASE
 10
0.0
 20
0.0
 30
0.0
  9
$EXTMIN
 10
-49.8181
 20
-97.8801
 30
0.0
  9
$EXTMAX
 10
49.8178
 20
97.8816
 30
0.0
  9
$LIMMIN
 10
0.0
 20
0.0
  9
$LIMMAX
 10
12.0
 20
9.0
  9
$ORTHOMODE
 70
     0
  9
$REGENMODE
 70
     1
  9
$FILLMODE
 70
     1
  9
$QTEXTMODE
 70
     0
  9
$MIRRTEXT
 70
     1
  9
$LTSCALE
 40
1.0
  9
$ATTMODE
 70
     1
  9
$TEXTSIZE
 40
0.2
  9
$TRACEWID
 40
0.05
  9
$TEXTSTYLE
  7
Standard
  9
$CLAYER
  8
0
  9
$CELTYPE
  6
ByLayer
  9
$CECOLOR
 62
   256
  9
$CELTSCALE
 40
1.0
  9
$DISPSILH
 70
     0
  9
$DIMSCALE
 40
1.0
  9
$DIMASZ
 40
0.18
  9
$DIMEXO
 40
0.0625
  9
$DIMDLI
 40
0.38
  9
$DIMRND
 40
0.0
  9
$DIMDLE
 40
0.0
  9
$DIMEXE
 40
0.18
  9
$DIMTP
 40
0.0
  9
$DIMTM
 40
0.0
  9
$DIMTXT
 40
0.18
  9
$DIMCEN
 40
0.09
  9
$DIMTSZ
 40
0.0
  9
$DIMTOL
 70
     0
  9
$DIMLIM
 70
     0
  9
$DIMTIH
 70
     1
  9
$DIMTOH
 70
     1
  9
$DIMSE1
 70
     0
  9
$DIMSE2
 70
     0
  9
$DIMTAD
 70
     0
  9
$DIMZIN
 70
     0
  9
$DIMBLK
  1

  9
$DIMASO
 70
     1
  9
$DIMSHO
 70
     1
  9
$DIMPOST
  1

  9
$DIMAPOST
  1

  9
$DIMALT
 70
     0
  9
$DIMALTD
 70
     2
  9
$DIMALTF
 40
25.4
  9
$DIMLFAC
 40
1.0
  9
$DIMTOFL
 70
     0
  9
$DIMTVP
 40
0.0
  9
$DIMTIX
 70
     0
  9
$DIMSOXD
 70
     0
  9
$DIMSAH
 70
     0
  9
$DIMBLK1
  1

  9
$DIMBLK2
  1

  9
$DIMSTYLE
  2
Standard
  9
$DIMCLRD
 70
     0
  9
$DIMCLRE
 70
     0
  9
$DIMCLRT
 70
     0
  9
$DIMTFAC
 40
1.0
  9
$DIMGAP
 40
0.09
  9
$DIMJUST
 70
     0
  9
$DIMSD1
 70
     0
  9
$DIMSD2
 70
     0
  9
$DIMTOLJ
 70
     1
  9
$DIMTZIN
 70
     0
  9
$DIMALTZ
 70
     0
  9
$DIMALTTZ
 70
     0
  9
$DIMUPT
 70
     0
  9
$DIMDEC
 70
     4
  9
$DIMTDEC
 70
     4
  9
$DIMALTU
 70
     2
  9
$DIMALTTD
 70
     2
  9
$DIMTXSTY
  7
Standard
  9
$DIMAUNIT
 70
     0
  9
$DIMADEC
 70
     0
  9
$DIMALTRND
 40
0.0
  9
$DIMAZIN
 70
     0
  9
$DIMDSEP
 70
    46
  9
$DIMATFIT
 70
     3
  9
$DIMFRAC
 70
     0
  9
$DIMLDRBLK
  1

  9
$DIMLUNIT
 70
     2
  9
$DIMLWD
 70
    -2
  9
$DIMLWE
 70
    -2
  9
$DIMTMOVE
 70
     0
  9
$LUNITS
 70
     2
  9
$LUPREC
 70
     4
  9
$SKETCHINC
 40
0.1
  9
$FILLETRAD
 40
0.5
  9
$AUNITS
 70
     0
  9
$AUPREC
 70
     0
  9
$MENU
  1
.
  9
$ELEVATION
 40
0.0
  9
$PELEVATION
 40
0.0
  9
$THICKNESS
 40
0.0
  9
$LIMCHECK
 70
     0
  9
$CHAMFERA
 40
0.5
  9
$CHAMFERB
 40
0.5
  9
$CHAMFERC
 40
1.0
  9
$CHAMFERD
 40
0.0
  9
$SKPOLY
 70
     0
  9
$TDCREATE
 40
2457268.923209757
  9
$TDUCREATE
 40
2457269.048209757
  9
$TDUPDATE
 40
2457268.92321007
  9
$TDUUPDATE
 40
2457269.04821007
  9
$TDINDWG
 40
0.0000000116
  9
$TDUSRTIMER
 40
0.0000000116
  9
$USRTIMER
 70
     1
  9
$ANGBASE
 50
0.0
  9
$ANGDIR
 70
     0
  9
$PDMODE
 70
     0
  9
$PDSIZE
 40
0.0
  9
$PLINEWID
 40
0.0
  9
$SPLFRAME
 70
     0
  9
$SPLINETYPE
 70
     6
  9
$SPLINESEGS
 70
     8
  9
$HANDSEED
  5
94
  9
$SURFTAB1
 70
     6
  9
$SURFTAB2
 70
     6
  9
$SURFTYPE
 70
     6
  9
$SURFU
 70
     6
  9
$SURFV
 70
     6
  9
$UCSBASE
  2

  9
$UCSNAME
  2

  9
$UCSORG
 10
0.0
 20
0.0
 30
0.0
  9
$UCSXDIR
 10
1.0
 20
0.0
 30
0.0
  9
$UCSYDIR
 10
0.0
 20
1.0
 30
0.0
  9
$UCSORTHOREF
  2

  9
$UCSORTHOVIEW
 70
     0
  9
$UCSORGTOP
 10
0.0
 20
0.0
 30
0.0
  9
$UCSORGBOTTOM
 10
0.0
 20
0.0
 30
0.0
  9
$UCSORGLEFT
 10
0.0
 20
0.0
 30
0.0
  9
$UCSORGRIGHT
 10
0.0
 20
0.0
 30
0.0
  9
$UCSORGFRONT
 10
0.0
 20
0.0
 30
0.0
  9
$UCSORGBACK
 10
0.0
 20
0.0
 30
0.0
  9
$PUCSBASE
  2

  9
$PUCSNAME
  2

  9
$PUCSORG
 10
0.0
 20
0.0
 30
0.0
  9
$PUCSXDIR
 10
1.0
 20
0.0
 30
0.0
  9
$PUCSYDIR
 10
0.0
 20
1.0
 30
0.0
  9
$PUCSORTHOREF
  2

  9
$PUCSORTHOVIEW
 70
     0
  9
$PUCSORGTOP
 10
0.0
 20
0.0
 30
0.0
  9
$PUCSORGBOTTOM
 10
0.0
 20
0.0
 30
0.0
  9
$PUCSORGLEFT
 10
0.0
 20
0.0
 30
0.0
  9
$PUCSORGRIGHT
 10
0.0
 20
0.0
 30
0.0
  9
$PUCSORGFRONT
 10
0.0
 20
0.0
 30
0.0
  9
$PUCSORGBACK
 10
0.0
 20
0.0
 30
0.0
  9
$USERI1
 70
     0
  9
$USERI2
 70
     0
  9
$USERI3
 70
     0
  9
$USERI4
 70
     0
  9
$USERI5
 70
     0
  9
$USERR1
 40
0.0
  9
$USERR2
 40
0.0
  9
$USERR3
 40
0.0
  9
$USERR4
 40
0.0
  9
$USERR5
 40
0.0
  9
$WORLDVIEW
 70
     1
  9
$SHADEDGE
 70
     3
  9
$SHADEDIF
 70
    70
  9
$TILEMODE
 70
     1
  9
$MAXACTVP
 70
    64
  9
$PINSBASE
 10
0.0
 20
0.0
 30
0.0
  9
$PLIMCHECK
 70
     0
  9
$PEXTMIN
 10
1.000000000000000E+20
 20
1.000000000000000E+20
 30
1.000000000000000E+20
  9
$PEXTMAX
 10
-1.000000000000000E+20
 20
-1.000000000000000E+20
 30
-1.000000000000000E+20
  9
$PLIMMIN
 10
0.0
 20
0.0
  9
$PLIMMAX
 10
12.0
 20
9.0
  9
$UNITMODE
 70
     0
  9
$VISRETAIN
 70
     1
  9
$PLINEGEN
 70
     0
  9
$PSLTSCALE
 70
     1
  9
$TREEDEPTH
 70
  3020
  9
$CMLSTYLE
  2
Standard
  9
$CMLJUST
 70
     0
  9
$CMLSCALE
 40
1.0
  9
$PROXYGRAPHICS
 70
     1
  9
$MEASUREMENT
 70
     0
  9
$CELWEIGHT
370
    -1
  9
$ENDCAPS
280
     0
  9
$JOINSTYLE
280
     0
  9
$LWDISPLAY
290
     0
  9
$INSUNITS
 70
     4
  9
$HYPERLINKBASE
  1

  9
$STYLESHEET
  1

  9
$XEDIT
290
     1
  9
$CEPSNTYPE
380
     0
  9
$PSTYLEMODE
290
     1
  9
$FINGERPRINTGUID
  2
{A8EA67CC-11D7-4C53-813F-0104D0EB61B2}
  9
$VERSIONGUID
  2
{FAEB1C32-E019-11D5-929B-00C0DF256EC4}
  9
$EXTNAMES
290
     1
  9
$PSVPSCALE
 40
0.0
  9
$OLESTARTUP
290
     0
  0
ENDSEC
  0
SECTION
  2
CLASSES
  0
CLASS
  1
ACDBDICTIONARYWDFLT
  2
AcDbDictionaryWithDefault
  3
ObjectDBX Classes
 90
        0
280
     0
281
     0
  0
CLASS
  1
VISUALSTYLE
  2
AcDbVisualStyle
  3
ObjectDBX Classes
 90
     4095
280
     0
281
     0
  0
CLASS
  1
MATERIAL
  2
AcDbMaterial
  3
ObjectDBX Classes
 90
     1153
280
     0
281
     0
  0
CLASS
  1
DICTIONARYVAR
  2
AcDbDictionaryVar
  3
ObjectDBX Classes
 90
        0
280
     0
281
     0
  0
CLASS
  1
ACDBPLACEHOLDER
  2
AcDbPlaceHolder
  3
ObjectDBX Classes
 90
        0
280
     0
281
     0
  0
CLASS
  1
LAYOUT
  2
AcDbLayout
  3
ObjectDBX Classes
 90
        0
280
     0
281
     0
  0
ENDSEC
  0
SECTION
  2
TABLES
  0
TABLE
  2
VPORT
  5
8
330
0
100
AcDbSymbolTable
 70
     1
  0
VPORT
  5
29
330
8
100
AcDbSymbolTableRecord
100
AcDbViewportTableRecord
  2
*Active
 70
     0
 10
0.0
 20
0.0
 11
1.0
 21
1.0
 12
10.42990654205607
 22
4.5
 13
0.0
 23
0.0
 14
0.5
 24
0.5
 15
0.5
 25
0.5
 16
0.0
 26
0.0
 36
1.0
 17
0.0
 27
0.0
 37
0.0
 40
9.0
 41
1.972972972850329
 42
50.0
 43
0.0
 44
0.0
 50
0.0
 51
0.0
 71
     0
 72
   100
 73
     1
 74
     3
 75
     0
 76
     0
 77
     0
 78
     0
281
     0
 65
     1
110
0.0
120
0.0
130
0.0
111
1.0
121
0.0
131
0.0
112
0.0
122
1.0
132
0.0
 79
     0
146
0.0
  0
ENDTAB
  0
TABLE
  2
LTYPE
  5
5
330
0
100
AcDbSymbolTable
 70
     1
  0
LTYPE
  5
14
330
5
100
AcDbSymbolTableRecord
100
AcDbLinetypeTableRecord
  2
ByBlock
 70
     0
  3

 72
    65
 73
     0
 40
0.0
  0
LTYPE
  5
15
330
5
100
AcDbSymbolTableRecord
100
AcDbLinetypeTableRecord
  2
ByLayer
 70
     0
  3

 72
    65
 73
     0
 40
0.0
  0
LTYPE
  5
16
330
5
100
AcDbSymbolTableRecord
100
AcDbLinetypeTableRecord
  2
Continuous
 70
     0
  3
Solid line
 72
    65
 73
     0
 40
0.0
  0
ENDTAB
  0
TABLE
  2
LAYER
  5
2
330
0
100
AcDbSymbolTable
 70
     2
  0
LAYER
  5
10
330
2
100
AcDbSymbolTableRecord
100
AcDbLayerTableRecord
  2
0
 70
     0
 62
     7
  6
Continuous
370
    -3
390
F
  0
LAYER
  5
40
330
2
100
AcDbSymbolTableRecord
100
AcDbLayerTableRecord
  2
Camada 1
 70
     0
 62
     7
  6
Continuous
370
    -3
390
F
  0
ENDTAB
  0
TABLE
  2
STYLE
  5
3
330
0
100
AcDbSymbolTable
 70
     1
  0
STYLE
  5
11
330
3
100
AcDbSymbolTableRecord
100
AcDbTextStyleTableRecord
  2
Standard
 70
     0
 40
0.0
 41
1.0
 50
0.0
 71
     0
 42
0.2
  3
txt
  4

  0
ENDTAB
  0
TABLE
  2
VIEW
  5
6
330
0
100
AcDbSymbolTable
 70
     0
  0
ENDTAB
  0
TABLE
  2
UCS
  5
7
330
0
100
AcDbSymbolTable
 70
     0
  0
ENDTAB
  0
TABLE
  2
APPID
  5
9
330
0
100
AcDbSymbolTable
 70
     2
  0
APPID
  5
12
330
9
100
AcDbSymbolTableRecord
100
AcDbRegAppTableRecord
  2
ACAD
 70
     0
  0
APPID
  5
3F
330
9
100
AcDbSymbolTableRecord
100
AcDbRegAppTableRecord
  2
ODA
 70
     0
  0
ENDTAB
  0
TABLE
  2
DIMSTYLE
  5
A
330
0
100
AcDbSymbolTable
 70
     1
100
AcDbDimStyleTable
  0
DIMSTYLE
105
27
330
A
100
AcDbSymbolTableRecord
100
AcDbDimStyleTableRecord
  2
Standard
 70
     0
178
     0
340
11
  0
ENDTAB
  0
TABLE
  2
BLOCK_RECORD
  5
1
330
0
100
AcDbSymbolTable
 70
     1
  0
BLOCK_RECORD
  5
1F
330
1
100
AcDbSymbolTableRecord
100
AcDbBlockTableRecord
  2
*Model_Space
340
22
  0
BLOCK_RECORD
  5
1B
330
1
100
AcDbSymbolTableRecord
100
AcDbBlockTableRecord
  2
*Paper_Space
340
1E
  0
BLOCK_RECORD
  5
23
330
1
100
AcDbSymbolTableRecord
100
AcDbBlockTableRecord
  2
*Paper_Space0
340
26
  0
ENDTAB
  0
ENDSEC
  0
SECTION
  2
BLOCKS
  0
BLOCK
  5
20
330
1F
100
AcDbEntity
  8
0
100
AcDbBlockBegin
  2
*Model_Space
 70
     0
 10
0.0
 20
0.0
 30
0.0
  3
*Model_Space
  1

  0
ENDBLK
  5
21
330
1F
100
AcDbEntity
  8
0
100
AcDbBlockEnd
  0
BLOCK
  5
1C
330
1B
100
AcDbEntity
 67
     1
  8
0
100
AcDbBlockBegin
  2
*Paper_Space
 70
     0
 10
0.0
 20
0.0
 30
0.0
  3
*Paper_Space
  1

  0
ENDBLK
  5
1D
330
1B
100
AcDbEntity
 67
     1
  8
0
100
AcDbBlockEnd
  0
BLOCK
  5
24
330
23
100
AcDbEntity
  8
0
100
AcDbBlockBegin
  2
*Paper_Space0
 70
     0
 10
0.0
 20
0.0
 30
0.0
  3
*Paper_Space0
  1

  0
ENDBLK
  5
25
330
23
100
AcDbEntity
  8
0
100
AcDbBlockEnd
  0
ENDSEC
  0
SECTION
  2
ENTITIES
  0
SPLINE
  5
41
330
1F
100
AcDbEntity
  8
Camada 1
 62
   250
370
     9
100
AcDbSpline
210
0.0
220
0.0
230
1.0
 70
    11
 71
     3
 72
   448
 73
   444
 74
     0
 42
0.0000000001
 43
0.0000000001
 12
1.0
 22
0.0
 32
0.0
 13
1.0
 23
0.0
 33
0.0
 40
0.0
 40
0.0
 40
0.0
 40
0.0
 40
0.0089285714285714
 40
0.0089285714285714
 40
0.0089285714285714
 40
0.0089285714285714
 40
0.0178571428571429
 40
0.0178571428571429
 40
0.0178571428571429
 40
0.0178571428571429
 40
0.0267857142857143
 40
0.0267857142857143
 40
0.0267857142857143
 40
0.0267857142857143
 40
0.0357142857142857
 40
0.0357142857142857
 40
0.0357142857142857
 40
0.0357142857142857
 40
0.0446428571428571
 40
0.0446428571428571
 40
0.0446428571428571
 40
0.0446428571428571
 40
0.0535714285714286
 40
0.0535714285714286
 40
0.0535714285714286
 40
0.0535714285714286
 40
0.0625
 40
0.0625
 40
0.0625
 40
0.0625
 40
0.0714285714285714
 40
0.0714285714285714
 40
0.0714285714285714
 40
0.0714285714285714
 40
0.0803571428571429
 40
0.0803571428571429
 40
0.0803571428571429
 40
0.0803571428571429
 40
0.0892857142857143
 40
0.0892857142857143
 40
0.0892857142857143
 40
0.0892857142857143
 40
0.0982142857142857
 40
0.0982142857142857
 40
0.0982142857142857
 40
0.0982142857142857
 40
0.1071428571428571
 40
0.1071428571428571
 40
0.1071428571428571
 40
0.1071428571428571
 40
0.1160714285714286
 40
0.1160714285714286
 40
0.1160714285714286
 40
0.1160714285714286
 40
0.125
 40
0.125
 40
0.125
 40
0.125
 40
0.1339285714285714
 40
0.1339285714285714
 40
0.1339285714285714
 40
0.1339285714285714
 40
0.1428571428571428
 40
0.1428571428571428
 40
0.1428571428571428
 40
0.1428571428571428
 40
0.1517857142857143
 40
0.1517857142857143
 40
0.1517857142857143
 40
0.1517857142857143
 40
0.1607142857142857
 40
0.1607142857142857
 40
0.1607142857142857
 40
0.1607142857142857
 40
0.1696428571428572
 40
0.1696428571428572
 40
0.1696428571428572
 40
0.1696428571428572
 40
0.1785714285714286
 40
0.1785714285714286
 40
0.1785714285714286
 40
0.1785714285714286
 40
0.1875
 40
0.1875
 40
0.1875
 40
0.1875
 40
0.1964285714285714
 40
0.1964285714285714
 40
0.1964285714285714
 40
0.1964285714285714
 40
0.2053571428571428
 40
0.2053571428571428
 40
0.2053571428571428
 40
0.2053571428571428
 40
0.2142857142857143
 40
0.2142857142857143
 40
0.2142857142857143
 40
0.2142857142857143
 40
0.2232142857142857
 40
0.2232142857142857
 40
0.2232142857142857
 40
0.2232142857142857
 40
0.2321428571428572
 40
0.2321428571428572
 40
0.2321428571428572
 40
0.2321428571428572
 40
0.2410714285714286
 40
0.2410714285714286
 40
0.2410714285714286
 40
0.2410714285714286
 40
0.25
 40
0.25
 40
0.25
 40
0.25
 40
0.2589285714285715
 40
0.2589285714285715
 40
0.2589285714285715
 40
0.2589285714285715
 40
0.2678571428571428
 40
0.2678571428571428
 40
0.2678571428571428
 40
0.2678571428571428
 40
0.2767857142857143
 40
0.2767857142857143
 40
0.2767857142857143
 40
0.2767857142857143
 40
0.2857142857142857
 40
0.2857142857142857
 40
0.2857142857142857
 40
0.2857142857142857
 40
0.2946428571428572
 40
0.2946428571428572
 40
0.2946428571428572
 40
0.2946428571428572
 40
0.3035714285714285
 40
0.3035714285714285
 40
0.3035714285714285
 40
0.3035714285714285
 40
0.3125
 40
0.3125
 40
0.3125
 40
0.3125
 40
0.3214285714285715
 40
0.3214285714285715
 40
0.3214285714285715
 40
0.3214285714285715
 40
0.3303571428571428
 40
0.3303571428571428
 40
0.3303571428571428
 40
0.3303571428571428
 40
0.3392857142857143
 40
0.3392857142857143
 40
0.3392857142857143
 40
0.3392857142857143
 40
0.3482142857142857
 40
0.3482142857142857
 40
0.3482142857142857
 40
0.3482142857142857
 40
0.3571428571428572
 40
0.3571428571428572
 40
0.3571428571428572
 40
0.3571428571428572
 40
0.3660714285714285
 40
0.3660714285714285
 40
0.3660714285714285
 40
0.3660714285714285
 40
0.375
 40
0.375
 40
0.375
 40
0.375
 40
0.3839285714285715
 40
0.3839285714285715
 40
0.3839285714285715
 40
0.3839285714285715
 40
0.3928571428571428
 40
0.3928571428571428
 40
0.3928571428571428
 40
0.3928571428571428
 40
0.4017857142857143
 40
0.4017857142857143
 40
0.4017857142857143
 40
0.4017857142857143
 40
0.4107142857142857
 40
0.4107142857142857
 40
0.4107142857142857
 40
0.4107142857142857
 40
0.4196428571428572
 40
0.4196428571428572
 40
0.4196428571428572
 40
0.4196428571428572
 40
0.4285714285714285
 40
0.4285714285714285
 40
0.4285714285714285
 40
0.4285714285714285
 40
0.4375
 40
0.4375
 40
0.4375
 40
0.4375
 40
0.4464285714285715
 40
0.4464285714285715
 40
0.4464285714285715
 40
0.4464285714285715
 40
0.4553571428571428
 40
0.4553571428571428
 40
0.4553571428571428
 40
0.4553571428571428
 40
0.4642857142857143
 40
0.4642857142857143
 40
0.4642857142857143
 40
0.4642857142857143
 40
0.4732142857142857
 40
0.4732142857142857
 40
0.4732142857142857
 40
0.4732142857142857
 40
0.4821428571428572
 40
0.4821428571428572
 40
0.4821428571428572
 40
0.4821428571428572
 40
0.4910714285714285
 40
0.4910714285714285
 40
0.4910714285714285
 40
0.4910714285714285
 40
0.5
 40
0.5
 40
0.5
 40
0.5
 40
0.5089285714285714
 40
0.5089285714285714
 40
0.5089285714285714
 40
0.5089285714285714
 40
0.5178571428571429
 40
0.5178571428571429
 40
0.5178571428571429
 40
0.5178571428571429
 40
0.5267857142857143
 40
0.5267857142857143
 40
0.5267857142857143
 40
0.5267857142857143
 40
0.5357142857142857
 40
0.5357142857142857
 40
0.5357142857142857
 40
0.5357142857142857
 40
0.5446428571428571
 40
0.5446428571428571
 40
0.5446428571428571
 40
0.5446428571428571
 40
0.5535714285714286
 40
0.5535714285714286
 40
0.5535714285714286
 40
0.5535714285714286
 40
0.5625
 40
0.5625
 40
0.5625
 40
0.5625
 40
0.5714285714285714
 40
0.5714285714285714
 40
0.5714285714285714
 40
0.5714285714285714
 40
0.5803571428571429
 40
0.5803571428571429
 40
0.5803571428571429
 40
0.5803571428571429
 40
0.5892857142857143
 40
0.5892857142857143
 40
0.5892857142857143
 40
0.5892857142857143
 40
0.5982142857142857
 40
0.5982142857142857
 40
0.5982142857142857
 40
0.5982142857142857
 40
0.6071428571428571
 40
0.6071428571428571
 40
0.6071428571428571
 40
0.6071428571428571
 40
0.6160714285714286
 40
0.6160714285714286
 40
0.6160714285714286
 40
0.6160714285714286
 40
0.625
 40
0.625
 40
0.625
 40
0.625
 40
0.6339285714285714
 40
0.6339285714285714
 40
0.6339285714285714
 40
0.6339285714285714
 40
0.6428571428571429
 40
0.6428571428571429
 40
0.6428571428571429
 40
0.6428571428571429
 40
0.6517857142857143
 40
0.6517857142857143
 40
0.6517857142857143
 40
0.6517857142857143
 40
0.6607142857142857
 40
0.6607142857142857
 40
0.6607142857142857
 40
0.6607142857142857
 40
0.6696428571428571
 40
0.6696428571428571
 40
0.6696428571428571
 40
0.6696428571428571
 40
0.6785714285714286
 40
0.6785714285714286
 40
0.6785714285714286
 40
0.6785714285714286
 40
0.6875
 40
0.6875
 40
0.6875
 40
0.6875
 40
0.6964285714285714
 40
0.6964285714285714
 40
0.6964285714285714
 40
0.6964285714285714
 40
0.7053571428571429
 40
0.7053571428571429
 40
0.7053571428571429
 40
0.7053571428571429
 40
0.7142857142857143
 40
0.7142857142857143
 40
0.7142857142857143
 40
0.7142857142857143
 40
0.7232142857142857
 40
0.7232142857142857
 40
0.7232142857142857
 40
0.7232142857142857
 40
0.7321428571428571
 40
0.7321428571428571
 40
0.7321428571428571
 40
0.7321428571428571
 40
0.7410714285714286
 40
0.7410714285714286
 40
0.7410714285714286
 40
0.7410714285714286
 40
0.75
 40
0.75
 40
0.75
 40
0.75
 40
0.7589285714285714
 40
0.7589285714285714
 40
0.7589285714285714
 40
0.7589285714285714
 40
0.7678571428571429
 40
0.7678571428571429
 40
0.7678571428571429
 40
0.7678571428571429
 40
0.7767857142857143
 40
0.7767857142857143
 40
0.7767857142857143
 40
0.7767857142857143
 40
0.7857142857142857
 40
0.7857142857142857
 40
0.7857142857142857
 40
0.7857142857142857
 40
0.7946428571428571
 40
0.7946428571428571
 40
0.7946428571428571
 40
0.7946428571428571
 40
0.8035714285714286
 40
0.8035714285714286
 40
0.8035714285714286
 40
0.8035714285714286
 40
0.8125
 40
0.8125
 40
0.8125
 40
0.8125
 40
0.8214285714285714
 40
0.8214285714285714
 40
0.8214285714285714
 40
0.8214285714285714
 40
0.8303571428571429
 40
0.8303571428571429
 40
0.8303571428571429
 40
0.8303571428571429
 40
0.8392857142857143
 40
0.8392857142857143
 40
0.8392857142857143
 40
0.8392857142857143
 40
0.8482142857142857
 40
0.8482142857142857
 40
0.8482142857142857
 40
0.8482142857142857
 40
0.8571428571428571
 40
0.8571428571428571
 40
0.8571428571428571
 40
0.8571428571428571
 40
0.8660714285714286
 40
0.8660714285714286
 40
0.8660714285714286
 40
0.8660714285714286
 40
0.875
 40
0.875
 40
0.875
 40
0.875
 40
0.8839285714285714
 40
0.8839285714285714
 40
0.8839285714285714
 40
0.8839285714285714
 40
0.8928571428571429
 40
0.8928571428571429
 40
0.8928571428571429
 40
0.8928571428571429
 40
0.9017857142857143
 40
0.9017857142857143
 40
0.9017857142857143
 40
0.9017857142857143
 40
0.9107142857142857
 40
0.9107142857142857
 40
0.9107142857142857
 40
0.9107142857142857
 40
0.9196428571428571
 40
0.9196428571428571
 40
0.9196428571428571
 40
0.9196428571428571
 40
0.9285714285714286
 40
0.9285714285714286
 40
0.9285714285714286
 40
0.9285714285714286
 40
0.9375
 40
0.9375
 40
0.9375
 40
0.9375
 40
0.9464285714285714
 40
0.9464285714285714
 40
0.9464285714285714
 40
0.9464285714285714
 40
0.9553571428571429
 40
0.9553571428571429
 40
0.9553571428571429
 40
0.9553571428571429
 40
0.9642857142857143
 40
0.9642857142857143
 40
0.9642857142857143
 40
0.9642857142857143
 40
0.9732142857142857
 40
0.9732142857142857
 40
0.9732142857142857
 40
0.9732142857142857
 40
0.9821428571428571
 40
0.9821428571428571
 40
0.9821428571428571
 40
0.9821428571428571
 40
1.0
 40
1.0
 40
1.0
 40
1.0
 10
-46.1284
 20
-82.976
 30
0.0
 10
-49.4708
 20
-85.9397
 30
0.0
 10
-49.8595
 20
-90.7808
 30
0.0
 10
-48.2716
 20
-94.0092
 30
0.0
 10
-48.2716
 20
-94.0092
 30
0.0
 10
-46.2378
 20
-97.9687
 30
0.0
 10
-40.4186
 20
-98.9924
 30
0.0
 10
-39.0905
 20
-93.771
 30
0.0
 10
-39.0905
 20
-93.771
 30
0.0
 10
-38.5077
 20
-90.5688
 30
0.0
 10
-39.705
 20
-87.4252
 30
0.0
 10
-42.6991
 20
-87.3585
 30
0.0
 10
-42.6991
 20
-87.3585
 30
0.0
 10
-47.326
 20
-87.9326
 30
0.0
 10
-44.5039
 20
-95.6901
 30
0.0
 10
-41.5029
 20
-91.4912
 30
0.0
 10
-41.5029
 20
-91.4912
 30
0.0
 10
-40.8561
 20
-90.8537
 30
0.0
 10
-40.4182
 20
-93.0181
 30
0.0
 10
-41.0606
 20
-93.4977
 30
0.0
 10
-41.0606
 20
-93.4977
 30
0.0
 10
-44.8848
 20
-97.0244
 30
0.0
 10
-49.5622
 20
-89.5075
 30
0.0
 10
-44.5938
 20
-85.2514
 30
0.0
 10
-44.5938
 20
-85.2514
 30
0.0
 10
-43.2533
 20
-84.1412
 30
0.0
 10
-39.9917
 20
-84.0854
 30
0.0
 10
-38.0718
 20
-84.4577
 30
0.0
 10
-38.0718
 20
-84.4577
 30
0.0
 10
-36.1041
 20
-84.9111
 30
0.0
 10
-34.9078
 20
-86.6778
 30
0.0
 10
-34.0634
 20
-88.6381
 30
0.0
 10
-34.0634
 20
-88.6381
 30
0.0
 10
-32.497
 20
-92.6693
 30
0.0
 10
-33.5043
 20
-94.8641
 30
0.0
 10
-35.8625
 20
-94.1944
 30
0.0
 10
-35.8625
 20
-94.1944
 30
0.0
 10
-33.1012
 20
-93.2308
 30
0.0
 10
-34.0106
 20
-88.0932
 30
0.0
 10
-37.0796
 20
-90.4108
 30
0.0
 10
-37.0796
 20
-90.4108
 30
0.0
 10
-38.9475
 20
-92.2186
 30
0.0
 10
-38.5827
 20
-95.4642
 30
0.0
 10
-36.7621
 20
-96.7873
 30
0.0
 10
-36.7621
 20
-96.7873
 30
0.0
 10
-35.1804
 20
-97.5974
 30
0.0
 10
-33.1667
 20
-97.159
 30
0.0
 10
-32.37
 20
-95.1469
 30
0.0
 10
-32.37
 20
-95.1469
 30
0.0
 10
-31.6092
 20
-96.3063
 30
0.0
 10
-30.55
 20
-96.9866
 30
0.0
 10
-29.4728
 20
-97.1181
 30
0.0
 10
-29.4728
 20
-97.1181
 30
0.0
 10
-27.9637
 20
-97.2302
 30
0.0
 10
-26.8987
 20
-96.6982
 30
0.0
 10
-26.0601
 20
-95.1524
 30
0.0
 10
-26.0601
 20
-95.1524
 30
0.0
 10
-25.2764
 20
-93.5713
 30
0.0
 10
-25.5643
 20
-91.0801
 30
0.0
 10
-28.1722
 20
-90.1253
 30
0.0
 10
-28.1722
 20
-90.1253
 30
0.0
 10
-30.436
 20
-89.7152
 30
0.0
 10
-30.1439
 20
-92.9073
 30
0.0
 10
-28.4277
 20
-94.0356
 30
0.0
 10
-28.4277
 20
-94.0356
 30
0.0
 10
-30.6725
 20
-94.3047
 30
0.0
 10
-32.2509
 20
-92.2588
 30
0.0
 10
-30.7825
 20
-88.7969
 30
0.0
 10
-30.7825
 20
-88.7969
 30
0.0
 10
-29.9792
 20
-87.0433
 30
0.0
 10
-28.1637
 20
-84.6853
 30
0.0
 10
-26.8138
 20
-84.5106
 30
0.0
 10
-26.8138
 20
-84.5106
 30
0.0
 10
-26.8138
 20
-84.5106
 30
0.0
 10
-22.1571
 20
-84.5635
 30
0.0
 10
-22.1571
 20
-84.5635
 30
0.0
 10
-22.1571
 20
-84.5635
 30
0.0
 10
-20.4684
 20
-84.7529
 30
0.0
 10
-19.2232
 20
-85.921
 30
0.0
 10
-18.1883
 20
-87.7914
 30
0.0
 10
-18.1883
 20
-87.7914
 30
0.0
 10
-16.7804
 20
-91.1017
 30
0.0
 10
-18.2201
 20
-94.4115
 30
0.0
 10
-20.6754
 20
-94.7235
 30
0.0
 10
-20.6754
 20
-94.7235
 30
0.0
 10
-22.4587
 20
-94.7428
 30
0.0
 10
-24.0074
 20
-92.8876
 30
0.0
 10
-23.2154
 20
-91.3898
 30
0.0
 10
-23.2154
 20
-91.3898
 30
0.0
 10
-20.2502
 20
-95.1657
 30
0.0
 10
-17.3759
 20
-90.4157
 30
0.0
 10
-19.9875
 20
-88.1089
 30
0.0
 10
-19.9875
 20
-88.1089
 30
0.0
 10
-21.8789
 20
-86.6567
 30
0.0
 10
-24.3667
 20
-87.6026
 30
0.0
 10
-25.1733
 20
-90.8077
 30
0.0
 10
-25.1733
 20
-90.8077
 30
0.0
 10
-25.6932
 20
-93.1516
 30
0.0
 10
-24.8194
 20
-96.5308
 30
0.0
 10
-22.4482
 20
-97.3958
 30
0.0
 10
-22.4482
 20
-97.3958
 30
0.0
 10
-20.1396
 20
-98.1541
 30
0.0
 10
-17.7277
 20
-97.3432
 30
0.0
 10
-16.2304
 20
-94.9881
 30
0.0
 10
-16.2304
 20
-94.9881
 30
0.0
 10
-13.8508
 20
-98.4315
 30
0.0
 10
-10.2973
 20
-97.6922
 30
0.0
 10
-8.0414
 20
-95.7289
 30
0.0
 10
-8.0414
 20
-95.7289
 30
0.0
 10
-6.3486
 20
-94.0702
 30
0.0
 10
-6.2549
 20
-90.2614
 30
0.0
 10
-7.843
 20
-88.0295
 30
0.0
 10
-7.843
 20
-88.0295
 30
0.0
 10
-9.3836
 20
-85.7564
 30
0.0
 10
-13.8252
 20
-87.013
 30
0.0
 10
-13.1611
 20
-90.5431
 30
0.0
 10
-13.1611
 20
-90.5431
 30
0.0
 10
-12.4996
 20
-92.763
 30
0.0
 10
-10.4362
 20
-92.7778
 30
0.0
 10
-8.6897
 20
-91.0987
 30
0.0
 10
-8.6897
 20
-91.0987
 30
0.0
 10
-8.5298
 20
-94.4673
 30
0.0
 10
-12.5182
 20
-94.6973
 30
0.0
 10
-13.558
 20
-93.2683
 30
0.0
 10
-13.558
 20
-93.2683
 30
0.0
 10
-14.8894
 20
-91.0722
 30
0.0
 10
-15.1191
 20
-88.2059
 30
0.0
 10
-13.849
 20
-86.2568
 30
0.0
 10
-13.849
 20
-86.2568
 30
0.0
 10
-13.1698
 20
-85.1522
 30
0.0
 10
-12.1789
 20
-84.2841
 30
0.0
 10
-11.0038
 20
-84.1243
 30
0.0
 10
-11.0038
 20
-84.1243
 30
0.0
 10
-11.0038
 20
-84.1243
 30
0.0
 10
-5.884
 20
-84.1243
 30
0.0
 10
-5.884
 20
-84.1243
 30
0.0
 10
-5.884
 20
-84.1243
 30
0.0
 10
-4.1132
 20
-84.2105
 30
0.0
 10
-2.8048
 20
-85.8703
 30
0.0
 10
-2.0486
 20
-87.5268
 30
0.0
 10
-2.0486
 20
-87.5268
 30
0.0
 10
0.1017
 20
-92.2752
 30
0.0
 10
-1.7469
 20
-95.2843
 30
0.0
 10
-4.0594
 20
-93.5329
 30
0.0
 10
-4.0594
 20
-93.5329
 30
0.0
 10
-1.0008
 20
-93.5011
 30
0.0
 10
-1.7558
 20
-89.1549
 30
0.0
 10
-4.1388
 20
-89.8022
 30
0.0
 10
-4.1388
 20
-89.8022
 30
0.0
 10
-6.7772
 20
-90.8843
 30
0.0
 10
-6.9947
 20
-94.4899
 30
0.0
 10
-5.0913
 20
-96.0993
 30
0.0
 10
-5.0913
 20
-96.0993
 30
0.0
 10
-3.4379
 20
-97.2182
 30
0.0
 10
-1.2459
 20
-96.815
 30
0.0
 10
0.0946
 20
-94.8029
 30
0.0
 10
0.0946
 20
-94.8029
 30
0.0
 10
1.0737
 20
-97.069
 30
0.0
 10
4.1601
 20
-97.6478
 30
0.0
 10
5.8625
 20
-95.7025
 30
0.0
 10
5.8625
 20
-95.7025
 30
0.0
 10
7.0034
 20
-94.1986
 30
0.0
 10
6.7064
 20
-91.7911
 30
0.0
 10
5.1746
 20
-90.0933
 30
0.0
 10
5.1746
 20
-90.0933
 30
0.0
 10
4.045
 20
-89.0571
 30
0.0
 10
2.1151
 20
-89.7669
 30
0.0
 10
2.0525
 20
-91.9454
 30
0.0
 10
2.0525
 20
-91.9454
 30
0.0
 10
2.0595
 20
-93.2965
 30
0.0
 10
3.117
 20
-93.5974
 30
0.0
 10
4.328
 20
-93.7446
 30
0.0
 10
4.328
 20
-93.7446
 30
0.0
 10
2.7904
 20
-95.3446
 30
0.0
 10
0.7151
 20
-93.776
 30
0.0
 10
1.2058
 20
-90.6754
 30
0.0
 10
1.2058
 20
-90.6754
 30
0.0
 10
1.5109
 20
-87.5617
 30
0.0
 10
2.9291
 20
-85.4458
 30
0.0
 10
5.2805
 20
-84.1666
 30
0.0
 10
5.2805
 20
-84.1666
 30
0.0
 10
5.2805
 20
-84.1666
 30
0.0
 10
10.5853
 20
-84.1799
 30
0.0
 10
10.5853
 20
-84.1799
 30
0.0
 10
10.5853
 20
-84.1799
 30
0.0
 10
12.2313
 20
-84.373
 30
0.0
 10
13.7414
 20
-86.0373
 30
0.0
 10
14.488
 20
-88.0825
 30
0.0
 10
14.488
 20
-88.0825
 30
0.0
 10
15.5379
 20
-92.9486
 30
0.0
 10
12.5034
 20
-95.8378
 30
0.0
 10
9.4609
 20
-93.8504
 30
0.0
 10
9.4609
 20
-93.8504
 30
0.0
 10
8.542
 20
-93.0811
 30
0.0
 10
8.3777
 20
-91.7623
 30
0.0
 10
9.0376
 20
-91.0458
 30
0.0
 10
9.0376
 20
-91.0458
 30
0.0
 10
10.1934
 20
-93.5482
 30
0.0
 10
13.4821
 20
-93.2174
 30
0.0
 10
13.4296
 20
-89.7758
 30
0.0
 10
13.4296
 20
-89.7758
 30
0.0
 10
13.272
 20
-87.2749
 30
0.0
 10
11.1
 20
-85.9885
 30
0.0
 10
9.1963
 20
-87.13
 30
0.0
 10
9.1963
 20
-87.13
 30
0.0
 10
6.7674
 20
-89.0622
 30
0.0
 10
6.1769
 20
-91.6762
 30
0.0
 10
7.7808
 20
-95.1733
 30
0.0
 10
7.7808
 20
-95.1733
 30
0.0
 10
9.4011
 20
-97.946
 30
0.0
 10
13.485
 20
-98.2744
 30
0.0
 10
16.2342
 20
-94.8558
 30
0.0
 10
16.2342
 20
-94.8558
 30
0.0
 10
18.1658
 20
-98.1192
 30
0.0
 10
22.8092
 20
-98.4025
 30
0.0
 10
24.7674
 20
-95.5174
 30
0.0
 10
24.7674
 20
-95.5174
 30
0.0
 10
26.1956
 20
-93.029
 30
0.0
 10
25.989
 20
-89.6979
 30
0.0
 10
23.8279
 20
-87.7651
 30
0.0
 10
23.8279
 20
-87.7651
 30
0.0
 10
21.4695
 20
-85.8211
 30
0.0
 10
18.3264
 20
-88.1472
 30
0.0
 10
19.3564
 20
-91.2047
 30
0.0
 10
19.3564
 20
-91.2047
 30
0.0
 10
20.0361
 20
-93.0959
 30
0.0
 10
22.4161
 20
-93.3086
 30
0.0
 10
23.1664
 20
-91.0724
 30
0.0
 10
23.1664
 20
-91.0724
 30
0.0
 10
24.3214
 20
-93.6035
 30
0.0
 10
21.9675
 20
-95.1469
 30
0.0
 10
19.7533
 20
-94.3004
 30
0.0
 10
19.7533
 20
-94.3004
 30
0.0
 10
17.9454
 20
-93.8156
 30
0.0
 10
17.0886
 20
-91.5919
 30
0.0
 10
17.9541
 20
-88.6647
 30
0.0
 10
17.9541
 20
-88.6647
 30
0.0
 10
18.4429
 20
-86.9213
 30
0.0
 10
19.6169
 20
-85.2659
 30
0.0
 10
21.0762
 20
-84.3255
 30
0.0
 10
21.0762
 20
-84.3255
 30
0.0
 10
21.0762
 20
-84.3255
 30
0.0
 10
27.1881
 20
-84.3255
 30
0.0
 10
27.1881
 20
-84.3255
 30
0.0
 10
27.1881
 20
-84.3255
 30
0.0
 10
30.1944
 20
-85.8376
 30
0.0
 10
30.9547
 20
-88.2603
 30
0.0
 10
31.342
 20
-90.8343
 30
0.0
 10
31.342
 20
-90.8343
 30
0.0
 10
31.6549
 20
-93.7501
 30
0.0
 10
28.41
 20
-95.5745
 30
0.0
 10
28.2464
 20
-93.93
 30
0.0
 10
28.2464
 20
-93.93
 30
0.0
 10
31.2172
 20
-93.8407
 30
0.0
 10
31.608
 20
-89.627
 30
0.0
 10
27.8231
 20
-90.067
 30
0.0
 10
27.8231
 20
-90.067
 30
0.0
 10
25.8142
 20
-90.299
 30
0.0
 10
25.4597
 20
-94.9527
 30
0.0
 10
27.3733
 20
-96.6287
 30
0.0
 10
27.3733
 20
-96.6287
 30
0.0
 10
29.0932
 20
-97.6723
 30
0.0
 10
31.1214
 20
-97.199
 30
0.0
 10
32.4268
 20
-95.3057
 30
0.0
 10
32.4268
 20
-95.3057
 30
0.0
 10
34.4289
 20
-98.0303
 30
0.0
 10
37.4627
 20
-97.7138
 30
0.0
 10
38.671
 20
-95.5173
 30
0.0
 10
38.671
 20
-95.5173
 30
0.0
 10
39.468
 20
-94.3243
 30
0.0
 10
38.7117
 20
-91.5598
 30
0.0
 10
37.401
 20
-90.5432
 30
0.0
 10
37.401
 20
-90.5432
 30
0.0
 10
35.5042
 20
-89.3058
 30
0.0
 10
34.2443
 20
-91.3218
 30
0.0
 10
35.0462
 20
-92.8715
 30
0.0
 10
35.0462
 20
-92.8715
 30
0.0
 10
35.4269
 20
-93.3989
 30
0.0
 10
35.9683
 20
-93.8356
 30
0.0
 10
36.8189
 20
-94.0886
 30
0.0
 10
36.8189
 20
-94.0886
 30
0.0
 10
35.4652
 20
-94.7238
 30
0.0
 10
33.339
 20
-94.9003
 30
0.0
 10
33.6704
 20
-91.284
 30
0.0
 10
33.6704
 20
-91.284
 30
0.0
 10
33.9071
 20
-88.5495
 30
0.0
 10
35.3828
 20
-86.2398
 30
0.0
 10
38.0889
 20
-84.3519
 30
0.0
 10
38.0889
 20
-84.3519
 30
0.0
 10
38.0889
 20
-84.3519
 30
0.0
 10
43.3277
 20
-84.3519
 30
0.0
 10
43.3277
 20
-84.3519
 30
0.0
 10
43.3277
 20
-84.3519
 30
0.0
 10
44.8767
 20
-84.7025
 30
0.0
 10
46.0473
 20
-85.8093
 30
0.0
 10
46.8202
 20
-87.7121
 30
0.0
 10
46.8202
 20
-87.7121
 30
0.0
 10
48.2964
 20
-92.517
 30
0.0
 10
45.8793
 20
-94.9774
 30
0.0
 10
42.9308
 20
-94.6575
 30
0.0
 10
42.9308
 20
-94.6575
 30
0.0
 10
41.4921
 20
-94.4912
 30
0.0
 10
41.0093
 20
-92.7115
 30
0.0
 10
41.8196
 20
-91.3634
 30
0.0
 10
41.8196
 20
-91.3634
 30
0.0
 10
43.0035
 20
-94.1453
 30
0.0
 10
46.3486
 20
-93.3599
 30
0.0
 10
45.9735
 20
-90.0669
 30
0.0
 10
45.9735
 20
-90.0669
 30
0.0
 10
45.6283
 20
-87.1299
 30
0.0
 10
41.8649
 20
-86.3718
 30
0.0
 10
40.4702
 20
-88.4
 30
0.0
 10
40.4702
 20
-88.4
 30
0.0
 10
38.7125
 20
-91.0607
 30
0.0
 10
38.8811
 20
-95.0639
 30
0.0
 10
40.7348
 20
-96.708
 30
0.0
 10
40.7348
 20
-96.708
 30
0.0
 10
43.6374
 20
-99.0436
 30
0.0
 10
48.355
 20
-97.6318
 30
0.0
 10
49.3867
 20
-93.7976
 30
0.0
 10
49.3867
 20
-93.7976
 30
0.0
 10
50.2546
 20
-90.2346
 30
0.0
 10
49.8424
 20
-86.6714
 30
0.0
 10
46.5556
 20
-83.1083
 30
0.0
 10
46.5556
 20
-83.1083
 30
0.0
 10
46.5556
 20
-83.1083
 30
0.0
 10
47.0848
 20
26.2176
 30
0.0
 10
47.0848
 20
26.2176
 30
0.0
 10
47.0848
 20
26.2176
 30
0.0
 10
30.0903
 20
37.9044
 30
0.0
 10
13.5966
 20
54.2736
 30
0.0
 10
2.4759
 20
78.7638
 30
0.0
 10
2.4759
 20
78.7638
 30
0.0
 10
4.6287
 20
79.9904
 30
0.0
 10
5.6941
 20
81.9419
 30
0.0
 10
4.6716
 20
85.2857
 30
0.0
 10
4.6716
 20
85.2857
 30
0.0
 10
3.7674
 20
87.7903
 30
0.0
 10
1.0866
 20
88.258
 30
0.0
 10
0.2001
 20
85.4974
 30
0.0
 10
0.2001
 20
85.4974
 30
0.0
 10
-1.2772
 20
88.4008
 30
0.0
 10
0.3189
 20
92.2692
 30
0.0
 10
5.2798
 20
94.414
 30
0.0
 10
5.2798
 20
94.414
 30
0.0
 10
9.5734
 20
95.3006
 30
0.0
 10
13.0423
 20
93.0956
 30
0.0
 10
13.5878
 20
89.4663
 30
0.0
 10
13.5878
 20
89.4663
 30
0.0
 10
14.0695
 20
83.5904
 30
0.0
 10
12.2374
 20
80.4105
 30
0.0
 10
9.2221
 20
81.9521
 30
0.0
 10
9.2221
 20
81.9521
 30
0.0
 10
8.0974
 20
82.636
 30
0.0
 10
7.33
 20
85.3472
 30
0.0
 10
8.1638
 20
86.0796
 30
0.0
 10
8.1638
 20
86.0796
 30
0.0
 10
8.8977
 20
82.9311
 30
0.0
 10
12.4926
 20
83.83
 30
0.0
 10
12.7676
 20
86.7146
 30
0.0
 10
12.7676
 20
86.7146
 30
0.0
 10
13.5133
 20
91.7621
 30
0.0
 10
7.8502
 20
91.4567
 30
0.0
 10
6.1529
 20
88.064
 30
0.0
 10
6.1529
 20
88.064
 30
0.0
 10
4.2938
 20
84.2592
 30
0.0
 10
6.3182
 20
79.7682
 30
0.0
 10
8.5342
 20
78.777
 30
0.0
 10
8.5342
 20
78.777
 30
0.0
 10
14.1683
 20
77.0091
 30
0.0
 10
17.2673
 20
82.7674
 30
0.0
 10
16.6041
 20
89.2017
 30
0.0
 10
16.6041
 20
89.2017
 30
0.0
 10
15.2055
 20
95.9634
 30
0.0
 10
10.0208
 20
98.5795
 30
0.0
 10
5.6237
 20
97.6683
 30
0.0
 10
5.6237
 20
97.6683
 30
0.0
 10
2.4117
 20
96.8441
 30
0.0
 10
0.4571
 20
94.8502
 30
0.0
 10
-1.335
 20
91.7681
 30
0.0
 10
-1.335
 20
91.7681
 30
0.0
 10
-1.335
 20
91.7681
 30
0.0
 10
-2.4727
 20
91.6887
 30
0.0
 10
-2.4727
 20
91.6887
 30
0.0
 10
-2.4727
 20
91.6887
 30
0.0
 10
-5.1014
 20
96.4523
 30
0.0
 10
-8.6988
 20
98.2316
 30
0.0
 10
-13.6383
 20
97.1655
 30
0.0
 10
-13.6383
 20
97.1655
 30
0.0
 10
-19.4005
 20
95.4946
 30
0.0
 10
-21.8726
 20
88.6413
 30
0.0
 10
-20.3587
 20
83.0368
 30
0.0
 10
-20.3587
 20
83.0368
 30
0.0
 10
-17.8767
 20
75.5359
 30
0.0
 10
-8.4209
 20
77.5113
 30
0.0
 10
-9.1668
 20
84.8359
 30
0.0
 10
-9.1668
 20
84.8359
 30
0.0
 10
-9.5602
 20
88.0482
 30
0.0
 10
-11.066
 20
90.8581
 30
0.0
 10
-14.4321
 20
89.9689
 30
0.0
 10
-14.4321
 20
89.9689
 30
0.0
 10
-16.0923
 20
89.3428
 30
0.0
 10
-17.2522
 20
87.1201
 30
0.0
 10
-16.4958
 20
85.2593
 30
0.0
 10
-16.4958
 20
85.2593
 30
0.0
 10
-14.8656
 20
82.4298
 30
0.0
 10
-12.2964
 20
83.176
 30
0.0
 10
-11.945
 20
86.0001
 30
0.0
 10
-11.945
 20
86.0001
 30
0.0
 10
-11.2194
 20
82.4233
 30
0.0
 10
-12.6001
 20
80.8189
 30
0.0
 10
-14.9612
 20
81.1847
 30
0.0
 10
-14.9612
 20
81.1847
 30
0.0
 10
-16.386
 20
81.4434
 30
0.0
 10
-17.5056
 20
83.0858
 30
0.0
 10
-17.8716
 20
85.7884
 30
0.0
 10
-17.8716
 20
85.7884
 30
0.0
 10
-18.2772
 20
88.9774
 30
0.0
 10
-16.7695
 20
91.366
 30
0.0
 10
-14.5643
 20
93.0115
 30
0.0
 10
-14.5643
 20
93.0115
 30
0.0
 10
-11.1203
 20
95.2728
 30
0.0
 10
-7.5218
 20
94.3222
 30
0.0
 10
-4.5366
 20
90.2334
 30
0.0
 10
-4.5366
 20
90.2334
 30
0.0
 10
-3.7148
 20
88.8112
 30
0.0
 10
-3.4733
 20
87.3793
 30
0.0
 10
-3.5998
 20
85.9
 30
0.0
 10
-3.5998
 20
85.9
 30
0.0
 10
-3.5998
 20
85.9
 30
0.0
 10
-4.9201
 20
86.5423
 30
0.0
 10
-4.9201
 20
86.5423
 30
0.0
 10
-4.9201
 20
86.5423
 30
0.0
 10
-9.3686
 20
88.3612
 30
0.0
 10
-9.8449
 20
79.2631
 30
0.0
 10
-6.2563
 20
78.8825
 30
0.0
 10
-6.2563
 20
78.8825
 30
0.0
 10
-16.203
 20
55.5039
 30
0.0
 10
-31.4543
 20
38.7337
 30
0.0
 10
-49.78
 20
25.9391
 30
0.0
 10
-49.78
 20
25.9391
 30
0.0
 10
-49.78
 20
25.9391
 30
0.0
 10
-46.1284
 20
-82.976
 30
0.0
 10
-46.1284
 20
-82.976
 30
0.0
  0
SPLINE
  5
42
330
1F
100
AcDbEntity
  8
Camada 1
370
     9
100
AcDbSpline
210
0.0
220
0.0
230
1.0
 70
    11
 71
     3
 72
    20
 73
    16
 74
     0
 42
0.0000000001
 43
0.0000000001
 12
1.0
 22
0.0
 32
0.0
 13
1.0
 23
0.0
 33
0.0
 40
0.0
 40
0.0
 40
0.0
 40
0.0
 40
0.2
 40
0.2
 40
0.2
 40
0.2
 40
0.4
 40
0.4
 40
0.4
 40
0.4
 40
0.6
 40
0.6
 40
0.6
 40
0.6
 40
1.0
 40
1.0
 40
1.0
 40
1.0
 10
-4.7163
 20
82.391
 30
0.0
 10
-4.7163
 20
82.7855
 30
0.0
 10
-5.0362
 20
83.1053
 30
0.0
 10
-5.4307
 20
83.1053
 30
0.0
 10
-5.4307
 20
83.1053
 30
0.0
 10
-5.8253
 20
83.1053
 30
0.0
 10
-6.1451
 20
82.7855
 30
0.0
 10
-6.1451
 20
82.391
 30
0.0
 10
-6.1451
 20
82.391
 30
0.0
 10
-6.1452
 20
81.9965
 30
0.0
 10
-5.8253
 20
81.6767
 30
0.0
 10
-5.4308
 20
81.6767
 30
0.0
 10
-5.4308
 20
81.6767
 30
0.0
 10
-5.0362
 20
81.6767
 30
0.0
 10
-4.7163
 20
81.9965
 30
0.0
 10
-4.7163
 20
82.391
 30
0.0
  0
SPLINE
  5
43
330
1F
100
AcDbEntity
  8
Camada 1
370
     9
100
AcDbSpline
210
0.0
220
0.0
230
1.0
 70
    11
 71
     3
 72
    20
 73
    16
 74
     0
 42
0.0000000001
 43
0.0000000001
 12
1.0
 22
0.0
 32
0.0
 13
1.0
 23
0.0
 33
0.0
 40
0.0
 40
0.0
 40
0.0
 40
0.0
 40
0.2
 40
0.2
 40
0.2
 40
0.2
 40
0.4
 40
0.4
 40
0.4
 40
0.4
 40
0.6
 40
0.6
 40
0.6
 40
0.6
 40
1.0
 40
1.0
 40
1.0
 40
1.0
 10
2.8508
 20
82.7878
 30
0.0
 10
2.8508
 20
83.1823
 30
0.0
 10
2.5309
 20
83.5021
 30
0.0
 10
2.1364
 20
83.5021
 30
0.0
 10
2.1364
 20
83.5021
 30
0.0
 10
1.7418
 20
83.5021
 30
0.0
 10
1.422
 20
83.1823
 30
0.0
 10
1.422
 20
82.7878
 30
0.0
 10
1.422
 20
82.7878
 30
0.0
 10
1.4219
 20
82.3933
 30
0.0
 10
1.7418
 20
82.0735
 30
0.0
 10
2.1363
 20
82.0735
 30
0.0
 10
2.1363
 20
82.0735
 30
0.0
 10
2.5309
 20
82.0735
 30
0.0
 10
2.8508
 20
82.3933
 30
0.0
 10
2.8508
 20
82.7878
 30
0.0
  0
SPLINE
  5
44
330
1F
100
AcDbEntity
  8
Camada 1
370
     9
100
AcDbSpline
210
0.0
220
0.0
230
1.0
 70
    11
 71
     3
 72
    20
 73
    16
 74
     0
 42
0.0000000001
 43
0.0000000001
 12
1.0
 22
0.0
 32
0.0
 13
1.0
 23
0.0
 33
0.0
 40
0.0
 40
0.0
 40
0.0
 40
0.0
 40
0.2
 40
0.2
 40
0.2
 40
0.2
 40
0.4
 40
0.4
 40
0.4
 40
0.4
 40
0.6
 40
0.6
 40
0.6
 40
0.6
 40
1.0
 40
1.0
 40
1.0
 40
1.0
 10
-1.1972
 20
89.3494
 30
0.0
 10
-1.1972
 20
89.7439
 30
0.0
 10
-1.517
 20
90.0637
 30
0.0
 10
-1.9115
 20
90.0637
 30
0.0
 10
-1.9115
 20
90.0637
 30
0.0
 10
-2.3061
 20
90.0637
 30
0.0
 10
-2.6259
 20
89.7439
 30
0.0
 10
-2.6259
 20
89.3494
 30
0.0
 10
-2.6259
 20
89.3494
 30
0.0
 10
-2.626
 20
88.9549
 30
0.0
 10
-2.3061
 20
88.6351
 30
0.0
 10
-1.9116
 20
88.6351
 30
0.0
 10
-1.9116
 20
88.6351
 30
0.0
 10
-1.517
 20
88.6351
 30
0.0
 10
-1.1972
 20
88.9549
 30
0.0
 10
-1.1972
 20
89.3494
 30
0.0
  0
SPLINE
  5
45
330
1F
100
AcDbEntity
  8
Camada 1
370
     9
100
AcDbSpline
210
0.0
220
0.0
230
1.0
 70
    11
 71
     3
 72
    88
 73
    84
 74
     0
 42
0.0000000001
 43
0.0000000001
 12
1.0
 22
0.0
 32
0.0
 13
1.0
 23
0.0
 33
0.0
 40
0.0
 40
0.0
 40
0.0
 40
0.0
 40
0.0454545454545455
 40
0.0454545454545455
 40
0.0454545454545455
 40
0.0454545454545455
 40
0.0909090909090909
 40
0.0909090909090909
 40
0.0909090909090909
 40
0.0909090909090909
 40
0.1363636363636364
 40
0.1363636363636364
 40
0.1363636363636364
 40
0.1363636363636364
 40
0.1818181818181818
 40
0.1818181818181818
 40
0.1818181818181818
 40
0.1818181818181818
 40
0.2272727272727273
 40
0.2272727272727273
 40
0.2272727272727273
 40
0.2272727272727273
 40
0.2727272727272727
 40
0.2727272727272727
 40
0.2727272727272727
 40
0.2727272727272727
 40
0.3181818181818182
 40
0.3181818181818182
 40
0.3181818181818182
 40
0.3181818181818182
 40
0.3636363636363636
 40
0.3636363636363636
 40
0.3636363636363636
 40
0.3636363636363636
 40
0.4090909090909091
 40
0.4090909090909091
 40
0.4090909090909091
 40
0.4090909090909091
 40
0.4545454545454545
 40
0.4545454545454545
 40
0.4545454545454545
 40
0.4545454545454545
 40
0.5
 40
0.5
 40
0.5
 40
0.5
 40
0.5454545454545454
 40
0.5454545454545454
 40
0.5454545454545454
 40
0.5454545454545454
 40
0.5909090909090909
 40
0.5909090909090909
 40
0.5909090909090909
 40
0.5909090909090909
 40
0.6363636363636364
 40
0.6363636363636364
 40
0.6363636363636364
 40
0.6363636363636364
 40
0.6818181818181818
 40
0.6818181818181818
 40
0.6818181818181818
 40
0.6818181818181818
 40
0.7272727272727273
 40
0.7272727272727273
 40
0.7272727272727273
 40
0.7272727272727273
 40
0.7727272727272727
 40
0.7727272727272727
 40
0.7727272727272727
 40
0.7727272727272727
 40
0.8181818181818182
 40
0.8181818181818182
 40
0.8181818181818182
 40
0.8181818181818182
 40
0.8636363636363636
 40
0.8636363636363636
 40
0.8636363636363636
 40
0.8636363636363636
 40
0.9090909090909091
 40
0.9090909090909091
 40
0.9090909090909091
 40
0.9090909090909091
 40
1.0
 40
1.0
 40
1.0
 40
1.0
 10
-41.7675
 20
-72.2582
 30
0.0
 10
-41.7675
 20
-72.2582
 30
0.0
 10
-26.101
 20
-72.2051
 30
0.0
 10
-26.101
 20
-72.2051
 30
0.0
 10
-26.101
 20
-72.2051
 30
0.0
 10
-26.101
 20
-72.2051
 30
0.0
 10
-26.4592
 20
-36.7527
 30
0.0
 10
-26.4592
 20
-36.7527
 30
0.0
 10
-26.4592
 20
-36.7527
 30
0.0
 10
-29.5532
 20
-34.7657
 30
0.0
 10
-29.4179
 20
-30.0978
 30
0.0
 10
-26.7458
 20
-27.465
 30
0.0
 10
-26.7458
 20
-27.465
 30
0.0
 10
-26.7458
 20
-27.465
 30
0.0
 10
-27.2047
 20
15.6536
 30
0.0
 10
-27.2047
 20
15.6536
 30
0.0
 10
-27.2047
 20
15.6536
 30
0.0
 10
-28.4978
 20
13.3671
 30
0.0
 10
-30.599
 20
14.812
 30
0.0
 10
-31.0465
 20
16.6765
 30
0.0
 10
-31.0465
 20
16.6765
 30
0.0
 10
-32.023
 20
14.2272
 30
0.0
 10
-34.4574
 20
13.3642
 30
0.0
 10
-35.6819
 20
15.1906
 30
0.0
 10
-35.6819
 20
15.1906
 30
0.0
 10
-36.6831
 20
17.0762
 30
0.0
 10
-36.3533
 20
19.196
 30
0.0
 10
-34.8456
 20
20.0201
 30
0.0
 10
-34.8456
 20
20.0201
 30
0.0
 10
-32.4248
 20
20.5976
 30
0.0
 10
-33.1669
 20
17.1961
 30
0.0
 10
-34.7369
 20
17.615
 30
0.0
 10
-34.7369
 20
17.615
 30
0.0
 10
-35.6881
 20
17.6358
 30
0.0
 10
-35.1766
 20
15.4881
 30
0.0
 10
-33.7226
 20
15.509
 30
0.0
 10
-33.7226
 20
15.509
 30
0.0
 10
-32.32
 20
15.6457
 30
0.0
 10
-31.7563
 20
17.1412
 30
0.0
 10
-31.8828
 20
19.7547
 30
0.0
 10
-31.8828
 20
19.7547
 30
0.0
 10
-32.01
 20
21.1201
 30
0.0
 10
-32.2681
 20
22.4933
 30
0.0
 10
-33.1879
 20
23.7668
 30
0.0
 10
-33.1879
 20
23.7668
 30
0.0
 10
-33.1879
 20
23.7668
 30
0.0
 10
-42.9958
 20
23.7671
 30
0.0
 10
-42.9958
 20
23.7671
 30
0.0
 10
-42.9958
 20
23.7671
 30
0.0
 10
-43.5578
 20
21.8597
 30
0.0
 10
-43.7774
 20
18.8584
 30
0.0
 10
-43.28
 20
17.287
 30
0.0
 10
-43.28
 20
17.287
 30
0.0
 10
-42.8583
 20
16.1562
 30
0.0
 10
-41.161
 20
14.7471
 30
0.0
 10
-39.3615
 20
15.403
 30
0.0
 10
-39.3615
 20
15.403
 30
0.0
 10
-37.766
 20
15.9544
 30
0.0
 10
-37.4922
 20
18.7258
 30
0.0
 10
-38.7641
 20
20.7102
 30
0.0
 10
-38.7641
 20
20.7102
 30
0.0
 10
-38.7514
 20
18.0249
 30
0.0
 10
-41.3572
 20
17.6008
 30
0.0
 10
-41.6314
 20
20.1529
 30
0.0
 10
-41.6314
 20
20.1529
 30
0.0
 10
-41.8144
 20
21.9391
 30
0.0
 10
-40.732
 20
23.0109
 30
0.0
 10
-39.3137
 20
22.6472
 30
0.0
 10
-39.3137
 20
22.6472
 30
0.0
 10
-37.3287
 20
21.7492
 30
0.0
 10
-36.5917
 20
19.9273
 30
0.0
 10
-36.7093
 20
17.4728
 30
0.0
 10
-36.7093
 20
17.4728
 30
0.0
 10
-36.7599
 20
14.4283
 30
0.0
 10
-39.7013
 20
12.7598
 30
0.0
 10
-42.3243
 20
14.2354
 30
0.0
 10
-42.3243
 20
14.2354
 30
0.0
 10
-43.1239
 20
14.7768
 30
0.0
 10
-43.8399
 20
15.511
 30
0.0
 10
-44.403
 20
16.5971
 30
0.0
 10
-44.403
 20
16.5971
 30
0.0
 10
-44.403
 20
16.5971
 30
0.0
 10
-41.7675
 20
-72.2582
 30
0.0
 10
-41.7675
 20
-72.2582
 30
0.0
  0
SPLINE
  5
46
330
1F
100
AcDbEntity
  8
Camada 1
370
     9
100
AcDbSpline
210
0.0
220
0.0
230
1.0
 70
    11
 71
     3
 72
    12
 73
     8
 74
     0
 42
0.0000000001
 43
0.0000000001
 12
1.0
 22
0.0
 32
0.0
 13
1.0
 23
0.0
 33
0.0
 40
0.0
 40
0.0
 40
0.0
 40
0.0
 40
0.3333333333333333
 40
0.3333333333333333
 40
0.3333333333333333
 40
0.3333333333333333
 40
1.0
 40
1.0
 40
1.0
 40
1.0
 10
-26.8006
 20
-30.6328
 30
0.0
 10
-27.7279
 20
-31.8788
 30
0.0
 10
-27.8842
 20
-33.1075
 30
0.0
 10
-26.7614
 20
-34.3072
 30
0.0
 10
-26.7614
 20
-34.3072
 30
0.0
 10
-26.7614
 20
-34.3072
 30
0.0
 10
-26.8006
 20
-30.6328
 30
0.0
 10
-26.8006
 20
-30.6328
 30
0.0
  0
SPLINE
  5
47
330
1F
100
AcDbEntity
  8
Camada 1
370
     9
100
AcDbSpline
210
0.0
220
0.0
230
1.0
 70
    11
 71
     3
 72
    28
 73
    24
 74
     0
 42
0.0000000001
 43
0.0000000001
 12
1.0
 22
0.0
 32
0.0
 13
1.0
 23
0.0
 33
0.0
 40
0.0
 40
0.0
 40
0.0
 40
0.0
 40
0.1428571428571428
 40
0.1428571428571428
 40
0.1428571428571428
 40
0.1428571428571428
 40
0.2857142857142857
 40
0.2857142857142857
 40
0.2857142857142857
 40
0.2857142857142857
 40
0.4285714285714285
 40
0.4285714285714285
 40
0.4285714285714285
 40
0.4285714285714285
 40
0.5714285714285714
 40
0.5714285714285714
 40
0.5714285714285714
 40
0.5714285714285714
 40
0.7142857142857143
 40
0.7142857142857143
 40
0.7142857142857143
 40
0.7142857142857143
 40
1.0
 40
1.0
 40
1.0
 40
1.0
 10
-3.0494
 20
-72.2307
 30
0.0
 10
-3.0494
 20
-72.2307
 30
0.0
 10
-3.0265
 20
-50.7374
 30
0.0
 10
-3.0265
 20
-50.7374
 30
0.0
 10
-3.0265
 20
-50.7374
 30
0.0
 10
-3.0265
 20
-50.7374
 30
0.0
 10
-19.7465
 20
-50.7466
 30
0.0
 10
-19.7465
 20
-50.7466
 30
0.0
 10
-19.7465
 20
-50.7466
 30
0.0
 10
-19.7465
 20
-50.7466
 30
0.0
 10
-20.2234
 20
-25.963
 30
0.0
 10
-20.2234
 20
-25.963
 30
0.0
 10
-20.2234
 20
-25.963
 30
0.0
 10
-20.8121
 20
-26.2649
 30
0.0
 10
-21.3267
 20
-26.7015
 30
0.0
 10
-21.7218
 20
-27.3562
 30
0.0
 10
-21.7218
 20
-27.3562
 30
0.0
 10
-21.7218
 20
-27.3562
 30
0.0
 10
-20.8826
 20
-72.1248
 30
0.0
 10
-20.8826
 20
-72.1248
 30
0.0
 10
-20.8826
 20
-72.1248
 30
0.0
 10
-20.8826
 20
-72.1248
 30
0.0
 10
-3.0494
 20
-72.2307
 30
0.0
 10
-3.0494
 20
-72.2307
 30
0.0
  0
SPLINE
  5
48
330
1F
100
AcDbEntity
  8
Camada 1
370
     9
100
AcDbSpline
210
0.0
220
0.0
230
1.0
 70
    11
 71
     3
 72
    88
 73
    84
 74
     0
 42
0.0000000001
 43
0.0000000001
 12
1.0
 22
0.0
 32
0.0
 13
1.0
 23
0.0
 33
0.0
 40
0.0
 40
0.0
 40
0.0
 40
0.0
 40
0.0454545454545455
 40
0.0454545454545455
 40
0.0454545454545455
 40
0.0454545454545455
 40
0.0909090909090909
 40
0.0909090909090909
 40
0.0909090909090909
 40
0.0909090909090909
 40
0.1363636363636364
 40
0.1363636363636364
 40
0.1363636363636364
 40
0.1363636363636364
 40
0.1818181818181818
 40
0.1818181818181818
 40
0.1818181818181818
 40
0.1818181818181818
 40
0.2272727272727273
 40
0.2272727272727273
 40
0.2272727272727273
 40
0.2272727272727273
 40
0.2727272727272727
 40
0.2727272727272727
 40
0.2727272727272727
 40
0.2727272727272727
 40
0.3181818181818182
 40
0.3181818181818182
 40
0.3181818181818182
 40
0.3181818181818182
 40
0.3636363636363636
 40
0.3636363636363636
 40
0.3636363636363636
 40
0.3636363636363636
 40
0.4090909090909091
 40
0.4090909090909091
 40
0.4090909090909091
 40
0.4090909090909091
 40
0.4545454545454545
 40
0.4545454545454545
 40
0.4545454545454545
 40
0.4545454545454545
 40
0.5
 40
0.5
 40
0.5
 40
0.5
 40
0.5454545454545454
 40
0.5454545454545454
 40
0.5454545454545454
 40
0.5454545454545454
 40
0.5909090909090909
 40
0.5909090909090909
 40
0.5909090909090909
 40
0.5909090909090909
 40
0.6363636363636364
 40
0.6363636363636364
 40
0.6363636363636364
 40
0.6363636363636364
 40
0.6818181818181818
 40
0.6818181818181818
 40
0.6818181818181818
 40
0.6818181818181818
 40
0.7272727272727273
 40
0.7272727272727273
 40
0.7272727272727273
 40
0.7272727272727273
 40
0.7727272727272727
 40
0.7727272727272727
 40
0.7727272727272727
 40
0.7727272727272727
 40
0.8181818181818182
 40
0.8181818181818182
 40
0.8181818181818182
 40
0.8181818181818182
 40
0.8636363636363636
 40
0.8636363636363636
 40
0.8636363636363636
 40
0.8636363636363636
 40
0.9090909090909091
 40
0.9090909090909091
 40
0.9090909090909091
 40
0.9090909090909091
 40
1.0
 40
1.0
 40
1.0
 40
1.0
 10
-22.3104
 20
15.5056
 30
0.0
 10
-22.1774
 20
2.2344
 30
0.0
 10
-22.0444
 20
-11.0368
 30
0.0
 10
-21.9114
 20
-24.308
 30
0.0
 10
-21.9114
 20
-24.308
 30
0.0
 10
-21.4764
 20
-23.7894
 30
0.0
 10
-20.9903
 20
-23.4245
 30
0.0
 10
-20.4263
 20
-23.294
 30
0.0
 10
-20.4263
 20
-23.294
 30
0.0
 10
-20.4263
 20
-23.294
 30
0.0
 10
-20.7866
 20
-4.2593
 30
0.0
 10
-20.7866
 20
-4.2593
 30
0.0
 10
-20.7866
 20
-4.2593
 30
0.0
 10
-20.7866
 20
-4.2593
 30
0.0
 10
-2.9107
 20
-4.127
 30
0.0
 10
-2.9107
 20
-4.127
 30
0.0
 10
-2.9107
 20
-4.127
 30
0.0
 10
-2.9107
 20
-4.127
 30
0.0
 10
-2.9861
 20
15.2065
 30
0.0
 10
-2.9861
 20
15.2065
 30
0.0
 10
-2.9861
 20
15.2065
 30
0.0
 10
-4.1669
 20
13.6026
 30
0.0
 10
-5.1415
 20
14.0329
 30
0.0
 10
-6.0318
 20
15.1631
 30
0.0
 10
-6.0318
 20
15.1631
 30
0.0
 10
-7.8375
 20
17.6667
 30
0.0
 10
-6.1534
 20
21.2816
 30
0.0
 10
-4.1083
 20
19.4162
 30
0.0
 10
-4.1083
 20
19.4162
 30
0.0
 10
-3.0052
 20
18.2941
 30
0.0
 10
-4.4953
 20
17.0944
 30
0.0
 10
-5.7172
 20
17.8882
 30
0.0
 10
-5.7172
 20
17.8882
 30
0.0
 10
-6.1458
 20
16.6485
 30
0.0
 10
-5.4296
 20
15.1635
 30
0.0
 10
-3.7092
 20
15.6656
 30
0.0
 10
-3.7092
 20
15.6656
 30
0.0
 10
-3.0981
 20
15.8704
 30
0.0
 10
-3.1134
 20
16.5058
 30
0.0
 10
-2.9298
 20
17.2664
 30
0.0
 10
-2.9298
 20
17.2664
 30
0.0
 10
-2.9298
 20
17.2664
 30
0.0
 10
-2.9439
 20
21.6982
 30
0.0
 10
-2.9439
 20
21.6982
 30
0.0
 10
-2.9439
 20
21.6982
 30
0.0
 10
-3.4061
 20
22.1444
 30
0.0
 10
-3.5803
 20
23.0799
 30
0.0
 10
-3.4008
 20
23.7732
 30
0.0
 10
-3.4008
 20
23.7732
 30
0.0
 10
-3.4008
 20
23.7732
 30
0.0
 10
-13.3427
 20
23.732
 30
0.0
 10
-13.3427
 20
23.732
 30
0.0
 10
-13.3427
 20
23.732
 30
0.0
 10
-14.4563
 20
21.3795
 30
0.0
 10
-14.7299
 20
17.7513
 30
0.0
 10
-12.4685
 20
15.8839
 30
0.0
 10
-12.4685
 20
15.8839
 30
0.0
 10
-10.6296
 20
14.6846
 30
0.0
 10
-8.1364
 20
15.8638
 30
0.0
 10
-8.2772
 20
18.8274
 30
0.0
 10
-8.2772
 20
18.8274
 30
0.0
 10
-8.4007
 20
19.7895
 30
0.0
 10
-8.8541
 20
20.6094
 30
0.0
 10
-9.7529
 20
20.8647
 30
0.0
 10
-9.7529
 20
20.8647
 30
0.0
 10
-8.993
 20
17.6447
 30
0.0
 10
-12.3838
 20
17.4963
 30
0.0
 10
-12.2205
 20
20.7059
 30
0.0
 10
-12.2205
 20
20.7059
 30
0.0
 10
-12.0913
 20
22.3041
 30
0.0
 10
-10.2813
 20
23.1826
 30
0.0
 10
-9.1239
 20
22.3993
 30
0.0
 10
-9.1239
 20
22.3993
 30
0.0
 10
-6.3302
 20
20.36
 30
0.0
 10
-6.8851
 20
16.4828
 30
0.0
 10
-8.0715
 20
15.0967
 30
0.0
 10
-8.0715
 20
15.0967
 30
0.0
 10
-9.8709
 20
12.9114
 30
0.0
 10
-14.0414
 20
13.5291
 30
0.0
 10
-14.8817
 20
17.0282
 30
0.0
 10
-14.8817
 20
17.0282
 30
0.0
 10
-16.4877
 20
12.9851
 30
0.0
 10
-19.5675
 20
13.0356
 30
0.0
 10
-22.3104
 20
15.5056
 30
0.0
  0
SPLINE
  5
49
330
1F
100
AcDbEntity
  8
Camada 1
370
     9
100
AcDbSpline
210
0.0
220
0.0
230
1.0
 70
    11
 71
     3
 72
    72
 73
    68
 74
     0
 42
0.0000000001
 43
0.0000000001
 12
1.0
 22
0.0
 32
0.0
 13
1.0
 23
0.0
 33
0.0
 40
0.0
 40
0.0
 40
0.0
 40
0.0
 40
0.0555555555555556
 40
0.0555555555555556
 40
0.0555555555555556
 40
0.0555555555555556
 40
0.1111111111111111
 40
0.1111111111111111
 40
0.1111111111111111
 40
0.1111111111111111
 40
0.1666666666666667
 40
0.1666666666666667
 40
0.1666666666666667
 40
0.1666666666666667
 40
0.2222222222222222
 40
0.2222222222222222
 40
0.2222222222222222
 40
0.2222222222222222
 40
0.2777777777777778
 40
0.2777777777777778
 40
0.2777777777777778
 40
0.2777777777777778
 40
0.3333333333333333
 40
0.3333333333333333
 40
0.3333333333333333
 40
0.3333333333333333
 40
0.3888888888888889
 40
0.3888888888888889
 40
0.3888888888888889
 40
0.3888888888888889
 40
0.4444444444444444
 40
0.4444444444444444
 40
0.4444444444444444
 40
0.4444444444444444
 40
0.5
 40
0.5
 40
0.5
 40
0.5
 40
0.5555555555555556
 40
0.5555555555555556
 40
0.5555555555555556
 40
0.5555555555555556
 40
0.6111111111111112
 40
0.6111111111111112
 40
0.6111111111111112
 40
0.6111111111111112
 40
0.6666666666666666
 40
0.6666666666666666
 40
0.6666666666666666
 40
0.6666666666666666
 40
0.7222222222222222
 40
0.7222222222222222
 40
0.7222222222222222
 40
0.7222222222222222
 40
0.7777777777777778
 40
0.7777777777777778
 40
0.7777777777777778
 40
0.7777777777777778
 40
0.8333333333333334
 40
0.8333333333333334
 40
0.8333333333333334
 40
0.8333333333333334
 40
0.8888888888888888
 40
0.8888888888888888
 40
0.8888888888888888
 40
0.8888888888888888
 40
1.0
 40
1.0
 40
1.0
 40
1.0
 10
-3.0136
 20
-48.6876
 30
0.0
 10
-3.0136
 20
-48.6876
 30
0.0
 10
-17.3287
 20
-48.8069
 30
0.0
 10
-17.3287
 20
-48.8069
 30
0.0
 10
-17.3287
 20
-48.8069
 30
0.0
 10
-17.3287
 20
-48.8069
 30
0.0
 10
-17.5102
 20
-33.8579
 30
0.0
 10
-17.5102
 20
-33.8579
 30
0.0
 10
-17.5102
 20
-33.8579
 30
0.0
 10
-17.4739
 20
-33.4037
 30
0.0
 10
-17.117
 20
-33.2802
 30
0.0
 10
-16.7118
 20
-33.7256
 30
0.0
 10
-16.7118
 20
-33.7256
 30
0.0
 10
-14.9131
 20
-35.3669
 30
0.0
 10
-12.5488
 20
-34.4502
 30
0.0
 10
-11.6858
 20
-32.0985
 30
0.0
 10
-11.6858
 20
-32.0985
 30
0.0
 10
-10.2037
 20
-27.1909
 30
0.0
 10
-13.0234
 20
-22.0533
 30
0.0
 10
-17.7761
 20
-22.8776
 30
0.0
 10
-17.7761
 20
-22.8776
 30
0.0
 10
-17.7761
 20
-22.8776
 30
0.0
 10
-17.9939
 20
-7.5051
 30
0.0
 10
-17.9939
 20
-7.5051
 30
0.0
 10
-17.9939
 20
-7.5051
 30
0.0
 10
-17.9939
 20
-7.5051
 30
0.0
 10
-3.0349
 20
-7.5041
 30
0.0
 10
-3.0349
 20
-7.5041
 30
0.0
 10
-3.0349
 20
-7.5041
 30
0.0
 10
-3.0349
 20
-7.5041
 30
0.0
 10
-2.8938
 20
-33.9824
 30
0.0
 10
-2.8938
 20
-33.9824
 30
0.0
 10
-2.8938
 20
-33.9824
 30
0.0
 10
-4.8102
 20
-35.3122
 30
0.0
 10
-8.2282
 20
-38.7488
 30
0.0
 10
-8.6629
 20
-40.6829
 30
0.0
 10
-8.6629
 20
-40.6829
 30
0.0
 10
-10.6354
 20
-41.2471
 30
0.0
 10
-12.1992
 20
-43.2781
 30
0.0
 10
-13.6468
 20
-44.7571
 30
0.0
 10
-13.6468
 20
-44.7571
 30
0.0
 10
-13.6468
 20
-44.7571
 30
0.0
 10
-12.7555
 20
-44.9535
 30
0.0
 10
-12.7555
 20
-44.9535
 30
0.0
 10
-12.7555
 20
-44.9535
 30
0.0
 10
-12.7555
 20
-44.9535
 30
0.0
 10
-12.0517
 20
-44.4896
 30
0.0
 10
-12.0517
 20
-44.4896
 30
0.0
 10
-12.0517
 20
-44.4896
 30
0.0
 10
-12.0517
 20
-44.4896
 30
0.0
 10
-12.7482
 20
-44.9922
 30
0.0
 10
-12.7482
 20
-44.9922
 30
0.0
 10
-12.7482
 20
-44.9922
 30
0.0
 10
-12.7482
 20
-44.9922
 30
0.0
 10
-11.731
 20
-46.2218
 30
0.0
 10
-11.731
 20
-46.2218
 30
0.0
 10
-11.731
 20
-46.2218
 30
0.0
 10
-10.3739
 20
-45.8539
 30
0.0
 10
-9.3749
 20
-45.6718
 30
0.0
 10
-8.4696
 20
-44.8099
 30
0.0
 10
-8.4696
 20
-44.8099
 30
0.0
 10
-6.5555
 20
-45.375
 30
0.0
 10
-4.7226
 20
-45.3913
 30
0.0
 10
-3.0021
 20
-44.6512
 30
0.0
 10
-3.0021
 20
-44.6512
 30
0.0
 10
-3.0021
 20
-44.6512
 30
0.0
 10
-3.0136
 20
-48.6876
 30
0.0
 10
-3.0136
 20
-48.6876
 30
0.0
  0
SPLINE
  5
4A
330
1F
100
AcDbEntity
  8
Camada 1
370
     9
100
AcDbSpline
210
0.0
220
0.0
230
1.0
 70
    11
 71
     3
 72
    60
 73
    56
 74
     0
 42
0.0000000001
 43
0.0000000001
 12
1.0
 22
0.0
 32
0.0
 13
1.0
 23
0.0
 33
0.0
 40
0.0
 40
0.0
 40
0.0
 40
0.0
 40
0.0666666666666667
 40
0.0666666666666667
 40
0.0666666666666667
 40
0.0666666666666667
 40
0.1333333333333333
 40
0.1333333333333333
 40
0.1333333333333333
 40
0.1333333333333333
 40
0.2
 40
0.2
 40
0.2
 40
0.2
 40
0.2666666666666667
 40
0.2666666666666667
 40
0.2666666666666667
 40
0.2666666666666667
 40
0.3333333333333333
 40
0.3333333333333333
 40
0.3333333333333333
 40
0.3333333333333333
 40
0.4
 40
0.4
 40
0.4
 40
0.4
 40
0.4666666666666667
 40
0.4666666666666667
 40
0.4666666666666667
 40
0.4666666666666667
 40
0.5333333333333333
 40
0.5333333333333333
 40
0.5333333333333333
 40
0.5333333333333333
 40
0.6
 40
0.6
 40
0.6
 40
0.6
 40
0.6666666666666666
 40
0.6666666666666666
 40
0.6666666666666666
 40
0.6666666666666666
 40
0.7333333333333333
 40
0.7333333333333333
 40
0.7333333333333333
 40
0.7333333333333333
 40
0.8
 40
0.8
 40
0.8
 40
0.8
 40
0.8666666666666667
 40
0.8666666666666667
 40
0.8666666666666667
 40
0.8666666666666667
 40
1.0
 40
1.0
 40
1.0
 40
1.0
 10
1.9652
 20
-7.5041
 30
0.0
 10
1.9652
 20
-7.5041
 30
0.0
 10
2.0032
 20
-30.4313
 30
0.0
 10
2.0032
 20
-30.4313
 30
0.0
 10
2.0032
 20
-30.4313
 30
0.0
 10
2.0032
 20
-30.4313
 30
0.0
 10
2.8763
 20
-30.4049
 30
0.0
 10
2.8763
 20
-30.4049
 30
0.0
 10
2.8763
 20
-30.4049
 30
0.0
 10
5.8881
 20
-26.0726
 30
0.0
 10
6.8826
 20
-26.241
 30
0.0
 10
7.7425
 20
-24.5455
 30
0.0
 10
7.7425
 20
-24.5455
 30
0.0
 10
9.1855
 20
-21.4254
 30
0.0
 10
10.6767
 20
-20.0901
 30
0.0
 10
13.4315
 20
-21.5028
 30
0.0
 10
13.4315
 20
-21.5028
 30
0.0
 10
14.5163
 20
-22.1226
 30
0.0
 10
15.0588
 20
-22.6417
 30
0.0
 10
15.9981
 20
-23.8181
 30
0.0
 10
15.9981
 20
-23.8181
 30
0.0
 10
17.129
 20
-23.7837
 30
0.0
 10
18.0993
 20
-24.0506
 30
0.0
 10
18.9481
 20
-24.5456
 30
0.0
 10
18.9481
 20
-24.5456
 30
0.0
 10
15.8819
 20
-25.3365
 30
0.0
 10
14.7556
 20
-27.2294
 30
0.0
 10
14.7941
 20
-29.7844
 30
0.0
 10
14.7941
 20
-29.7844
 30
0.0
 10
15.219
 20
-34.6459
 30
0.0
 10
14.8907
 20
-39.1332
 30
0.0
 10
10.0564
 20
-42.9872
 30
0.0
 10
10.0564
 20
-42.9872
 30
0.0
 10
10.0564
 20
-42.9872
 30
0.0
 10
7.4901
 20
-44.416
 30
0.0
 10
7.4901
 20
-44.416
 30
0.0
 10
7.4901
 20
-44.416
 30
0.0
 10
7.4901
 20
-44.416
 30
0.0
 10
11.1678
 20
-47.9416
 30
0.0
 10
11.1678
 20
-47.9416
 30
0.0
 10
11.1678
 20
-47.9416
 30
0.0
 10
11.8687
 20
-47.919
 30
0.0
 10
12.3631
 20
-48.2222
 30
0.0
 10
12.7818
 20
-48.8346
 30
0.0
 10
12.7818
 20
-48.8346
 30
0.0
 10
12.7818
 20
-48.8346
 30
0.0
 10
21.7003
 20
-48.5963
 30
0.0
 10
21.7003
 20
-48.5963
 30
0.0
 10
21.7003
 20
-48.5963
 30
0.0
 10
21.7003
 20
-48.5963
 30
0.0
 10
21.5417
 20
-7.5036
 30
0.0
 10
21.5417
 20
-7.5036
 30
0.0
 10
21.5417
 20
-7.5036
 30
0.0
 10
21.5417
 20
-7.5036
 30
0.0
 10
1.9652
 20
-7.5041
 30
0.0
 10
1.9652
 20
-7.5041
 30
0.0
  0
SPLINE
  5
4B
330
1F
100
AcDbEntity
  8
Camada 1
370
     9
100
AcDbSpline
210
0.0
220
0.0
230
1.0
 70
    11
 71
     3
 72
    16
 73
    12
 74
     0
 42
0.0000000001
 43
0.0000000001
 12
1.0
 22
0.0
 32
0.0
 13
1.0
 23
0.0
 33
0.0
 40
0.0
 40
0.0
 40
0.0
 40
0.0
 40
0.25
 40
0.25
 40
0.25
 40
0.25
 40
0.5
 40
0.5
 40
0.5
 40
0.5
 40
1.0
 40
1.0
 40
1.0
 40
1.0
 10
2.019
 20
-43.3431
 30
0.0
 10
2.019
 20
-43.3431
 30
0.0
 10
2.019
 20
-48.5555
 30
0.0
 10
2.019
 20
-48.5555
 30
0.0
 10
2.019
 20
-48.5555
 30
0.0
 10
2.019
 20
-48.5555
 30
0.0
 10
4.7139
 20
-48.5509
 30
0.0
 10
4.7139
 20
-48.5509
 30
0.0
 10
4.7139
 20
-48.5509
 30
0.0
 10
3.9534
 20
-46.7996
 30
0.0
 10
3.097
 20
-45.059
 30
0.0
 10
2.019
 20
-43.3431
 30
0.0
  0
SPLINE
  5
4C
330
1F
100
AcDbEntity
  8
Camada 1
370
     9
100
AcDbSpline
210
0.0
220
0.0
230
1.0
 70
    11
 71
     3
 72
    20
 73
    16
 74
     0
 42
0.0000000001
 43
0.0000000001
 12
1.0
 22
0.0
 32
0.0
 13
1.0
 23
0.0
 33
0.0
 40
0.0
 40
0.0
 40
0.0
 40
0.0
 40
0.2
 40
0.2
 40
0.2
 40
0.2
 40
0.4
 40
0.4
 40
0.4
 40
0.4
 40
0.6
 40
0.6
 40
0.6
 40
0.6
 40
1.0
 40
1.0
 40
1.0
 40
1.0
 10
3.6724
 20
-43.9383
 30
0.0
 10
3.6724
 20
-43.9383
 30
0.0
 10
5.6568
 20
-48.542
 30
0.0
 10
5.6568
 20
-48.542
 30
0.0
 10
5.6568
 20
-48.542
 30
0.0
 10
5.6568
 20
-48.542
 30
0.0
 10
10.4458
 20
-48.4891
 30
0.0
 10
10.4458
 20
-48.4891
 30
0.0
 10
10.4458
 20
-48.4891
 30
0.0
 10
10.4458
 20
-48.4891
 30
0.0
 10
6.0007
 20
-44.441
 30
0.0
 10
6.0007
 20
-44.441
 30
0.0
 10
6.0007
 20
-44.441
 30
0.0
 10
5.5737
 20
-44.0665
 30
0.0
 10
4.4654
 20
-43.9025
 30
0.0
 10
3.6724
 20
-43.9383
 30
0.0
  0
SPLINE
  5
4D
330
1F
100
AcDbEntity
  8
Camada 1
370
     9
100
AcDbSpline
210
0.0
220
0.0
230
1.0
 70
    11
 71
     3
 72
    52
 73
    48
 74
     0
 42
0.0000000001
 43
0.0000000001
 12
1.0
 22
0.0
 32
0.0
 13
1.0
 23
0.0
 33
0.0
 40
0.0
 40
0.0
 40
0.0
 40
0.0
 40
0.0769230769230769
 40
0.0769230769230769
 40
0.0769230769230769
 40
0.0769230769230769
 40
0.1538461538461539
 40
0.1538461538461539
 40
0.1538461538461539
 40
0.1538461538461539
 40
0.2307692307692308
 40
0.2307692307692308
 40
0.2307692307692308
 40
0.2307692307692308
 40
0.3076923076923077
 40
0.3076923076923077
 40
0.3076923076923077
 40
0.3076923076923077
 40
0.3846153846153846
 40
0.3846153846153846
 40
0.3846153846153846
 40
0.3846153846153846
 40
0.4615384615384616
 40
0.4615384615384616
 40
0.4615384615384616
 40
0.4615384615384616
 40
0.5384615384615384
 40
0.5384615384615384
 40
0.5384615384615384
 40
0.5384615384615384
 40
0.6153846153846154
 40
0.6153846153846154
 40
0.6153846153846154
 40
0.6153846153846154
 40
0.6923076923076923
 40
0.6923076923076923
 40
0.6923076923076923
 40
0.6923076923076923
 40
0.7692307692307693
 40
0.7692307692307693
 40
0.7692307692307693
 40
0.7692307692307693
 40
0.8461538461538461
 40
0.8461538461538461
 40
0.8461538461538461
 40
0.8461538461538461
 40
1.0
 40
1.0
 40
1.0
 40
1.0
 10
1.9815
 20
-50.7443
 30
0.0
 10
1.9815
 20
-50.7443
 30
0.0
 10
1.9815
 20
-72.2417
 30
0.0
 10
1.9815
 20
-72.2417
 30
0.0
 10
1.9815
 20
-72.2417
 30
0.0
 10
1.9815
 20
-72.2417
 30
0.0
 10
21.6903
 20
-72.2485
 30
0.0
 10
21.6903
 20
-72.2485
 30
0.0
 10
21.6903
 20
-72.2485
 30
0.0
 10
21.6903
 20
-72.2485
 30
0.0
 10
21.5352
 20
-50.7442
 30
0.0
 10
21.5352
 20
-50.7442
 30
0.0
 10
21.5352
 20
-50.7442
 30
0.0
 10
21.5352
 20
-50.7442
 30
0.0
 10
12.5575
 20
-50.7451
 30
0.0
 10
12.5575
 20
-50.7451
 30
0.0
 10
12.5575
 20
-50.7451
 30
0.0
 10
12.5575
 20
-50.7451
 30
0.0
 10
11.6787
 20
-51.9018
 30
0.0
 10
11.6787
 20
-51.9018
 30
0.0
 10
11.6787
 20
-51.9018
 30
0.0
 10
11.2601
 20
-52.4847
 30
0.0
 10
10.5581
 20
-52.1437
 30
0.0
 10
10.9379
 20
-51.5314
 30
0.0
 10
10.9379
 20
-51.5314
 30
0.0
 10
10.9379
 20
-51.5314
 30
0.0
 10
11.5358
 20
-50.7396
 30
0.0
 10
11.5358
 20
-50.7396
 30
0.0
 10
11.5358
 20
-50.7396
 30
0.0
 10
11.5358
 20
-50.7396
 30
0.0
 10
7.1633
 20
-50.7352
 30
0.0
 10
7.1633
 20
-50.7352
 30
0.0
 10
7.1633
 20
-50.7352
 30
0.0
 10
6.716
 20
-51.2139
 30
0.0
 10
6.3669
 20
-51.6524
 30
0.0
 10
5.8843
 20
-52.4839
 30
0.0
 10
5.8843
 20
-52.4839
 30
0.0
 10
5.6951
 20
-52.8013
 30
0.0
 10
5.214
 20
-52.8371
 30
0.0
 10
5.117
 20
-52.4574
 30
0.0
 10
5.117
 20
-52.4574
 30
0.0
 10
4.7654
 20
-51.3694
 30
0.0
 10
4.2471
 20
-50.7693
 30
0.0
 10
3.5295
 20
-50.7442
 30
0.0
 10
3.5295
 20
-50.7442
 30
0.0
 10
3.5295
 20
-50.7442
 30
0.0
 10
1.9815
 20
-50.7443
 30
0.0
 10
1.9815
 20
-50.7443
 30
0.0
  0
SPLINE
  5
4E
330
1F
100
AcDbEntity
  8
Camada 1
370
     9
100
AcDbSpline
210
0.0
220
0.0
230
1.0
 70
    11
 71
     3
 72
    16
 73
    12
 74
     0
 42
0.0000000001
 43
0.0000000001
 12
1.0
 22
0.0
 32
0.0
 13
1.0
 23
0.0
 33
0.0
 40
0.0
 40
0.0
 40
0.0
 40
0.0
 40
0.25
 40
0.25
 40
0.25
 40
0.25
 40
0.5
 40
0.5
 40
0.5
 40
0.5
 40
1.0
 40
1.0
 40
1.0
 40
1.0
 10
5.1324
 20
-50.7413
 30
0.0
 10
5.1324
 20
-50.7413
 30
0.0
 10
5.8338
 20
-50.7413
 30
0.0
 10
5.8338
 20
-50.7413
 30
0.0
 10
5.8338
 20
-50.7413
 30
0.0
 10
5.8338
 20
-50.7413
 30
0.0
 10
5.4456
 20
-51.2117
 30
0.0
 10
5.4456
 20
-51.2117
 30
0.0
 10
5.4456
 20
-51.2117
 30
0.0
 10
5.4456
 20
-51.2117
 30
0.0
 10
5.1324
 20
-50.7413
 30
0.0
 10
5.1324
 20
-50.7413
 30
0.0
  0
SPLINE
  5
4F
330
1F
100
AcDbEntity
  8
Camada 1
370
     9
100
AcDbSpline
210
0.0
220
0.0
230
1.0
 70
    11
 71
     3
 72
   128
 73
   124
 74
     0
 42
0.0000000001
 43
0.0000000001
 12
1.0
 22
0.0
 32
0.0
 13
1.0
 23
0.0
 33
0.0
 40
0.0
 40
0.0
 40
0.0
 40
0.0
 40
0.03125
 40
0.03125
 40
0.03125
 40
0.03125
 40
0.0625
 40
0.0625
 40
0.0625
 40
0.0625
 40
0.09375
 40
0.09375
 40
0.09375
 40
0.09375
 40
0.125
 40
0.125
 40
0.125
 40
0.125
 40
0.15625
 40
0.15625
 40
0.15625
 40
0.15625
 40
0.1875
 40
0.1875
 40
0.1875
 40
0.1875
 40
0.21875
 40
0.21875
 40
0.21875
 40
0.21875
 40
0.25
 40
0.25
 40
0.25
 40
0.25
 40
0.28125
 40
0.28125
 40
0.28125
 40
0.28125
 40
0.3125
 40
0.3125
 40
0.3125
 40
0.3125
 40
0.34375
 40
0.34375
 40
0.34375
 40
0.34375
 40
0.375
 40
0.375
 40
0.375
 40
0.375
 40
0.40625
 40
0.40625
 40
0.40625
 40
0.40625
 40
0.4375
 40
0.4375
 40
0.4375
 40
0.4375
 40
0.46875
 40
0.46875
 40
0.46875
 40
0.46875
 40
0.5
 40
0.5
 40
0.5
 40
0.5
 40
0.53125
 40
0.53125
 40
0.53125
 40
0.53125
 40
0.5625
 40
0.5625
 40
0.5625
 40
0.5625
 40
0.59375
 40
0.59375
 40
0.59375
 40
0.59375
 40
0.625
 40
0.625
 40
0.625
 40
0.625
 40
0.65625
 40
0.65625
 40
0.65625
 40
0.65625
 40
0.6875
 40
0.6875
 40
0.6875
 40
0.6875
 40
0.71875
 40
0.71875
 40
0.71875
 40
0.71875
 40
0.75
 40
0.75
 40
0.75
 40
0.75
 40
0.78125
 40
0.78125
 40
0.78125
 40
0.78125
 40
0.8125
 40
0.8125
 40
0.8125
 40
0.8125
 40
0.84375
 40
0.84375
 40
0.84375
 40
0.84375
 40
0.875
 40
0.875
 40
0.875
 40
0.875
 40
0.90625
 40
0.90625
 40
0.90625
 40
0.90625
 40
0.9375
 40
0.9375
 40
0.9375
 40
0.9375
 40
1.0
 40
1.0
 40
1.0
 40
1.0
 10
1.8755
 20
14.1978
 30
0.0
 10
1.8755
 20
14.1978
 30
0.0
 10
2.0156
 20
-4.1536
 30
0.0
 10
2.0156
 20
-4.1536
 30
0.0
 10
2.0156
 20
-4.1536
 30
0.0
 10
2.0156
 20
-4.1536
 30
0.0
 10
21.5536
 20
-4.1473
 30
0.0
 10
21.5536
 20
-4.1473
 30
0.0
 10
21.5536
 20
-4.1473
 30
0.0
 10
21.5536
 20
-4.1473
 30
0.0
 10
21.4853
 20
23.75
 30
0.0
 10
21.4853
 20
23.75
 30
0.0
 10
21.4853
 20
23.75
 30
0.0
 10
21.4853
 20
23.75
 30
0.0
 10
14.5472
 20
23.7397
 30
0.0
 10
14.5472
 20
23.7397
 30
0.0
 10
14.5472
 20
23.7397
 30
0.0
 10
13.9303
 20
22.15
 30
0.0
 10
14.0112
 20
20.6345
 30
0.0
 10
14.2352
 20
18.7626
 30
0.0
 10
14.2352
 20
18.7626
 30
0.0
 10
14.755
 20
16.2471
 30
0.0
 10
16.14
 20
15.4527
 30
0.0
 10
17.4113
 20
15.548
 30
0.0
 10
17.4113
 20
15.548
 30
0.0
 10
18.9102
 20
15.6293
 30
0.0
 10
20.1482
 20
17.2029
 30
0.0
 10
19.8841
 20
19.2521
 30
0.0
 10
19.8841
 20
19.2521
 30
0.0
 10
19.6389
 20
20.5822
 30
0.0
 10
19.344
 20
21.1712
 30
0.0
 10
18.3326
 20
20.9984
 30
0.0
 10
18.3326
 20
20.9984
 30
0.0
 10
19.2611
 20
18.694
 30
0.0
 10
17.8082
 20
18.3022
 30
0.0
 10
16.8295
 20
18.9346
 30
0.0
 10
16.8295
 20
18.9346
 30
0.0
 10
15.4146
 20
20.1212
 30
0.0
 10
16.1999
 20
23.0132
 30
0.0
 10
18.1386
 20
22.9563
 30
0.0
 10
18.1386
 20
22.9563
 30
0.0
 10
20.1824
 20
22.8981
 30
0.0
 10
21.9115
 20
19.4314
 30
0.0
 10
20.3753
 20
16.0044
 30
0.0
 10
20.3753
 20
16.0044
 30
0.0
 10
19.2803
 20
13.6916
 30
0.0
 10
16.1949
 20
13.2479
 30
0.0
 10
14.5505
 20
14.9659
 30
0.0
 10
14.5505
 20
14.9659
 30
0.0
 10
14.0259
 20
15.6297
 30
0.0
 10
13.572
 20
16.3833
 30
0.0
 10
13.2412
 20
17.2942
 30
0.0
 10
13.2412
 20
17.2942
 30
0.0
 10
12.1607
 20
13.9501
 30
0.0
 10
9.497
 20
12.8772
 30
0.0
 10
6.9618
 20
14.5955
 30
0.0
 10
6.9618
 20
14.5955
 30
0.0
 10
5.5648
 20
15.5294
 30
0.0
 10
4.9743
 20
18.4752
 30
0.0
 10
5.7738
 20
20.9984
 30
0.0
 10
5.7738
 20
20.9984
 30
0.0
 10
6.5719
 20
23.1827
 30
0.0
 10
8.6041
 20
23.0212
 30
0.0
 10
9.4106
 20
22.3742
 30
0.0
 10
9.4106
 20
22.3742
 30
0.0
 10
10.7176
 20
21.0609
 30
0.0
 10
10.9021
 20
19.1486
 30
0.0
 10
9.459
 20
18.4584
 30
0.0
 10
9.459
 20
18.4584
 30
0.0
 10
8.2123
 20
18.133
 30
0.0
 10
7.6145
 20
18.8984
 30
0.0
 10
7.8588
 20
20.3634
 30
0.0
 10
7.8588
 20
20.3634
 30
0.0
 10
6.4065
 20
21.7167
 30
0.0
 10
6.3152
 20
17.0026
 30
0.0
 10
7.5679
 20
15.9184
 30
0.0
 10
7.5679
 20
15.9184
 30
0.0
 10
8.4409
 20
15.3853
 30
0.0
 10
9.4183
 20
15.1993
 30
0.0
 10
10.1378
 20
15.495
 30
0.0
 10
10.1378
 20
15.495
 30
0.0
 10
11.8316
 20
16.2719
 30
0.0
 10
12.5333
 20
18.6604
 30
0.0
 10
12.223
 20
22.1626
 30
0.0
 10
12.223
 20
22.1626
 30
0.0
 10
12.1583
 20
22.8091
 30
0.0
 10
12.074
 20
23.2495
 30
0.0
 10
11.6896
 20
23.7401
 30
0.0
 10
11.6896
 20
23.7401
 30
0.0
 10
11.6896
 20
23.7401
 30
0.0
 10
1.5697
 20
23.7407
 30
0.0
 10
1.5697
 20
23.7407
 30
0.0
 10
1.5697
 20
23.7407
 30
0.0
 10
1.884
 20
23.308
 30
0.0
 10
1.8055
 20
22.1188
 30
0.0
 10
1.2451
 20
21.7127
 30
0.0
 10
1.2451
 20
21.7127
 30
0.0
 10
1.2451
 20
21.7127
 30
0.0
 10
1.2995
 20
17.0892
 30
0.0
 10
1.2995
 20
17.0892
 30
0.0
 10
1.2995
 20
17.0892
 30
0.0
 10
1.4319
 20
15.5811
 30
0.0
 10
3.2358
 20
14.832
 30
0.0
 10
3.9302
 20
16.4343
 30
0.0
 10
3.9302
 20
16.4343
 30
0.0
 10
4.1712
 20
17.0424
 30
0.0
 10
4.3222
 20
18.036
 30
0.0
 10
3.4454
 20
18.1409
 30
0.0
 10
3.4454
 20
18.1409
 30
0.0
 10
2.7818
 20
17.1452
 30
0.0
 10
1.4672
 20
18.125
 30
0.0
 10
2.2956
 20
19.5868
 30
0.0
 10
2.2956
 20
19.5868
 30
0.0
 10
2.8637
 20
20.6426
 30
0.0
 10
4.5463
 20
19.5985
 30
0.0
 10
4.803
 20
18.1938
 30
0.0
 10
4.803
 20
18.1938
 30
0.0
 10
5.2229
 20
16.0353
 30
0.0
 10
4.8276
 20
14.6724
 30
0.0
 10
3.3484
 20
14.225
 30
0.0
 10
3.3484
 20
14.225
 30
0.0
 10
2.8574
 20
14.0989
 30
0.0
 10
2.3664
 20
14.0946
 30
0.0
 10
1.8755
 20
14.1978
 30
0.0
  0
SPLINE
  5
50
330
1F
100
AcDbEntity
  8
Camada 1
370
     9
100
AcDbSpline
210
0.0
220
0.0
230
1.0
 70
    11
 71
     3
 72
    80
 73
    76
 74
     0
 42
0.0000000001
 43
0.0000000001
 12
1.0
 22
0.0
 32
0.0
 13
1.0
 23
0.0
 33
0.0
 40
0.0
 40
0.0
 40
0.0
 40
0.0
 40
0.05
 40
0.05
 40
0.05
 40
0.05
 40
0.1
 40
0.1
 40
0.1
 40
0.1
 40
0.15
 40
0.15
 40
0.15
 40
0.15
 40
0.2
 40
0.2
 40
0.2
 40
0.2
 40
0.25
 40
0.25
 40
0.25
 40
0.25
 40
0.3
 40
0.3
 40
0.3
 40
0.3
 40
0.35
 40
0.35
 40
0.35
 40
0.35
 40
0.4
 40
0.4
 40
0.4
 40
0.4
 40
0.45
 40
0.45
 40
0.45
 40
0.45
 40
0.5
 40
0.5
 40
0.5
 40
0.5
 40
0.55
 40
0.55
 40
0.55
 40
0.55
 40
0.6
 40
0.6
 40
0.6
 40
0.6
 40
0.65
 40
0.65
 40
0.65
 40
0.65
 40
0.7
 40
0.7
 40
0.7
 40
0.7
 40
0.75
 40
0.75
 40
0.75
 40
0.75
 40
0.8
 40
0.8
 40
0.8
 40
0.8
 40
0.85
 40
0.85
 40
0.85
 40
0.85
 40
0.9
 40
0.9
 40
0.9
 40
0.9
 40
1.0
 40
1.0
 40
1.0
 40
1.0
 10
26.5762
 20
-72.1637
 30
0.0
 10
26.5762
 20
-72.1637
 30
0.0
 10
41.7043
 20
-72.2423
 30
0.0
 10
41.7043
 20
-72.2423
 30
0.0
 10
41.7043
 20
-72.2423
 30
0.0
 10
41.7043
 20
-72.2423
 30
0.0
 10
42.022
 20
16.3341
 30
0.0
 10
42.022
 20
16.3341
 30
0.0
 10
42.022
 20
16.3341
 30
0.0
 10
36.3737
 20
10.1409
 30
0.0
 10
33.1768
 20
18.7431
 30
0.0
 10
37.3988
 20
22.671
 30
0.0
 10
37.3988
 20
22.671
 30
0.0
 10
38.543
 20
23.6589
 30
0.0
 10
40.224
 20
23.1055
 30
0.0
 10
40.6789
 20
21.2621
 30
0.0
 10
40.6789
 20
21.2621
 30
0.0
 10
41.0601
 20
19.4482
 30
0.0
 10
40.1948
 20
18.4653
 30
0.0
 10
38.5516
 20
19.0197
 30
0.0
 10
38.5516
 20
19.0197
 30
0.0
 10
37.9473
 20
19.2712
 30
0.0
 10
37.8786
 20
20.5014
 30
0.0
 10
38.3021
 20
21.1364
 30
0.0
 10
38.3021
 20
21.1364
 30
0.0
 10
36.7227
 20
21.1789
 30
0.0
 10
36.4997
 20
17.0552
 30
0.0
 10
37.7613
 20
16.0894
 30
0.0
 10
37.7613
 20
16.0894
 30
0.0
 10
39.3124
 20
15.5248
 30
0.0
 10
40.5729
 20
15.4353
 30
0.0
 10
41.5464
 20
18.6891
 30
0.0
 10
41.5464
 20
18.6891
 30
0.0
 10
41.9761
 20
20.4735
 30
0.0
 10
41.8199
 20
22.1495
 30
0.0
 10
40.8452
 20
23.7558
 30
0.0
 10
40.8452
 20
23.7558
 30
0.0
 10
40.8452
 20
23.7558
 30
0.0
 10
31.3878
 20
23.7663
 30
0.0
 10
31.3878
 20
23.7663
 30
0.0
 10
31.3878
 20
23.7663
 30
0.0
 10
30.4514
 20
22.2347
 30
0.0
 10
30.1731
 20
20.368
 30
0.0
 10
30.4609
 20
18.4085
 30
0.0
 10
30.4609
 20
18.4085
 30
0.0
 10
30.7691
 20
16.8406
 30
0.0
 10
31.4598
 20
15.8092
 30
0.0
 10
32.3743
 20
15.8023
 30
0.0
 10
32.3743
 20
15.8023
 30
0.0
 10
33.4169
 20
15.8363
 30
0.0
 10
34.5774
 20
17.5711
 30
0.0
 10
33.0399
 20
18.263
 30
0.0
 10
33.0399
 20
18.263
 30
0.0
 10
31.9839
 20
16.9776
 30
0.0
 10
30.7992
 20
19.4794
 30
0.0
 10
32.2745
 20
19.9669
 30
0.0
 10
32.2745
 20
19.9669
 30
0.0
 10
33.4736
 20
20.204
 30
0.0
 10
34.3646
 20
19.6134
 30
0.0
 10
34.6562
 20
18.5805
 30
0.0
 10
34.6562
 20
18.5805
 30
0.0
 10
35.4526
 20
15.2138
 30
0.0
 10
33.022
 20
13.8862
 30
0.0
 10
31.4711
 20
14.6117
 30
0.0
 10
31.4711
 20
14.6117
 30
0.0
 10
30.626
 20
15.125
 30
0.0
 10
30.4021
 20
15.1279
 30
0.0
 10
29.9455
 20
16.7262
 30
0.0
 10
29.9455
 20
16.7262
 30
0.0
 10
29.4731
 20
14.6431
 30
0.0
 10
28.5694
 20
14.437
 30
0.0
 10
26.5368
 20
14.6144
 30
0.0
 10
26.5368
 20
14.6144
 30
0.0
 10
26.5368
 20
14.6144
 30
0.0
 10
26.5762
 20
-72.1637
 30
0.0
 10
26.5762
 20
-72.1637
 30
0.0
  0
SPLINE
  5
51
330
1F
100
AcDbEntity
  8
Camada 1
370
     9
100
AcDbSpline
210
0.0
220
0.0
230
1.0
 70
    11
 71
     3
 72
    16
 73
    12
 74
     0
 42
0.0000000001
 43
0.0000000001
 12
1.0
 22
0.0
 32
0.0
 13
1.0
 23
0.0
 33
0.0
 40
0.0
 40
0.0
 40
0.0
 40
0.0
 40
0.25
 40
0.25
 40
0.25
 40
0.25
 40
0.5
 40
0.5
 40
0.5
 40
0.5
 40
1.0
 40
1.0
 40
1.0
 40
1.0
 10
-34.7327
 20
-83.4678
 30
0.0
 10
-33.5631
 20
-84.7167
 30
0.0
 10
-32.7001
 20
-86.1914
 30
0.0
 10
-32.2008
 20
-87.9342
 30
0.0
 10
-32.2008
 20
-87.9342
 30
0.0
 10
-31.5437
 20
-86.2001
 30
0.0
 10
-30.7648
 20
-84.6942
 30
0.0
 10
-29.8255
 20
-83.4892
 30
0.0
 10
-29.8255
 20
-83.4892
 30
0.0
 10
-29.8255
 20
-83.4892
 30
0.0
 10
-34.7327
 20
-83.4678
 30
0.0
 10
-34.7327
 20
-83.4678
 30
0.0
  0
SPLINE
  5
52
330
1F
100
AcDbEntity
  8
Camada 1
370
     9
100
AcDbSpline
210
0.0
220
0.0
230
1.0
 70
    11
 71
     3
 72
    16
 73
    12
 74
     0
 42
0.0000000001
 43
0.0000000001
 12
1.0
 22
0.0
 32
0.0
 13
1.0
 23
0.0
 33
0.0
 40
0.0
 40
0.0
 40
0.0
 40
0.0
 40
0.25
 40
0.25
 40
0.25
 40
0.25
 40
0.5
 40
0.5
 40
0.5
 40
0.5
 40
1.0
 40
1.0
 40
1.0
 40
1.0
 10
-17.8398
 20
-83.5934
 30
0.0
 10
-17.0409
 20
-84.4218
 30
0.0
 10
-16.4635
 20
-85.47
 30
0.0
 10
-16.0823
 20
-86.6939
 30
0.0
 10
-16.0823
 20
-86.6939
 30
0.0
 10
-15.7521
 20
-85.3786
 30
0.0
 10
-15.2223
 20
-84.324
 30
0.0
 10
-14.4334
 20
-83.6083
 30
0.0
 10
-14.4334
 20
-83.6083
 30
0.0
 10
-14.4334
 20
-83.6083
 30
0.0
 10
-17.8398
 20
-83.5934
 30
0.0
 10
-17.8398
 20
-83.5934
 30
0.0
  0
SPLINE
  5
53
330
1F
100
AcDbEntity
  8
Camada 1
370
     9
100
AcDbSpline
210
0.0
220
0.0
230
1.0
 70
    11
 71
     3
 72
    16
 73
    12
 74
     0
 42
0.0000000001
 43
0.0000000001
 12
1.0
 22
0.0
 32
0.0
 13
1.0
 23
0.0
 33
0.0
 40
0.0
 40
0.0
 40
0.0
 40
0.0
 40
0.25
 40
0.25
 40
0.25
 40
0.25
 40
0.5
 40
0.5
 40
0.5
 40
0.5
 40
1.0
 40
1.0
 40
1.0
 40
1.0
 10
-2.565
 20
-83.8055
 30
0.0
 10
-1.3954
 20
-85.0544
 30
0.0
 10
-0.5324
 20
-86.5291
 30
0.0
 10
-0.0331
 20
-88.2719
 30
0.0
 10
-0.0331
 20
-88.2719
 30
0.0
 10
0.624
 20
-86.5378
 30
0.0
 10
1.4029
 20
-85.0319
 30
0.0
 10
2.3423
 20
-83.8269
 30
0.0
 10
2.3423
 20
-83.8269
 30
0.0
 10
2.3423
 20
-83.8269
 30
0.0
 10
-2.565
 20
-83.8055
 30
0.0
 10
-2.565
 20
-83.8055
 30
0.0
  0
SPLINE
  5
54
330
1F
100
AcDbEntity
  8
Camada 1
370
     9
100
AcDbSpline
210
0.0
220
0.0
230
1.0
 70
    11
 71
     3
 72
    16
 73
    12
 74
     0
 42
0.0000000001
 43
0.0000000001
 12
1.0
 22
0.0
 32
0.0
 13
1.0
 23
0.0
 33
0.0
 40
0.0
 40
0.0
 40
0.0
 40
0.0
 40
0.25
 40
0.25
 40
0.25
 40
0.25
 40
0.5
 40
0.5
 40
0.5
 40
0.5
 40
1.0
 40
1.0
 40
1.0
 40
1.0
 10
14.5321
 20
-83.792
 30
0.0
 10
15.331
 20
-84.6204
 30
0.0
 10
15.9085
 20
-85.6686
 30
0.0
 10
16.2896
 20
-86.8925
 30
0.0
 10
16.2896
 20
-86.8925
 30
0.0
 10
16.6199
 20
-85.5772
 30
0.0
 10
17.1497
 20
-84.5226
 30
0.0
 10
17.9386
 20
-83.8069
 30
0.0
 10
17.9386
 20
-83.8069
 30
0.0
 10
17.9386
 20
-83.8069
 30
0.0
 10
14.5321
 20
-83.792
 30
0.0
 10
14.5321
 20
-83.792
 30
0.0
  0
SPLINE
  5
55
330
1F
100
AcDbEntity
  8
Camada 1
370
     9
100
AcDbSpline
210
0.0
220
0.0
230
1.0
 70
    11
 71
     3
 72
    16
 73
    12
 74
     0
 42
0.0000000001
 43
0.0000000001
 12
1.0
 22
0.0
 32
0.0
 13
1.0
 23
0.0
 33
0.0
 40
0.0
 40
0.0
 40
0.0
 40
0.0
 40
0.25
 40
0.25
 40
0.25
 40
0.25
 40
0.5
 40
0.5
 40
0.5
 40
0.5
 40
1.0
 40
1.0
 40
1.0
 40
1.0
 10
29.926
 20
-84.123
 30
0.0
 10
31.0956
 20
-85.3719
 30
0.0
 10
31.9586
 20
-86.8466
 30
0.0
 10
32.4579
 20
-88.5894
 30
0.0
 10
32.4579
 20
-88.5894
 30
0.0
 10
33.1149
 20
-86.8553
 30
0.0
 10
33.8939
 20
-85.3494
 30
0.0
 10
34.8332
 20
-84.1444
 30
0.0
 10
34.8332
 20
-84.1444
 30
0.0
 10
34.8332
 20
-84.1444
 30
0.0
 10
29.926
 20
-84.123
 30
0.0
 10
29.926
 20
-84.123
 30
0.0
  0
SPLINE
  5
56
330
1F
100
AcDbEntity
  8
Camada 1
370
     9
100
AcDbSpline
210
0.0
220
0.0
230
1.0
 70
    11
 71
     3
 72
    24
 73
    20
 74
     0
 42
0.0000000001
 43
0.0000000001
 12
1.0
 22
0.0
 32
0.0
 13
1.0
 23
0.0
 33
0.0
 40
0.0
 40
0.0
 40
0.0
 40
0.0
 40
0.1666666666666667
 40
0.1666666666666667
 40
0.1666666666666667
 40
0.1666666666666667
 40
0.3333333333333333
 40
0.3333333333333333
 40
0.3333333333333333
 40
0.3333333333333333
 40
0.5
 40
0.5
 40
0.5
 40
0.5
 40
0.6666666666666666
 40
0.6666666666666666
 40
0.6666666666666666
 40
0.6666666666666666
 40
1.0
 40
1.0
 40
1.0
 40
1.0
 10
-4.1182
 20
77.0631
 30
0.0
 10
-9.0642
 20
56.7357
 30
0.0
 10
-20.9965
 20
42.6147
 30
0.0
 10
-38.201
 20
28.7877
 30
0.0
 10
-38.201
 20
28.7877
 30
0.0
 10
-36.0307
 20
28.5883
 30
0.0
 10
-34.659
 20
27.2884
 30
0.0
 10
-34.1629
 20
25.6996
 30
0.0
 10
-34.1629
 20
25.6996
 30
0.0
 10
-34.1629
 20
25.6996
 30
0.0
 10
-32.0969
 20
25.6947
 30
0.0
 10
-32.0969
 20
25.6947
 30
0.0
 10
-32.0969
 20
25.6947
 30
0.0
 10
-30.6906
 20
27.9975
 30
0.0
 10
-28.8585
 20
29.2132
 30
0.0
 10
-26.1822
 20
28.976
 30
0.0
 10
-26.1822
 20
28.976
 30
0.0
 10
-15.7428
 20
45.5593
 30
0.0
 10
-6.5141
 20
60.3031
 30
0.0
 10
-4.1182
 20
77.0631
 30
0.0
  0
SPLINE
  5
57
330
1F
100
AcDbEntity
  8
Camada 1
370
     9
100
AcDbSpline
210
0.0
220
0.0
230
1.0
 70
    11
 71
     3
 72
    28
 73
    24
 74
     0
 42
0.0000000001
 43
0.0000000001
 12
1.0
 22
0.0
 32
0.0
 13
1.0
 23
0.0
 33
0.0
 40
0.0
 40
0.0
 40
0.0
 40
0.0
 40
0.1428571428571428
 40
0.1428571428571428
 40
0.1428571428571428
 40
0.1428571428571428
 40
0.2857142857142857
 40
0.2857142857142857
 40
0.2857142857142857
 40
0.2857142857142857
 40
0.4285714285714285
 40
0.4285714285714285
 40
0.4285714285714285
 40
0.4285714285714285
 40
0.5714285714285714
 40
0.5714285714285714
 40
0.5714285714285714
 40
0.5714285714285714
 40
0.7142857142857143
 40
0.7142857142857143
 40
0.7142857142857143
 40
0.7142857142857143
 40
1.0
 40
1.0
 40
1.0
 40
1.0
 10
-20.3908
 20
28.9364
 30
0.0
 10
-18.5232
 20
28.5008
 30
0.0
 10
-17.0374
 20
27.4053
 30
0.0
 10
-15.9458
 20
25.6291
 30
0.0
 10
-15.9458
 20
25.6291
 30
0.0
 10
-15.9458
 20
25.6291
 30
0.0
 10
-15.3502
 20
25.6423
 30
0.0
 10
-15.3502
 20
25.6423
 30
0.0
 10
-15.3502
 20
25.6423
 30
0.0
 10
-12.2896
 20
30.2156
 30
0.0
 10
-5.9134
 20
30.1663
 30
0.0
 10
-3.0472
 20
25.7613
 30
0.0
 10
-3.0472
 20
25.7613
 30
0.0
 10
-3.0472
 20
25.7613
 30
0.0
 10
-3.0472
 20
25.7842
 30
0.0
 10
-3.0472
 20
25.7842
 30
0.0
 10
-3.0472
 20
25.7842
 30
0.0
 10
-3.5092
 20
41.1443
 30
0.0
 10
-4.143
 20
56.1837
 30
0.0
 10
-2.7553
 20
72.5395
 30
0.0
 10
-2.7553
 20
72.5395
 30
0.0
 10
-6.2834
 20
53.1957
 30
0.0
 10
-11.7296
 20
42.4771
 30
0.0
 10
-20.3908
 20
28.9364
 30
0.0
  0
SPLINE
  5
58
330
1F
100
AcDbEntity
  8
Camada 1
370
     9
100
AcDbSpline
210
0.0
220
0.0
230
1.0
 70
    11
 71
     3
 72
    12
 73
     8
 74
     0
 42
0.0000000001
 43
0.0000000001
 12
1.0
 22
0.0
 32
0.0
 13
1.0
 23
0.0
 33
0.0
 40
0.0
 40
0.0
 40
0.0
 40
0.0
 40
0.3333333333333333
 40
0.3333333333333333
 40
0.3333333333333333
 40
0.3333333333333333
 40
1.0
 40
1.0
 40
1.0
 40
1.0
 10
-35.9699
 20
25.6943
 30
0.0
 10
-37.8465
 20
27.6877
 30
0.0
 10
-41.4503
 20
27.4548
 30
0.0
 10
-42.6434
 20
25.6952
 30
0.0
 10
-42.6434
 20
25.6952
 30
0.0
 10
-42.6434
 20
25.6952
 30
0.0
 10
-35.9699
 20
25.6943
 30
0.0
 10
-35.9699
 20
25.6943
 30
0.0
  0
SPLINE
  5
59
330
1F
100
AcDbEntity
  8
Camada 1
370
     9
100
AcDbSpline
210
0.0
220
0.0
230
1.0
 70
    11
 71
     3
 72
    16
 73
    12
 74
     0
 42
0.0000000001
 43
0.0000000001
 12
1.0
 22
0.0
 32
0.0
 13
1.0
 23
0.0
 33
0.0
 40
0.0
 40
0.0
 40
0.0
 40
0.0
 40
0.25
 40
0.25
 40
0.25
 40
0.25
 40
0.5
 40
0.5
 40
0.5
 40
0.5
 40
1.0
 40
1.0
 40
1.0
 40
1.0
 10
-21.1014
 20
27.3798
 30
0.0
 10
-21.1014
 20
27.3798
 30
0.0
 10
-21.7629
 20
25.6928
 30
0.0
 10
-21.7629
 20
25.6928
 30
0.0
 10
-21.7629
 20
25.6928
 30
0.0
 10
-21.7629
 20
25.6928
 30
0.0
 10
-17.5633
 20
25.6945
 30
0.0
 10
-17.5633
 20
25.6945
 30
0.0
 10
-17.5633
 20
25.6945
 30
0.0
 10
-18.514
 20
26.7044
 30
0.0
 10
-19.7847
 20
27.2272
 30
0.0
 10
-21.1014
 20
27.3798
 30
0.0
  0
SPLINE
  5
5A
330
1F
100
AcDbEntity
  8
Camada 1
370
     9
100
AcDbSpline
210
0.0
220
0.0
230
1.0
 70
    11
 71
     3
 72
    16
 73
    12
 74
     0
 42
0.0000000001
 43
0.0000000001
 12
1.0
 22
0.0
 32
0.0
 13
1.0
 23
0.0
 33
0.0
 40
0.0
 40
0.0
 40
0.0
 40
0.0
 40
0.25
 40
0.25
 40
0.25
 40
0.25
 40
0.5
 40
0.5
 40
0.5
 40
0.5
 40
1.0
 40
1.0
 40
1.0
 40
1.0
 10
-27.7658
 20
25.6926
 30
0.0
 10
-27.7658
 20
25.6926
 30
0.0
 10
-26.703
 20
27.3849
 30
0.0
 10
-26.703
 20
27.3849
 30
0.0
 10
-26.703
 20
27.3849
 30
0.0
 10
-28.1127
 20
27.2255
 30
0.0
 10
-29.3315
 20
26.6799
 30
0.0
 10
-29.9989
 20
25.6957
 30
0.0
 10
-29.9989
 20
25.6957
 30
0.0
 10
-29.9989
 20
25.6957
 30
0.0
 10
-27.7658
 20
25.6926
 30
0.0
 10
-27.7658
 20
25.6926
 30
0.0
  0
SPLINE
  5
5B
330
1F
100
AcDbEntity
  8
Camada 1
370
     9
100
AcDbSpline
210
0.0
220
0.0
230
1.0
 70
    11
 71
     3
 72
    12
 73
     8
 74
     0
 42
0.0000000001
 43
0.0000000001
 12
1.0
 22
0.0
 32
0.0
 13
1.0
 23
0.0
 33
0.0
 40
0.0
 40
0.0
 40
0.0
 40
0.0
 40
0.3333333333333333
 40
0.3333333333333333
 40
0.3333333333333333
 40
0.3333333333333333
 40
1.0
 40
1.0
 40
1.0
 40
1.0
 10
-5.0511
 20
25.72
 30
0.0
 10
-7.2782
 20
28.0856
 30
0.0
 10
-11.5618
 20
27.7687
 30
0.0
 10
-12.9777
 20
25.6805
 30
0.0
 10
-12.9777
 20
25.6805
 30
0.0
 10
-12.9777
 20
25.6805
 30
0.0
 10
-5.0511
 20
25.72
 30
0.0
 10
-5.0511
 20
25.72
 30
0.0
  0
SPLINE
  5
5C
330
1F
100
AcDbEntity
  8
Camada 1
370
     9
100
AcDbSpline
210
0.0
220
0.0
230
1.0
 70
    11
 71
     3
 72
    12
 73
     8
 74
     0
 42
0.0000000001
 43
0.0000000001
 12
1.0
 22
0.0
 32
0.0
 13
1.0
 23
0.0
 33
0.0
 40
0.0
 40
0.0
 40
0.0
 40
0.0
 40
0.3333333333333333
 40
0.3333333333333333
 40
0.3333333333333333
 40
0.3333333333333333
 40
1.0
 40
1.0
 40
1.0
 40
1.0
 10
10.8769
 20
25.72
 30
0.0
 10
8.6498
 20
28.0856
 30
0.0
 10
4.3663
 20
27.7687
 30
0.0
 10
2.9504
 20
25.6805
 30
0.0
 10
2.9504
 20
25.6805
 30
0.0
 10
2.9504
 20
25.6805
 30
0.0
 10
10.8769
 20
25.72
 30
0.0
 10
10.8769
 20
25.72
 30
0.0
  0
SPLINE
  5
5D
330
1F
100
AcDbEntity
  8
Camada 1
370
     9
100
AcDbSpline
210
0.0
220
0.0
230
1.0
 70
    11
 71
     3
 72
    16
 73
    12
 74
     0
 42
0.0000000001
 43
0.0000000001
 12
1.0
 22
0.0
 32
0.0
 13
1.0
 23
0.0
 33
0.0
 40
0.0
 40
0.0
 40
0.0
 40
0.0
 40
0.25
 40
0.25
 40
0.25
 40
0.25
 40
0.5
 40
0.5
 40
0.5
 40
0.5
 40
1.0
 40
1.0
 40
1.0
 40
1.0
 10
19.9377
 20
27.565
 30
0.0
 10
19.9377
 20
27.565
 30
0.0
 10
20.7027
 20
25.6945
 30
0.0
 10
20.7027
 20
25.6945
 30
0.0
 10
20.7027
 20
25.6945
 30
0.0
 10
20.7027
 20
25.6945
 30
0.0
 10
16.2378
 20
25.6958
 30
0.0
 10
16.2378
 20
25.6958
 30
0.0
 10
16.2378
 20
25.6958
 30
0.0
 10
17.1886
 20
26.7057
 30
0.0
 10
18.621
 20
27.4124
 30
0.0
 10
19.9377
 20
27.565
 30
0.0
  0
SPLINE
  5
5E
330
1F
100
AcDbEntity
  8
Camada 1
370
     9
100
AcDbSpline
210
0.0
220
0.0
230
1.0
 70
    11
 71
     3
 72
    16
 73
    12
 74
     0
 42
0.0000000001
 43
0.0000000001
 12
1.0
 22
0.0
 32
0.0
 13
1.0
 23
0.0
 33
0.0
 40
0.0
 40
0.0
 40
0.0
 40
0.0
 40
0.25
 40
0.25
 40
0.25
 40
0.25
 40
0.5
 40
0.5
 40
0.5
 40
0.5
 40
1.0
 40
1.0
 40
1.0
 40
1.0
 10
25.8621
 20
25.6915
 30
0.0
 10
25.8621
 20
25.6915
 30
0.0
 10
24.6926
 20
27.5701
 30
0.0
 10
24.6926
 20
27.5701
 30
0.0
 10
24.6926
 20
27.5701
 30
0.0
 10
26.1023
 20
27.4107
 30
0.0
 10
27.4615
 20
26.6776
 30
0.0
 10
28.1289
 20
25.6934
 30
0.0
 10
28.1289
 20
25.6934
 30
0.0
 10
28.1289
 20
25.6934
 30
0.0
 10
25.8621
 20
25.6915
 30
0.0
 10
25.8621
 20
25.6915
 30
0.0
  0
SPLINE
  5
5F
330
1F
100
AcDbEntity
  8
Camada 1
370
     9
100
AcDbSpline
210
0.0
220
0.0
230
1.0
 70
    11
 71
     3
 72
    12
 73
     8
 74
     0
 42
0.0000000001
 43
0.0000000001
 12
1.0
 22
0.0
 32
0.0
 13
1.0
 23
0.0
 33
0.0
 40
0.0
 40
0.0
 40
0.0
 40
0.0
 40
0.3333333333333333
 40
0.3333333333333333
 40
0.3333333333333333
 40
0.3333333333333333
 40
1.0
 40
1.0
 40
1.0
 40
1.0
 10
40.3107
 20
25.6921
 30
0.0
 10
38.2138
 20
28.2541
 30
0.0
 10
35.0335
 20
28.1279
 30
0.0
 10
33.593
 20
25.6945
 30
0.0
 10
33.593
 20
25.6945
 30
0.0
 10
33.593
 20
25.6945
 30
0.0
 10
40.3107
 20
25.6921
 30
0.0
 10
40.3107
 20
25.6921
 30
0.0
  0
SPLINE
  5
60
330
1F
100
AcDbEntity
  8
Camada 1
370
     9
100
AcDbSpline
210
0.0
220
0.0
230
1.0
 70
    11
 71
     3
 72
    16
 73
    12
 74
     0
 42
0.0000000001
 43
0.0000000001
 12
1.0
 22
0.0
 32
0.0
 13
1.0
 23
0.0
 33
0.0
 40
0.0
 40
0.0
 40
0.0
 40
0.0
 40
0.25
 40
0.25
 40
0.25
 40
0.25
 40
0.5
 40
0.5
 40
0.5
 40
0.5
 40
1.0
 40
1.0
 40
1.0
 40
1.0
 10
-32.096
 20
23.7659
 30
0.0
 10
-32.096
 20
23.7659
 30
0.0
 10
-30.7963
 20
23.7534
 30
0.0
 10
-30.7963
 20
23.7534
 30
0.0
 10
-30.7963
 20
23.7534
 30
0.0
 10
-30.7963
 20
23.7534
 30
0.0
 10
-31.4972
 20
22.2341
 30
0.0
 10
-31.4972
 20
22.2341
 30
0.0
 10
-31.4972
 20
22.2341
 30
0.0
 10
-31.4972
 20
22.2341
 30
0.0
 10
-32.096
 20
23.7659
 30
0.0
 10
-32.096
 20
23.7659
 30
0.0
  0
SPLINE
  5
61
330
1F
100
AcDbEntity
  8
Camada 1
370
     9
100
AcDbSpline
210
0.0
220
0.0
230
1.0
 70
    11
 71
     3
 72
    36
 73
    32
 74
     0
 42
0.0000000001
 43
0.0000000001
 12
1.0
 22
0.0
 32
0.0
 13
1.0
 23
0.0
 33
0.0
 40
0.0
 40
0.0
 40
0.0
 40
0.0
 40
0.1111111111111111
 40
0.1111111111111111
 40
0.1111111111111111
 40
0.1111111111111111
 40
0.2222222222222222
 40
0.2222222222222222
 40
0.2222222222222222
 40
0.2222222222222222
 40
0.3333333333333333
 40
0.3333333333333333
 40
0.3333333333333333
 40
0.3333333333333333
 40
0.4444444444444444
 40
0.4444444444444444
 40
0.4444444444444444
 40
0.4444444444444444
 40
0.5555555555555556
 40
0.5555555555555556
 40
0.5555555555555556
 40
0.5555555555555556
 40
0.6666666666666666
 40
0.6666666666666666
 40
0.6666666666666666
 40
0.6666666666666666
 40
0.7777777777777778
 40
0.7777777777777778
 40
0.7777777777777778
 40
0.7777777777777778
 40
1.0
 40
1.0
 40
1.0
 40
1.0
 10
-22.5476
 20
23.7526
 30
0.0
 10
-22.5476
 20
23.7526
 30
0.0
 10
-22.5414
 20
21.2711
 30
0.0
 10
-22.5414
 20
21.2711
 30
0.0
 10
-22.5414
 20
21.2711
 30
0.0
 10
-21.8659
 20
22.5204
 30
0.0
 10
-20.2464
 20
23.0941
 30
0.0
 10
-19.0819
 20
22.3824
 30
0.0
 10
-19.0819
 20
22.3824
 30
0.0
 10
-17.8804
 20
21.4532
 30
0.0
 10
-17.6041
 20
20.0049
 30
0.0
 10
-18.2351
 20
18.8369
 30
0.0
 10
-18.2351
 20
18.8369
 30
0.0
 10
-18.886
 20
17.6792
 30
0.0
 10
-21.2624
 20
18.5201
 30
0.0
 10
-19.9769
 20
20.7419
 30
0.0
 10
-19.9769
 20
20.7419
 30
0.0
 10
-21.8716
 20
21.1277
 30
0.0
 10
-22.5125
 20
17.8455
 30
0.0
 10
-21.0898
 20
16.3499
 30
0.0
 10
-21.0898
 20
16.3499
 30
0.0
 10
-19.1807
 20
14.8401
 30
0.0
 10
-17.0638
 20
15.4079
 30
0.0
 10
-16.1546
 20
17.8315
 30
0.0
 10
-16.1546
 20
17.8315
 30
0.0
 10
-15.614
 20
19.7205
 30
0.0
 10
-15.6131
 20
21.9609
 30
0.0
 10
-16.7117
 20
23.7529
 30
0.0
 10
-16.7117
 20
23.7529
 30
0.0
 10
-16.7117
 20
23.7529
 30
0.0
 10
-22.5476
 20
23.7526
 30
0.0
 10
-22.5476
 20
23.7526
 30
0.0
  0
SPLINE
  5
62
330
1F
100
AcDbEntity
  8
Camada 1
370
     9
100
AcDbSpline
210
0.0
220
0.0
230
1.0
 70
    11
 71
     3
 72
    28
 73
    24
 74
     0
 42
0.0000000001
 43
0.0000000001
 12
1.0
 22
0.0
 32
0.0
 13
1.0
 23
0.0
 33
0.0
 40
0.0
 40
0.0
 40
0.0
 40
0.0
 40
0.1428571428571428
 40
0.1428571428571428
 40
0.1428571428571428
 40
0.1428571428571428
 40
0.2857142857142857
 40
0.2857142857142857
 40
0.2857142857142857
 40
0.2857142857142857
 40
0.4285714285714285
 40
0.4285714285714285
 40
0.4285714285714285
 40
0.4285714285714285
 40
0.5714285714285714
 40
0.5714285714285714
 40
0.5714285714285714
 40
0.5714285714285714
 40
0.7142857142857143
 40
0.7142857142857143
 40
0.7142857142857143
 40
0.7142857142857143
 40
1.0
 40
1.0
 40
1.0
 40
1.0
 10
26.1095
 20
23.7525
 30
0.0
 10
26.1095
 20
23.7525
 30
0.0
 10
28.2457
 20
23.7499
 30
0.0
 10
28.2457
 20
23.7499
 30
0.0
 10
28.2457
 20
23.7499
 30
0.0
 10
28.8899
 20
22.4519
 30
0.0
 10
29.3689
 20
21.2554
 30
0.0
 10
29.3745
 20
19.3529
 30
0.0
 10
29.3745
 20
19.3529
 30
0.0
 10
29.2086
 20
16.2857
 30
0.0
 10
28.186
 20
15.4383
 30
0.0
 10
27.1552
 20
15.7017
 30
0.0
 10
27.1552
 20
15.7017
 30
0.0
 10
26.1336
 20
15.6839
 30
0.0
 10
26.2021
 20
18.7223
 30
0.0
 10
27.1192
 20
18.2285
 30
0.0
 10
27.1192
 20
18.2285
 30
0.0
 10
28.7603
 20
16.6073
 30
0.0
 10
29.3282
 20
21.1129
 30
0.0
 10
26.1438
 20
19.8689
 30
0.0
 10
26.1438
 20
19.8689
 30
0.0
 10
26.1438
 20
19.8689
 30
0.0
 10
26.1095
 20
23.7525
 30
0.0
 10
26.1095
 20
23.7525
 30
0.0
  0
SPLINE
  5
63
330
1F
100
AcDbEntity
  8
Camada 1
370
     9
100
AcDbSpline
210
0.0
220
0.0
230
1.0
 70
    11
 71
     3
 72
    16
 73
    12
 74
     0
 42
0.0000000001
 43
0.0000000001
 12
1.0
 22
0.0
 32
0.0
 13
1.0
 23
0.0
 33
0.0
 40
0.0
 40
0.0
 40
0.0
 40
0.0
 40
0.25
 40
0.25
 40
0.25
 40
0.25
 40
0.5
 40
0.5
 40
0.5
 40
0.5
 40
1.0
 40
1.0
 40
1.0
 40
1.0
 10
29.2629
 20
23.7552
 30
0.0
 10
29.2629
 20
23.7552
 30
0.0
 10
30.5312
 20
23.7592
 30
0.0
 10
30.5312
 20
23.7592
 30
0.0
 10
30.5312
 20
23.7592
 30
0.0
 10
30.5312
 20
23.7592
 30
0.0
 10
29.8535
 20
22.306
 30
0.0
 10
29.8535
 20
22.306
 30
0.0
 10
29.8535
 20
22.306
 30
0.0
 10
29.8535
 20
22.306
 30
0.0
 10
29.2629
 20
23.7552
 30
0.0
 10
29.2629
 20
23.7552
 30
0.0
  0
SPLINE
  5
64
330
1F
100
AcDbEntity
  8
Camada 1
370
     9
100
AcDbSpline
210
0.0
220
0.0
230
1.0
 70
    11
 71
     3
 72
    28
 73
    24
 74
     0
 42
0.0000000001
 43
0.0000000001
 12
1.0
 22
0.0
 32
0.0
 13
1.0
 23
0.0
 33
0.0
 40
0.0
 40
0.0
 40
0.0
 40
0.0
 40
0.1428571428571428
 40
0.1428571428571428
 40
0.1428571428571428
 40
0.1428571428571428
 40
0.2857142857142857
 40
0.2857142857142857
 40
0.2857142857142857
 40
0.2857142857142857
 40
0.4285714285714285
 40
0.4285714285714285
 40
0.4285714285714285
 40
0.4285714285714285
 40
0.5714285714285714
 40
0.5714285714285714
 40
0.5714285714285714
 40
0.5714285714285714
 40
0.7142857142857143
 40
0.7142857142857143
 40
0.7142857142857143
 40
0.7142857142857143
 40
1.0
 40
1.0
 40
1.0
 40
1.0
 10
-15.7517
 20
-28.9859
 30
0.0
 10
-17.0217
 20
-29.0491
 30
0.0
 10
-17.169
 20
-30.8119
 30
0.0
 10
-16.5198
 20
-31.5355
 30
0.0
 10
-16.5198
 20
-31.5355
 30
0.0
 10
-13.3056
 20
-34.7508
 30
0.0
 10
-11.4303
 20
-27.3119
 30
0.0
 10
-15.4197
 20
-25.3867
 30
0.0
 10
-15.4197
 20
-25.3867
 30
0.0
 10
-16.0058
 20
-25.1981
 30
0.0
 10
-16.6202
 20
-25.3056
 30
0.0
 10
-17.2572
 20
-25.3659
 30
0.0
 10
-17.2572
 20
-25.3659
 30
0.0
 10
-17.2572
 20
-25.3659
 30
0.0
 10
-17.2028
 20
-28.5192
 30
0.0
 10
-17.2028
 20
-28.5192
 30
0.0
 10
-17.2028
 20
-28.5192
 30
0.0
 10
-15.4798
 20
-27.0343
 30
0.0
 10
-13.8331
 20
-28.3804
 30
0.0
 10
-14.5755
 20
-29.9091
 30
0.0
 10
-14.5755
 20
-29.9091
 30
0.0
 10
-14.987
 20
-30.645
 30
0.0
 10
-15.6785
 20
-30.4696
 30
0.0
 10
-15.7517
 20
-28.9859
 30
0.0
  0
SPLINE
  5
65
330
1F
100
AcDbEntity
  8
Camada 1
370
     9
100
AcDbSpline
210
0.0
220
0.0
230
1.0
 70
    11
 71
     3
 72
    20
 73
    16
 74
     0
 42
0.0000000001
 43
0.0000000001
 12
1.0
 22
0.0
 32
0.0
 13
1.0
 23
0.0
 33
0.0
 40
0.0
 40
0.0
 40
0.0
 40
0.0
 40
0.2
 40
0.2
 40
0.2
 40
0.2
 40
0.4
 40
0.4
 40
0.4
 40
0.4
 40
0.6
 40
0.6
 40
0.6
 40
0.6
 40
1.0
 40
1.0
 40
1.0
 40
1.0
 10
12.8218
 20
-23.655
 30
0.0
 10
12.4075
 20
-23.655
 30
0.0
 10
12.0718
 20
-23.9908
 30
0.0
 10
12.0718
 20
-24.405
 30
0.0
 10
12.0718
 20
-24.405
 30
0.0
 10
12.0717
 20
-24.8192
 30
0.0
 10
12.4075
 20
-25.155
 30
0.0
 10
12.8217
 20
-25.155
 30
0.0
 10
12.8217
 20
-25.155
 30
0.0
 10
13.236
 20
-25.155
 30
0.0
 10
13.5717
 20
-24.8192
 30
0.0
 10
13.5717
 20
-24.405
 30
0.0
 10
13.5717
 20
-24.405
 30
0.0
 10
13.5718
 20
-23.9908
 30
0.0
 10
13.236
 20
-23.655
 30
0.0
 10
12.8218
 20
-23.655
 30
0.0
  0
SPLINE
  5
66
330
1F
100
AcDbEntity
  8
Camada 1
370
     9
100
AcDbSpline
210
0.0
220
0.0
230
1.0
 70
    11
 71
     3
 72
    28
 73
    24
 74
     0
 42
0.0000000001
 43
0.0000000001
 12
1.0
 22
0.0
 32
0.0
 13
1.0
 23
0.0
 33
0.0
 40
0.0
 40
0.0
 40
0.0
 40
0.0
 40
0.1428571428571428
 40
0.1428571428571428
 40
0.1428571428571428
 40
0.1428571428571428
 40
0.2857142857142857
 40
0.2857142857142857
 40
0.2857142857142857
 40
0.2857142857142857
 40
0.4285714285714285
 40
0.4285714285714285
 40
0.4285714285714285
 40
0.4285714285714285
 40
0.5714285714285714
 40
0.5714285714285714
 40
0.5714285714285714
 40
0.5714285714285714
 40
0.7142857142857143
 40
0.7142857142857143
 40
0.7142857142857143
 40
0.7142857142857143
 40
1.0
 40
1.0
 40
1.0
 40
1.0
 10
-27.4508
 20
23.7525
 30
0.0
 10
-27.4508
 20
23.7525
 30
0.0
 10
-29.9255
 20
23.7499
 30
0.0
 10
-29.9255
 20
23.7499
 30
0.0
 10
-29.9255
 20
23.7499
 30
0.0
 10
-30.4679
 20
22.4519
 30
0.0
 10
-30.6482
 20
21.2554
 30
0.0
 10
-30.6529
 20
19.3529
 30
0.0
 10
-30.6529
 20
19.3529
 30
0.0
 10
-30.5132
 20
16.2857
 30
0.0
 10
-29.199
 20
15.4383
 30
0.0
 10
-28.3312
 20
15.7017
 30
0.0
 10
-28.3312
 20
15.7017
 30
0.0
 10
-27.4711
 20
15.6839
 30
0.0
 10
-27.5287
 20
18.7223
 30
0.0
 10
-28.3009
 20
18.2285
 30
0.0
 10
-28.3009
 20
18.2285
 30
0.0
 10
-29.6826
 20
16.6073
 30
0.0
 10
-30.1607
 20
21.1129
 30
0.0
 10
-27.4797
 20
19.8689
 30
0.0
 10
-27.4797
 20
19.8689
 30
0.0
 10
-27.4797
 20
19.8689
 30
0.0
 10
-27.4508
 20
23.7525
 30
0.0
 10
-27.4508
 20
23.7525
 30
0.0
  0
SPLINE
  5
67
330
1F
100
AcDbEntity
  8
Camada 1
370
     9
100
AcDbSpline
210
0.0
220
0.0
230
1.0
 70
    11
 71
     3
 72
    24
 73
    20
 74
     0
 42
0.0000000001
 43
0.0000000001
 12
1.0
 22
0.0
 32
0.0
 13
1.0
 23
0.0
 33
0.0
 40
0.0
 40
0.0
 40
0.0
 40
0.0
 40
0.1666666666666667
 40
0.1666666666666667
 40
0.1666666666666667
 40
0.1666666666666667
 40
0.3333333333333333
 40
0.3333333333333333
 40
0.3333333333333333
 40
0.3333333333333333
 40
0.5
 40
0.5
 40
0.5
 40
0.5
 40
0.6666666666666666
 40
0.6666666666666666
 40
0.6666666666666666
 40
0.6666666666666666
 40
1.0
 40
1.0
 40
1.0
 40
1.0
 10
1.6272
 20
77.0631
 30
0.0
 10
6.5733
 20
56.7357
 30
0.0
 10
19.2464
 20
42.6147
 30
0.0
 10
36.4509
 20
28.7877
 30
0.0
 10
36.4509
 20
28.7877
 30
0.0
 10
34.2806
 20
28.5883
 30
0.0
 10
32.909
 20
27.2884
 30
0.0
 10
32.4128
 20
25.6996
 30
0.0
 10
32.4128
 20
25.6996
 30
0.0
 10
32.4128
 20
25.6996
 30
0.0
 10
30.3468
 20
25.6947
 30
0.0
 10
30.3468
 20
25.6947
 30
0.0
 10
30.3468
 20
25.6947
 30
0.0
 10
28.9405
 20
27.9975
 30
0.0
 10
27.1084
 20
29.2132
 30
0.0
 10
24.4321
 20
28.976
 30
0.0
 10
24.4321
 20
28.976
 30
0.0
 10
13.9927
 20
45.5593
 30
0.0
 10
4.0232
 20
60.3031
 30
0.0
 10
1.6272
 20
77.0631
 30
0.0
  0
SPLINE
  5
68
330
1F
100
AcDbEntity
  8
Camada 1
370
     9
100
AcDbSpline
210
0.0
220
0.0
230
1.0
 70
    11
 71
     3
 72
    28
 73
    24
 74
     0
 42
0.0000000001
 43
0.0000000001
 12
1.0
 22
0.0
 32
0.0
 13
1.0
 23
0.0
 33
0.0
 40
0.0
 40
0.0
 40
0.0
 40
0.0
 40
0.1428571428571428
 40
0.1428571428571428
 40
0.1428571428571428
 40
0.1428571428571428
 40
0.2857142857142857
 40
0.2857142857142857
 40
0.2857142857142857
 40
0.2857142857142857
 40
0.4285714285714285
 40
0.4285714285714285
 40
0.4285714285714285
 40
0.4285714285714285
 40
0.5714285714285714
 40
0.5714285714285714
 40
0.5714285714285714
 40
0.5714285714285714
 40
0.7142857142857143
 40
0.7142857142857143
 40
0.7142857142857143
 40
0.7142857142857143
 40
1.0
 40
1.0
 40
1.0
 40
1.0
 10
18.6407
 20
28.9364
 30
0.0
 10
16.7731
 20
28.5008
 30
0.0
 10
15.2873
 20
27.4053
 30
0.0
 10
14.1957
 20
25.6291
 30
0.0
 10
14.1957
 20
25.6291
 30
0.0
 10
14.1957
 20
25.6291
 30
0.0
 10
13.6001
 20
25.6423
 30
0.0
 10
13.6001
 20
25.6423
 30
0.0
 10
13.6001
 20
25.6423
 30
0.0
 10
10.5395
 20
30.2156
 30
0.0
 10
4.1633
 20
30.1663
 30
0.0
 10
1.297
 20
25.7613
 30
0.0
 10
1.297
 20
25.7613
 30
0.0
 10
1.297
 20
25.7613
 30
0.0
 10
1.297
 20
25.7842
 30
0.0
 10
1.297
 20
25.7842
 30
0.0
 10
1.297
 20
25.7842
 30
0.0
 10
1.3357
 20
41.3295
 30
0.0
 10
1.0743
 20
56.583
 30
0.0
 10
0.4232
 20
71.8515
 30
0.0
 10
0.4232
 20
71.8515
 30
0.0
 10
3.9513
 20
52.5077
 30
0.0
 10
9.9795
 20
42.4771
 30
0.0
 10
18.6407
 20
28.9364
 30
0.0
  0
ENDSEC
  0
SECTION
  2
OBJECTS
  0
DICTIONARY
  5
C
330
0
100
AcDbDictionary
281
     1
  3
ACAD_GROUP
350
D
  3
ACAD_LAYOUT
350
1A
  3
ACAD_MATERIAL
350
3B
  3
ACAD_MLEADERSTYLE
350
6B
  3
ACAD_MLINESTYLE
350
17
  3
ACAD_PLOTSETTINGS
350
19
  3
ACAD_PLOTSTYLENAME
350
E
  3
ACAD_VISUALSTYLE
350
2A
  3
AcDbVariableDictionary
350
69
  0
DICTIONARY
  5
D
102
{ACAD_REACTORS
330
C
102
}
330
C
100
AcDbDictionary
281
     1
  0
DICTIONARY
  5
1A
102
{ACAD_REACTORS
330
C
102
}
330
C
100
AcDbDictionary
281
     1
  3
Layout1
350
1E
  3
Layout2
350
26
  3
Model
350
22
  0
DICTIONARY
  5
3B
102
{ACAD_REACTORS
330
C
102
}
330
C
100
AcDbDictionary
281
     1
  3
ByBlock
350
3D
  3
ByLayer
350
3C
  3
Global
350
3E
  0
DICTIONARY
  5
6B
102
{ACAD_REACTORS
330
C
102
}
330
C
100
AcDbDictionary
281
     1
  0
DICTIONARY
  5
17
102
{ACAD_REACTORS
330
C
102
}
330
C
100
AcDbDictionary
281
     1
  3
Standard
350
18
  0
DICTIONARY
  5
19
102
{ACAD_REACTORS
330
C
102
}
330
C
100
AcDbDictionary
281
     1
  0
ACDBDICTIONARYWDFLT
  5
E
102
{ACAD_REACTORS
330
C
102
}
330
C
100
AcDbDictionary
281
     1
  3
Normal
350
F
100
AcDbDictionaryWithDefault
340
F
  0
DICTIONARY
  5
2A
102
{ACAD_REACTORS
330
C
102
}
330
C
100
AcDbDictionary
281
     1
  3
2dWireframe
350
2F
  3
3D Hidden
350
31
  3
3dWireframe
350
30
  3
Basic
350
32
  3
Brighten
350
36
  3
ColorChange
350
3A
  3
Conceptual
350
34
  3
Dim
350
35
  3
Facepattern
350
39
  3
Flat
350
2B
  3
FlatWithEdges
350
2C
  3
Gouraud
350
2D
  3
GouraudWithEdges
350
2E
  3
Linepattern
350
38
  3
Realistic
350
33
  3
Thicken
350
37
  0
DICTIONARY
  5
69
102
{ACAD_REACTORS
330
C
102
}
330
C
100
AcDbDictionary
281
     1
  3
DIMASSOC
350
6C
  3
HIDETEXT
350
6D
  0
LAYOUT
  5
1E
102
{ACAD_REACTORS
330
1A
102
}
330
1A
100
AcDbPlotSettings
  1

  2
none_device
  4

  6

 40
0.0
 41
0.0
 42
0.0
 43
0.0
 44
0.0
 45
0.0
 46
0.0
 47
0.0
 48
0.0
 49
0.0
140
0.0
141
0.0
142
1.0
143
1.0
 70
   688
 72
     0
 73
     0
 74
     5
  7

 75
    16
147
1.0
148
0.0
149
0.0
100
AcDbLayout
  1
Layout1
 70
     1
 71
     1
 10
0.0
 20
0.0
 11
12.0
 21
9.0
 12
0.0
 22
0.0
 32
0.0
 14
1.000000000000000E+20
 24
1.000000000000000E+20
 34
1.000000000000000E+20
 15
-1.000000000000000E+20
 25
-1.000000000000000E+20
 35
-1.000000000000000E+20
146
0.0
 13
0.0
 23
0.0
 33
0.0
 16
1.0
 26
0.0
 36
0.0
 17
0.0
 27
1.0
 37
0.0
 76
     0
330
1B
  0
LAYOUT
  5
26
102
{ACAD_REACTORS
330
1A
102
}
330
1A
100
AcDbPlotSettings
  1

  2
none_device
  4

  6

 40
0.0
 41
0.0
 42
0.0
 43
0.0
 44
0.0
 45
0.0
 46
0.0
 47
0.0
 48
0.0
 49
0.0
140
0.0
141
0.0
142
1.0
143
1.0
 70
   688
 72
     0
 73
     0
 74
     5
  7

 75
    16
147
1.0
148
0.0
149
0.0
100
AcDbLayout
  1
Layout2
 70
     1
 71
     2
 10
0.0
 20
0.0
 11
0.0
 21
0.0
 12
0.0
 22
0.0
 32
0.0
 14
0.0
 24
0.0
 34
0.0
 15
0.0
 25
0.0
 35
0.0
146
0.0
 13
0.0
 23
0.0
 33
0.0
 16
1.0
 26
0.0
 36
0.0
 17
0.0
 27
1.0
 37
0.0
 76
     0
330
23
  0
LAYOUT
  5
22
102
{ACAD_REACTORS
330
1A
102
}
330
1A
100
AcDbPlotSettings
  1

  2
none_device
  4

  6

 40
0.0
 41
0.0
 42
0.0
 43
0.0
 44
0.0
 45
0.0
 46
0.0
 47
0.0
 48
0.0
 49
0.0
140
0.0
141
0.0
142
1.0
143
1.0
 70
  1712
 72
     0
 73
     0
 74
     0
  7

 75
     0
147
1.0
148
0.0
149
0.0
100
AcDbLayout
  1
Model
 70
     1
 71
     0
 10
0.0
 20
0.0
 11
12.0
 21
9.0
 12
0.0
 22
0.0
 32
0.0
 14
-49.8181
 24
-97.8801
 34
0.0
 15
49.8178
 25
97.8816
 35
0.0
146
0.0
 13
0.0
 23
0.0
 33
0.0
 16
1.0
 26
0.0
 36
0.0
 17
0.0
 27
1.0
 37
0.0
 76
     0
330
1F
331
29
  0
MATERIAL
  5
3D
102
{ACAD_REACTORS
330
3B
102
}
102
{ACAD_XDICTIONARY
360
90
102
}
330
3B
100
AcDbMaterial
  1
ByBlock
  0
MATERIAL
  5
3C
102
{ACAD_REACTORS
330
3B
102
}
102
{ACAD_XDICTIONARY
360
8E
102
}
330
3B
100
AcDbMaterial
  1
ByLayer
  0
MATERIAL
  5
3E
102
{ACAD_REACTORS
330
3B
102
}
102
{ACAD_XDICTIONARY
360
92
102
}
330
3B
100
AcDbMaterial
  1
Global
  0
MLINESTYLE
  5
18
102
{ACAD_REACTORS
330
17
102
}
330
17
100
AcDbMlineStyle
  2
Standard
 70
     0
  3

 62
   256
 51
90.0
 52
90.0
 71
     2
 49
0.5
 62
   256
  6
BYLAYER
 49
-0.5
 62
   256
  6
BYLAYER
  0
ACDBPLACEHOLDER
  5
F
102
{ACAD_REACTORS
330
E
102
}
330
E
  0
VISUALSTYLE
  5
2F
102
{ACAD_REACTORS
330
2A
102
}
102
{ACAD_XDICTIONARY
360
76
102
}
330
2A
100
AcDbVisualStyle
  2
2dWireframe
 70
     4
 71
     0
 72
     2
 73
     0
 90
        0
 40
-0.6
 41
-30.0
 62
     5
 63
     7
 74
     1
 91
        4
 64
     7
 65
   257
 75
     1
175
     1
 42
1.0
 92
        0
 66
   257
 43
1.0
 76
     1
 77
     6
 78
     2
 67
     7
 79
     5
170
     0
171
     0
290
     0
174
     0
 93
        1
 44
0.0
173
     0
291
     0
 45
0.0
1001
ACAD
1000
AcDbSavedByObjectVersion
1070
     0
  0
VISUALSTYLE
  5
31
102
{ACAD_REACTORS
330
2A
102
}
102
{ACAD_XDICTIONARY
360
7A
102
}
330
2A
100
AcDbVisualStyle
  2
3D Hidden
 70
     6
 71
     1
 72
     2
 73
     2
 90
        0
 40
-0.6
 41
-30.0
 62
     5
 63
     7
 74
     2
 91
        2
 64
     7
 65
   257
 75
     2
175
     1
 42
40.0
 92
        0
 66
   257
 43
1.0
 76
     1
 77
     6
 78
     2
 67
     7
 79
     3
170
     0
171
     0
290
     0
174
     0
 93
        1
 44
0.0
173
     0
291
     0
 45
0.0
1001
ACAD
1000
AcDbSavedByObjectVersion
1070
     0
  0
VISUALSTYLE
  5
30
102
{ACAD_REACTORS
330
2A
102
}
102
{ACAD_XDICTIONARY
360
78
102
}
330
2A
100
AcDbVisualStyle
  2
3dWireframe
 70
     5
 71
     0
 72
     2
 73
     0
 90
        0
 40
-0.6
 41
-30.0
 62
     5
 63
     7
 74
     1
 91
        4
 64
     7
 65
   257
 75
     1
175
     1
 42
1.0
 92
        0
 66
   257
 43
1.0
 76
     1
 77
     6
 78
     2
 67
     7
 79
     5
170
     0
171
     0
290
     0
174
     0
 93
        1
 44
0.0
173
     0
291
     0
 45
0.0
1001
ACAD
1000
AcDbSavedByObjectVersion
1070
     0
  0
VISUALSTYLE
  5
32
102
{ACAD_REACTORS
330
2A
102
}
102
{ACAD_XDICTIONARY
360
7C
102
}
330
2A
100
AcDbVisualStyle
  2
Basic
 70
     7
 71
     1
 72
     0
 73
     1
 90
        0
 40
-0.6
 41
-30.0
 62
     5
 63
     7
 74
     0
 91
        4
 64
     7
 65
   257
 75
     1
175
     1
 42
1.0
 92
        8
 66
     7
 43
1.0
 76
     1
 77
     6
 78
     2
 67
     7
 79
     5
170
     0
171
     0
290
     0
174
     0
 93
        1
 44
0.0
173
     0
291
     1
 45
0.0
1001
ACAD
1000
AcDbSavedByObjectVersion
1070
     0
  0
VISUALSTYLE
  5
36
102
{ACAD_REACTORS
330
2A
102
}
102
{ACAD_XDICTIONARY
360
84
102
}
330
2A
100
AcDbVisualStyle
  2
Brighten
 70
    12
 71
     2
 72
     2
 73
     0
 90
        0
 40
-0.6
 41
-30.0
 62
     5
 63
     7
 74
     1
 91
        4
 64
     7
 65
   257
 75
     1
175
     1
 42
1.0
 92
        8
 66
     7
 43
1.0
 76
     1
 77
     6
 78
     2
 67
     7
 79
     5
170
     0
171
     0
290
     0
174
     0
 93
        1
 44
50.0
173
     0
291
     1
 45
0.0
1001
ACAD
1000
AcDbSavedByObjectVersion
1070
     0
  0
VISUALSTYLE
  5
3A
102
{ACAD_REACTORS
330
2A
102
}
102
{ACAD_XDICTIONARY
360
8C
102
}
330
2A
100
AcDbVisualStyle
  2
ColorChange
 70
    16
 71
     2
 72
     2
 73
     3
 90
        0
 40
-0.6
 41
-30.0
 62
     5
 63
     8
 74
     1
 91
        4
 64
     7
 65
   257
 75
     1
175
     1
 42
1.0
 92
        8
 66
     8
 43
1.0
 76
     1
 77
     6
 78
     2
 67
     7
 79
     5
170
     0
171
     0
290
     0
174
     0
 93
        1
 44
0.0
173
     0
291
     1
 45
0.0
1001
ACAD
1000
AcDbSavedByObjectVersion
1070
     0
  0
VISUALSTYLE
  5
34
102
{ACAD_REACTORS
330
2A
102
}
102
{ACAD_XDICTIONARY
360
80
102
}
330
2A
100
AcDbVisualStyle
  2
Conceptual
 70
     9
 71
     3
 72
     2
 73
     0
 90
        0
 40
-0.6
 41
-30.0
 62
     5
 63
     7
 74
     2
 91
        2
 64
     7
 65
   257
 75
     1
175
     1
 42
40.0
 92
        8
 66
     7
 43
1.0
 76
     1
 77
     6
 78
     2
 67
     7
 79
     3
170
     0
171
     0
290
     0
174
     0
 93
        1
 44
0.0
173
     0
291
     0
 45
0.0
1001
ACAD
1000
AcDbSavedByObjectVersion
1070
     0
  0
VISUALSTYLE
  5
35
102
{ACAD_REACTORS
330
2A
102
}
102
{ACAD_XDICTIONARY
360
82
102
}
330
2A
100
AcDbVisualStyle
  2
Dim
 70
    11
 71
     2
 72
     2
 73
     0
 90
        0
 40
-0.6
 41
-30.0
 62
     5
 63
     7
 74
     1
 91
        4
 64
     7
 65
   257
 75
     1
175
     1
 42
1.0
 92
        8
 66
     7
 43
1.0
 76
     1
 77
     6
 78
     2
 67
     7
 79
     5
170
     0
171
     0
290
     0
174
     0
 93
        1
 44
-50.0
173
     0
291
     1
 45
0.0
1001
ACAD
1000
AcDbSavedByObjectVersion
1070
     0
  0
VISUALSTYLE
  5
39
102
{ACAD_REACTORS
330
2A
102
}
102
{ACAD_XDICTIONARY
360
8A
102
}
330
2A
100
AcDbVisualStyle
  2
Facepattern
 70
    15
 71
     2
 72
     2
 73
     0
 90
        0
 40
-0.6
 41
-30.0
 62
     5
 63
     7
 74
     1
 91
        4
 64
     7
 65
   257
 75
     1
175
     1
 42
1.0
 92
        8
 66
     7
 43
1.0
 76
     1
 77
     6
 78
     2
 67
     7
 79
     5
170
     0
171
     0
290
     0
174
     0
 93
        1
 44
0.0
173
     0
291
     1
 45
0.0
1001
ACAD
1000
AcDbSavedByObjectVersion
1070
     0
  0
VISUALSTYLE
  5
2B
102
{ACAD_REACTORS
330
2A
102
}
102
{ACAD_XDICTIONARY
360
6E
102
}
330
2A
100
AcDbVisualStyle
  2
Flat
 70
     0
 71
     2
 72
     1
 73
     1
 90
        2
 40
-0.6
 41
30.0
 62
     5
 63
     7
 74
     0
 91
        4
 64
     7
 65
   257
 75
     1
175
     1
 42
1.0
 92
        8
 66
     7
 43
1.0
 76
     1
 77
     6
 78
     2
 67
     7
 79
     5
170
     0
171
     0
290
     0
174
     0
 93
       13
 44
0.0
173
     0
291
     1
 45
0.0
1001
ACAD
1000
AcDbSavedByObjectVersion
1070
     0
  0
VISUALSTYLE
  5
2C
102
{ACAD_REACTORS
330
2A
102
}
102
{ACAD_XDICTIONARY
360
70
102
}
330
2A
100
AcDbVisualStyle
  2
FlatWithEdges
 70
     1
 71
     2
 72
     1
 73
     1
 90
        2
 40
-0.6
 41
30.0
 62
     5
 63
     7
 74
     1
 91
        4
 64
     7
 65
   257
 75
     1
175
     1
 42
1.0
 92
        0
 66
   257
 43
1.0
 76
     1
 77
     6
 78
     2
 67
     7
 79
     5
170
     0
171
     0
290
     0
174
     0
 93
       13
 44
0.0
173
     0
291
     1
 45
0.0
1001
ACAD
1000
AcDbSavedByObjectVersion
1070
     0
  0
VISUALSTYLE
  5
2D
102
{ACAD_REACTORS
330
2A
102
}
102
{ACAD_XDICTIONARY
360
72
102
}
330
2A
100
AcDbVisualStyle
  2
Gouraud
 70
     2
 71
     2
 72
     2
 73
     1
 90
        2
 40
-0.6
 41
30.0
 62
     5
 63
     7
 74
     0
 91
        4
 64
     7
 65
   257
 75
     1
175
     1
 42
1.0
 92
        0
 66
     7
 43
1.0
 76
     1
 77
     6
 78
     2
 67
     7
 79
     5
170
     0
171
     0
290
     0
174
     0
 93
       13
 44
0.0
173
     0
291
     1
 45
0.0
1001
ACAD
1000
AcDbSavedByObjectVersion
1070
     0
  0
VISUALSTYLE
  5
2E
102
{ACAD_REACTORS
330
2A
102
}
102
{ACAD_XDICTIONARY
360
74
102
}
330
2A
100
AcDbVisualStyle
  2
GouraudWithEdges
 70
     3
 71
     2
 72
     2
 73
     1
 90
        2
 40
-0.6
 41
30.0
 62
     5
 63
     7
 74
     1
 91
        4
 64
     7
 65
   257
 75
     1
175
     1
 42
1.0
 92
        0
 66
   257
 43
1.0
 76
     1
 77
     6
 78
     2
 67
     7
 79
     5
170
     0
171
     0
290
     0
174
     0
 93
       13
 44
0.0
173
     0
291
     1
 45
0.0
1001
ACAD
1000
AcDbSavedByObjectVersion
1070
     0
  0
VISUALSTYLE
  5
38
102
{ACAD_REACTORS
330
2A
102
}
102
{ACAD_XDICTIONARY
360
88
102
}
330
2A
100
AcDbVisualStyle
  2
Linepattern
 70
    14
 71
     2
 72
     2
 73
     0
 90
        0
 40
-0.6
 41
-30.0
 62
     5
 63
     7
 74
     1
 91
        4
 64
     7
 65
   257
 75
     7
175
     7
 42
1.0
 92
        8
 66
     7
 43
1.0
 76
     1
 77
     6
 78
     2
 67
     7
 79
     5
170
     0
171
     0
290
     0
174
     0
 93
        1
 44
0.0
173
     0
291
     1
 45
0.0
1001
ACAD
1000
AcDbSavedByObjectVersion
1070
     0
  0
VISUALSTYLE
  5
33
102
{ACAD_REACTORS
330
2A
102
}
102
{ACAD_XDICTIONARY
360
7E
102
}
330
2A
100
AcDbVisualStyle
  2
Realistic
 70
     8
 71
     2
 72
     2
 73
     0
 90
        0
 40
-0.6
 41
-30.0
 62
     5
 63
     7
 74
     1
 91
        0
 64
     7
 65
   257
 75
     1
175
     1
 42
1.0
 92
        8
 66
     8
 43
1.0
 76
     1
 77
     6
 78
     2
 67
     7
 79
     5
170
     0
171
     0
290
     0
174
     0
 93
       13
 44
0.0
173
     0
291
     0
 45
0.0
1001
ACAD
1000
AcDbSavedByObjectVersion
1070
     0
  0
VISUALSTYLE
  5
37
102
{ACAD_REACTORS
330
2A
102
}
102
{ACAD_XDICTIONARY
360
86
102
}
330
2A
100
AcDbVisualStyle
  2
Thicken
 70
    13
 71
     2
 72
     2
 73
     0
 90
        0
 40
-0.6
 41
-30.0
 62
     5
 63
     7
 74
     1
 91
        4
 64
     7
 65
   257
 75
     1
175
     1
 42
1.0
 92
       12
 66
     7
 43
1.0
 76
     1
 77
     6
 78
     2
 67
     7
 79
     5
170
     0
171
     0
290
     0
174
     0
 93
        1
 44
0.0
173
     0
291
     1
 45
0.0
1001
ACAD
1000
AcDbSavedByObjectVersion
1070
     0
  0
DICTIONARYVAR
  5
6C
102
{ACAD_REACTORS
330
69
102
}
330
69
100
DictionaryVariables
280
     0
  1
2
  0
DICTIONARYVAR
  5
6D
102
{ACAD_REACTORS
330
69
102
}
330
69
100
DictionaryVariables
280
     0
  1
1
  0
DICTIONARY
  5
90
330
3D
100
AcDbDictionary
280
     1
281
     1
  3
ACAD_XREC_ROUNDTRIP
360
91
  0
DICTIONARY
  5
8E
330
3C
100
AcDbDictionary
280
     1
281
     1
  3
ACAD_XREC_ROUNDTRIP
360
8F
  0
DICTIONARY
  5
92
330
3E
100
AcDbDictionary
280
     1
281
     1
  3
ACAD_XREC_ROUNDTRIP
360
93
  0
DICTIONARY
  5
76
330
2F
100
AcDbDictionary
280
     1
281
     1
  3
ACAD_XREC_ROUNDTRIP
360
77
  0
DICTIONARY
  5
7A
330
31
100
AcDbDictionary
280
     1
281
     1
  3
ACAD_XREC_ROUNDTRIP
360
7B
  0
DICTIONARY
  5
78
330
30
100
AcDbDictionary
280
     1
281
     1
  3
ACAD_XREC_ROUNDTRIP
360
79
  0
DICTIONARY
  5
7C
330
32
100
AcDbDictionary
280
     1
281
     1
  3
ACAD_XREC_ROUNDTRIP
360
7D
  0
DICTIONARY
  5
84
330
36
100
AcDbDictionary
280
     1
281
     1
  3
ACAD_XREC_ROUNDTRIP
360
85
  0
DICTIONARY
  5
8C
330
3A
100
AcDbDictionary
280
     1
281
     1
  3
ACAD_XREC_ROUNDTRIP
360
8D
  0
DICTIONARY
  5
80
330
34
100
AcDbDictionary
280
     1
281
     1
  3
ACAD_XREC_ROUNDTRIP
360
81
  0
DICTIONARY
  5
82
330
35
100
AcDbDictionary
280
     1
281
     1
  3
ACAD_XREC_ROUNDTRIP
360
83
  0
DICTIONARY
  5
8A
330
39
100
AcDbDictionary
280
     1
281
     1
  3
ACAD_XREC_ROUNDTRIP
360
8B
  0
DICTIONARY
  5
6E
330
2B
100
AcDbDictionary
280
     1
281
     1
  3
ACAD_XREC_ROUNDTRIP
360
6F
  0
DICTIONARY
  5
70
330
2C
100
AcDbDictionary
280
     1
281
     1
  3
ACAD_XREC_ROUNDTRIP
360
71
  0
DICTIONARY
  5
72
330
2D
100
AcDbDictionary
280
     1
281
     1
  3
ACAD_XREC_ROUNDTRIP
360
73
  0
DICTIONARY
  5
74
330
2E
100
AcDbDictionary
280
     1
281
     1
  3
ACAD_XREC_ROUNDTRIP
360
75
  0
DICTIONARY
  5
88
330
38
100
AcDbDictionary
280
     1
281
     1
  3
ACAD_XREC_ROUNDTRIP
360
89
  0
DICTIONARY
  5
7E
330
33
100
AcDbDictionary
280
     1
281
     1
  3
ACAD_XREC_ROUNDTRIP
360
7F
  0
DICTIONARY
  5
86
330
37
100
AcDbDictionary
280
     1
281
     1
  3
ACAD_XREC_ROUNDTRIP
360
87
  0
XRECORD
  5
91
102
{ACAD_REACTORS
330
90
102
}
330
90
100
AcDbXrecord
280
     1
102
MATERIAL
148
0.0
149
0.0
149
0.0
 93
        0
 94
      127
282
     0
 72
     1
 77
     1
171
     1
175
     1
179
     1
273
     0
  0
XRECORD
  5
8F
102
{ACAD_REACTORS
330
8E
102
}
330
8E
100
AcDbXrecord
280
     1
102
MATERIAL
148
0.0
149
0.0
149
0.0
 93
        0
 94
      127
282
     0
 72
     1
 77
     1
171
     1
175
     1
179
     1
273
     0
  0
XRECORD
  5
93
102
{ACAD_REACTORS
330
92
102
}
330
92
100
AcDbXrecord
280
     1
102
MATERIAL
148
0.0
149
0.0
149
0.0
 93
        0
 94
      127
282
     0
 72
     1
 77
     1
171
     1
175
     1
179
     1
273
     0
  0
XRECORD
  5
77
102
{ACAD_REACTORS
330
76
102
}
330
76
100
AcDbXrecord
280
     1
102
RTVSPropertyOp0
 70
     1
102
RTVSPropertyOp1
 70
     1
102
RTVSPropertyOp2
 70
     1
102
RTVSPropertyOp3
 70
     1
102
RTVSPropertyOp4
 70
     1
102
RTVSPropertyOp5
 70
     1
102
RTVSPropertyOp6
 70
     1
102
RTVSPropertyOp7
 70
     1
102
RTVSPropertyOp8
 70
     1
102
RTVSPropertyOp9
 70
     1
102
RTVSPropertyOp10
 70
     1
102
RTVSPropertyOp11
 70
     1
102
RTVSPropertyOp12
 70
     1
102
RTVSPropertyOp13
 70
     1
102
RTVSPropertyOp14
 70
     1
102
RTVSPropertyOp15
 70
     1
102
RTVSPropertyOp16
 70
     1
102
RTVSPropertyOp17
 70
     1
102
RTVSPropertyOp18
 70
     1
102
RTVSPropertyOp19
 70
     1
102
RTVSPropertyOp20
 70
     1
102
RTVSPropertyOp21
 70
     1
102
RTVSPropertyOp22
 70
     1
102
RTVSPropertyOp23
 70
     1
102
RTVSPropertyOp24
 70
     1
102
RTVSPropertyOp25
 70
     1
102
RTVSPropertyOp26
 70
     1
102
RTVSPropertyOp27
 70
     1
102
RTVSPropertyOp28
 70
     1
102
RTVSPropertyOp29
 70
     1
102
RTVSPropertyOp30
 70
     1
102
RTVSPropertyOp31
 70
     1
102
RTVSPropertyOp32
 70
     1
  0
XRECORD
  5
7B
102
{ACAD_REACTORS
330
7A
102
}
330
7A
100
AcDbXrecord
280
     1
102
RTVSPropertyOp0
 70
     1
102
RTVSPropertyOp1
 70
     1
102
RTVSPropertyOp2
 70
     1
102
RTVSPropertyOp3
 70
     1
102
RTVSPropertyOp4
 70
     1
102
RTVSPropertyOp5
 70
     1
102
RTVSPropertyOp6
 70
     1
102
RTVSPropertyOp7
 70
     1
102
RTVSPropertyOp8
 70
     1
102
RTVSPropertyOp9
 70
     1
102
RTVSPropertyOp10
 70
     1
102
RTVSPropertyOp11
 70
     1
102
RTVSPropertyOp12
 70
     1
102
RTVSPropertyOp13
 70
     1
102
RTVSPropertyOp14
 70
     1
102
RTVSPropertyOp15
 70
     1
102
RTVSPropertyOp16
 70
     1
102
RTVSPropertyOp17
 70
     1
102
RTVSPropertyOp18
 70
     1
102
RTVSPropertyOp19
 70
     1
102
RTVSPropertyOp20
 70
     1
102
RTVSPropertyOp21
 70
     1
102
RTVSPropertyOp22
 70
     1
102
RTVSPropertyOp23
 70
     1
102
RTVSPropertyOp24
 70
     1
102
RTVSPropertyOp25
 70
     1
102
RTVSPropertyOp26
 70
     1
102
RTVSPropertyOp27
 70
     1
102
RTVSPropertyOp28
 70
     1
102
RTVSPropertyOp29
 70
     1
102
RTVSPropertyOp30
 70
     1
102
RTVSPropertyOp31
 70
     1
102
RTVSPropertyOp32
 70
     1
  0
XRECORD
  5
79
102
{ACAD_REACTORS
330
78
102
}
330
78
100
AcDbXrecord
280
     1
102
RTVSPropertyOp0
 70
     1
102
RTVSPropertyOp1
 70
     1
102
RTVSPropertyOp2
 70
     1
102
RTVSPropertyOp3
 70
     1
102
RTVSPropertyOp4
 70
     1
102
RTVSPropertyOp5
 70
     1
102
RTVSPropertyOp6
 70
     1
102
RTVSPropertyOp7
 70
     1
102
RTVSPropertyOp8
 70
     1
102
RTVSPropertyOp9
 70
     1
102
RTVSPropertyOp10
 70
     1
102
RTVSPropertyOp11
 70
     1
102
RTVSPropertyOp12
 70
     1
102
RTVSPropertyOp13
 70
     1
102
RTVSPropertyOp14
 70
     1
102
RTVSPropertyOp15
 70
     1
102
RTVSPropertyOp16
 70
     1
102
RTVSPropertyOp17
 70
     1
102
RTVSPropertyOp18
 70
     1
102
RTVSPropertyOp19
 70
     1
102
RTVSPropertyOp20
 70
     1
102
RTVSPropertyOp21
 70
     1
102
RTVSPropertyOp22
 70
     1
102
RTVSPropertyOp23
 70
     1
102
RTVSPropertyOp24
 70
     1
102
RTVSPropertyOp25
 70
     1
102
RTVSPropertyOp26
 70
     1
102
RTVSPropertyOp27
 70
     1
102
RTVSPropertyOp28
 70
     1
102
RTVSPropertyOp29
 70
     1
102
RTVSPropertyOp30
 70
     1
102
RTVSPropertyOp31
 70
     1
102
RTVSPropertyOp32
 70
     1
  0
XRECORD
  5
7D
102
{ACAD_REACTORS
330
7C
102
}
330
7C
100
AcDbXrecord
280
     1
102
RTVSPropertyOp0
 70
     1
102
RTVSPropertyOp1
 70
     1
102
RTVSPropertyOp2
 70
     1
102
RTVSPropertyOp3
 70
     1
102
RTVSPropertyOp4
 70
     1
102
RTVSPropertyOp5
 70
     1
102
RTVSPropertyOp6
 70
     1
102
RTVSPropertyOp7
 70
     1
102
RTVSPropertyOp8
 70
     1
102
RTVSPropertyOp9
 70
     1
102
RTVSPropertyOp10
 70
     1
102
RTVSPropertyOp11
 70
     1
102
RTVSPropertyOp12
 70
     1
102
RTVSPropertyOp13
 70
     1
102
RTVSPropertyOp14
 70
     1
102
RTVSPropertyOp15
 70
     1
102
RTVSPropertyOp16
 70
     1
102
RTVSPropertyOp17
 70
     1
102
RTVSPropertyOp18
 70
     1
102
RTVSPropertyOp19
 70
     1
102
RTVSPropertyOp20
 70
     1
102
RTVSPropertyOp21
 70
     1
102
RTVSPropertyOp22
 70
     1
102
RTVSPropertyOp23
 70
     1
102
RTVSPropertyOp24
 70
     1
102
RTVSPropertyOp25
 70
     1
102
RTVSPropertyOp26
 70
     1
102
RTVSPropertyOp27
 70
     1
102
RTVSPropertyOp28
 70
     1
102
RTVSPropertyOp29
 70
     1
102
RTVSPropertyOp30
 70
     1
102
RTVSPropertyOp31
 70
     1
102
RTVSPropertyOp32
 70
     1
  0
XRECORD
  5
85
102
{ACAD_REACTORS
330
84
102
}
330
84
100
AcDbXrecord
280
     1
102
RTVSPropertyOp0
 70
     1
102
RTVSPropertyOp1
 70
     1
102
RTVSPropertyOp2
 70
     1
102
RTVSPropertyOp3
 70
     1
102
RTVSPropertyOp4
 70
     1
102
RTVSPropertyOp5
 70
     1
102
RTVSPropertyOp6
 70
     1
102
RTVSPropertyOp7
 70
     1
102
RTVSPropertyOp8
 70
     1
102
RTVSPropertyOp9
 70
     1
102
RTVSPropertyOp10
 70
     1
102
RTVSPropertyOp11
 70
     1
102
RTVSPropertyOp12
 70
     1
102
RTVSPropertyOp13
 70
     1
102
RTVSPropertyOp14
 70
     1
102
RTVSPropertyOp15
 70
     1
102
RTVSPropertyOp16
 70
     1
102
RTVSPropertyOp17
 70
     1
102
RTVSPropertyOp18
 70
     1
102
RTVSPropertyOp19
 70
     1
102
RTVSPropertyOp20
 70
     1
102
RTVSPropertyOp21
 70
     1
102
RTVSPropertyOp22
 70
     1
102
RTVSPropertyOp23
 70
     1
102
RTVSPropertyOp24
 70
     1
102
RTVSPropertyOp25
 70
     1
102
RTVSPropertyOp26
 70
     1
102
RTVSPropertyOp27
 70
     1
102
RTVSPropertyOp28
 70
     1
102
RTVSPropertyOp29
 70
     1
102
RTVSPropertyOp30
 70
     1
102
RTVSPropertyOp31
 70
     1
102
RTVSPropertyOp32
 70
     1
  0
XRECORD
  5
8D
102
{ACAD_REACTORS
330
8C
102
}
330
8C
100
AcDbXrecord
280
     1
102
RTVSPropertyOp0
 70
     1
102
RTVSPropertyOp1
 70
     1
102
RTVSPropertyOp2
 70
     1
102
RTVSPropertyOp3
 70
     1
102
RTVSPropertyOp4
 70
     1
102
RTVSPropertyOp5
 70
     1
102
RTVSPropertyOp6
 70
     1
102
RTVSPropertyOp7
 70
     1
102
RTVSPropertyOp8
 70
     1
102
RTVSPropertyOp9
 70
     1
102
RTVSPropertyOp10
 70
     1
102
RTVSPropertyOp11
 70
     1
102
RTVSPropertyOp12
 70
     1
102
RTVSPropertyOp13
 70
     1
102
RTVSPropertyOp14
 70
     1
102
RTVSPropertyOp15
 70
     1
102
RTVSPropertyOp16
 70
     1
102
RTVSPropertyOp17
 70
     1
102
RTVSPropertyOp18
 70
     1
102
RTVSPropertyOp19
 70
     1
102
RTVSPropertyOp20
 70
     1
102
RTVSPropertyOp21
 70
     1
102
RTVSPropertyOp22
 70
     1
102
RTVSPropertyOp23
 70
     1
102
RTVSPropertyOp24
 70
     1
102
RTVSPropertyOp25
 70
     1
102
RTVSPropertyOp26
 70
     1
102
RTVSPropertyOp27
 70
     1
102
RTVSPropertyOp28
 70
     1
102
RTVSPropertyOp29
 70
     1
102
RTVSPropertyOp30
 70
     1
102
RTVSPropertyOp31
 70
     1
102
RTVSPropertyOp32
 70
     1
  0
XRECORD
  5
81
102
{ACAD_REACTORS
330
80
102
}
330
80
100
AcDbXrecord
280
     1
102
RTVSPropertyOp0
 70
     1
102
RTVSPropertyOp1
 70
     1
102
RTVSPropertyOp2
 70
     1
102
RTVSPropertyOp3
 70
     1
102
RTVSPropertyOp4
 70
     1
102
RTVSPropertyOp5
 70
     1
102
RTVSPropertyOp6
 70
     1
102
RTVSPropertyOp7
 70
     1
102
RTVSPropertyOp8
 70
     1
102
RTVSPropertyOp9
 70
     1
102
RTVSPropertyOp10
 70
     1
102
RTVSPropertyOp11
 70
     1
102
RTVSPropertyOp12
 70
     1
102
RTVSPropertyOp13
 70
     1
102
RTVSPropertyOp14
 70
     1
102
RTVSPropertyOp15
 70
     1
102
RTVSPropertyOp16
 70
     1
102
RTVSPropertyOp17
 70
     1
102
RTVSPropertyOp18
 70
     1
102
RTVSPropertyOp19
 70
     1
102
RTVSPropertyOp20
 70
     1
102
RTVSPropertyOp21
 70
     1
102
RTVSPropertyOp22
 70
     1
102
RTVSPropertyOp23
 70
     1
102
RTVSPropertyOp24
 70
     1
102
RTVSPropertyOp25
 70
     1
102
RTVSPropertyOp26
 70
     1
102
RTVSPropertyOp27
 70
     1
102
RTVSPropertyOp28
 70
     1
102
RTVSPropertyOp29
 70
     1
102
RTVSPropertyOp30
 70
     1
102
RTVSPropertyOp31
 70
     1
102
RTVSPropertyOp32
 70
     1
  0
XRECORD
  5
83
102
{ACAD_REACTORS
330
82
102
}
330
82
100
AcDbXrecord
280
     1
102
RTVSPropertyOp0
 70
     1
102
RTVSPropertyOp1
 70
     1
102
RTVSPropertyOp2
 70
     1
102
RTVSPropertyOp3
 70
     1
102
RTVSPropertyOp4
 70
     1
102
RTVSPropertyOp5
 70
     1
102
RTVSPropertyOp6
 70
     1
102
RTVSPropertyOp7
 70
     1
102
RTVSPropertyOp8
 70
     1
102
RTVSPropertyOp9
 70
     1
102
RTVSPropertyOp10
 70
     1
102
RTVSPropertyOp11
 70
     1
102
RTVSPropertyOp12
 70
     1
102
RTVSPropertyOp13
 70
     1
102
RTVSPropertyOp14
 70
     1
102
RTVSPropertyOp15
 70
     1
102
RTVSPropertyOp16
 70
     1
102
RTVSPropertyOp17
 70
     1
102
RTVSPropertyOp18
 70
     1
102
RTVSPropertyOp19
 70
     1
102
RTVSPropertyOp20
 70
     1
102
RTVSPropertyOp21
 70
     1
102
RTVSPropertyOp22
 70
     1
102
RTVSPropertyOp23
 70
     1
102
RTVSPropertyOp24
 70
     1
102
RTVSPropertyOp25
 70
     1
102
RTVSPropertyOp26
 70
     1
102
RTVSPropertyOp27
 70
     1
102
RTVSPropertyOp28
 70
     1
102
RTVSPropertyOp29
 70
     1
102
RTVSPropertyOp30
 70
     1
102
RTVSPropertyOp31
 70
     1
102
RTVSPropertyOp32
 70
     1
  0
XRECORD
  5
8B
102
{ACAD_REACTORS
330
8A
102
}
330
8A
100
AcDbXrecord
280
     1
102
RTVSPropertyOp0
 70
     1
102
RTVSPropertyOp1
 70
     1
102
RTVSPropertyOp2
 70
     1
102
RTVSPropertyOp3
 70
     1
102
RTVSPropertyOp4
 70
     1
102
RTVSPropertyOp5
 70
     1
102
RTVSPropertyOp6
 70
     1
102
RTVSPropertyOp7
 70
     1
102
RTVSPropertyOp8
 70
     1
102
RTVSPropertyOp9
 70
     1
102
RTVSPropertyOp10
 70
     1
102
RTVSPropertyOp11
 70
     1
102
RTVSPropertyOp12
 70
     1
102
RTVSPropertyOp13
 70
     1
102
RTVSPropertyOp14
 70
     1
102
RTVSPropertyOp15
 70
     1
102
RTVSPropertyOp16
 70
     1
102
RTVSPropertyOp17
 70
     1
102
RTVSPropertyOp18
 70
     1
102
RTVSPropertyOp19
 70
     1
102
RTVSPropertyOp20
 70
     1
102
RTVSPropertyOp21
 70
     1
102
RTVSPropertyOp22
 70
     1
102
RTVSPropertyOp23
 70
     1
102
RTVSPropertyOp24
 70
     1
102
RTVSPropertyOp25
 70
     1
102
RTVSPropertyOp26
 70
     1
102
RTVSPropertyOp27
 70
     1
102
RTVSPropertyOp28
 70
     1
102
RTVSPropertyOp29
 70
     1
102
RTVSPropertyOp30
 70
     1
102
RTVSPropertyOp31
 70
     1
102
RTVSPropertyOp32
 70
     1
  0
XRECORD
  5
6F
102
{ACAD_REACTORS
330
6E
102
}
330
6E
100
AcDbXrecord
280
     1
102
RTVSPropertyOp0
 70
     1
102
RTVSPropertyOp1
 70
     1
102
RTVSPropertyOp2
 70
     1
102
RTVSPropertyOp3
 70
     1
102
RTVSPropertyOp4
 70
     1
102
RTVSPropertyOp5
 70
     1
102
RTVSPropertyOp6
 70
     1
102
RTVSPropertyOp7
 70
     1
102
RTVSPropertyOp8
 70
     1
102
RTVSPropertyOp9
 70
     1
102
RTVSPropertyOp10
 70
     1
102
RTVSPropertyOp11
 70
     1
102
RTVSPropertyOp12
 70
     1
102
RTVSPropertyOp13
 70
     1
102
RTVSPropertyOp14
 70
     1
102
RTVSPropertyOp15
 70
     1
102
RTVSPropertyOp16
 70
     1
102
RTVSPropertyOp17
 70
     1
102
RTVSPropertyOp18
 70
     1
102
RTVSPropertyOp19
 70
     1
102
RTVSPropertyOp20
 70
     1
102
RTVSPropertyOp21
 70
     1
102
RTVSPropertyOp22
 70
     1
102
RTVSPropertyOp23
 70
     1
102
RTVSPropertyOp24
 70
     1
102
RTVSPropertyOp25
 70
     1
102
RTVSPropertyOp26
 70
     1
102
RTVSPropertyOp27
 70
     1
102
RTVSPropertyOp28
 70
     1
102
RTVSPropertyOp29
 70
     1
102
RTVSPropertyOp30
 70
     1
102
RTVSPropertyOp31
 70
     1
102
RTVSPropertyOp32
 70
     1
  0
XRECORD
  5
71
102
{ACAD_REACTORS
330
70
102
}
330
70
100
AcDbXrecord
280
     1
102
RTVSPropertyOp0
 70
     1
102
RTVSPropertyOp1
 70
     1
102
RTVSPropertyOp2
 70
     1
102
RTVSPropertyOp3
 70
     1
102
RTVSPropertyOp4
 70
     1
102
RTVSPropertyOp5
 70
     1
102
RTVSPropertyOp6
 70
     1
102
RTVSPropertyOp7
 70
     1
102
RTVSPropertyOp8
 70
     1
102
RTVSPropertyOp9
 70
     1
102
RTVSPropertyOp10
 70
     1
102
RTVSPropertyOp11
 70
     1
102
RTVSPropertyOp12
 70
     1
102
RTVSPropertyOp13
 70
     1
102
RTVSPropertyOp14
 70
     1
102
RTVSPropertyOp15
 70
     1
102
RTVSPropertyOp16
 70
     1
102
RTVSPropertyOp17
 70
     1
102
RTVSPropertyOp18
 70
     1
102
RTVSPropertyOp19
 70
     1
102
RTVSPropertyOp20
 70
     1
102
RTVSPropertyOp21
 70
     1
102
RTVSPropertyOp22
 70
     1
102
RTVSPropertyOp23
 70
     1
102
RTVSPropertyOp24
 70
     1
102
RTVSPropertyOp25
 70
     1
102
RTVSPropertyOp26
 70
     1
102
RTVSPropertyOp27
 70
     1
102
RTVSPropertyOp28
 70
     1
102
RTVSPropertyOp29
 70
     1
102
RTVSPropertyOp30
 70
     1
102
RTVSPropertyOp31
 70
     1
102
RTVSPropertyOp32
 70
     1
  0
XRECORD
  5
73
102
{ACAD_REACTORS
330
72
102
}
330
72
100
AcDbXrecord
280
     1
102
RTVSPropertyOp0
 70
     1
102
RTVSPropertyOp1
 70
     1
102
RTVSPropertyOp2
 70
     1
102
RTVSPropertyOp3
 70
     1
102
RTVSPropertyOp4
 70
     1
102
RTVSPropertyOp5
 70
     1
102
RTVSPropertyOp6
 70
     1
102
RTVSPropertyOp7
 70
     1
102
RTVSPropertyOp8
 70
     1
102
RTVSPropertyOp9
 70
     1
102
RTVSPropertyOp10
 70
     1
102
RTVSPropertyOp11
 70
     1
102
RTVSPropertyOp12
 70
     1
102
RTVSPropertyOp13
 70
     1
102
RTVSPropertyOp14
 70
     1
102
RTVSPropertyOp15
 70
     1
102
RTVSPropertyOp16
 70
     1
102
RTVSPropertyOp17
 70
     1
102
RTVSPropertyOp18
 70
     1
102
RTVSPropertyOp19
 70
     1
102
RTVSPropertyOp20
 70
     1
102
RTVSPropertyOp21
 70
     1
102
RTVSPropertyOp22
 70
     1
102
RTVSPropertyOp23
 70
     1
102
RTVSPropertyOp24
 70
     1
102
RTVSPropertyOp25
 70
     1
102
RTVSPropertyOp26
 70
     1
102
RTVSPropertyOp27
 70
     1
102
RTVSPropertyOp28
 70
     1
102
RTVSPropertyOp29
 70
     1
102
RTVSPropertyOp30
 70
     1
102
RTVSPropertyOp31
 70
     1
102
RTVSPropertyOp32
 70
     1
  0
XRECORD
  5
75
102
{ACAD_REACTORS
330
74
102
}
330
74
100
AcDbXrecord
280
     1
102
RTVSPropertyOp0
 70
     1
102
RTVSPropertyOp1
 70
     1
102
RTVSPropertyOp2
 70
     1
102
RTVSPropertyOp3
 70
     1
102
RTVSPropertyOp4
 70
     1
102
RTVSPropertyOp5
 70
     1
102
RTVSPropertyOp6
 70
     1
102
RTVSPropertyOp7
 70
     1
102
RTVSPropertyOp8
 70
     1
102
RTVSPropertyOp9
 70
     1
102
RTVSPropertyOp10
 70
     1
102
RTVSPropertyOp11
 70
     1
102
RTVSPropertyOp12
 70
     1
102
RTVSPropertyOp13
 70
     1
102
RTVSPropertyOp14
 70
     1
102
RTVSPropertyOp15
 70
     1
102
RTVSPropertyOp16
 70
     1
102
RTVSPropertyOp17
 70
     1
102
RTVSPropertyOp18
 70
     1
102
RTVSPropertyOp19
 70
     1
102
RTVSPropertyOp20
 70
     1
102
RTVSPropertyOp21
 70
     1
102
RTVSPropertyOp22
 70
     1
102
RTVSPropertyOp23
 70
     1
102
RTVSPropertyOp24
 70
     1
102
RTVSPropertyOp25
 70
     1
102
RTVSPropertyOp26
 70
     1
102
RTVSPropertyOp27
 70
     1
102
RTVSPropertyOp28
 70
     1
102
RTVSPropertyOp29
 70
     1
102
RTVSPropertyOp30
 70
     1
102
RTVSPropertyOp31
 70
     1
102
RTVSPropertyOp32
 70
     1
  0
XRECORD
  5
89
102
{ACAD_REACTORS
330
88
102
}
330
88
100
AcDbXrecord
280
     1
102
RTVSPropertyOp0
 70
     1
102
RTVSPropertyOp1
 70
     1
102
RTVSPropertyOp2
 70
     1
102
RTVSPropertyOp3
 70
     1
102
RTVSPropertyOp4
 70
     1
102
RTVSPropertyOp5
 70
     1
102
RTVSPropertyOp6
 70
     1
102
RTVSPropertyOp7
 70
     1
102
RTVSPropertyOp8
 70
     1
102
RTVSPropertyOp9
 70
     1
102
RTVSPropertyOp10
 70
     1
102
RTVSPropertyOp11
 70
     1
102
RTVSPropertyOp12
 70
     1
102
RTVSPropertyOp13
 70
     1
102
RTVSPropertyOp14
 70
     1
102
RTVSPropertyOp15
 70
     1
102
RTVSPropertyOp16
 70
     1
102
RTVSPropertyOp17
 70
     1
102
RTVSPropertyOp18
 70
     1
102
RTVSPropertyOp19
 70
     1
102
RTVSPropertyOp20
 70
     1
102
RTVSPropertyOp21
 70
     1
102
RTVSPropertyOp22
 70
     1
102
RTVSPropertyOp23
 70
     1
102
RTVSPropertyOp24
 70
     1
102
RTVSPropertyOp25
 70
     1
102
RTVSPropertyOp26
 70
     1
102
RTVSPropertyOp27
 70
     1
102
RTVSPropertyOp28
 70
     1
102
RTVSPropertyOp29
 70
     1
102
RTVSPropertyOp30
 70
     1
102
RTVSPropertyOp31
 70
     1
102
RTVSPropertyOp32
 70
     1
  0
XRECORD
  5
7F
102
{ACAD_REACTORS
330
7E
102
}
330
7E
100
AcDbXrecord
280
     1
102
RTVSPropertyOp0
 70
     1
102
RTVSPropertyOp1
 70
     1
102
RTVSPropertyOp2
 70
     1
102
RTVSPropertyOp3
 70
     1
102
RTVSPropertyOp4
 70
     1
102
RTVSPropertyOp5
 70
     1
102
RTVSPropertyOp6
 70
     1
102
RTVSPropertyOp7
 70
     1
102
RTVSPropertyOp8
 70
     1
102
RTVSPropertyOp9
 70
     1
102
RTVSPropertyOp10
 70
     1
102
RTVSPropertyOp11
 70
     1
102
RTVSPropertyOp12
 70
     1
102
RTVSPropertyOp13
 70
     1
102
RTVSPropertyOp14
 70
     1
102
RTVSPropertyOp15
 70
     1
102
RTVSPropertyOp16
 70
     1
102
RTVSPropertyOp17
 70
     1
102
RTVSPropertyOp18
 70
     1
102
RTVSPropertyOp19
 70
     1
102
RTVSPropertyOp20
 70
     1
102
RTVSPropertyOp21
 70
     1
102
RTVSPropertyOp22
 70
     1
102
RTVSPropertyOp23
 70
     1
102
RTVSPropertyOp24
 70
     1
102
RTVSPropertyOp25
 70
     1
102
RTVSPropertyOp26
 70
     1
102
RTVSPropertyOp27
 70
     1
102
RTVSPropertyOp28
 70
     1
102
RTVSPropertyOp29
 70
     1
102
RTVSPropertyOp30
 70
     1
102
RTVSPropertyOp31
 70
     1
102
RTVSPropertyOp32
 70
     1
  0
XRECORD
  5
87
102
{ACAD_REACTORS
330
86
102
}
330
86
100
AcDbXrecord
280
     1
102
RTVSPropertyOp0
 70
     1
102
RTVSPropertyOp1
 70
     1
102
RTVSPropertyOp2
 70
     1
102
RTVSPropertyOp3
 70
     1
102
RTVSPropertyOp4
 70
     1
102
RTVSPropertyOp5
 70
     1
102
RTVSPropertyOp6
 70
     1
102
RTVSPropertyOp7
 70
     1
102
RTVSPropertyOp8
 70
     1
102
RTVSPropertyOp9
 70
     1
102
RTVSPropertyOp10
 70
     1
102
RTVSPropertyOp11
 70
     1
102
RTVSPropertyOp12
 70
     1
102
RTVSPropertyOp13
 70
     1
102
RTVSPropertyOp14
 70
     1
102
RTVSPropertyOp15
 70
     1
102
RTVSPropertyOp16
 70
     1
102
RTVSPropertyOp17
 70
     1
102
RTVSPropertyOp18
 70
     1
102
RTVSPropertyOp19
 70
     1
102
RTVSPropertyOp20
 70
     1
102
RTVSPropertyOp21
 70
     1
102
RTVSPropertyOp22
 70
     1
102
RTVSPropertyOp23
 70
     1
102
RTVSPropertyOp24
 70
     1
102
RTVSPropertyOp25
 70
     1
102
RTVSPropertyOp26
 70
     1
102
RTVSPropertyOp27
 70
     1
102
RTVSPropertyOp28
 70
     1
102
RTVSPropertyOp29
 70
     1
102
RTVSPropertyOp30
 70
     1
102
RTVSPropertyOp31
 70
     1
102
RTVSPropertyOp32
 70
     1
  0
ENDSEC
  0
EOF
