  0
SECTION
  2
HEADER
  9
$ACADVER
  1
AC1021
  9
$ACADMAINTVER
 70
    25
  9
$DWGCODEPAGE
  3
ANSI_1252
  9
$INSBASE
 10
0.0
 20
0.0
 30
0.0
  9
$EXTMIN
 10
-23.99595
 20
-28.63823
 30
0.0
  9
$EXTMAX
 10
18.22611
 20
23.85566
 30
0.0
  9
$LIMMIN
 10
0.0
 20
0.0
  9
$LIMMAX
 10
12.0
 20
9.0
  9
$ORTHOMODE
 70
     0
  9
$REGENMODE
 70
     1
  9
$FILLMODE
 70
     1
  9
$QTEXTMODE
 70
     0
  9
$MIRRTEXT
 70
     1
  9
$LTSCALE
 40
1.0
  9
$ATTMODE
 70
     1
  9
$TEXTSIZE
 40
0.2
  9
$TRACEWID
 40
0.05
  9
$TEXTSTYLE
  7
Standard
  9
$CLAYER
  8
0
  9
$CELTYPE
  6
ByLayer
  9
$CECOLOR
 62
   256
  9
$CELTSCALE
 40
1.0
  9
$DISPSILH
 70
     0
  9
$DIMSCALE
 40
1.0
  9
$DIMASZ
 40
0.18
  9
$DIMEXO
 40
0.0625
  9
$DIMDLI
 40
0.38
  9
$DIMRND
 40
0.0
  9
$DIMDLE
 40
0.0
  9
$DIMEXE
 40
0.18
  9
$DIMTP
 40
0.0
  9
$DIMTM
 40
0.0
  9
$DIMTXT
 40
0.18
  9
$DIMCEN
 40
0.09
  9
$DIMTSZ
 40
0.0
  9
$DIMTOL
 70
     0
  9
$DIMLIM
 70
     0
  9
$DIMTIH
 70
     1
  9
$DIMTOH
 70
     1
  9
$DIMSE1
 70
     0
  9
$DIMSE2
 70
     0
  9
$DIMTAD
 70
     0
  9
$DIMZIN
 70
     0
  9
$DIMBLK
  1

  9
$DIMASO
 70
     1
  9
$DIMSHO
 70
     1
  9
$DIMPOST
  1

  9
$DIMAPOST
  1

  9
$DIMALT
 70
     0
  9
$DIMALTD
 70
     2
  9
$DIMALTF
 40
25.4
  9
$DIMLFAC
 40
1.0
  9
$DIMTOFL
 70
     0
  9
$DIMTVP
 40
0.0
  9
$DIMTIX
 70
     0
  9
$DIMSOXD
 70
     0
  9
$DIMSAH
 70
     0
  9
$DIMBLK1
  1

  9
$DIMBLK2
  1

  9
$DIMSTYLE
  2
Standard
  9
$DIMCLRD
 70
     0
  9
$DIMCLRE
 70
     0
  9
$DIMCLRT
 70
     0
  9
$DIMTFAC
 40
1.0
  9
$DIMGAP
 40
0.09
  9
$DIMJUST
 70
     0
  9
$DIMSD1
 70
     0
  9
$DIMSD2
 70
     0
  9
$DIMTOLJ
 70
     1
  9
$DIMTZIN
 70
     0
  9
$DIMALTZ
 70
     0
  9
$DIMALTTZ
 70
     0
  9
$DIMUPT
 70
     0
  9
$DIMDEC
 70
     4
  9
$DIMTDEC
 70
     4
  9
$DIMALTU
 70
     2
  9
$DIMALTTD
 70
     2
  9
$DIMTXSTY
  7
Standard
  9
$DIMAUNIT
 70
     0
  9
$DIMADEC
 70
     0
  9
$DIMALTRND
 40
0.0
  9
$DIMAZIN
 70
     0
  9
$DIMDSEP
 70
    46
  9
$DIMATFIT
 70
     3
  9
$DIMFRAC
 70
     0
  9
$DIMLDRBLK
  1

  9
$DIMLUNIT
 70
     2
  9
$DIMLWD
 70
    -2
  9
$DIMLWE
 70
    -2
  9
$DIMTMOVE
 70
     0
  9
$DIMFXL
 40
1.0
  9
$DIMFXLON
 70
     0
  9
$DIMJOGANG
 40
0.7853981633974483
  9
$DIMTFILL
 70
     0
  9
$DIMTFILLCLR
 70
     0
  9
$DIMARCSYM
 70
     0
  9
$DIMLTYPE
  6

  9
$DIMLTEX1
  6

  9
$DIMLTEX2
  6

  9
$LUNITS
 70
     2
  9
$LUPREC
 70
     4
  9
$SKETCHINC
 40
0.1
  9
$FILLETRAD
 40
0.5
  9
$AUNITS
 70
     0
  9
$AUPREC
 70
     0
  9
$MENU
  1
.
  9
$ELEVATION
 40
0.0
  9
$PELEVATION
 40
0.0
  9
$THICKNESS
 40
0.0
  9
$LIMCHECK
 70
     0
  9
$CHAMFERA
 40
0.0
  9
$CHAMFERB
 40
0.0
  9
$CHAMFERC
 40
0.0
  9
$CHAMFERD
 40
0.0
  9
$SKPOLY
 70
     0
  9
$TDCREATE
 40
2457283.684255741
  9
$TDUCREATE
 40
2457283.809255741
  9
$TDUPDATE
 40
2457283.684255868
  9
$TDUUPDATE
 40
2457283.809255868
  9
$TDINDWG
 40
0.0000000116
  9
$TDUSRTIMER
 40
0.0000000116
  9
$USRTIMER
 70
     1
  9
$ANGBASE
 50
0.0
  9
$ANGDIR
 70
     0
  9
$PDMODE
 70
     0
  9
$PDSIZE
 40
0.0
  9
$PLINEWID
 40
0.0
  9
$SPLFRAME
 70
     0
  9
$SPLINETYPE
 70
     6
  9
$SPLINESEGS
 70
     8
  9
$HANDSEED
  5
D6
  9
$SURFTAB1
 70
     6
  9
$SURFTAB2
 70
     6
  9
$SURFTYPE
 70
     6
  9
$SURFU
 70
     6
  9
$SURFV
 70
     6
  9
$UCSBASE
  2

  9
$UCSNAME
  2

  9
$UCSORG
 10
0.0
 20
0.0
 30
0.0
  9
$UCSXDIR
 10
1.0
 20
0.0
 30
0.0
  9
$UCSYDIR
 10
0.0
 20
1.0
 30
0.0
  9
$UCSORTHOREF
  2

  9
$UCSORTHOVIEW
 70
     0
  9
$UCSORGTOP
 10
0.0
 20
0.0
 30
0.0
  9
$UCSORGBOTTOM
 10
0.0
 20
0.0
 30
0.0
  9
$UCSORGLEFT
 10
0.0
 20
0.0
 30
0.0
  9
$UCSORGRIGHT
 10
0.0
 20
0.0
 30
0.0
  9
$UCSORGFRONT
 10
0.0
 20
0.0
 30
0.0
  9
$UCSORGBACK
 10
0.0
 20
0.0
 30
0.0
  9
$PUCSBASE
  2

  9
$PUCSNAME
  2

  9
$PUCSORG
 10
0.0
 20
0.0
 30
0.0
  9
$PUCSXDIR
 10
1.0
 20
0.0
 30
0.0
  9
$PUCSYDIR
 10
0.0
 20
1.0
 30
0.0
  9
$PUCSORTHOREF
  2

  9
$PUCSORTHOVIEW
 70
     0
  9
$PUCSORGTOP
 10
0.0
 20
0.0
 30
0.0
  9
$PUCSORGBOTTOM
 10
0.0
 20
0.0
 30
0.0
  9
$PUCSORGLEFT
 10
0.0
 20
0.0
 30
0.0
  9
$PUCSORGRIGHT
 10
0.0
 20
0.0
 30
0.0
  9
$PUCSORGFRONT
 10
0.0
 20
0.0
 30
0.0
  9
$PUCSORGBACK
 10
0.0
 20
0.0
 30
0.0
  9
$USERI1
 70
     0
  9
$USERI2
 70
     0
  9
$USERI3
 70
     0
  9
$USERI4
 70
     0
  9
$USERI5
 70
     0
  9
$USERR1
 40
0.0
  9
$USERR2
 40
0.0
  9
$USERR3
 40
0.0
  9
$USERR4
 40
0.0
  9
$USERR5
 40
0.0
  9
$WORLDVIEW
 70
     1
  9
$SHADEDGE
 70
     3
  9
$SHADEDIF
 70
    70
  9
$TILEMODE
 70
     1
  9
$MAXACTVP
 70
    64
  9
$PINSBASE
 10
0.0
 20
0.0
 30
0.0
  9
$PLIMCHECK
 70
     0
  9
$PEXTMIN
 10
1.000000000000000E+20
 20
1.000000000000000E+20
 30
1.000000000000000E+20
  9
$PEXTMAX
 10
-1.000000000000000E+20
 20
-1.000000000000000E+20
 30
-1.000000000000000E+20
  9
$PLIMMIN
 10
0.0
 20
0.0
  9
$PLIMMAX
 10
12.0
 20
9.0
  9
$UNITMODE
 70
     0
  9
$VISRETAIN
 70
     1
  9
$PLINEGEN
 70
     0
  9
$PSLTSCALE
 70
     1
  9
$TREEDEPTH
 70
  3020
  9
$CMLSTYLE
  2
Standard
  9
$CMLJUST
 70
     0
  9
$CMLSCALE
 40
1.0
  9
$PROXYGRAPHICS
 70
     1
  9
$MEASUREMENT
 70
     0
  9
$CELWEIGHT
370
    -1
  9
$ENDCAPS
280
     0
  9
$JOINSTYLE
280
     0
  9
$LWDISPLAY
290
     0
  9
$INSUNITS
 70
     5
  9
$HYPERLINKBASE
  1

  9
$STYLESHEET
  1

  9
$XEDIT
290
     1
  9
$CEPSNTYPE
380
     0
  9
$PSTYLEMODE
290
     1
  9
$FINGERPRINTGUID
  2
{A6DF288E-00E0-4FDA-91FA-F1F988595B41}
  9
$VERSIONGUID
  2
{FAEB1C32-E019-11D5-929B-00C0DF256EC4}
  9
$EXTNAMES
290
     1
  9
$PSVPSCALE
 40
0.0
  9
$OLESTARTUP
290
     0
  9
$SORTENTS
280
   127
  9
$INDEXCTL
280
     0
  9
$HIDETEXT
280
     1
  9
$XCLIPFRAME
290
     0
  9
$HALOGAP
280
     0
  9
$OBSCOLOR
 70
   257
  9
$OBSLTYPE
280
     0
  9
$INTERSECTIONDISPLAY
280
     0
  9
$INTERSECTIONCOLOR
 70
   257
  9
$DIMASSOC
280
     2
  9
$PROJECTNAME
  1

  9
$CAMERADISPLAY
290
     0
  9
$LENSLENGTH
 40
50.0
  9
$CAMERAHEIGHT
 40
0.0
  9
$STEPSPERSEC
 40
2.0
  9
$STEPSIZE
 40
6.0
  9
$3DDWFPREC
 40
2.0
  9
$PSOLWIDTH
 40
0.25
  9
$PSOLHEIGHT
 40
4.0
  9
$LOFTANG1
 40
1.570796326794897
  9
$LOFTANG2
 40
1.570796326794897
  9
$LOFTMAG1
 40
0.0
  9
$LOFTMAG2
 40
0.0
  9
$LOFTPARAM
 70
     7
  9
$LOFTNORMALS
280
     1
  9
$LATITUDE
 40
37.795
  9
$LONGITUDE
 40
-122.394
  9
$NORTHDIRECTION
 40
0.0
  9
$TIMEZONE
 70
 -8000
  9
$LIGHTGLYPHDISPLAY
280
     1
  9
$TILEMODELIGHTSYNCH
280
     1
  9
$CMATERIAL
347
44
  9
$SOLIDHIST
280
     0
  9
$SHOWHIST
280
     1
  9
$DWFFRAME
280
     2
  9
$DGNFRAME
280
     2
  9
$REALWORLDSCALE
290
     1
  9
$INTERFERECOLOR
 62
   256
  9
$CSHADOW
280
     0
  9
$SHADOWPLANELOCATION
 40
0.0
  0
ENDSEC
  0
SECTION
  2
CLASSES
  0
CLASS
  1
ACDBDICTIONARYWDFLT
  2
AcDbDictionaryWithDefault
  3
ObjectDBX Classes
 90
        0
 91
        4
280
     0
281
     0
  0
CLASS
  1
VISUALSTYLE
  2
AcDbVisualStyle
  3
ObjectDBX Classes
 90
     4095
 91
        4
280
     0
281
     0
  0
CLASS
  1
MATERIAL
  2
AcDbMaterial
  3
ObjectDBX Classes
 90
     1153
 91
        4
280
     0
281
     0
  0
CLASS
  1
SCALE
  2
AcDbScale
  3
ObjectDBX Classes
 90
     1153
 91
        4
280
     0
281
     0
  0
CLASS
  1
TABLESTYLE
  2
AcDbTableStyle
  3
ObjectDBX Classes
 90
     4095
 91
        4
280
     0
281
     0
  0
CLASS
  1
MLEADERSTYLE
  2
AcDbMLeaderStyle
  3
ACDB_MLEADERSTYLE_CLASS
 90
     4095
 91
        4
280
     0
281
     0
  0
CLASS
  1
SUN
  2
AcDbSun
  3
SCENEOE
 90
     1153
 91
        4
280
     0
281
     0
  0
CLASS
  1
DICTIONARYVAR
  2
AcDbDictionaryVar
  3
ObjectDBX Classes
 90
        0
 91
        4
280
     0
281
     0
  0
CLASS
  1
CELLSTYLEMAP
  2
AcDbCellStyleMap
  3
ObjectDBX Classes
 90
     1152
 91
        4
280
     0
281
     0
  0
ENDSEC
  0
SECTION
  2
TABLES
  0
TABLE
  2
VPORT
  5
8
330
0
100
AcDbSymbolTable
 70
     1
  0
VPORT
  5
29
330
8
100
AcDbSymbolTableRecord
100
AcDbViewportTableRecord
  2
*Active
 70
     0
 10
0.0
 20
0.0
 11
1.0
 21
1.0
 12
10.42990654205607
 22
4.5
 13
0.0
 23
0.0
 14
0.5
 24
0.5
 15
0.5
 25
0.5
 16
0.0
 26
0.0
 36
1.0
 17
0.0
 27
0.0
 37
0.0
 40
9.0
 41
1.972972972850329
 42
50.0
 43
0.0
 44
0.0
 50
0.0
 51
0.0
 71
     0
 72
   100
 73
     1
 74
     3
 75
     0
 76
     0
 77
     0
 78
     0
281
     0
 65
     1
110
0.0
120
0.0
130
0.0
111
1.0
121
0.0
131
0.0
112
0.0
122
1.0
132
0.0
 79
     0
146
0.0
 60
     3
 61
     5
292
     1
282
     1
141
0.0
142
0.0
 63
   250
361
6D
  0
ENDTAB
  0
TABLE
  2
LTYPE
  5
5
330
0
100
AcDbSymbolTable
 70
     1
  0
LTYPE
  5
14
330
5
100
AcDbSymbolTableRecord
100
AcDbLinetypeTableRecord
  2
ByBlock
 70
     0
  3

 72
    65
 73
     0
 40
0.0
  0
LTYPE
  5
15
330
5
100
AcDbSymbolTableRecord
100
AcDbLinetypeTableRecord
  2
ByLayer
 70
     0
  3

 72
    65
 73
     0
 40
0.0
  0
LTYPE
  5
16
330
5
100
AcDbSymbolTableRecord
100
AcDbLinetypeTableRecord
  2
Continuous
 70
     0
  3
Solid line
 72
    65
 73
     0
 40
0.0
  0
ENDTAB
  0
TABLE
  2
LAYER
  5
2
330
0
100
AcDbSymbolTable
 70
     2
  0
LAYER
  5
10
330
2
100
AcDbSymbolTableRecord
100
AcDbLayerTableRecord
  2
0
 70
     0
 62
     7
  6
Continuous
370
    -3
390
F
347
46
  0
LAYER
  5
6F
330
2
100
AcDbSymbolTableRecord
100
AcDbLayerTableRecord
  2
Camada 1
 70
     0
 62
     7
  6
Continuous
370
    -3
390
F
347
46
  0
ENDTAB
  0
TABLE
  2
STYLE
  5
3
330
0
100
AcDbSymbolTable
 70
     1
  0
STYLE
  5
11
330
3
100
AcDbSymbolTableRecord
100
AcDbTextStyleTableRecord
  2
Standard
 70
     0
 40
0.0
 41
1.0
 50
0.0
 71
     0
 42
0.2
  3
txt
  4

  0
ENDTAB
  0
TABLE
  2
VIEW
  5
6
330
0
100
AcDbSymbolTable
 70
     0
  0
ENDTAB
  0
TABLE
  2
UCS
  5
7
330
0
100
AcDbSymbolTable
 70
     0
  0
ENDTAB
  0
TABLE
  2
APPID
  5
9
330
0
100
AcDbSymbolTable
 70
     3
  0
APPID
  5
12
330
9
100
AcDbSymbolTableRecord
100
AcDbRegAppTableRecord
  2
ACAD
 70
     0
  0
APPID
  5
6E
330
9
100
AcDbSymbolTableRecord
100
AcDbRegAppTableRecord
  2
ODA
 70
     0
  0
APPID
  5
CE
330
9
100
AcDbSymbolTableRecord
100
AcDbRegAppTableRecord
  2
ACAD_MLEADERVER
 70
     0
  0
ENDTAB
  0
TABLE
  2
DIMSTYLE
  5
A
330
0
100
AcDbSymbolTable
 70
     1
100
AcDbDimStyleTable
  0
DIMSTYLE
105
27
330
A
100
AcDbSymbolTableRecord
100
AcDbDimStyleTableRecord
  2
Standard
 70
     0
178
     0
340
11
  0
ENDTAB
  0
TABLE
  2
BLOCK_RECORD
  5
1
330
0
100
AcDbSymbolTable
 70
     1
  0
BLOCK_RECORD
  5
1F
330
1
100
AcDbSymbolTableRecord
100
AcDbBlockTableRecord
  2
*Model_Space
340
22
 70
     0
280
     1
281
     0
  0
BLOCK_RECORD
  5
1B
330
1
100
AcDbSymbolTableRecord
100
AcDbBlockTableRecord
  2
*Paper_Space
340
1E
 70
     0
280
     1
281
     0
  0
BLOCK_RECORD
  5
23
330
1
100
AcDbSymbolTableRecord
100
AcDbBlockTableRecord
  2
*Paper_Space0
340
26
 70
     0
280
     1
281
     0
  0
ENDTAB
  0
ENDSEC
  0
SECTION
  2
BLOCKS
  0
BLOCK
  5
20
330
1F
100
AcDbEntity
  8
0
100
AcDbBlockBegin
  2
*Model_Space
 70
     0
 10
0.0
 20
0.0
 30
0.0
  3
*Model_Space
  1
*Model_Space
  0
ENDBLK
  5
21
330
1F
100
AcDbEntity
  8
0
100
AcDbBlockEnd
  0
BLOCK
  5
1C
330
1B
100
AcDbEntity
 67
     1
  8
0
100
AcDbBlockBegin
  2
*Paper_Space
 70
     0
 10
0.0
 20
0.0
 30
0.0
  3
*Paper_Space
  1
*Paper_Space
  0
ENDBLK
  5
1D
330
1B
100
AcDbEntity
 67
     1
  8
0
100
AcDbBlockEnd
  0
BLOCK
  5
24
330
23
100
AcDbEntity
  8
0
100
AcDbBlockBegin
  2
*Paper_Space0
 70
     0
 10
0.0
 20
0.0
 30
0.0
  3
*Paper_Space0
  1
*Paper_Space0
  0
ENDBLK
  5
25
330
23
100
AcDbEntity
  8
0
100
AcDbBlockEnd
  0
ENDSEC
  0
SECTION
  2
ENTITIES
  0
SPLINE
  5
70
330
1F
100
AcDbEntity
  8
Camada 1
 62
   250
100
AcDbSpline
210
0.0
220
0.0
230
1.0
 70
    11
 71
     3
 72
   124
 73
   120
 74
     0
 42
0.000000001
 43
0.0000000001
 40
0.0
 40
0.0
 40
0.0
 40
0.0
 40
0.032258064516129
 40
0.032258064516129
 40
0.032258064516129
 40
0.032258064516129
 40
0.0645161290322581
 40
0.0645161290322581
 40
0.0645161290322581
 40
0.0645161290322581
 40
0.0967741935483871
 40
0.0967741935483871
 40
0.0967741935483871
 40
0.0967741935483871
 40
0.1290322580645161
 40
0.1290322580645161
 40
0.1290322580645161
 40
0.1290322580645161
 40
0.1612903225806452
 40
0.1612903225806452
 40
0.1612903225806452
 40
0.1612903225806452
 40
0.1935483870967742
 40
0.1935483870967742
 40
0.1935483870967742
 40
0.1935483870967742
 40
0.2258064516129032
 40
0.2258064516129032
 40
0.2258064516129032
 40
0.2258064516129032
 40
0.2580645161290323
 40
0.2580645161290323
 40
0.2580645161290323
 40
0.2580645161290323
 40
0.2903225806451613
 40
0.2903225806451613
 40
0.2903225806451613
 40
0.2903225806451613
 40
0.3225806451612903
 40
0.3225806451612903
 40
0.3225806451612903
 40
0.3225806451612903
 40
0.3548387096774194
 40
0.3548387096774194
 40
0.3548387096774194
 40
0.3548387096774194
 40
0.3870967741935484
 40
0.3870967741935484
 40
0.3870967741935484
 40
0.3870967741935484
 40
0.4193548387096774
 40
0.4193548387096774
 40
0.4193548387096774
 40
0.4193548387096774
 40
0.4516129032258064
 40
0.4516129032258064
 40
0.4516129032258064
 40
0.4516129032258064
 40
0.4838709677419355
 40
0.4838709677419355
 40
0.4838709677419355
 40
0.4838709677419355
 40
0.5161290322580645
 40
0.5161290322580645
 40
0.5161290322580645
 40
0.5161290322580645
 40
0.5483870967741935
 40
0.5483870967741935
 40
0.5483870967741935
 40
0.5483870967741935
 40
0.5806451612903226
 40
0.5806451612903226
 40
0.5806451612903226
 40
0.5806451612903226
 40
0.6129032258064516
 40
0.6129032258064516
 40
0.6129032258064516
 40
0.6129032258064516
 40
0.6451612903225806
 40
0.6451612903225806
 40
0.6451612903225806
 40
0.6451612903225806
 40
0.6774193548387096
 40
0.6774193548387096
 40
0.6774193548387096
 40
0.6774193548387096
 40
0.7096774193548387
 40
0.7096774193548387
 40
0.7096774193548387
 40
0.7096774193548387
 40
0.7419354838709677
 40
0.7419354838709677
 40
0.7419354838709677
 40
0.7419354838709677
 40
0.7741935483870968
 40
0.7741935483870968
 40
0.7741935483870968
 40
0.7741935483870968
 40
0.8064516129032258
 40
0.8064516129032258
 40
0.8064516129032258
 40
0.8064516129032258
 40
0.8387096774193549
 40
0.8387096774193549
 40
0.8387096774193549
 40
0.8387096774193549
 40
0.8709677419354839
 40
0.8709677419354839
 40
0.8709677419354839
 40
0.8709677419354839
 40
0.9032258064516129
 40
0.9032258064516129
 40
0.9032258064516129
 40
0.9032258064516129
 40
0.9354838709677419
 40
0.9354838709677419
 40
0.9354838709677419
 40
0.9354838709677419
 40
1.0
 40
1.0
 40
1.0
 40
1.0
 10
-7.10486
 20
-27.41812
 30
0.0
 10
-7.10486
 20
-27.41812
 30
0.0
 10
-6.57333
 20
-27.34564
 30
0.0
 10
-6.57333
 20
-27.34564
 30
0.0
 10
-6.57333
 20
-27.34564
 30
0.0
 10
-6.51192
 20
-27.64764
 30
0.0
 10
-6.40924
 20
-27.86509
 30
0.0
 10
-6.26327
 20
-27.99797
 30
0.0
 10
-6.26327
 20
-27.99797
 30
0.0
 10
-6.1173
 20
-28.13086
 30
0.0
 10
-5.9381
 20
-28.1973
 30
0.0
 10
-5.72569
 20
-28.1973
 30
0.0
 10
-5.72569
 20
-28.1973
 30
0.0
 10
-5.47402
 20
-28.1973
 30
0.0
 10
-5.2616
 20
-28.11072
 30
0.0
 10
-5.09047
 20
-27.93757
 30
0.0
 10
-5.09047
 20
-27.93757
 30
0.0
 10
-4.91933
 20
-27.76442
 30
0.0
 10
-4.83376
 20
-27.54999
 30
0.0
 10
-4.83376
 20
-27.29429
 30
0.0
 10
-4.83376
 20
-27.29429
 30
0.0
 10
-4.83376
 20
-27.05067
 30
0.0
 10
-4.91329
 20
-26.84933
 30
0.0
 10
-5.07335
 20
-26.69028
 30
0.0
 10
-5.07335
 20
-26.69028
 30
0.0
 10
-5.23241
 20
-26.53223
 30
0.0
 10
-5.43476
 20
-26.4527
 30
0.0
 10
-5.6814
 20
-26.4527
 30
0.0
 10
-5.6814
 20
-26.4527
 30
0.0
 10
-5.78207
 20
-26.4527
 30
0.0
 10
-5.9069
 20
-26.47283
 30
0.0
 10
-6.05689
 20
-26.51209
 30
0.0
 10
-6.05689
 20
-26.51209
 30
0.0
 10
-6.05689
 20
-26.51209
 30
0.0
 10
-5.9975
 20
-26.047
 30
0.0
 10
-5.9975
 20
-26.047
 30
0.0
 10
-5.9975
 20
-26.047
 30
0.0
 10
-5.96226
 20
-26.05103
 30
0.0
 10
-5.93307
 20
-26.05304
 30
0.0
 10
-5.91193
 20
-26.05304
 30
0.0
 10
-5.91193
 20
-26.05304
 30
0.0
 10
-5.68442
 20
-26.05304
 30
0.0
 10
-5.48106
 20
-25.99364
 30
0.0
 10
-5.29885
 20
-25.87586
 30
0.0
 10
-5.29885
 20
-25.87586
 30
0.0
 10
-5.11765
 20
-25.75808
 30
0.0
 10
-5.02704
 20
-25.57687
 30
0.0
 10
-5.02704
 20
-25.33225
 30
0.0
 10
-5.02704
 20
-25.33225
 30
0.0
 10
-5.02704
 20
-25.13795
 30
0.0
 10
-5.09349
 20
-24.97688
 30
0.0
 10
-5.22536
 20
-24.84903
 30
0.0
 10
-5.22536
 20
-24.84903
 30
0.0
 10
-5.35724
 20
-24.72118
 30
0.0
 10
-5.52737
 20
-24.65776
 30
0.0
 10
-5.73576
 20
-24.65776
 30
0.0
 10
-5.73576
 20
-24.65776
 30
0.0
 10
-5.94314
 20
-24.65776
 30
0.0
 10
-6.11528
 20
-24.7232
 30
0.0
 10
-6.2532
 20
-24.85407
 30
0.0
 10
-6.2532
 20
-24.85407
 30
0.0
 10
-6.39112
 20
-24.98494
 30
0.0
 10
-6.47971
 20
-25.18124
 30
0.0
 10
-6.51897
 20
-25.44298
 30
0.0
 10
-6.51897
 20
-25.44298
 30
0.0
 10
-6.51897
 20
-25.44298
 30
0.0
 10
-7.0505
 20
-25.34634
 30
0.0
 10
-7.0505
 20
-25.34634
 30
0.0
 10
-7.0505
 20
-25.34634
 30
0.0
 10
-6.98507
 20
-24.98997
 30
0.0
 10
-6.83809
 20
-24.71313
 30
0.0
 10
-6.60756
 20
-24.51682
 30
0.0
 10
-6.60756
 20
-24.51682
 30
0.0
 10
-6.37803
 20
-24.32052
 30
0.0
 10
-6.09112
 20
-24.22287
 30
0.0
 10
-5.74884
 20
-24.22287
 30
0.0
 10
-5.74884
 20
-24.22287
 30
0.0
 10
-5.51328
 20
-24.22287
 30
0.0
 10
-5.29583
 20
-24.2732
 30
0.0
 10
-5.09751
 20
-24.37488
 30
0.0
 10
-5.09751
 20
-24.37488
 30
0.0
 10
-4.89819
 20
-24.47555
 30
0.0
 10
-4.74618
 20
-24.61347
 30
0.0
 10
-4.64148
 20
-24.78762
 30
0.0
 10
-4.64148
 20
-24.78762
 30
0.0
 10
-4.53578
 20
-24.96279
 30
0.0
 10
-4.48343
 20
-25.14802
 30
0.0
 10
-4.48343
 20
-25.34433
 30
0.0
 10
-4.48343
 20
-25.34433
 30
0.0
 10
-4.48343
 20
-25.53056
 30
0.0
 10
-4.53376
 20
-25.69969
 30
0.0
 10
-4.63343
 20
-25.85271
 30
0.0
 10
-4.63343
 20
-25.85271
 30
0.0
 10
-4.7341
 20
-26.00572
 30
0.0
 10
-4.88309
 20
-26.12753
 30
0.0
 10
-5.07939
 20
-26.21814
 30
0.0
 10
-5.07939
 20
-26.21814
 30
0.0
 10
-4.82369
 20
-26.27653
 30
0.0
 10
-4.62537
 20
-26.39934
 30
0.0
 10
-4.48343
 20
-26.58558
 30
0.0
 10
-4.48343
 20
-26.58558
 30
0.0
 10
-4.34249
 20
-26.77081
 30
0.0
 10
-4.27202
 20
-27.00437
 30
0.0
 10
-4.27202
 20
-27.28322
 30
0.0
 10
-4.27202
 20
-27.28322
 30
0.0
 10
-4.27202
 20
-27.66073
 30
0.0
 10
-4.40994
 20
-27.98187
 30
0.0
 10
-4.68477
 20
-28.24461
 30
0.0
 10
-4.68477
 20
-28.24461
 30
0.0
 10
-4.9606
 20
-28.50736
 30
0.0
 10
-5.30892
 20
-28.63823
 30
0.0
 10
-5.72972
 20
-28.63823
 30
0.0
 10
-5.72972
 20
-28.63823
 30
0.0
 10
-6.10924
 20
-28.63823
 30
0.0
 10
-6.42434
 20
-28.52448
 30
0.0
 10
-6.675
 20
-28.29797
 30
0.0
 10
-6.675
 20
-28.29797
 30
0.0
 10
-6.92668
 20
-28.07146
 30
0.0
 10
-7.06963
 20
-27.77851
 30
0.0
 10
-7.10486
 20
-27.41812
 30
0.0
  0
SPLINE
  5
71
330
1F
100
AcDbEntity
  8
Camada 1
 62
   250
100
AcDbSpline
210
0.0
220
0.0
230
1.0
 70
    11
 71
     3
 72
   116
 73
   112
 74
     0
 42
0.000000001
 43
0.0000000001
 40
0.0
 40
0.0
 40
0.0
 40
0.0
 40
0.0344827586206897
 40
0.0344827586206897
 40
0.0344827586206897
 40
0.0344827586206897
 40
0.0689655172413793
 40
0.0689655172413793
 40
0.0689655172413793
 40
0.0689655172413793
 40
0.103448275862069
 40
0.103448275862069
 40
0.103448275862069
 40
0.103448275862069
 40
0.1379310344827586
 40
0.1379310344827586
 40
0.1379310344827586
 40
0.1379310344827586
 40
0.1724137931034483
 40
0.1724137931034483
 40
0.1724137931034483
 40
0.1724137931034483
 40
0.2068965517241379
 40
0.2068965517241379
 40
0.2068965517241379
 40
0.2068965517241379
 40
0.2413793103448276
 40
0.2413793103448276
 40
0.2413793103448276
 40
0.2413793103448276
 40
0.2758620689655172
 40
0.2758620689655172
 40
0.2758620689655172
 40
0.2758620689655172
 40
0.3103448275862069
 40
0.3103448275862069
 40
0.3103448275862069
 40
0.3103448275862069
 40
0.3448275862068966
 40
0.3448275862068966
 40
0.3448275862068966
 40
0.3448275862068966
 40
0.3793103448275862
 40
0.3793103448275862
 40
0.3793103448275862
 40
0.3793103448275862
 40
0.4137931034482759
 40
0.4137931034482759
 40
0.4137931034482759
 40
0.4137931034482759
 40
0.4482758620689655
 40
0.4482758620689655
 40
0.4482758620689655
 40
0.4482758620689655
 40
0.4827586206896552
 40
0.4827586206896552
 40
0.4827586206896552
 40
0.4827586206896552
 40
0.5172413793103449
 40
0.5172413793103449
 40
0.5172413793103449
 40
0.5172413793103449
 40
0.5517241379310345
 40
0.5517241379310345
 40
0.5517241379310345
 40
0.5517241379310345
 40
0.5862068965517241
 40
0.5862068965517241
 40
0.5862068965517241
 40
0.5862068965517241
 40
0.6206896551724138
 40
0.6206896551724138
 40
0.6206896551724138
 40
0.6206896551724138
 40
0.6551724137931034
 40
0.6551724137931034
 40
0.6551724137931034
 40
0.6551724137931034
 40
0.6896551724137931
 40
0.6896551724137931
 40
0.6896551724137931
 40
0.6896551724137931
 40
0.7241379310344828
 40
0.7241379310344828
 40
0.7241379310344828
 40
0.7241379310344828
 40
0.7586206896551724
 40
0.7586206896551724
 40
0.7586206896551724
 40
0.7586206896551724
 40
0.7931034482758621
 40
0.7931034482758621
 40
0.7931034482758621
 40
0.7931034482758621
 40
0.8275862068965517
 40
0.8275862068965517
 40
0.8275862068965517
 40
0.8275862068965517
 40
0.8620689655172413
 40
0.8620689655172413
 40
0.8620689655172413
 40
0.8620689655172413
 40
0.896551724137931
 40
0.896551724137931
 40
0.896551724137931
 40
0.896551724137931
 40
0.9310344827586207
 40
0.9310344827586207
 40
0.9310344827586207
 40
0.9310344827586207
 40
1.0
 40
1.0
 40
1.0
 40
1.0
 10
-1.9224
 20
-28.56575
 30
0.0
 10
-1.9224
 20
-28.56575
 30
0.0
 10
-1.9224
 20
-25.4309
 30
0.0
 10
-1.9224
 20
-25.4309
 30
0.0
 10
-1.9224
 20
-25.4309
 30
0.0
 10
-1.9224
 20
-25.4309
 30
0.0
 10
-1.44523
 20
-25.4309
 30
0.0
 10
-1.44523
 20
-25.4309
 30
0.0
 10
-1.44523
 20
-25.4309
 30
0.0
 10
-1.44523
 20
-25.4309
 30
0.0
 10
-1.44523
 20
-25.87385
 30
0.0
 10
-1.44523
 20
-25.87385
 30
0.0
 10
-1.44523
 20
-25.87385
 30
0.0
 10
-1.34758
 20
-25.72083
 30
0.0
 10
-1.21671
 20
-25.59701
 30
0.0
 10
-1.05362
 20
-25.50439
 30
0.0
 10
-1.05362
 20
-25.50439
 30
0.0
 10
-0.89054
 20
-25.41077
 30
0.0
 10
-0.7053
 20
-25.36446
 30
0.0
 10
-0.49692
 20
-25.36446
 30
0.0
 10
-0.49692
 20
-25.36446
 30
0.0
 10
-0.26538
 20
-25.36446
 30
0.0
 10
-0.07511
 20
-25.41278
 30
0.0
 10
0.07287
 20
-25.50842
 30
0.0
 10
0.07287
 20
-25.50842
 30
0.0
 10
0.22085
 20
-25.60506
 30
0.0
 10
0.32555
 20
-25.73895
 30
0.0
 10
0.38595
 20
-25.9121
 30
0.0
 10
0.38595
 20
-25.9121
 30
0.0
 10
0.63561
 20
-25.54667
 30
0.0
 10
0.95876
 20
-25.36446
 30
0.0
 10
1.35741
 20
-25.36446
 30
0.0
 10
1.35741
 20
-25.36446
 30
0.0
 10
1.66949
 20
-25.36446
 30
0.0
 10
1.91009
 20
-25.45003
 30
0.0
 10
2.0772
 20
-25.62217
 30
0.0
 10
2.0772
 20
-25.62217
 30
0.0
 10
2.24532
 20
-25.79432
 30
0.0
 10
2.32988
 20
-26.05908
 30
0.0
 10
2.32988
 20
-26.41646
 30
0.0
 10
2.32988
 20
-26.41646
 30
0.0
 10
2.32988
 20
-26.41646
 30
0.0
 10
2.32988
 20
-28.56575
 30
0.0
 10
2.32988
 20
-28.56575
 30
0.0
 10
2.32988
 20
-28.56575
 30
0.0
 10
2.32988
 20
-28.56575
 30
0.0
 10
1.79835
 20
-28.56575
 30
0.0
 10
1.79835
 20
-28.56575
 30
0.0
 10
1.79835
 20
-28.56575
 30
0.0
 10
1.79835
 20
-28.56575
 30
0.0
 10
1.79835
 20
-26.59263
 30
0.0
 10
1.79835
 20
-26.59263
 30
0.0
 10
1.79835
 20
-26.59263
 30
0.0
 10
1.79835
 20
-26.38122
 30
0.0
 10
1.78023
 20
-26.2282
 30
0.0
 10
1.746
 20
-26.13458
 30
0.0
 10
1.746
 20
-26.13458
 30
0.0
 10
1.71177
 20
-26.04096
 30
0.0
 10
1.64936
 20
-25.96646
 30
0.0
 10
1.55775
 20
-25.90908
 30
0.0
 10
1.55775
 20
-25.90908
 30
0.0
 10
1.46714
 20
-25.8517
 30
0.0
 10
1.36043
 20
-25.82351
 30
0.0
 10
1.23862
 20
-25.82351
 30
0.0
 10
1.23862
 20
-25.82351
 30
0.0
 10
1.01715
 20
-25.82351
 30
0.0
 10
0.83393
 20
-25.897
 30
0.0
 10
0.68796
 20
-26.04297
 30
0.0
 10
0.68796
 20
-26.04297
 30
0.0
 10
0.54199
 20
-26.18995
 30
0.0
 10
0.46951
 20
-26.42451
 30
0.0
 10
0.46951
 20
-26.74665
 30
0.0
 10
0.46951
 20
-26.74665
 30
0.0
 10
0.46951
 20
-26.74665
 30
0.0
 10
0.46951
 20
-28.56575
 30
0.0
 10
0.46951
 20
-28.56575
 30
0.0
 10
0.46951
 20
-28.56575
 30
0.0
 10
0.46951
 20
-28.56575
 30
0.0
 10
-0.06203
 20
-28.56575
 30
0.0
 10
-0.06203
 20
-28.56575
 30
0.0
 10
-0.06203
 20
-28.56575
 30
0.0
 10
-0.06203
 20
-28.56575
 30
0.0
 10
-0.06203
 20
-26.53122
 30
0.0
 10
-0.06203
 20
-26.53122
 30
0.0
 10
-0.06203
 20
-26.53122
 30
0.0
 10
-0.06203
 20
-26.29565
 30
0.0
 10
-0.10531
 20
-26.11847
 30
0.0
 10
-0.19189
 20
-26.00069
 30
0.0
 10
-0.19189
 20
-26.00069
 30
0.0
 10
-0.27847
 20
-25.88291
 30
0.0
 10
-0.42041
 20
-25.82351
 30
0.0
 10
-0.61672
 20
-25.82351
 30
0.0
 10
-0.61672
 20
-25.82351
 30
0.0
 10
-0.76571
 20
-25.82351
 30
0.0
 10
-0.90362
 20
-25.86277
 30
0.0
 10
-1.03047
 20
-25.9413
 30
0.0
 10
-1.03047
 20
-25.9413
 30
0.0
 10
-1.15731
 20
-26.01982
 30
0.0
 10
-1.24892
 20
-26.13458
 30
0.0
 10
-1.3063
 20
-26.28659
 30
0.0
 10
-1.3063
 20
-26.28659
 30
0.0
 10
-1.36268
 20
-26.4376
 30
0.0
 10
-1.39086
 20
-26.65605
 30
0.0
 10
-1.39086
 20
-26.94094
 30
0.0
 10
-1.39086
 20
-26.94094
 30
0.0
 10
-1.39086
 20
-26.94094
 30
0.0
 10
-1.39086
 20
-28.56575
 30
0.0
 10
-1.39086
 20
-28.56575
 30
0.0
 10
-1.39086
 20
-28.56575
 30
0.0
 10
-1.39086
 20
-28.56575
 30
0.0
 10
-1.9224
 20
-28.56575
 30
0.0
 10
-1.9224
 20
-28.56575
 30
0.0
  0
SPLINE
  5
72
330
1F
100
AcDbEntity
  8
Camada 1
 62
   250
100
AcDbSpline
210
0.0
220
0.0
230
1.0
 70
    11
 71
     3
 72
   116
 73
   112
 74
     0
 42
0.000000001
 43
0.0000000001
 40
0.0
 40
0.0
 40
0.0
 40
0.0
 40
0.0344827586206897
 40
0.0344827586206897
 40
0.0344827586206897
 40
0.0344827586206897
 40
0.0689655172413793
 40
0.0689655172413793
 40
0.0689655172413793
 40
0.0689655172413793
 40
0.103448275862069
 40
0.103448275862069
 40
0.103448275862069
 40
0.103448275862069
 40
0.1379310344827586
 40
0.1379310344827586
 40
0.1379310344827586
 40
0.1379310344827586
 40
0.1724137931034483
 40
0.1724137931034483
 40
0.1724137931034483
 40
0.1724137931034483
 40
0.2068965517241379
 40
0.2068965517241379
 40
0.2068965517241379
 40
0.2068965517241379
 40
0.2413793103448276
 40
0.2413793103448276
 40
0.2413793103448276
 40
0.2413793103448276
 40
0.2758620689655172
 40
0.2758620689655172
 40
0.2758620689655172
 40
0.2758620689655172
 40
0.3103448275862069
 40
0.3103448275862069
 40
0.3103448275862069
 40
0.3103448275862069
 40
0.3448275862068966
 40
0.3448275862068966
 40
0.3448275862068966
 40
0.3448275862068966
 40
0.3793103448275862
 40
0.3793103448275862
 40
0.3793103448275862
 40
0.3793103448275862
 40
0.4137931034482759
 40
0.4137931034482759
 40
0.4137931034482759
 40
0.4137931034482759
 40
0.4482758620689655
 40
0.4482758620689655
 40
0.4482758620689655
 40
0.4482758620689655
 40
0.4827586206896552
 40
0.4827586206896552
 40
0.4827586206896552
 40
0.4827586206896552
 40
0.5172413793103449
 40
0.5172413793103449
 40
0.5172413793103449
 40
0.5172413793103449
 40
0.5517241379310345
 40
0.5517241379310345
 40
0.5517241379310345
 40
0.5517241379310345
 40
0.5862068965517241
 40
0.5862068965517241
 40
0.5862068965517241
 40
0.5862068965517241
 40
0.6206896551724138
 40
0.6206896551724138
 40
0.6206896551724138
 40
0.6206896551724138
 40
0.6551724137931034
 40
0.6551724137931034
 40
0.6551724137931034
 40
0.6551724137931034
 40
0.6896551724137931
 40
0.6896551724137931
 40
0.6896551724137931
 40
0.6896551724137931
 40
0.7241379310344828
 40
0.7241379310344828
 40
0.7241379310344828
 40
0.7241379310344828
 40
0.7586206896551724
 40
0.7586206896551724
 40
0.7586206896551724
 40
0.7586206896551724
 40
0.7931034482758621
 40
0.7931034482758621
 40
0.7931034482758621
 40
0.7931034482758621
 40
0.8275862068965517
 40
0.8275862068965517
 40
0.8275862068965517
 40
0.8275862068965517
 40
0.8620689655172413
 40
0.8620689655172413
 40
0.8620689655172413
 40
0.8620689655172413
 40
0.896551724137931
 40
0.896551724137931
 40
0.896551724137931
 40
0.896551724137931
 40
0.9310344827586207
 40
0.9310344827586207
 40
0.9310344827586207
 40
0.9310344827586207
 40
1.0
 40
1.0
 40
1.0
 40
1.0
 10
3.10906
 20
-28.56575
 30
0.0
 10
3.10906
 20
-28.56575
 30
0.0
 10
3.10906
 20
-25.4309
 30
0.0
 10
3.10906
 20
-25.4309
 30
0.0
 10
3.10906
 20
-25.4309
 30
0.0
 10
3.10906
 20
-25.4309
 30
0.0
 10
3.58623
 20
-25.4309
 30
0.0
 10
3.58623
 20
-25.4309
 30
0.0
 10
3.58623
 20
-25.4309
 30
0.0
 10
3.58623
 20
-25.4309
 30
0.0
 10
3.58623
 20
-25.87385
 30
0.0
 10
3.58623
 20
-25.87385
 30
0.0
 10
3.58623
 20
-25.87385
 30
0.0
 10
3.68388
 20
-25.72083
 30
0.0
 10
3.81475
 20
-25.59701
 30
0.0
 10
3.97784
 20
-25.50439
 30
0.0
 10
3.97784
 20
-25.50439
 30
0.0
 10
4.14092
 20
-25.41077
 30
0.0
 10
4.32616
 20
-25.36446
 30
0.0
 10
4.53454
 20
-25.36446
 30
0.0
 10
4.53454
 20
-25.36446
 30
0.0
 10
4.76608
 20
-25.36446
 30
0.0
 10
4.95635
 20
-25.41278
 30
0.0
 10
5.10433
 20
-25.50842
 30
0.0
 10
5.10433
 20
-25.50842
 30
0.0
 10
5.25231
 20
-25.60506
 30
0.0
 10
5.35701
 20
-25.73895
 30
0.0
 10
5.41741
 20
-25.9121
 30
0.0
 10
5.41741
 20
-25.9121
 30
0.0
 10
5.66707
 20
-25.54667
 30
0.0
 10
5.99022
 20
-25.36446
 30
0.0
 10
6.38887
 20
-25.36446
 30
0.0
 10
6.38887
 20
-25.36446
 30
0.0
 10
6.70095
 20
-25.36446
 30
0.0
 10
6.94155
 20
-25.45003
 30
0.0
 10
7.10866
 20
-25.62217
 30
0.0
 10
7.10866
 20
-25.62217
 30
0.0
 10
7.27678
 20
-25.79432
 30
0.0
 10
7.36134
 20
-26.05908
 30
0.0
 10
7.36134
 20
-26.41646
 30
0.0
 10
7.36134
 20
-26.41646
 30
0.0
 10
7.36134
 20
-26.41646
 30
0.0
 10
7.36134
 20
-28.56575
 30
0.0
 10
7.36134
 20
-28.56575
 30
0.0
 10
7.36134
 20
-28.56575
 30
0.0
 10
7.36134
 20
-28.56575
 30
0.0
 10
6.82981
 20
-28.56575
 30
0.0
 10
6.82981
 20
-28.56575
 30
0.0
 10
6.82981
 20
-28.56575
 30
0.0
 10
6.82981
 20
-28.56575
 30
0.0
 10
6.82981
 20
-26.59263
 30
0.0
 10
6.82981
 20
-26.59263
 30
0.0
 10
6.82981
 20
-26.59263
 30
0.0
 10
6.82981
 20
-26.38122
 30
0.0
 10
6.81169
 20
-26.2282
 30
0.0
 10
6.77746
 20
-26.13458
 30
0.0
 10
6.77746
 20
-26.13458
 30
0.0
 10
6.74323
 20
-26.04096
 30
0.0
 10
6.68082
 20
-25.96646
 30
0.0
 10
6.58921
 20
-25.90908
 30
0.0
 10
6.58921
 20
-25.90908
 30
0.0
 10
6.4986
 20
-25.8517
 30
0.0
 10
6.39189
 20
-25.82351
 30
0.0
 10
6.27008
 20
-25.82351
 30
0.0
 10
6.27008
 20
-25.82351
 30
0.0
 10
6.04861
 20
-25.82351
 30
0.0
 10
5.86539
 20
-25.897
 30
0.0
 10
5.71942
 20
-26.04297
 30
0.0
 10
5.71942
 20
-26.04297
 30
0.0
 10
5.57345
 20
-26.18995
 30
0.0
 10
5.50097
 20
-26.42451
 30
0.0
 10
5.50097
 20
-26.74665
 30
0.0
 10
5.50097
 20
-26.74665
 30
0.0
 10
5.50097
 20
-26.74665
 30
0.0
 10
5.50097
 20
-28.56575
 30
0.0
 10
5.50097
 20
-28.56575
 30
0.0
 10
5.50097
 20
-28.56575
 30
0.0
 10
5.50097
 20
-28.56575
 30
0.0
 10
4.96943
 20
-28.56575
 30
0.0
 10
4.96943
 20
-28.56575
 30
0.0
 10
4.96943
 20
-28.56575
 30
0.0
 10
4.96943
 20
-28.56575
 30
0.0
 10
4.96943
 20
-26.53122
 30
0.0
 10
4.96943
 20
-26.53122
 30
0.0
 10
4.96943
 20
-26.53122
 30
0.0
 10
4.96943
 20
-26.29565
 30
0.0
 10
4.92615
 20
-26.11847
 30
0.0
 10
4.83957
 20
-26.00069
 30
0.0
 10
4.83957
 20
-26.00069
 30
0.0
 10
4.75299
 20
-25.88291
 30
0.0
 10
4.61105
 20
-25.82351
 30
0.0
 10
4.41474
 20
-25.82351
 30
0.0
 10
4.41474
 20
-25.82351
 30
0.0
 10
4.26575
 20
-25.82351
 30
0.0
 10
4.12784
 20
-25.86277
 30
0.0
 10
4.00099
 20
-25.9413
 30
0.0
 10
4.00099
 20
-25.9413
 30
0.0
 10
3.87415
 20
-26.01982
 30
0.0
 10
3.78254
 20
-26.13458
 30
0.0
 10
3.72516
 20
-26.28659
 30
0.0
 10
3.72516
 20
-26.28659
 30
0.0
 10
3.66878
 20
-26.4376
 30
0.0
 10
3.6406
 20
-26.65605
 30
0.0
 10
3.6406
 20
-26.94094
 30
0.0
 10
3.6406
 20
-26.94094
 30
0.0
 10
3.6406
 20
-26.94094
 30
0.0
 10
3.6406
 20
-28.56575
 30
0.0
 10
3.6406
 20
-28.56575
 30
0.0
 10
3.6406
 20
-28.56575
 30
0.0
 10
3.6406
 20
-28.56575
 30
0.0
 10
3.10906
 20
-28.56575
 30
0.0
 10
3.10906
 20
-28.56575
 30
0.0
  0
SPLINE
  5
73
330
1F
100
AcDbEntity
  8
Camada 1
 62
   114
370
     9
100
AcDbSpline
210
0.0
220
0.0
230
1.0
 70
    11
 71
     3
 72
   656
 73
   652
 74
     0
 42
0.000000001
 43
0.0000000001
 40
0.0
 40
0.0
 40
0.0
 40
0.0
 40
0.0060975609756098
 40
0.0060975609756098
 40
0.0060975609756098
 40
0.0060975609756098
 40
0.0121951219512195
 40
0.0121951219512195
 40
0.0121951219512195
 40
0.0121951219512195
 40
0.0182926829268293
 40
0.0182926829268293
 40
0.0182926829268293
 40
0.0182926829268293
 40
0.024390243902439
 40
0.024390243902439
 40
0.024390243902439
 40
0.024390243902439
 40
0.0304878048780488
 40
0.0304878048780488
 40
0.0304878048780488
 40
0.0304878048780488
 40
0.0365853658536585
 40
0.0365853658536585
 40
0.0365853658536585
 40
0.0365853658536585
 40
0.0426829268292683
 40
0.0426829268292683
 40
0.0426829268292683
 40
0.0426829268292683
 40
0.0487804878048781
 40
0.0487804878048781
 40
0.0487804878048781
 40
0.0487804878048781
 40
0.0548780487804878
 40
0.0548780487804878
 40
0.0548780487804878
 40
0.0548780487804878
 40
0.0609756097560976
 40
0.0609756097560976
 40
0.0609756097560976
 40
0.0609756097560976
 40
0.0670731707317073
 40
0.0670731707317073
 40
0.0670731707317073
 40
0.0670731707317073
 40
0.0731707317073171
 40
0.0731707317073171
 40
0.0731707317073171
 40
0.0731707317073171
 40
0.0792682926829268
 40
0.0792682926829268
 40
0.0792682926829268
 40
0.0792682926829268
 40
0.0853658536585366
 40
0.0853658536585366
 40
0.0853658536585366
 40
0.0853658536585366
 40
0.0914634146341463
 40
0.0914634146341463
 40
0.0914634146341463
 40
0.0914634146341463
 40
0.0975609756097561
 40
0.0975609756097561
 40
0.0975609756097561
 40
0.0975609756097561
 40
0.1036585365853658
 40
0.1036585365853658
 40
0.1036585365853658
 40
0.1036585365853658
 40
0.1097560975609756
 40
0.1097560975609756
 40
0.1097560975609756
 40
0.1097560975609756
 40
0.1158536585365854
 40
0.1158536585365854
 40
0.1158536585365854
 40
0.1158536585365854
 40
0.1219512195121951
 40
0.1219512195121951
 40
0.1219512195121951
 40
0.1219512195121951
 40
0.1280487804878049
 40
0.1280487804878049
 40
0.1280487804878049
 40
0.1280487804878049
 40
0.1341463414634146
 40
0.1341463414634146
 40
0.1341463414634146
 40
0.1341463414634146
 40
0.1402439024390244
 40
0.1402439024390244
 40
0.1402439024390244
 40
0.1402439024390244
 40
0.1463414634146341
 40
0.1463414634146341
 40
0.1463414634146341
 40
0.1463414634146341
 40
0.1524390243902439
 40
0.1524390243902439
 40
0.1524390243902439
 40
0.1524390243902439
 40
0.1585365853658537
 40
0.1585365853658537
 40
0.1585365853658537
 40
0.1585365853658537
 40
0.1646341463414634
 40
0.1646341463414634
 40
0.1646341463414634
 40
0.1646341463414634
 40
0.1707317073170732
 40
0.1707317073170732
 40
0.1707317073170732
 40
0.1707317073170732
 40
0.1768292682926829
 40
0.1768292682926829
 40
0.1768292682926829
 40
0.1768292682926829
 40
0.1829268292682927
 40
0.1829268292682927
 40
0.1829268292682927
 40
0.1829268292682927
 40
0.1890243902439024
 40
0.1890243902439024
 40
0.1890243902439024
 40
0.1890243902439024
 40
0.1951219512195122
 40
0.1951219512195122
 40
0.1951219512195122
 40
0.1951219512195122
 40
0.201219512195122
 40
0.201219512195122
 40
0.201219512195122
 40
0.201219512195122
 40
0.2073170731707317
 40
0.2073170731707317
 40
0.2073170731707317
 40
0.2073170731707317
 40
0.2134146341463415
 40
0.2134146341463415
 40
0.2134146341463415
 40
0.2134146341463415
 40
0.2195121951219512
 40
0.2195121951219512
 40
0.2195121951219512
 40
0.2195121951219512
 40
0.225609756097561
 40
0.225609756097561
 40
0.225609756097561
 40
0.225609756097561
 40
0.2317073170731707
 40
0.2317073170731707
 40
0.2317073170731707
 40
0.2317073170731707
 40
0.2378048780487805
 40
0.2378048780487805
 40
0.2378048780487805
 40
0.2378048780487805
 40
0.2439024390243902
 40
0.2439024390243902
 40
0.2439024390243902
 40
0.2439024390243902
 40
0.25
 40
0.25
 40
0.25
 40
0.25
 40
0.2560975609756098
 40
0.2560975609756098
 40
0.2560975609756098
 40
0.2560975609756098
 40
0.2621951219512195
 40
0.2621951219512195
 40
0.2621951219512195
 40
0.2621951219512195
 40
0.2682926829268293
 40
0.2682926829268293
 40
0.2682926829268293
 40
0.2682926829268293
 40
0.274390243902439
 40
0.274390243902439
 40
0.274390243902439
 40
0.274390243902439
 40
0.2804878048780488
 40
0.2804878048780488
 40
0.2804878048780488
 40
0.2804878048780488
 40
0.2865853658536585
 40
0.2865853658536585
 40
0.2865853658536585
 40
0.2865853658536585
 40
0.2926829268292683
 40
0.2926829268292683
 40
0.2926829268292683
 40
0.2926829268292683
 40
0.298780487804878
 40
0.298780487804878
 40
0.298780487804878
 40
0.298780487804878
 40
0.3048780487804878
 40
0.3048780487804878
 40
0.3048780487804878
 40
0.3048780487804878
 40
0.3109756097560976
 40
0.3109756097560976
 40
0.3109756097560976
 40
0.3109756097560976
 40
0.3170731707317073
 40
0.3170731707317073
 40
0.3170731707317073
 40
0.3170731707317073
 40
0.3231707317073171
 40
0.3231707317073171
 40
0.3231707317073171
 40
0.3231707317073171
 40
0.3292682926829268
 40
0.3292682926829268
 40
0.3292682926829268
 40
0.3292682926829268
 40
0.3353658536585366
 40
0.3353658536585366
 40
0.3353658536585366
 40
0.3353658536585366
 40
0.3414634146341464
 40
0.3414634146341464
 40
0.3414634146341464
 40
0.3414634146341464
 40
0.3475609756097561
 40
0.3475609756097561
 40
0.3475609756097561
 40
0.3475609756097561
 40
0.3536585365853658
 40
0.3536585365853658
 40
0.3536585365853658
 40
0.3536585365853658
 40
0.3597560975609756
 40
0.3597560975609756
 40
0.3597560975609756
 40
0.3597560975609756
 40
0.3658536585365854
 40
0.3658536585365854
 40
0.3658536585365854
 40
0.3658536585365854
 40
0.3719512195121951
 40
0.3719512195121951
 40
0.3719512195121951
 40
0.3719512195121951
 40
0.3780487804878049
 40
0.3780487804878049
 40
0.3780487804878049
 40
0.3780487804878049
 40
0.3841463414634146
 40
0.3841463414634146
 40
0.3841463414634146
 40
0.3841463414634146
 40
0.3902439024390244
 40
0.3902439024390244
 40
0.3902439024390244
 40
0.3902439024390244
 40
0.3963414634146342
 40
0.3963414634146342
 40
0.3963414634146342
 40
0.3963414634146342
 40
0.4024390243902439
 40
0.4024390243902439
 40
0.4024390243902439
 40
0.4024390243902439
 40
0.4085365853658536
 40
0.4085365853658536
 40
0.4085365853658536
 40
0.4085365853658536
 40
0.4146341463414634
 40
0.4146341463414634
 40
0.4146341463414634
 40
0.4146341463414634
 40
0.4207317073170732
 40
0.4207317073170732
 40
0.4207317073170732
 40
0.4207317073170732
 40
0.4268292682926829
 40
0.4268292682926829
 40
0.4268292682926829
 40
0.4268292682926829
 40
0.4329268292682927
 40
0.4329268292682927
 40
0.4329268292682927
 40
0.4329268292682927
 40
0.4390243902439024
 40
0.4390243902439024
 40
0.4390243902439024
 40
0.4390243902439024
 40
0.4451219512195122
 40
0.4451219512195122
 40
0.4451219512195122
 40
0.4451219512195122
 40
0.451219512195122
 40
0.451219512195122
 40
0.451219512195122
 40
0.451219512195122
 40
0.4573170731707317
 40
0.4573170731707317
 40
0.4573170731707317
 40
0.4573170731707317
 40
0.4634146341463415
 40
0.4634146341463415
 40
0.4634146341463415
 40
0.4634146341463415
 40
0.4695121951219512
 40
0.4695121951219512
 40
0.4695121951219512
 40
0.4695121951219512
 40
0.475609756097561
 40
0.475609756097561
 40
0.475609756097561
 40
0.475609756097561
 40
0.4817073170731707
 40
0.4817073170731707
 40
0.4817073170731707
 40
0.4817073170731707
 40
0.4878048780487805
 40
0.4878048780487805
 40
0.4878048780487805
 40
0.4878048780487805
 40
0.4939024390243902
 40
0.4939024390243902
 40
0.4939024390243902
 40
0.4939024390243902
 40
0.5
 40
0.5
 40
0.5
 40
0.5
 40
0.5060975609756098
 40
0.5060975609756098
 40
0.5060975609756098
 40
0.5060975609756098
 40
0.5121951219512195
 40
0.5121951219512195
 40
0.5121951219512195
 40
0.5121951219512195
 40
0.5182926829268293
 40
0.5182926829268293
 40
0.5182926829268293
 40
0.5182926829268293
 40
0.524390243902439
 40
0.524390243902439
 40
0.524390243902439
 40
0.524390243902439
 40
0.5304878048780488
 40
0.5304878048780488
 40
0.5304878048780488
 40
0.5304878048780488
 40
0.5365853658536586
 40
0.5365853658536586
 40
0.5365853658536586
 40
0.5365853658536586
 40
0.5426829268292683
 40
0.5426829268292683
 40
0.5426829268292683
 40
0.5426829268292683
 40
0.5487804878048781
 40
0.5487804878048781
 40
0.5487804878048781
 40
0.5487804878048781
 40
0.5548780487804879
 40
0.5548780487804879
 40
0.5548780487804879
 40
0.5548780487804879
 40
0.5609756097560976
 40
0.5609756097560976
 40
0.5609756097560976
 40
0.5609756097560976
 40
0.5670731707317073
 40
0.5670731707317073
 40
0.5670731707317073
 40
0.5670731707317073
 40
0.573170731707317
 40
0.573170731707317
 40
0.573170731707317
 40
0.573170731707317
 40
0.5792682926829268
 40
0.5792682926829268
 40
0.5792682926829268
 40
0.5792682926829268
 40
0.5853658536585366
 40
0.5853658536585366
 40
0.5853658536585366
 40
0.5853658536585366
 40
0.5914634146341463
 40
0.5914634146341463
 40
0.5914634146341463
 40
0.5914634146341463
 40
0.5975609756097561
 40
0.5975609756097561
 40
0.5975609756097561
 40
0.5975609756097561
 40
0.6036585365853658
 40
0.6036585365853658
 40
0.6036585365853658
 40
0.6036585365853658
 40
0.6097560975609756
 40
0.6097560975609756
 40
0.6097560975609756
 40
0.6097560975609756
 40
0.6158536585365854
 40
0.6158536585365854
 40
0.6158536585365854
 40
0.6158536585365854
 40
0.6219512195121951
 40
0.6219512195121951
 40
0.6219512195121951
 40
0.6219512195121951
 40
0.6280487804878049
 40
0.6280487804878049
 40
0.6280487804878049
 40
0.6280487804878049
 40
0.6341463414634146
 40
0.6341463414634146
 40
0.6341463414634146
 40
0.6341463414634146
 40
0.6402439024390244
 40
0.6402439024390244
 40
0.6402439024390244
 40
0.6402439024390244
 40
0.6463414634146342
 40
0.6463414634146342
 40
0.6463414634146342
 40
0.6463414634146342
 40
0.6524390243902439
 40
0.6524390243902439
 40
0.6524390243902439
 40
0.6524390243902439
 40
0.6585365853658537
 40
0.6585365853658537
 40
0.6585365853658537
 40
0.6585365853658537
 40
0.6646341463414634
 40
0.6646341463414634
 40
0.6646341463414634
 40
0.6646341463414634
 40
0.6707317073170732
 40
0.6707317073170732
 40
0.6707317073170732
 40
0.6707317073170732
 40
0.676829268292683
 40
0.676829268292683
 40
0.676829268292683
 40
0.676829268292683
 40
0.6829268292682927
 40
0.6829268292682927
 40
0.6829268292682927
 40
0.6829268292682927
 40
0.6890243902439024
 40
0.6890243902439024
 40
0.6890243902439024
 40
0.6890243902439024
 40
0.6951219512195121
 40
0.6951219512195121
 40
0.6951219512195121
 40
0.6951219512195121
 40
0.7012195121951219
 40
0.7012195121951219
 40
0.7012195121951219
 40
0.7012195121951219
 40
0.7073170731707317
 40
0.7073170731707317
 40
0.7073170731707317
 40
0.7073170731707317
 40
0.7134146341463414
 40
0.7134146341463414
 40
0.7134146341463414
 40
0.7134146341463414
 40
0.7195121951219512
 40
0.7195121951219512
 40
0.7195121951219512
 40
0.7195121951219512
 40
0.725609756097561
 40
0.725609756097561
 40
0.725609756097561
 40
0.725609756097561
 40
0.7317073170731707
 40
0.7317073170731707
 40
0.7317073170731707
 40
0.7317073170731707
 40
0.7378048780487805
 40
0.7378048780487805
 40
0.7378048780487805
 40
0.7378048780487805
 40
0.7439024390243902
 40
0.7439024390243902
 40
0.7439024390243902
 40
0.7439024390243902
 40
0.75
 40
0.75
 40
0.75
 40
0.75
 40
0.7560975609756098
 40
0.7560975609756098
 40
0.7560975609756098
 40
0.7560975609756098
 40
0.7621951219512195
 40
0.7621951219512195
 40
0.7621951219512195
 40
0.7621951219512195
 40
0.7682926829268293
 40
0.7682926829268293
 40
0.7682926829268293
 40
0.7682926829268293
 40
0.774390243902439
 40
0.774390243902439
 40
0.774390243902439
 40
0.774390243902439
 40
0.7804878048780488
 40
0.7804878048780488
 40
0.7804878048780488
 40
0.7804878048780488
 40
0.7865853658536586
 40
0.7865853658536586
 40
0.7865853658536586
 40
0.7865853658536586
 40
0.7926829268292683
 40
0.7926829268292683
 40
0.7926829268292683
 40
0.7926829268292683
 40
0.7987804878048781
 40
0.7987804878048781
 40
0.7987804878048781
 40
0.7987804878048781
 40
0.8048780487804879
 40
0.8048780487804879
 40
0.8048780487804879
 40
0.8048780487804879
 40
0.8109756097560976
 40
0.8109756097560976
 40
0.8109756097560976
 40
0.8109756097560976
 40
0.8170731707317073
 40
0.8170731707317073
 40
0.8170731707317073
 40
0.8170731707317073
 40
0.823170731707317
 40
0.823170731707317
 40
0.823170731707317
 40
0.823170731707317
 40
0.8292682926829268
 40
0.8292682926829268
 40
0.8292682926829268
 40
0.8292682926829268
 40
0.8353658536585366
 40
0.8353658536585366
 40
0.8353658536585366
 40
0.8353658536585366
 40
0.8414634146341463
 40
0.8414634146341463
 40
0.8414634146341463
 40
0.8414634146341463
 40
0.8475609756097561
 40
0.8475609756097561
 40
0.8475609756097561
 40
0.8475609756097561
 40
0.8536585365853658
 40
0.8536585365853658
 40
0.8536585365853658
 40
0.8536585365853658
 40
0.8597560975609756
 40
0.8597560975609756
 40
0.8597560975609756
 40
0.8597560975609756
 40
0.8658536585365854
 40
0.8658536585365854
 40
0.8658536585365854
 40
0.8658536585365854
 40
0.8719512195121951
 40
0.8719512195121951
 40
0.8719512195121951
 40
0.8719512195121951
 40
0.8780487804878049
 40
0.8780487804878049
 40
0.8780487804878049
 40
0.8780487804878049
 40
0.8841463414634146
 40
0.8841463414634146
 40
0.8841463414634146
 40
0.8841463414634146
 40
0.8902439024390244
 40
0.8902439024390244
 40
0.8902439024390244
 40
0.8902439024390244
 40
0.8963414634146342
 40
0.8963414634146342
 40
0.8963414634146342
 40
0.8963414634146342
 40
0.9024390243902439
 40
0.9024390243902439
 40
0.9024390243902439
 40
0.9024390243902439
 40
0.9085365853658537
 40
0.9085365853658537
 40
0.9085365853658537
 40
0.9085365853658537
 40
0.9146341463414634
 40
0.9146341463414634
 40
0.9146341463414634
 40
0.9146341463414634
 40
0.9207317073170732
 40
0.9207317073170732
 40
0.9207317073170732
 40
0.9207317073170732
 40
0.926829268292683
 40
0.926829268292683
 40
0.926829268292683
 40
0.926829268292683
 40
0.9329268292682927
 40
0.9329268292682927
 40
0.9329268292682927
 40
0.9329268292682927
 40
0.9390243902439024
 40
0.9390243902439024
 40
0.9390243902439024
 40
0.9390243902439024
 40
0.9451219512195121
 40
0.9451219512195121
 40
0.9451219512195121
 40
0.9451219512195121
 40
0.9512195121951219
 40
0.9512195121951219
 40
0.9512195121951219
 40
0.9512195121951219
 40
0.9573170731707317
 40
0.9573170731707317
 40
0.9573170731707317
 40
0.9573170731707317
 40
0.9634146341463414
 40
0.9634146341463414
 40
0.9634146341463414
 40
0.9634146341463414
 40
0.9695121951219512
 40
0.9695121951219512
 40
0.9695121951219512
 40
0.9695121951219512
 40
0.975609756097561
 40
0.975609756097561
 40
0.975609756097561
 40
0.975609756097561
 40
0.9817073170731707
 40
0.9817073170731707
 40
0.9817073170731707
 40
0.9817073170731707
 40
0.9878048780487805
 40
0.9878048780487805
 40
0.9878048780487805
 40
0.9878048780487805
 40
1.0
 40
1.0
 40
1.0
 40
1.0
 10
6.20977
 20
14.63534
 30
0.0
 10
6.20977
 20
14.63534
 30
0.0
 10
6.20971
 20
13.43628
 30
0.0
 10
6.20971
 20
13.43628
 30
0.0
 10
6.20971
 20
13.43628
 30
0.0
 10
6.40578
 20
13.25807
 30
0.0
 10
6.75749
 20
13.17896
 30
0.0
 10
7.11514
 20
13.2022
 30
0.0
 10
7.11514
 20
13.2022
 30
0.0
 10
6.72891
 20
12.56295
 30
0.0
 10
6.68232
 20
11.89417
 30
0.0
 10
7.08388
 20
11.18646
 30
0.0
 10
7.08388
 20
11.18646
 30
0.0
 10
6.80237
 20
11.18571
 30
0.0
 10
6.4525
 20
11.13279
 30
0.0
 10
6.20805
 20
11.00179
 30
0.0
 10
6.20805
 20
11.00179
 30
0.0
 10
6.20805
 20
11.00179
 30
0.0
 10
6.20832
 20
9.27104
 30
0.0
 10
6.20832
 20
9.27104
 30
0.0
 10
6.20832
 20
9.27104
 30
0.0
 10
6.20832
 20
9.27104
 30
0.0
 10
6.38076
 20
9.24464
 30
0.0
 10
6.38076
 20
9.24464
 30
0.0
 10
6.38076
 20
9.24464
 30
0.0
 10
6.5077
 20
8.63818
 30
0.0
 10
6.98018
 20
8.28138
 30
0.0
 10
7.74456
 20
8.13542
 30
0.0
 10
7.74456
 20
8.13542
 30
0.0
 10
7.74456
 20
8.13542
 30
0.0
 10
7.76637
 20
7.90446
 30
0.0
 10
7.76637
 20
7.90446
 30
0.0
 10
7.76637
 20
7.90446
 30
0.0
 10
7.18918
 20
8.07707
 30
0.0
 10
6.60662
 20
8.08607
 30
0.0
 10
6.20831
 20
7.84593
 30
0.0
 10
6.20831
 20
7.84593
 30
0.0
 10
6.20831
 20
7.84593
 30
0.0
 10
6.2084
 20
6.85219
 30
0.0
 10
6.2084
 20
6.85219
 30
0.0
 10
6.2084
 20
6.85219
 30
0.0
 10
6.46627
 20
6.61145
 30
0.0
 10
6.89918
 20
6.61087
 30
0.0
 10
7.31603
 20
6.76407
 30
0.0
 10
7.31603
 20
6.76407
 30
0.0
 10
7.19121
 20
6.42208
 30
0.0
 10
7.15582
 20
6.09325
 30
0.0
 10
7.25229
 20
5.78361
 30
0.0
 10
7.25229
 20
5.78361
 30
0.0
 10
7.35656
 20
5.11322
 30
0.0
 10
6.75294
 20
4.94554
 30
0.0
 10
6.20771
 20
4.91618
 30
0.0
 10
6.20771
 20
4.91618
 30
0.0
 10
6.20771
 20
4.91618
 30
0.0
 10
6.20748
 20
3.69769
 30
0.0
 10
6.20748
 20
3.69769
 30
0.0
 10
6.20748
 20
3.69769
 30
0.0
 10
6.56441
 20
3.58012
 30
0.0
 10
7.03596
 20
3.76507
 30
0.0
 10
7.40322
 20
4.12503
 30
0.0
 10
7.40322
 20
4.12503
 30
0.0
 10
7.57575
 20
3.3742
 30
0.0
 10
8.4707
 20
2.22632
 30
0.0
 10
8.06717
 20
1.83212
 30
0.0
 10
8.06717
 20
1.83212
 30
0.0
 10
7.63316
 20
2.41485
 30
0.0
 10
7.01128
 20
2.64194
 30
0.0
 10
6.60449
 20
2.25185
 30
0.0
 10
6.60449
 20
2.25185
 30
0.0
 10
6.2854
 20
1.79331
 30
0.0
 10
6.46625
 20
1.31427
 30
0.0
 10
7.17783
 20
0.81355
 30
0.0
 10
7.17783
 20
0.81355
 30
0.0
 10
7.01254
 20
0.64891
 30
0.0
 10
6.55431
 20
0.63171
 30
0.0
 10
6.2078
 20
0.72874
 30
0.0
 10
6.2078
 20
0.72874
 30
0.0
 10
6.2078
 20
0.72874
 30
0.0
 10
6.20775
 20
0.53355
 30
0.0
 10
6.20775
 20
0.53355
 30
0.0
 10
6.20775
 20
0.53355
 30
0.0
 10
6.20775
 20
0.53355
 30
0.0
 10
5.90834
 20
0.53302
 30
0.0
 10
5.90834
 20
0.53302
 30
0.0
 10
5.90834
 20
0.53302
 30
0.0
 10
5.90834
 20
0.53302
 30
0.0
 10
5.90749
 20
0.73184
 30
0.0
 10
5.90749
 20
0.73184
 30
0.0
 10
5.90749
 20
0.73184
 30
0.0
 10
5.55444
 20
0.63932
 30
0.0
 10
5.10034
 20
0.65082
 30
0.0
 10
4.93697
 20
0.81355
 30
0.0
 10
4.93697
 20
0.81355
 30
0.0
 10
5.64857
 20
1.31427
 30
0.0
 10
5.82942
 20
1.79331
 30
0.0
 10
5.51032
 20
2.25185
 30
0.0
 10
5.51032
 20
2.25185
 30
0.0
 10
5.10354
 20
2.64194
 30
0.0
 10
4.48165
 20
2.41485
 30
0.0
 10
4.04765
 20
1.83212
 30
0.0
 10
4.04765
 20
1.83212
 30
0.0
 10
3.64411
 20
2.22632
 30
0.0
 10
4.53906
 20
3.3742
 30
0.0
 10
4.7116
 20
4.12503
 30
0.0
 10
4.7116
 20
4.12503
 30
0.0
 10
5.08134
 20
3.76263
 30
0.0
 10
5.55015
 20
3.5779
 30
0.0
 10
5.90902
 20
3.70038
 30
0.0
 10
5.90902
 20
3.70038
 30
0.0
 10
5.90902
 20
3.70038
 30
0.0
 10
5.9089
 20
4.91619
 30
0.0
 10
5.9089
 20
4.91619
 30
0.0
 10
5.9089
 20
4.91619
 30
0.0
 10
5.36167
 20
4.94467
 30
0.0
 10
4.7579
 20
5.11089
 30
0.0
 10
4.86252
 20
5.78361
 30
0.0
 10
4.86252
 20
5.78361
 30
0.0
 10
4.95898
 20
6.09325
 30
0.0
 10
4.92361
 20
6.42208
 30
0.0
 10
4.79878
 20
6.76407
 30
0.0
 10
4.79878
 20
6.76407
 30
0.0
 10
5.3134
 20
6.57497
 30
0.0
 10
5.71465
 20
6.63162
 30
0.0
 10
5.90905
 20
6.8579
 30
0.0
 10
5.90905
 20
6.8579
 30
0.0
 10
5.90905
 20
6.8579
 30
0.0
 10
5.90904
 20
7.84208
 30
0.0
 10
5.90904
 20
7.84208
 30
0.0
 10
5.90904
 20
7.84208
 30
0.0
 10
5.50996
 20
8.08513
 30
0.0
 10
4.92793
 20
8.07776
 30
0.0
 10
4.34845
 20
7.90446
 30
0.0
 10
4.34845
 20
7.90446
 30
0.0
 10
4.34845
 20
7.90446
 30
0.0
 10
4.37026
 20
8.13542
 30
0.0
 10
4.37026
 20
8.13542
 30
0.0
 10
4.37026
 20
8.13542
 30
0.0
 10
5.13464
 20
8.28138
 30
0.0
 10
5.60712
 20
8.63818
 30
0.0
 10
5.73405
 20
9.24464
 30
0.0
 10
5.73405
 20
9.24464
 30
0.0
 10
5.73405
 20
9.24464
 30
0.0
 10
5.90634
 20
9.27224
 30
0.0
 10
5.90634
 20
9.27224
 30
0.0
 10
5.90634
 20
9.27224
 30
0.0
 10
5.90634
 20
9.27224
 30
0.0
 10
5.90625
 20
10.99813
 30
0.0
 10
5.90625
 20
10.99813
 30
0.0
 10
5.90625
 20
10.99813
 30
0.0
 10
5.65973
 20
11.13239
 30
0.0
 10
5.31556
 20
11.18571
 30
0.0
 10
5.03094
 20
11.18646
 30
0.0
 10
5.03094
 20
11.18646
 30
0.0
 10
5.43249
 20
11.89417
 30
0.0
 10
5.3859
 20
12.56295
 30
0.0
 10
4.99968
 20
13.2022
 30
0.0
 10
4.99968
 20
13.2022
 30
0.0
 10
5.36183
 20
13.17869
 30
0.0
 10
5.70958
 20
13.25368
 30
0.0
 10
5.90616
 20
13.43665
 30
0.0
 10
5.90616
 20
13.43665
 30
0.0
 10
5.90616
 20
13.43665
 30
0.0
 10
5.90634
 20
14.62862
 30
0.0
 10
5.90634
 20
14.62862
 30
0.0
 10
5.90634
 20
14.62862
 30
0.0
 10
5.65441
 20
14.77928
 30
0.0
 10
5.191
 20
14.7661
 30
0.0
 10
4.73233
 20
14.64629
 30
0.0
 10
4.73233
 20
14.64629
 30
0.0
 10
4.23084
 20
14.53162
 30
0.0
 10
4.10589
 20
15.25415
 30
0.0
 10
4.68684
 20
15.58962
 30
0.0
 10
4.68684
 20
15.58962
 30
0.0
 10
5.19228
 20
15.80297
 30
0.0
 10
5.60672
 20
16.08746
 30
0.0
 10
5.90643
 20
16.44411
 30
0.0
 10
5.90643
 20
16.44411
 30
0.0
 10
5.90643
 20
16.44411
 30
0.0
 10
5.90716
 20
23.85074
 30
0.0
 10
5.90716
 20
23.85074
 30
0.0
 10
5.90716
 20
23.85074
 30
0.0
 10
5.90716
 20
23.85074
 30
0.0
 10
-1.66352
 20
23.85074
 30
0.0
 10
-1.66352
 20
23.85074
 30
0.0
 10
-1.66352
 20
23.85074
 30
0.0
 10
-3.21551
 20
23.86517
 30
0.0
 10
-3.86333
 20
23.76381
 30
0.0
 10
-3.86798
 20
22.5785
 30
0.0
 10
-3.86798
 20
22.5785
 30
0.0
 10
-3.70294
 20
19.24698
 30
0.0
 10
0.53923
 20
20.82757
 30
0.0
 10
-1.91471
 20
21.86212
 30
0.0
 10
-1.91471
 20
21.86212
 30
0.0
 10
-2.49574
 20
22.23492
 30
0.0
 10
-2.06911
 20
22.5909
 30
0.0
 10
-1.48751
 20
22.57104
 30
0.0
 10
-1.48751
 20
22.57104
 30
0.0
 10
6.26261
 20
22.58351
 30
0.0
 10
5.46535
 20
15.54033
 30
0.0
 10
2.84839
 20
17.2175
 30
0.0
 10
2.84839
 20
17.2175
 30
0.0
 10
2.5868
 20
17.45221
 30
0.0
 10
2.66465
 20
17.7437
 30
0.0
 10
2.94206
 20
17.6449
 30
0.0
 10
2.94206
 20
17.6449
 30
0.0
 10
4.20869
 20
17.19437
 30
0.0
 10
4.4081
 20
18.62422
 30
0.0
 10
3.20174
 20
18.94625
 30
0.0
 10
3.20174
 20
18.94625
 30
0.0
 10
2.02512
 20
19.075
 30
0.0
 10
1.05822
 20
18.56549
 30
0.0
 10
1.52452
 20
17.33541
 30
0.0
 10
1.52452
 20
17.33541
 30
0.0
 10
0.98752
 20
17.51909
 30
0.0
 10
0.58914
 20
17.37368
 30
0.0
 10
0.31138
 20
16.92776
 30
0.0
 10
0.31138
 20
16.92776
 30
0.0
 10
-1.00978
 20
18.96801
 30
0.0
 10
-4.02648
 20
18.38104
 30
0.0
 10
-3.89668
 20
15.85908
 30
0.0
 10
-3.89668
 20
15.85908
 30
0.0
 10
-3.89992
 20
15.40158
 30
0.0
 10
-4.38996
 20
15.16666
 30
0.0
 10
-4.9741
 20
15.30722
 30
0.0
 10
-4.9741
 20
15.30722
 30
0.0
 10
-5.31633
 20
15.38138
 30
0.0
 10
-5.50811
 20
15.6905
 30
0.0
 10
-5.64597
 20
16.08388
 30
0.0
 10
-5.64597
 20
16.08388
 30
0.0
 10
-6.28421
 20
15.46907
 30
0.0
 10
-6.24172
 20
14.95068
 30
0.0
 10
-5.63613
 20
14.51213
 30
0.0
 10
-5.63613
 20
14.51213
 30
0.0
 10
-6.29288
 20
13.15168
 30
0.0
 10
-5.91555
 20
12.27647
 30
0.0
 10
-4.42379
 20
11.92425
 30
0.0
 10
-4.42379
 20
11.92425
 30
0.0
 10
-3.22651
 20
11.84095
 30
0.0
 10
-2.06906
 20
13.78588
 30
0.0
 10
-4.2599
 20
13.99406
 30
0.0
 10
-4.2599
 20
13.99406
 30
0.0
 10
-3.51822
 20
14.8641
 30
0.0
 10
-2.35738
 20
14.56133
 30
0.0
 10
-1.97976
 20
13.8673
 30
0.0
 10
-1.97976
 20
13.8673
 30
0.0
 10
-2.89579
 20
13.05492
 30
0.0
 10
-3.1399
 20
12.17316
 30
0.0
 10
-2.77534
 20
11.22864
 30
0.0
 10
-2.77534
 20
11.22864
 30
0.0
 10
-1.05675
 20
13.02025
 30
0.0
 10
-0.59571
 20
12.81305
 30
0.0
 10
0.36953
 20
11.62282
 30
0.0
 10
0.36953
 20
11.62282
 30
0.0
 10
-1.32449
 20
11.53081
 30
0.0
 10
-2.15207
 20
10.62792
 30
0.0
 10
-1.59109
 20
8.4248
 30
0.0
 10
-1.59109
 20
8.4248
 30
0.0
 10
-1.97043
 20
8.37613
 30
0.0
 10
-2.11909
 20
8.49557
 30
0.0
 10
-2.36895
 20
8.95148
 30
0.0
 10
-2.36895
 20
8.95148
 30
0.0
 10
-3.21933
 20
8.67021
 30
0.0
 10
-3.39342
 20
8.12944
 30
0.0
 10
-2.96778
 20
7.35849
 30
0.0
 10
-2.96778
 20
7.35849
 30
0.0
 10
-3.99698
 20
6.71192
 30
0.0
 10
-3.97976
 20
4.94136
 30
0.0
 10
-2.37548
 20
4.98525
 30
0.0
 10
-2.37548
 20
4.98525
 30
0.0
 10
-0.9826
 20
5.01717
 30
0.0
 10
-0.21131
 20
6.71744
 30
0.0
 10
-1.37582
 20
6.80889
 30
0.0
 10
-1.37582
 20
6.80889
 30
0.0
 10
-1.74398
 20
6.78326
 30
0.0
 10
-2.2732
 20
6.53745
 30
0.0
 10
-2.1792
 20
6.89534
 30
0.0
 10
-2.1792
 20
6.89534
 30
0.0
 10
-1.91243
 20
7.82212
 30
0.0
 10
-0.14294
 20
7.1196
 30
0.0
 10
0.265
 20
6.95466
 30
0.0
 10
0.265
 20
6.95466
 30
0.0
 10
-0.82715
 20
5.97621
 30
0.0
 10
-1.05248
 20
5.16536
 30
0.0
 10
-0.35965
 20
4.53209
 30
0.0
 10
-0.35965
 20
4.53209
 30
0.0
 10
0.21246
 20
5.66869
 30
0.0
 10
0.86636
 20
5.97472
 30
0.0
 10
1.61081
 20
5.35968
 30
0.0
 10
1.61081
 20
5.35968
 30
0.0
 10
3.14147
 20
4.31814
 30
0.0
 10
1.6917
 20
2.31749
 30
0.0
 10
1.23368
 20
3.27284
 30
0.0
 10
1.23368
 20
3.27284
 30
0.0
 10
2.31405
 20
4.10666
 30
0.0
 10
1.61081
 20
5.35968
 30
0.0
 10
0.58964
 20
4.66874
 30
0.0
 10
0.58964
 20
4.66874
 30
0.0
 10
-0.70122
 20
3.72496
 30
0.0
 10
-0.7235
 20
2.77227
 30
0.0
 10
0.37323
 20
1.97983
 30
0.0
 10
0.37323
 20
1.97983
 30
0.0
 10
-0.45387
 20
1.19854
 30
0.0
 10
-0.75379
 20
0.34013
 30
0.0
 10
-0.34174
 20
-0.62236
 30
0.0
 10
-0.34174
 20
-0.62236
 30
0.0
 10
-0.83906
 20
-0.78839
 30
0.0
 10
-1.06914
 20
-0.34615
 30
0.0
 10
-1.43281
 20
-0.20801
 30
0.0
 10
-1.43281
 20
-0.20801
 30
0.0
 10
-2.05111
 20
-0.84843
 30
0.0
 10
-2.02517
 20
-1.39598
 30
0.0
 10
-1.37791
 20
-1.85412
 30
0.0
 10
-1.37791
 20
-1.85412
 30
0.0
 10
-2.04013
 20
-2.79555
 30
0.0
 10
-2.04313
 20
-4.28947
 30
0.0
 10
-0.365
 20
-4.24176
 30
0.0
 10
-0.365
 20
-4.24176
 30
0.0
 10
1.13564
 20
-4.01147
 30
0.0
 10
1.39731
 20
-1.6833
 30
0.0
 10
-0.17349
 20
-2.40328
 30
0.0
 10
-0.17349
 20
-2.40328
 30
0.0
 10
-0.3717
 20
-1.62283
 30
0.0
 10
0.00774
 20
-1.29521
 30
0.0
 10
0.93182
 20
-1.74528
 30
0.0
 10
0.93182
 20
-1.74528
 30
0.0
 10
1.65208
 20
-2.04455
 30
0.0
 10
1.84865
 20
-2.4188
 30
0.0
 10
1.74004
 20
-2.78632
 30
0.0
 10
1.74004
 20
-2.78632
 30
0.0
 10
0.78893
 20
-3.79815
 30
0.0
 10
0.71302
 20
-4.72228
 30
0.0
 10
1.77354
 20
-5.53242
 30
0.0
 10
1.77354
 20
-5.53242
 30
0.0
 10
1.8325
 20
-4.86907
 30
0.0
 10
2.02218
 20
-4.25945
 30
0.0
 10
2.46226
 20
-3.75285
 30
0.0
 10
2.46226
 20
-3.75285
 30
0.0
 10
2.76761
 20
-3.38771
 30
0.0
 10
3.46937
 20
-3.65563
 30
0.0
 10
3.23565
 20
-4.07259
 30
0.0
 10
3.23565
 20
-4.07259
 30
0.0
 10
2.31488
 20
-4.91802
 30
0.0
 10
2.1142
 20
-5.75691
 30
0.0
 10
2.73074
 20
-6.58838
 30
0.0
 10
2.73074
 20
-6.58838
 30
0.0
 10
2.28542
 20
-7.15631
 30
0.0
 10
2.21625
 20
-7.75808
 30
0.0
 10
2.58735
 20
-8.39947
 30
0.0
 10
2.58735
 20
-8.39947
 30
0.0
 10
2.26319
 20
-8.49142
 30
0.0
 10
2.05633
 20
-8.34321
 30
0.0
 10
1.91215
 20
-8.06658
 30
0.0
 10
1.91215
 20
-8.06658
 30
0.0
 10
1.44856
 20
-8.72468
 30
0.0
 10
1.56239
 20
-9.22258
 30
0.0
 10
2.18285
 20
-9.58005
 30
0.0
 10
2.18285
 20
-9.58005
 30
0.0
 10
1.52749
 20
-10.80446
 30
0.0
 10
1.9309
 20
-11.29704
 30
0.0
 10
3.35928
 20
-11.08135
 30
0.0
 10
3.35928
 20
-11.08135
 30
0.0
 10
3.14068
 20
-11.67753
 30
0.0
 10
3.2648
 20
-12.13485
 30
0.0
 10
3.77888
 20
-12.43419
 30
0.0
 10
3.77888
 20
-12.43419
 30
0.0
 10
2.81488
 20
-13.9203
 30
0.0
 10
3.04047
 20
-14.972
 30
0.0
 10
4.30119
 20
-14.55272
 30
0.0
 10
4.30119
 20
-14.55272
 30
0.0
 10
4.89674
 20
-14.30331
 30
0.0
 10
4.92677
 20
-13.81062
 30
0.0
 10
4.37311
 20
-13.30961
 30
0.0
 10
4.37311
 20
-13.30961
 30
0.0
 10
4.275
 20
-13.19817
 30
0.0
 10
4.22881
 20
-13.12116
 30
0.0
 10
4.37732
 20
-13.05538
 30
0.0
 10
4.37732
 20
-13.05538
 30
0.0
 10
5.0336
 20
-12.72318
 30
0.0
 10
5.49788
 20
-12.98365
 30
0.0
 10
5.58025
 20
-14.4228
 30
0.0
 10
5.58025
 20
-14.4228
 30
0.0
 10
5.58025
 20
-14.4228
 30
0.0
 10
5.58902
 20
-15.62936
 30
0.0
 10
5.58902
 20
-15.62936
 30
0.0
 10
5.58902
 20
-15.62936
 30
0.0
 10
5.62463
 20
-16.00061
 30
0.0
 10
5.41415
 20
-16.24333
 30
0.0
 10
4.86374
 20
-16.30849
 30
0.0
 10
4.86374
 20
-16.30849
 30
0.0
 10
4.86374
 20
-16.30849
 30
0.0
 10
2.69722
 20
-16.48759
 30
0.0
 10
2.69722
 20
-16.48759
 30
0.0
 10
2.69722
 20
-16.48759
 30
0.0
 10
2.69722
 20
-16.48759
 30
0.0
 10
4.57959
 20
-17.9337
 30
0.0
 10
4.57959
 20
-17.9337
 30
0.0
 10
4.57959
 20
-17.9337
 30
0.0
 10
4.57959
 20
-17.9337
 30
0.0
 10
2.52311
 20
-19.70391
 30
0.0
 10
2.52311
 20
-19.70391
 30
0.0
 10
2.52311
 20
-19.70391
 30
0.0
 10
2.52311
 20
-19.70391
 30
0.0
 10
5.39448
 20
-19.11353
 30
0.0
 10
5.39448
 20
-19.11353
 30
0.0
 10
5.39448
 20
-19.11353
 30
0.0
 10
5.39448
 20
-19.11353
 30
0.0
 10
6.0552
 20
-21.54133
 30
0.0
 10
6.0552
 20
-21.54133
 30
0.0
 10
6.0552
 20
-21.54133
 30
0.0
 10
6.0552
 20
-21.54133
 30
0.0
 10
6.72034
 20
-19.11353
 30
0.0
 10
6.72034
 20
-19.11353
 30
0.0
 10
6.72034
 20
-19.11353
 30
0.0
 10
6.72034
 20
-19.11353
 30
0.0
 10
9.59171
 20
-19.70391
 30
0.0
 10
9.59171
 20
-19.70391
 30
0.0
 10
9.59171
 20
-19.70391
 30
0.0
 10
9.59171
 20
-19.70391
 30
0.0
 10
7.53523
 20
-17.9337
 30
0.0
 10
7.53523
 20
-17.9337
 30
0.0
 10
7.53523
 20
-17.9337
 30
0.0
 10
7.53523
 20
-17.9337
 30
0.0
 10
9.4176
 20
-16.48759
 30
0.0
 10
9.4176
 20
-16.48759
 30
0.0
 10
9.4176
 20
-16.48759
 30
0.0
 10
9.4176
 20
-16.48759
 30
0.0
 10
7.25107
 20
-16.30849
 30
0.0
 10
7.25107
 20
-16.30849
 30
0.0
 10
7.25107
 20
-16.30849
 30
0.0
 10
6.70067
 20
-16.24333
 30
0.0
 10
6.49018
 20
-16.00061
 30
0.0
 10
6.52579
 20
-15.62936
 30
0.0
 10
6.52579
 20
-15.62936
 30
0.0
 10
6.52579
 20
-15.62936
 30
0.0
 10
6.53457
 20
-14.4228
 30
0.0
 10
6.53457
 20
-14.4228
 30
0.0
 10
6.53457
 20
-14.4228
 30
0.0
 10
6.61693
 20
-12.98365
 30
0.0
 10
7.08122
 20
-12.72318
 30
0.0
 10
7.73748
 20
-13.05538
 30
0.0
 10
7.73748
 20
-13.05538
 30
0.0
 10
7.886
 20
-13.12116
 30
0.0
 10
7.83981
 20
-13.19817
 30
0.0
 10
7.74171
 20
-13.30961
 30
0.0
 10
7.74171
 20
-13.30961
 30
0.0
 10
7.18805
 20
-13.81062
 30
0.0
 10
7.21808
 20
-14.30331
 30
0.0
 10
7.81362
 20
-14.55272
 30
0.0
 10
7.81362
 20
-14.55272
 30
0.0
 10
9.07435
 20
-14.972
 30
0.0
 10
9.29993
 20
-13.9203
 30
0.0
 10
8.33594
 20
-12.43419
 30
0.0
 10
8.33594
 20
-12.43419
 30
0.0
 10
8.85002
 20
-12.13485
 30
0.0
 10
8.97414
 20
-11.67753
 30
0.0
 10
8.75553
 20
-11.08135
 30
0.0
 10
8.75553
 20
-11.08135
 30
0.0
 10
10.18392
 20
-11.29704
 30
0.0
 10
10.58733
 20
-10.80446
 30
0.0
 10
9.93197
 20
-9.58005
 30
0.0
 10
9.93197
 20
-9.58005
 30
0.0
 10
10.55241
 20
-9.22258
 30
0.0
 10
10.66626
 20
-8.72468
 30
0.0
 10
10.20266
 20
-8.06658
 30
0.0
 10
10.20266
 20
-8.06658
 30
0.0
 10
10.05847
 20
-8.34321
 30
0.0
 10
9.85162
 20
-8.49142
 30
0.0
 10
9.52746
 20
-8.39947
 30
0.0
 10
9.52746
 20
-8.39947
 30
0.0
 10
9.89857
 20
-7.75808
 30
0.0
 10
9.82939
 20
-7.15631
 30
0.0
 10
9.38408
 20
-6.58838
 30
0.0
 10
9.38408
 20
-6.58838
 30
0.0
 10
10.00061
 20
-5.75691
 30
0.0
 10
9.79992
 20
-4.91802
 30
0.0
 10
8.87915
 20
-4.07259
 30
0.0
 10
8.87915
 20
-4.07259
 30
0.0
 10
8.64543
 20
-3.65563
 30
0.0
 10
9.34721
 20
-3.38771
 30
0.0
 10
9.65256
 20
-3.75285
 30
0.0
 10
9.65256
 20
-3.75285
 30
0.0
 10
10.09263
 20
-4.25945
 30
0.0
 10
10.28232
 20
-4.86907
 30
0.0
 10
10.34128
 20
-5.53242
 30
0.0
 10
10.34128
 20
-5.53242
 30
0.0
 10
11.40179
 20
-4.72228
 30
0.0
 10
11.32589
 20
-3.79815
 30
0.0
 10
10.37478
 20
-2.78632
 30
0.0
 10
10.37478
 20
-2.78632
 30
0.0
 10
10.26616
 20
-2.4188
 30
0.0
 10
10.46274
 20
-2.04455
 30
0.0
 10
11.183
 20
-1.74528
 30
0.0
 10
11.183
 20
-1.74528
 30
0.0
 10
12.10708
 20
-1.29521
 30
0.0
 10
12.48651
 20
-1.62283
 30
0.0
 10
12.28831
 20
-2.40328
 30
0.0
 10
12.28831
 20
-2.40328
 30
0.0
 10
10.7175
 20
-1.6833
 30
0.0
 10
10.97916
 20
-4.01147
 30
0.0
 10
12.47982
 20
-4.24176
 30
0.0
 10
12.47982
 20
-4.24176
 30
0.0
 10
14.15795
 20
-4.28947
 30
0.0
 10
14.15495
 20
-2.79555
 30
0.0
 10
13.49273
 20
-1.85412
 30
0.0
 10
13.49273
 20
-1.85412
 30
0.0
 10
14.13999
 20
-1.39598
 30
0.0
 10
14.16592
 20
-0.84843
 30
0.0
 10
13.54763
 20
-0.20801
 30
0.0
 10
13.54763
 20
-0.20801
 30
0.0
 10
13.18396
 20
-0.34615
 30
0.0
 10
12.95386
 20
-0.78839
 30
0.0
 10
12.45655
 20
-0.62236
 30
0.0
 10
12.45655
 20
-0.62236
 30
0.0
 10
12.86861
 20
0.34013
 30
0.0
 10
12.56869
 20
1.19854
 30
0.0
 10
11.74158
 20
1.97983
 30
0.0
 10
11.74158
 20
1.97983
 30
0.0
 10
12.83831
 20
2.77227
 30
0.0
 10
12.81604
 20
3.72496
 30
0.0
 10
11.52518
 20
4.66874
 30
0.0
 10
11.52518
 20
4.66874
 30
0.0
 10
10.50401
 20
5.35968
 30
0.0
 10
9.80077
 20
4.10666
 30
0.0
 10
10.88112
 20
3.27284
 30
0.0
 10
10.88112
 20
3.27284
 30
0.0
 10
10.42312
 20
2.31749
 30
0.0
 10
8.97334
 20
4.31814
 30
0.0
 10
10.50401
 20
5.35968
 30
0.0
 10
10.50401
 20
5.35968
 30
0.0
 10
11.24845
 20
5.97472
 30
0.0
 10
11.90234
 20
5.66869
 30
0.0
 10
12.47447
 20
4.53209
 30
0.0
 10
12.47447
 20
4.53209
 30
0.0
 10
13.1673
 20
5.16536
 30
0.0
 10
12.94197
 20
5.97621
 30
0.0
 10
11.8498
 20
6.95466
 30
0.0
 10
11.8498
 20
6.95466
 30
0.0
 10
12.25775
 20
7.1196
 30
0.0
 10
14.02724
 20
7.82212
 30
0.0
 10
14.29402
 20
6.89534
 30
0.0
 10
14.29402
 20
6.89534
 30
0.0
 10
14.388
 20
6.53745
 30
0.0
 10
13.8588
 20
6.78326
 30
0.0
 10
13.49063
 20
6.80889
 30
0.0
 10
13.49063
 20
6.80889
 30
0.0
 10
12.32613
 20
6.71744
 30
0.0
 10
13.0974
 20
5.01717
 30
0.0
 10
14.4903
 20
4.98525
 30
0.0
 10
14.4903
 20
4.98525
 30
0.0
 10
16.09458
 20
4.94136
 30
0.0
 10
16.1118
 20
6.71192
 30
0.0
 10
15.0826
 20
7.35849
 30
0.0
 10
15.0826
 20
7.35849
 30
0.0
 10
15.50824
 20
8.12944
 30
0.0
 10
15.33413
 20
8.67021
 30
0.0
 10
14.48377
 20
8.95148
 30
0.0
 10
14.48377
 20
8.95148
 30
0.0
 10
14.23391
 20
8.49557
 30
0.0
 10
14.08524
 20
8.37613
 30
0.0
 10
13.70589
 20
8.4248
 30
0.0
 10
13.70589
 20
8.4248
 30
0.0
 10
14.26689
 20
10.62792
 30
0.0
 10
13.43931
 20
11.53081
 30
0.0
 10
11.74529
 20
11.62282
 30
0.0
 10
11.74529
 20
11.62282
 30
0.0
 10
12.71053
 20
12.81305
 30
0.0
 10
13.17156
 20
13.02025
 30
0.0
 10
14.89016
 20
11.22864
 30
0.0
 10
14.89016
 20
11.22864
 30
0.0
 10
15.25472
 20
12.17316
 30
0.0
 10
15.01061
 20
13.05492
 30
0.0
 10
14.09457
 20
13.8673
 30
0.0
 10
14.09457
 20
13.8673
 30
0.0
 10
14.4722
 20
14.56133
 30
0.0
 10
15.63304
 20
14.8641
 30
0.0
 10
16.37472
 20
13.99406
 30
0.0
 10
16.37472
 20
13.99406
 30
0.0
 10
14.18388
 20
13.78588
 30
0.0
 10
15.34131
 20
11.84095
 30
0.0
 10
16.53861
 20
11.92425
 30
0.0
 10
16.53861
 20
11.92425
 30
0.0
 10
18.03037
 20
12.27647
 30
0.0
 10
18.40769
 20
13.15168
 30
0.0
 10
17.75095
 20
14.51213
 30
0.0
 10
17.75095
 20
14.51213
 30
0.0
 10
18.35652
 20
14.95068
 30
0.0
 10
18.39902
 20
15.46907
 30
0.0
 10
17.76079
 20
16.08388
 30
0.0
 10
17.76079
 20
16.08388
 30
0.0
 10
17.62292
 20
15.6905
 30
0.0
 10
17.43114
 20
15.38138
 30
0.0
 10
17.08892
 20
15.30722
 30
0.0
 10
17.08892
 20
15.30722
 30
0.0
 10
16.50478
 20
15.16666
 30
0.0
 10
16.01473
 20
15.40158
 30
0.0
 10
16.0115
 20
15.85908
 30
0.0
 10
16.0115
 20
15.85908
 30
0.0
 10
16.1413
 20
18.38104
 30
0.0
 10
13.12458
 20
18.96801
 30
0.0
 10
11.80344
 20
16.92776
 30
0.0
 10
11.80344
 20
16.92776
 30
0.0
 10
11.52568
 20
17.37368
 30
0.0
 10
11.12418
 20
17.51909
 30
0.0
 10
10.58719
 20
17.33541
 30
0.0
 10
10.58719
 20
17.33541
 30
0.0
 10
11.0535
 20
18.56549
 30
0.0
 10
10.0866
 20
19.075
 30
0.0
 10
8.90998
 20
18.94625
 30
0.0
 10
8.90998
 20
18.94625
 30
0.0
 10
7.70362
 20
18.62422
 30
0.0
 10
7.90303
 20
17.19437
 30
0.0
 10
9.16965
 20
17.6449
 30
0.0
 10
9.16965
 20
17.6449
 30
0.0
 10
9.44707
 20
17.7437
 30
0.0
 10
9.52491
 20
17.45221
 30
0.0
 10
9.26333
 20
17.2175
 30
0.0
 10
9.26333
 20
17.2175
 30
0.0
 10
6.64637
 20
15.54033
 30
0.0
 10
5.8491
 20
22.58351
 30
0.0
 10
13.59923
 20
22.57104
 30
0.0
 10
13.59923
 20
22.57104
 30
0.0
 10
14.18082
 20
22.5909
 30
0.0
 10
14.60746
 20
22.23492
 30
0.0
 10
14.02643
 20
21.86212
 30
0.0
 10
14.02643
 20
21.86212
 30
0.0
 10
11.57249
 20
20.82757
 30
0.0
 10
15.81466
 20
19.24698
 30
0.0
 10
15.97969
 20
22.5785
 30
0.0
 10
15.97969
 20
22.5785
 30
0.0
 10
15.97504
 20
23.76381
 30
0.0
 10
15.32722
 20
23.86517
 30
0.0
 10
13.77523
 20
23.85074
 30
0.0
 10
13.77523
 20
23.85074
 30
0.0
 10
13.77523
 20
23.85074
 30
0.0
 10
6.20768
 20
23.85074
 30
0.0
 10
6.20768
 20
23.85074
 30
0.0
 10
6.20768
 20
23.85074
 30
0.0
 10
6.20768
 20
23.85074
 30
0.0
 10
6.20986
 20
16.43872
 30
0.0
 10
6.20986
 20
16.43872
 30
0.0
 10
6.20986
 20
16.43872
 30
0.0
 10
6.50856
 20
16.08456
 30
0.0
 10
6.92503
 20
15.80193
 30
0.0
 10
7.42798
 20
15.58962
 30
0.0
 10
7.42798
 20
15.58962
 30
0.0
 10
8.00891
 20
15.25415
 30
0.0
 10
7.88396
 20
14.53162
 30
0.0
 10
7.38249
 20
14.64629
 30
0.0
 10
7.38249
 20
14.64629
 30
0.0
 10
6.93063
 20
14.76431
 30
0.0
 10
6.46211
 20
14.77889
 30
0.0
 10
6.20977
 20
14.63534
 30
0.0
  0
SPLINE
  5
74
330
1F
100
AcDbEntity
  8
Camada 1
 62
   114
370
     9
100
AcDbSpline
210
0.0
220
0.0
230
1.0
 70
    11
 71
     3
 72
    20
 73
    16
 74
     0
 42
0.000000001
 43
0.0000000001
 40
0.0
 40
0.0
 40
0.0
 40
0.0
 40
0.2
 40
0.2
 40
0.2
 40
0.2
 40
0.4
 40
0.4
 40
0.4
 40
0.4
 40
0.6
 40
0.6
 40
0.6
 40
0.6
 40
1.0
 40
1.0
 40
1.0
 40
1.0
 10
8.93395
 20
-2.25125
 30
0.0
 10
9.0456
 20
-2.07998
 30
0.0
 10
9.19661
 20
-1.94987
 30
0.0
 10
9.38148
 20
-1.85521
 30
0.0
 10
9.38148
 20
-1.85521
 30
0.0
 10
9.18937
 20
-1.6603
 30
0.0
 10
9.06598
 20
-1.4419
 30
0.0
 10
8.98006
 20
-1.21082
 30
0.0
 10
8.98006
 20
-1.21082
 30
0.0
 10
8.85473
 20
-1.37667
 30
0.0
 10
8.70503
 20
-1.51381
 30
0.0
 10
8.52778
 20
-1.61845
 30
0.0
 10
8.52778
 20
-1.61845
 30
0.0
 10
8.71672
 20
-1.82019
 30
0.0
 10
8.83915
 20
-2.03336
 30
0.0
 10
8.93395
 20
-2.25125
 30
0.0
  0
SPLINE
  5
75
330
1F
100
AcDbEntity
  8
Camada 1
 62
   114
370
     9
100
AcDbSpline
210
0.0
220
0.0
230
1.0
 70
    11
 71
     3
 72
    28
 73
    24
 74
     0
 42
0.000000001
 43
0.0000000001
 40
0.0
 40
0.0
 40
0.0
 40
0.0
 40
0.1428571428571428
 40
0.1428571428571428
 40
0.1428571428571428
 40
0.1428571428571428
 40
0.2857142857142857
 40
0.2857142857142857
 40
0.2857142857142857
 40
0.2857142857142857
 40
0.4285714285714285
 40
0.4285714285714285
 40
0.4285714285714285
 40
0.4285714285714285
 40
0.5714285714285714
 40
0.5714285714285714
 40
0.5714285714285714
 40
0.5714285714285714
 40
0.7142857142857143
 40
0.7142857142857143
 40
0.7142857142857143
 40
0.7142857142857143
 40
1.0
 40
1.0
 40
1.0
 40
1.0
 10
6.06045
 20
-1.62533
 30
0.0
 10
6.30647
 20
-1.35239
 30
0.0
 10
6.71674
 20
-1.18506
 30
0.0
 10
7.21764
 20
-1.09531
 30
0.0
 10
7.21764
 20
-1.09531
 30
0.0
 10
7.53533
 20
-0.9563
 30
0.0
 10
7.69082
 20
-0.67122
 30
0.0
 10
7.79773
 20
-0.34243
 30
0.0
 10
7.79773
 20
-0.34243
 30
0.0
 10
7.1275
 20
-0.56141
 30
0.0
 10
6.49488
 20
-0.42786
 30
0.0
 10
6.0608
 20
0.14984
 30
0.0
 10
6.0608
 20
0.14984
 30
0.0
 10
5.6267
 20
-0.42786
 30
0.0
 10
4.98732
 20
-0.56141
 30
0.0
 10
4.31709
 20
-0.34243
 30
0.0
 10
4.31709
 20
-0.34243
 30
0.0
 10
4.42399
 20
-0.67122
 30
0.0
 10
4.57948
 20
-0.9563
 30
0.0
 10
4.89718
 20
-1.09531
 30
0.0
 10
4.89718
 20
-1.09531
 30
0.0
 10
5.39807
 20
-1.18506
 30
0.0
 10
5.81443
 20
-1.35239
 30
0.0
 10
6.06045
 20
-1.62533
 30
0.0
  0
SPLINE
  5
76
330
1F
100
AcDbEntity
  8
Camada 1
 62
   114
370
     9
100
AcDbSpline
210
0.0
220
0.0
230
1.0
 70
    11
 71
     3
 72
    52
 73
    48
 74
     0
 42
0.000000001
 43
0.0000000001
 40
0.0
 40
0.0
 40
0.0
 40
0.0
 40
0.0769230769230769
 40
0.0769230769230769
 40
0.0769230769230769
 40
0.0769230769230769
 40
0.1538461538461539
 40
0.1538461538461539
 40
0.1538461538461539
 40
0.1538461538461539
 40
0.2307692307692308
 40
0.2307692307692308
 40
0.2307692307692308
 40
0.2307692307692308
 40
0.3076923076923077
 40
0.3076923076923077
 40
0.3076923076923077
 40
0.3076923076923077
 40
0.3846153846153846
 40
0.3846153846153846
 40
0.3846153846153846
 40
0.3846153846153846
 40
0.4615384615384616
 40
0.4615384615384616
 40
0.4615384615384616
 40
0.4615384615384616
 40
0.5384615384615384
 40
0.5384615384615384
 40
0.5384615384615384
 40
0.5384615384615384
 40
0.6153846153846154
 40
0.6153846153846154
 40
0.6153846153846154
 40
0.6153846153846154
 40
0.6923076923076923
 40
0.6923076923076923
 40
0.6923076923076923
 40
0.6923076923076923
 40
0.7692307692307693
 40
0.7692307692307693
 40
0.7692307692307693
 40
0.7692307692307693
 40
0.8461538461538461
 40
0.8461538461538461
 40
0.8461538461538461
 40
0.8461538461538461
 40
1.0
 40
1.0
 40
1.0
 40
1.0
 10
6.0587
 20
-5.28271
 30
0.0
 10
5.52232
 20
-4.69577
 30
0.0
 10
4.93907
 20
-4.0758
 30
0.0
 10
4.40268
 20
-3.48883
 30
0.0
 10
4.40268
 20
-3.48883
 30
0.0
 10
4.23959
 20
-3.2393
 30
0.0
 10
4.11023
 20
-2.96645
 30
0.0
 10
4.12075
 20
-2.597
 30
0.0
 10
4.12075
 20
-2.597
 30
0.0
 10
4.17525
 20
-2.11189
 30
0.0
 10
4.65779
 20
-2.18552
 30
0.0
 10
4.45232
 20
-2.63858
 30
0.0
 10
4.45232
 20
-2.63858
 30
0.0
 10
4.44216
 20
-3.01591
 30
0.0
 10
4.56168
 20
-3.29742
 30
0.0
 10
4.99719
 20
-3.34501
 30
0.0
 10
4.99719
 20
-3.34501
 30
0.0
 10
4.99719
 20
-3.34501
 30
0.0
 10
5.52501
 20
-3.18459
 30
0.0
 10
5.52501
 20
-3.18459
 30
0.0
 10
5.52501
 20
-3.18459
 30
0.0
 10
5.55013
 20
-2.87428
 30
0.0
 10
5.79254
 20
-2.63031
 30
0.0
 10
6.05992
 20
-2.63122
 30
0.0
 10
6.05992
 20
-2.63122
 30
0.0
 10
6.33326
 20
-2.62632
 30
0.0
 10
6.56468
 20
-2.87428
 30
0.0
 10
6.5898
 20
-3.18459
 30
0.0
 10
6.5898
 20
-3.18459
 30
0.0
 10
6.5898
 20
-3.18459
 30
0.0
 10
7.11763
 20
-3.34501
 30
0.0
 10
7.11763
 20
-3.34501
 30
0.0
 10
7.11763
 20
-3.34501
 30
0.0
 10
7.55314
 20
-3.29742
 30
0.0
 10
7.67264
 20
-3.01591
 30
0.0
 10
7.6625
 20
-2.63858
 30
0.0
 10
7.6625
 20
-2.63858
 30
0.0
 10
7.45702
 20
-2.18552
 30
0.0
 10
7.93957
 20
-2.11189
 30
0.0
 10
7.99407
 20
-2.597
 30
0.0
 10
7.99407
 20
-2.597
 30
0.0
 10
8.00459
 20
-2.96645
 30
0.0
 10
7.87523
 20
-3.2393
 30
0.0
 10
7.71214
 20
-3.48883
 30
0.0
 10
7.71214
 20
-3.48883
 30
0.0
 10
7.17575
 20
-4.0758
 30
0.0
 10
6.59509
 20
-4.69577
 30
0.0
 10
6.0587
 20
-5.28271
 30
0.0
  0
SPLINE
  5
77
330
1F
100
AcDbEntity
  8
Camada 1
 62
   114
370
     9
100
AcDbSpline
210
0.0
220
0.0
230
1.0
 70
    11
 71
     3
 72
    60
 73
    56
 74
     0
 42
0.000000001
 43
0.0000000001
 40
0.0
 40
0.0
 40
0.0
 40
0.0
 40
0.0666666666666667
 40
0.0666666666666667
 40
0.0666666666666667
 40
0.0666666666666667
 40
0.1333333333333333
 40
0.1333333333333333
 40
0.1333333333333333
 40
0.1333333333333333
 40
0.2
 40
0.2
 40
0.2
 40
0.2
 40
0.2666666666666667
 40
0.2666666666666667
 40
0.2666666666666667
 40
0.2666666666666667
 40
0.3333333333333333
 40
0.3333333333333333
 40
0.3333333333333333
 40
0.3333333333333333
 40
0.4
 40
0.4
 40
0.4
 40
0.4
 40
0.4666666666666667
 40
0.4666666666666667
 40
0.4666666666666667
 40
0.4666666666666667
 40
0.5333333333333333
 40
0.5333333333333333
 40
0.5333333333333333
 40
0.5333333333333333
 40
0.6
 40
0.6
 40
0.6
 40
0.6
 40
0.6666666666666666
 40
0.6666666666666666
 40
0.6666666666666666
 40
0.6666666666666666
 40
0.7333333333333333
 40
0.7333333333333333
 40
0.7333333333333333
 40
0.7333333333333333
 40
0.8
 40
0.8
 40
0.8
 40
0.8
 40
0.8666666666666667
 40
0.8666666666666667
 40
0.8666666666666667
 40
0.8666666666666667
 40
1.0
 40
1.0
 40
1.0
 40
1.0
 10
6.05744
 20
-8.65687
 30
0.0
 10
6.05744
 20
-8.65687
 30
0.0
 10
4.57178
 20
-9.21988
 30
0.0
 10
4.57178
 20
-9.21988
 30
0.0
 10
4.57178
 20
-9.21988
 30
0.0
 10
4.1956
 20
-8.59769
 30
0.0
 10
3.72768
 20
-8.79789
 30
0.0
 10
3.2134
 20
-9.41381
 30
0.0
 10
3.2134
 20
-9.41381
 30
0.0
 10
3.63528
 20
-9.33022
 30
0.0
 10
3.99561
 20
-9.40713
 30
0.0
 10
4.28087
 20
-9.68011
 30
0.0
 10
4.28087
 20
-9.68011
 30
0.0
 10
5.33993
 20
-8.97537
 30
0.0
 10
5.9873
 20
-10.05205
 30
0.0
 10
5.49338
 20
-10.90431
 30
0.0
 10
5.49338
 20
-10.90431
 30
0.0
 10
5.1105
 20
-11.34539
 30
0.0
 10
4.62205
 20
-11.16944
 30
0.0
 10
4.5526
 20
-10.87702
 30
0.0
 10
4.5526
 20
-10.87702
 30
0.0
 10
4.12728
 20
-10.66114
 30
0.0
 10
4.02307
 20
-11.16789
 30
0.0
 10
4.31486
 20
-11.41387
 30
0.0
 10
4.31486
 20
-11.41387
 30
0.0
 10
4.91002
 20
-11.4471
 30
0.0
 10
5.59124
 20
-11.73092
 30
0.0
 10
6.0569
 20
-12.26878
 30
0.0
 10
6.0569
 20
-12.26878
 30
0.0
 10
6.52256
 20
-11.73092
 30
0.0
 10
7.20479
 20
-11.4471
 30
0.0
 10
7.79996
 20
-11.41387
 30
0.0
 10
7.79996
 20
-11.41387
 30
0.0
 10
8.09174
 20
-11.16789
 30
0.0
 10
7.98752
 20
-10.66114
 30
0.0
 10
7.56221
 20
-10.87702
 30
0.0
 10
7.56221
 20
-10.87702
 30
0.0
 10
7.49277
 20
-11.16944
 30
0.0
 10
7.00432
 20
-11.34539
 30
0.0
 10
6.62144
 20
-10.90431
 30
0.0
 10
6.62144
 20
-10.90431
 30
0.0
 10
6.1275
 20
-10.05205
 30
0.0
 10
6.77489
 20
-8.97537
 30
0.0
 10
7.83394
 20
-9.68011
 30
0.0
 10
7.83394
 20
-9.68011
 30
0.0
 10
8.1192
 20
-9.40713
 30
0.0
 10
8.47954
 20
-9.33022
 30
0.0
 10
8.90141
 20
-9.41381
 30
0.0
 10
8.90141
 20
-9.41381
 30
0.0
 10
8.38714
 20
-8.79789
 30
0.0
 10
7.91922
 20
-8.59769
 30
0.0
 10
7.54304
 20
-9.21988
 30
0.0
 10
7.54304
 20
-9.21988
 30
0.0
 10
7.54304
 20
-9.21988
 30
0.0
 10
6.05744
 20
-8.65687
 30
0.0
 10
6.05744
 20
-8.65687
 30
0.0
  0
SPLINE
  5
78
330
1F
100
AcDbEntity
  8
Camada 1
 62
   114
370
     9
100
AcDbSpline
210
0.0
220
0.0
230
1.0
 70
    11
 71
     3
 72
    32
 73
    28
 74
     0
 42
0.000000001
 43
0.0000000001
 40
0.0
 40
0.0
 40
0.0
 40
0.0
 40
0.125
 40
0.125
 40
0.125
 40
0.125
 40
0.25
 40
0.25
 40
0.25
 40
0.25
 40
0.375
 40
0.375
 40
0.375
 40
0.375
 40
0.5
 40
0.5
 40
0.5
 40
0.5
 40
0.625
 40
0.625
 40
0.625
 40
0.625
 40
0.75
 40
0.75
 40
0.75
 40
0.75
 40
1.0
 40
1.0
 40
1.0
 40
1.0
 10
8.43196
 20
-7.64971
 30
0.0
 10
7.95327
 20
-7.58084
 30
0.0
 10
7.5578
 20
-7.40899
 30
0.0
 10
7.28946
 20
-7.07981
 30
0.0
 10
7.28946
 20
-7.07981
 30
0.0
 10
7.12216
 20
-6.72891
 30
0.0
 10
7.15917
 20
-6.42494
 30
0.0
 10
7.38303
 20
-6.16387
 30
0.0
 10
7.38303
 20
-6.16387
 30
0.0
 10
7.90206
 20
-5.8607
 30
0.0
 10
7.43163
 20
-5.38641
 30
0.0
 10
8.19881
 20
-5.30764
 30
0.0
 10
8.19881
 20
-5.30764
 30
0.0
 10
8.62914
 20
-5.19646
 30
0.0
 10
8.49605
 20
-4.79576
 30
0.0
 10
7.97297
 20
-4.86544
 30
0.0
 10
7.97297
 20
-4.86544
 30
0.0
 10
7.46703
 20
-5.06088
 30
0.0
 10
7.07822
 20
-5.46712
 30
0.0
 10
6.85533
 20
-6.17216
 30
0.0
 10
6.85533
 20
-6.17216
 30
0.0
 10
6.85533
 20
-6.17216
 30
0.0
 10
6.84281
 20
-7.79945
 30
0.0
 10
6.84281
 20
-7.79945
 30
0.0
 10
6.84281
 20
-7.79945
 30
0.0
 10
7.33886
 20
-7.8083
 30
0.0
 10
8.02033
 20
-7.98542
 30
0.0
 10
8.43196
 20
-7.64971
 30
0.0
  0
SPLINE
  5
79
330
1F
100
AcDbEntity
  8
Camada 1
 62
   114
370
     9
100
AcDbSpline
210
0.0
220
0.0
230
1.0
 70
    11
 71
     3
 72
    24
 73
    20
 74
     0
 42
0.000000001
 43
0.0000000001
 40
0.0
 40
0.0
 40
0.0
 40
0.0
 40
0.1666666666666667
 40
0.1666666666666667
 40
0.1666666666666667
 40
0.1666666666666667
 40
0.3333333333333333
 40
0.3333333333333333
 40
0.3333333333333333
 40
0.3333333333333333
 40
0.5
 40
0.5
 40
0.5
 40
0.5
 40
0.6666666666666666
 40
0.6666666666666666
 40
0.6666666666666666
 40
0.6666666666666666
 40
1.0
 40
1.0
 40
1.0
 40
1.0
 10
4.29224
 20
10.6673
 30
0.0
 10
4.07105
 20
9.92246
 30
0.0
 10
4.24565
 20
9.67437
 30
0.0
 10
4.79102
 20
9.89184
 30
0.0
 10
4.79102
 20
9.89184
 30
0.0
 10
5.02618
 20
9.34518
 30
0.0
 10
4.64461
 20
9.00289
 30
0.0
 10
4.2188
 20
9.11457
 30
0.0
 10
4.2188
 20
9.11457
 30
0.0
 10
2.68769
 20
9.3792
 30
0.0
 10
1.93681
 20
11.80452
 30
0.0
 10
3.80454
 20
12.92191
 30
0.0
 10
3.80454
 20
12.92191
 30
0.0
 10
4.23906
 20
13.02207
 30
0.0
 10
4.31838
 20
12.40524
 30
0.0
 10
3.95916
 20
12.10725
 30
0.0
 10
3.95916
 20
12.10725
 30
0.0
 10
3.21727
 20
11.51274
 30
0.0
 10
3.36545
 20
10.72633
 30
0.0
 10
4.29224
 20
10.6673
 30
0.0
  0
SPLINE
  5
7A
330
1F
100
AcDbEntity
  8
Camada 1
 62
   114
370
     9
100
AcDbSpline
210
0.0
220
0.0
230
1.0
 70
    11
 71
     3
 72
    20
 73
    16
 74
     0
 42
0.000000001
 43
0.0000000001
 40
0.0
 40
0.0
 40
0.0
 40
0.0
 40
0.2
 40
0.2
 40
0.2
 40
0.2
 40
0.4
 40
0.4
 40
0.4
 40
0.4
 40
0.6
 40
0.6
 40
0.6
 40
0.6
 40
1.0
 40
1.0
 40
1.0
 40
1.0
 10
3.23091
 20
13.88047
 30
0.0
 10
3.23091
 20
13.88047
 30
0.0
 10
3.85684
 20
13.88538
 30
0.0
 10
3.85684
 20
13.88538
 30
0.0
 10
3.85684
 20
13.88538
 30
0.0
 10
3.67569
 20
14.7013
 30
0.0
 10
3.38086
 20
15.35543
 30
0.0
 10
2.70948
 20
15.80941
 30
0.0
 10
2.70948
 20
15.80941
 30
0.0
 10
1.16574
 20
16.50662
 30
0.0
 10
0.53088
 20
15.3006
 30
0.0
 10
1.47264
 20
14.46126
 30
0.0
 10
1.47264
 20
14.46126
 30
0.0
 10
2.25735
 20
15.14991
 30
0.0
 10
3.05468
 20
15.21696
 30
0.0
 10
3.23091
 20
13.88047
 30
0.0
  0
SPLINE
  5
7B
330
1F
100
AcDbEntity
  8
Camada 1
 62
   114
370
     9
100
AcDbSpline
210
0.0
220
0.0
230
1.0
 70
    11
 71
     3
 72
    28
 73
    24
 74
     0
 42
0.000000001
 43
0.0000000001
 40
0.0
 40
0.0
 40
0.0
 40
0.0
 40
0.1428571428571428
 40
0.1428571428571428
 40
0.1428571428571428
 40
0.1428571428571428
 40
0.2857142857142857
 40
0.2857142857142857
 40
0.2857142857142857
 40
0.2857142857142857
 40
0.4285714285714285
 40
0.4285714285714285
 40
0.4285714285714285
 40
0.4285714285714285
 40
0.5714285714285714
 40
0.5714285714285714
 40
0.5714285714285714
 40
0.5714285714285714
 40
0.7142857142857143
 40
0.7142857142857143
 40
0.7142857142857143
 40
0.7142857142857143
 40
1.0
 40
1.0
 40
1.0
 40
1.0
 10
2.38407
 20
13.15365
 30
0.0
 10
2.38407
 20
13.15365
 30
0.0
 10
1.5657
 20
12.01293
 30
0.0
 10
1.5657
 20
12.01293
 30
0.0
 10
1.5657
 20
12.01293
 30
0.0
 10
0.58894
 20
13.24626
 30
0.0
 10
-0.81062
 20
14.36231
 30
0.0
 10
-1.99877
 20
15.53702
 30
0.0
 10
-1.99877
 20
15.53702
 30
0.0
 10
-2.52968
 20
15.95213
 30
0.0
 10
-2.69048
 20
16.44172
 30
0.0
 10
-2.2198
 20
16.87451
 30
0.0
 10
-2.2198
 20
16.87451
 30
0.0
 10
-1.80328
 20
17.15906
 30
0.0
 10
-0.97662
 20
17.20539
 30
0.0
 10
-1.29849
 20
16.39197
 30
0.0
 10
-1.29849
 20
16.39197
 30
0.0
 10
-2.07483
 20
15.17267
 30
0.0
 10
-1.09187
 20
15.16547
 30
0.0
 10
-0.2107
 20
15.02073
 30
0.0
 10
-0.2107
 20
15.02073
 30
0.0
 10
0.31007
 20
13.80842
 30
0.0
 10
1.13272
 20
13.11363
 30
0.0
 10
2.38407
 20
13.15365
 30
0.0
  0
SPLINE
  5
7C
330
1F
100
AcDbEntity
  8
Camada 1
 62
   114
370
     9
100
AcDbSpline
210
0.0
220
0.0
230
1.0
 70
    11
 71
     3
 72
    48
 73
    44
 74
     0
 42
0.000000001
 43
0.0000000001
 40
0.0
 40
0.0
 40
0.0
 40
0.0
 40
0.0833333333333333
 40
0.0833333333333333
 40
0.0833333333333333
 40
0.0833333333333333
 40
0.1666666666666667
 40
0.1666666666666667
 40
0.1666666666666667
 40
0.1666666666666667
 40
0.25
 40
0.25
 40
0.25
 40
0.25
 40
0.3333333333333333
 40
0.3333333333333333
 40
0.3333333333333333
 40
0.3333333333333333
 40
0.4166666666666667
 40
0.4166666666666667
 40
0.4166666666666667
 40
0.4166666666666667
 40
0.5
 40
0.5
 40
0.5
 40
0.5
 40
0.5833333333333334
 40
0.5833333333333334
 40
0.5833333333333334
 40
0.5833333333333334
 40
0.6666666666666666
 40
0.6666666666666666
 40
0.6666666666666666
 40
0.6666666666666666
 40
0.75
 40
0.75
 40
0.75
 40
0.75
 40
0.8333333333333334
 40
0.8333333333333334
 40
0.8333333333333334
 40
0.8333333333333334
 40
1.0
 40
1.0
 40
1.0
 40
1.0
 10
3.43775
 20
3.58074
 30
0.0
 10
3.95267
 20
4.59654
 30
0.0
 10
4.41704
 20
7.32071
 30
0.0
 10
3.23428
 20
7.63624
 30
0.0
 10
3.23428
 20
7.63624
 30
0.0
 10
3.04092
 20
7.6757
 30
0.0
 10
2.91908
 20
7.54834
 30
0.0
 10
3.07221
 20
7.40855
 30
0.0
 10
3.07221
 20
7.40855
 30
0.0
 10
3.74681
 20
7.21347
 30
0.0
 10
3.42213
 20
6.39896
 30
0.0
 10
2.89405
 20
6.31882
 30
0.0
 10
2.89405
 20
6.31882
 30
0.0
 10
1.46062
 20
6.26524
 30
0.0
 10
1.4137
 20
7.90309
 30
0.0
 10
2.81054
 20
8.56602
 30
0.0
 10
2.81054
 20
8.56602
 30
0.0
 10
2.54448
 20
8.68208
 30
0.0
 10
2.35291
 20
8.8772
 30
0.0
 10
2.25409
 20
9.17085
 30
0.0
 10
2.25409
 20
9.17085
 30
0.0
 10
2.25409
 20
9.17085
 30
0.0
 10
1.07214
 20
8.39321
 30
0.0
 10
1.07214
 20
8.39321
 30
0.0
 10
1.07214
 20
8.39321
 30
0.0
 10
0.26582
 20
8.0243
 30
0.0
 10
-0.219
 20
9.07192
 30
0.0
 10
0.64129
 20
9.46864
 30
0.0
 10
0.64129
 20
9.46864
 30
0.0
 10
1.36935
 20
9.69609
 30
0.0
 10
1.64553
 20
10.62364
 30
0.0
 10
0.64749
 20
10.7075
 30
0.0
 10
0.64749
 20
10.7075
 30
0.0
 10
-0.36337
 20
10.59773
 30
0.0
 10
-1.03103
 20
9.74806
 30
0.0
 10
-0.52437
 20
8.69552
 30
0.0
 10
-0.52437
 20
8.69552
 30
0.0
 10
-0.04298
 20
7.93869
 30
0.0
 10
0.97595
 20
7.65426
 30
0.0
 10
1.43438
 20
7.03163
 30
0.0
 10
1.43438
 20
7.03163
 30
0.0
 10
2.35553
 20
5.95159
 30
0.0
 10
3.0804
 20
4.8171
 30
0.0
 10
3.43775
 20
3.58074
 30
0.0
  0
SPLINE
  5
7D
330
1F
100
AcDbEntity
  8
Camada 1
 62
   114
370
     9
100
AcDbSpline
210
0.0
220
0.0
230
1.0
 70
    11
 71
     3
 72
    28
 73
    24
 74
     0
 42
0.000000001
 43
0.0000000001
 40
0.0
 40
0.0
 40
0.0
 40
0.0
 40
0.1428571428571428
 40
0.1428571428571428
 40
0.1428571428571428
 40
0.1428571428571428
 40
0.2857142857142857
 40
0.2857142857142857
 40
0.2857142857142857
 40
0.2857142857142857
 40
0.4285714285714285
 40
0.4285714285714285
 40
0.4285714285714285
 40
0.4285714285714285
 40
0.5714285714285714
 40
0.5714285714285714
 40
0.5714285714285714
 40
0.5714285714285714
 40
0.7142857142857143
 40
0.7142857142857143
 40
0.7142857142857143
 40
0.7142857142857143
 40
1.0
 40
1.0
 40
1.0
 40
1.0
 10
2.22073
 20
2.32938
 30
0.0
 10
2.15897
 20
2.49707
 30
0.0
 10
2.46215
 20
2.70819
 30
0.0
 10
2.67137
 20
2.55276
 30
0.0
 10
2.67137
 20
2.55276
 30
0.0
 10
3.0383
 20
1.67046
 30
0.0
 10
3.1929
 20
0.7293
 30
0.0
 10
3.03946
 20
-0.29735
 30
0.0
 10
3.03946
 20
-0.29735
 30
0.0
 10
2.08294
 20
-1.8625
 30
0.0
 10
0.11845
 20
-0.40516
 30
0.0
 10
0.94552
 20
1.12381
 30
0.0
 10
0.94552
 20
1.12381
 30
0.0
 10
1.12923
 20
1.37906
 30
0.0
 10
1.54551
 20
1.44584
 30
0.0
 10
1.42931
 20
0.97118
 30
0.0
 10
1.42931
 20
0.97118
 30
0.0
 10
0.95772
 20
0.19227
 30
0.0
 10
1.34239
 20
-0.39287
 30
0.0
 10
2.10076
 20
0.03274
 30
0.0
 10
2.10076
 20
0.03274
 30
0.0
 10
3.10328
 20
0.80643
 30
0.0
 10
2.82401
 20
1.56928
 30
0.0
 10
2.22073
 20
2.32938
 30
0.0
  0
SPLINE
  5
7E
330
1F
100
AcDbEntity
  8
Camada 1
 62
   114
370
     9
100
AcDbSpline
210
0.0
220
0.0
230
1.0
 70
    11
 71
     3
 72
    20
 73
    16
 74
     0
 42
0.000000001
 43
0.0000000001
 40
0.0
 40
0.0
 40
0.0
 40
0.0
 40
0.2
 40
0.2
 40
0.2
 40
0.2
 40
0.4
 40
0.4
 40
0.4
 40
0.4
 40
0.6
 40
0.6
 40
0.6
 40
0.6
 40
1.0
 40
1.0
 40
1.0
 40
1.0
 10
3.18086
 20
-2.25125
 30
0.0
 10
3.06922
 20
-2.07998
 30
0.0
 10
2.91821
 20
-1.94987
 30
0.0
 10
2.73334
 20
-1.85521
 30
0.0
 10
2.73334
 20
-1.85521
 30
0.0
 10
2.92545
 20
-1.6603
 30
0.0
 10
3.04882
 20
-1.4419
 30
0.0
 10
3.13475
 20
-1.21082
 30
0.0
 10
3.13475
 20
-1.21082
 30
0.0
 10
3.26009
 20
-1.37667
 30
0.0
 10
3.40979
 20
-1.51381
 30
0.0
 10
3.58704
 20
-1.61845
 30
0.0
 10
3.58704
 20
-1.61845
 30
0.0
 10
3.39809
 20
-1.82019
 30
0.0
 10
3.27567
 20
-2.03336
 30
0.0
 10
3.18086
 20
-2.25125
 30
0.0
  0
SPLINE
  5
7F
330
1F
100
AcDbEntity
  8
Camada 1
 62
   114
370
     9
100
AcDbSpline
210
0.0
220
0.0
230
1.0
 70
    11
 71
     3
 72
    32
 73
    28
 74
     0
 42
0.000000001
 43
0.0000000001
 40
0.0
 40
0.0
 40
0.0
 40
0.0
 40
0.125
 40
0.125
 40
0.125
 40
0.125
 40
0.25
 40
0.25
 40
0.25
 40
0.25
 40
0.375
 40
0.375
 40
0.375
 40
0.375
 40
0.5
 40
0.5
 40
0.5
 40
0.5
 40
0.625
 40
0.625
 40
0.625
 40
0.625
 40
0.75
 40
0.75
 40
0.75
 40
0.75
 40
1.0
 40
1.0
 40
1.0
 40
1.0
 10
3.68286
 20
-7.64971
 30
0.0
 10
4.16155
 20
-7.58084
 30
0.0
 10
4.557
 20
-7.40899
 30
0.0
 10
4.82536
 20
-7.07981
 30
0.0
 10
4.82536
 20
-7.07981
 30
0.0
 10
4.99266
 20
-6.72891
 30
0.0
 10
4.95565
 20
-6.42494
 30
0.0
 10
4.73178
 20
-6.16387
 30
0.0
 10
4.73178
 20
-6.16387
 30
0.0
 10
4.21275
 20
-5.8607
 30
0.0
 10
4.68319
 20
-5.38641
 30
0.0
 10
3.91601
 20
-5.30764
 30
0.0
 10
3.91601
 20
-5.30764
 30
0.0
 10
3.48567
 20
-5.19646
 30
0.0
 10
3.61875
 20
-4.79576
 30
0.0
 10
4.14185
 20
-4.86544
 30
0.0
 10
4.14185
 20
-4.86544
 30
0.0
 10
4.64779
 20
-5.06088
 30
0.0
 10
5.0366
 20
-5.46712
 30
0.0
 10
5.25948
 20
-6.17216
 30
0.0
 10
5.25948
 20
-6.17216
 30
0.0
 10
5.25948
 20
-6.17216
 30
0.0
 10
5.27201
 20
-7.79945
 30
0.0
 10
5.27201
 20
-7.79945
 30
0.0
 10
5.27201
 20
-7.79945
 30
0.0
 10
4.77596
 20
-7.8083
 30
0.0
 10
4.09448
 20
-7.98542
 30
0.0
 10
3.68286
 20
-7.64971
 30
0.0
  0
SPLINE
  5
80
330
1F
100
AcDbEntity
  8
Camada 1
 62
   114
370
     9
100
AcDbSpline
210
0.0
220
0.0
230
1.0
 70
    11
 71
     3
 72
    24
 73
    20
 74
     0
 42
0.000000001
 43
0.0000000001
 40
0.0
 40
0.0
 40
0.0
 40
0.0
 40
0.1666666666666667
 40
0.1666666666666667
 40
0.1666666666666667
 40
0.1666666666666667
 40
0.3333333333333333
 40
0.3333333333333333
 40
0.3333333333333333
 40
0.3333333333333333
 40
0.5
 40
0.5
 40
0.5
 40
0.5
 40
0.6666666666666666
 40
0.6666666666666666
 40
0.6666666666666666
 40
0.6666666666666666
 40
1.0
 40
1.0
 40
1.0
 40
1.0
 10
7.82258
 20
10.6673
 30
0.0
 10
8.04377
 20
9.92246
 30
0.0
 10
7.86916
 20
9.67437
 30
0.0
 10
7.32379
 20
9.89184
 30
0.0
 10
7.32379
 20
9.89184
 30
0.0
 10
7.08864
 20
9.34518
 30
0.0
 10
7.47021
 20
9.00289
 30
0.0
 10
7.89601
 20
9.11457
 30
0.0
 10
7.89601
 20
9.11457
 30
0.0
 10
9.42711
 20
9.3792
 30
0.0
 10
10.178
 20
11.80452
 30
0.0
 10
8.31028
 20
12.92191
 30
0.0
 10
8.31028
 20
12.92191
 30
0.0
 10
7.87574
 20
13.02207
 30
0.0
 10
7.79644
 20
12.40524
 30
0.0
 10
8.15566
 20
12.10725
 30
0.0
 10
8.15566
 20
12.10725
 30
0.0
 10
8.89755
 20
11.51274
 30
0.0
 10
8.74936
 20
10.72633
 30
0.0
 10
7.82258
 20
10.6673
 30
0.0
  0
SPLINE
  5
81
330
1F
100
AcDbEntity
  8
Camada 1
 62
   114
370
     9
100
AcDbSpline
210
0.0
220
0.0
230
1.0
 70
    11
 71
     3
 72
    20
 73
    16
 74
     0
 42
0.000000001
 43
0.0000000001
 40
0.0
 40
0.0
 40
0.0
 40
0.0
 40
0.2
 40
0.2
 40
0.2
 40
0.2
 40
0.4
 40
0.4
 40
0.4
 40
0.4
 40
0.6
 40
0.6
 40
0.6
 40
0.6
 40
1.0
 40
1.0
 40
1.0
 40
1.0
 10
8.88391
 20
13.88047
 30
0.0
 10
8.88391
 20
13.88047
 30
0.0
 10
8.25797
 20
13.88538
 30
0.0
 10
8.25797
 20
13.88538
 30
0.0
 10
8.25797
 20
13.88538
 30
0.0
 10
8.43913
 20
14.7013
 30
0.0
 10
8.73396
 20
15.35543
 30
0.0
 10
9.40533
 20
15.80941
 30
0.0
 10
9.40533
 20
15.80941
 30
0.0
 10
10.94908
 20
16.50662
 30
0.0
 10
11.58392
 20
15.3006
 30
0.0
 10
10.64217
 20
14.46126
 30
0.0
 10
10.64217
 20
14.46126
 30
0.0
 10
9.85746
 20
15.14991
 30
0.0
 10
9.06014
 20
15.21696
 30
0.0
 10
8.88391
 20
13.88047
 30
0.0
  0
SPLINE
  5
82
330
1F
100
AcDbEntity
  8
Camada 1
 62
   114
370
     9
100
AcDbSpline
210
0.0
220
0.0
230
1.0
 70
    11
 71
     3
 72
    28
 73
    24
 74
     0
 42
0.000000001
 43
0.0000000001
 40
0.0
 40
0.0
 40
0.0
 40
0.0
 40
0.1428571428571428
 40
0.1428571428571428
 40
0.1428571428571428
 40
0.1428571428571428
 40
0.2857142857142857
 40
0.2857142857142857
 40
0.2857142857142857
 40
0.2857142857142857
 40
0.4285714285714285
 40
0.4285714285714285
 40
0.4285714285714285
 40
0.4285714285714285
 40
0.5714285714285714
 40
0.5714285714285714
 40
0.5714285714285714
 40
0.5714285714285714
 40
0.7142857142857143
 40
0.7142857142857143
 40
0.7142857142857143
 40
0.7142857142857143
 40
1.0
 40
1.0
 40
1.0
 40
1.0
 10
9.73074
 20
13.15365
 30
0.0
 10
9.73074
 20
13.15365
 30
0.0
 10
10.54911
 20
12.01293
 30
0.0
 10
10.54911
 20
12.01293
 30
0.0
 10
10.54911
 20
12.01293
 30
0.0
 10
11.52587
 20
13.24626
 30
0.0
 10
12.92544
 20
14.36231
 30
0.0
 10
14.11359
 20
15.53702
 30
0.0
 10
14.11359
 20
15.53702
 30
0.0
 10
14.6445
 20
15.95213
 30
0.0
 10
14.8053
 20
16.44172
 30
0.0
 10
14.33461
 20
16.87451
 30
0.0
 10
14.33461
 20
16.87451
 30
0.0
 10
13.9181
 20
17.15906
 30
0.0
 10
13.09144
 20
17.20539
 30
0.0
 10
13.41329
 20
16.39197
 30
0.0
 10
13.41329
 20
16.39197
 30
0.0
 10
14.18964
 20
15.17267
 30
0.0
 10
13.20668
 20
15.16547
 30
0.0
 10
12.3255
 20
15.02073
 30
0.0
 10
12.3255
 20
15.02073
 30
0.0
 10
11.80475
 20
13.80842
 30
0.0
 10
10.9821
 20
13.11363
 30
0.0
 10
9.73074
 20
13.15365
 30
0.0
  0
SPLINE
  5
83
330
1F
100
AcDbEntity
  8
Camada 1
 62
   114
370
     9
100
AcDbSpline
210
0.0
220
0.0
230
1.0
 70
    11
 71
     3
 72
    48
 73
    44
 74
     0
 42
0.000000001
 43
0.0000000001
 40
0.0
 40
0.0
 40
0.0
 40
0.0
 40
0.0833333333333333
 40
0.0833333333333333
 40
0.0833333333333333
 40
0.0833333333333333
 40
0.1666666666666667
 40
0.1666666666666667
 40
0.1666666666666667
 40
0.1666666666666667
 40
0.25
 40
0.25
 40
0.25
 40
0.25
 40
0.3333333333333333
 40
0.3333333333333333
 40
0.3333333333333333
 40
0.3333333333333333
 40
0.4166666666666667
 40
0.4166666666666667
 40
0.4166666666666667
 40
0.4166666666666667
 40
0.5
 40
0.5
 40
0.5
 40
0.5
 40
0.5833333333333334
 40
0.5833333333333334
 40
0.5833333333333334
 40
0.5833333333333334
 40
0.6666666666666666
 40
0.6666666666666666
 40
0.6666666666666666
 40
0.6666666666666666
 40
0.75
 40
0.75
 40
0.75
 40
0.75
 40
0.8333333333333334
 40
0.8333333333333334
 40
0.8333333333333334
 40
0.8333333333333334
 40
1.0
 40
1.0
 40
1.0
 40
1.0
 10
8.67705
 20
3.58074
 30
0.0
 10
8.16213
 20
4.59654
 30
0.0
 10
7.69778
 20
7.32071
 30
0.0
 10
8.88054
 20
7.63624
 30
0.0
 10
8.88054
 20
7.63624
 30
0.0
 10
9.07388
 20
7.6757
 30
0.0
 10
9.19574
 20
7.54834
 30
0.0
 10
9.04261
 20
7.40855
 30
0.0
 10
9.04261
 20
7.40855
 30
0.0
 10
8.36801
 20
7.21347
 30
0.0
 10
8.69269
 20
6.39896
 30
0.0
 10
9.22077
 20
6.31882
 30
0.0
 10
9.22077
 20
6.31882
 30
0.0
 10
10.65418
 20
6.26524
 30
0.0
 10
10.7011
 20
7.90309
 30
0.0
 10
9.30428
 20
8.56602
 30
0.0
 10
9.30428
 20
8.56602
 30
0.0
 10
9.57032
 20
8.68208
 30
0.0
 10
9.76191
 20
8.8772
 30
0.0
 10
9.86073
 20
9.17085
 30
0.0
 10
9.86073
 20
9.17085
 30
0.0
 10
9.86073
 20
9.17085
 30
0.0
 10
11.04268
 20
8.39321
 30
0.0
 10
11.04268
 20
8.39321
 30
0.0
 10
11.04268
 20
8.39321
 30
0.0
 10
11.84899
 20
8.0243
 30
0.0
 10
12.33381
 20
9.07192
 30
0.0
 10
11.47353
 20
9.46864
 30
0.0
 10
11.47353
 20
9.46864
 30
0.0
 10
10.74547
 20
9.69609
 30
0.0
 10
10.46928
 20
10.62364
 30
0.0
 10
11.46732
 20
10.7075
 30
0.0
 10
11.46732
 20
10.7075
 30
0.0
 10
12.47817
 20
10.59773
 30
0.0
 10
13.14585
 20
9.74806
 30
0.0
 10
12.63919
 20
8.69552
 30
0.0
 10
12.63919
 20
8.69552
 30
0.0
 10
12.1578
 20
7.93869
 30
0.0
 10
11.13887
 20
7.65426
 30
0.0
 10
10.68042
 20
7.03163
 30
0.0
 10
10.68042
 20
7.03163
 30
0.0
 10
9.75929
 20
5.95159
 30
0.0
 10
9.03442
 20
4.8171
 30
0.0
 10
8.67705
 20
3.58074
 30
0.0
  0
SPLINE
  5
84
330
1F
100
AcDbEntity
  8
Camada 1
 62
   114
370
     9
100
AcDbSpline
210
0.0
220
0.0
230
1.0
 70
    11
 71
     3
 72
    28
 73
    24
 74
     0
 42
0.000000001
 43
0.0000000001
 40
0.0
 40
0.0
 40
0.0
 40
0.0
 40
0.1428571428571428
 40
0.1428571428571428
 40
0.1428571428571428
 40
0.1428571428571428
 40
0.2857142857142857
 40
0.2857142857142857
 40
0.2857142857142857
 40
0.2857142857142857
 40
0.4285714285714285
 40
0.4285714285714285
 40
0.4285714285714285
 40
0.4285714285714285
 40
0.5714285714285714
 40
0.5714285714285714
 40
0.5714285714285714
 40
0.5714285714285714
 40
0.7142857142857143
 40
0.7142857142857143
 40
0.7142857142857143
 40
0.7142857142857143
 40
1.0
 40
1.0
 40
1.0
 40
1.0
 10
9.89408
 20
2.32938
 30
0.0
 10
9.95585
 20
2.49707
 30
0.0
 10
9.65267
 20
2.70819
 30
0.0
 10
9.44344
 20
2.55276
 30
0.0
 10
9.44344
 20
2.55276
 30
0.0
 10
9.07652
 20
1.67046
 30
0.0
 10
8.92191
 20
0.7293
 30
0.0
 10
9.07536
 20
-0.29735
 30
0.0
 10
9.07536
 20
-0.29735
 30
0.0
 10
10.03187
 20
-1.8625
 30
0.0
 10
11.99636
 20
-0.40516
 30
0.0
 10
11.1693
 20
1.12381
 30
0.0
 10
11.1693
 20
1.12381
 30
0.0
 10
10.98558
 20
1.37906
 30
0.0
 10
10.56931
 20
1.44584
 30
0.0
 10
10.68551
 20
0.97118
 30
0.0
 10
10.68551
 20
0.97118
 30
0.0
 10
11.1571
 20
0.19227
 30
0.0
 10
10.77242
 20
-0.39287
 30
0.0
 10
10.01405
 20
0.03274
 30
0.0
 10
10.01405
 20
0.03274
 30
0.0
 10
9.01154
 20
0.80643
 30
0.0
 10
9.29081
 20
1.56928
 30
0.0
 10
9.89408
 20
2.32938
 30
0.0
  0
SPLINE
  5
85
330
1F
100
AcDbEntity
  8
Camada 1
 62
   114
370
     9
100
AcDbSpline
210
0.0
220
0.0
230
1.0
 70
    11
 71
     3
 72
   624
 73
   620
 74
     0
 42
0.000000001
 43
0.0000000001
 40
0.0
 40
0.0
 40
0.0
 40
0.0
 40
0.0064102564102564
 40
0.0064102564102564
 40
0.0064102564102564
 40
0.0064102564102564
 40
0.0128205128205128
 40
0.0128205128205128
 40
0.0128205128205128
 40
0.0128205128205128
 40
0.0192307692307692
 40
0.0192307692307692
 40
0.0192307692307692
 40
0.0192307692307692
 40
0.0256410256410256
 40
0.0256410256410256
 40
0.0256410256410256
 40
0.0256410256410256
 40
0.032051282051282
 40
0.032051282051282
 40
0.032051282051282
 40
0.032051282051282
 40
0.0384615384615385
 40
0.0384615384615385
 40
0.0384615384615385
 40
0.0384615384615385
 40
0.0448717948717949
 40
0.0448717948717949
 40
0.0448717948717949
 40
0.0448717948717949
 40
0.0512820512820513
 40
0.0512820512820513
 40
0.0512820512820513
 40
0.0512820512820513
 40
0.0576923076923077
 40
0.0576923076923077
 40
0.0576923076923077
 40
0.0576923076923077
 40
0.0641025641025641
 40
0.0641025641025641
 40
0.0641025641025641
 40
0.0641025641025641
 40
0.0705128205128205
 40
0.0705128205128205
 40
0.0705128205128205
 40
0.0705128205128205
 40
0.0769230769230769
 40
0.0769230769230769
 40
0.0769230769230769
 40
0.0769230769230769
 40
0.0833333333333333
 40
0.0833333333333333
 40
0.0833333333333333
 40
0.0833333333333333
 40
0.0897435897435897
 40
0.0897435897435897
 40
0.0897435897435897
 40
0.0897435897435897
 40
0.0961538461538462
 40
0.0961538461538462
 40
0.0961538461538462
 40
0.0961538461538462
 40
0.1025641025641026
 40
0.1025641025641026
 40
0.1025641025641026
 40
0.1025641025641026
 40
0.108974358974359
 40
0.108974358974359
 40
0.108974358974359
 40
0.108974358974359
 40
0.1153846153846154
 40
0.1153846153846154
 40
0.1153846153846154
 40
0.1153846153846154
 40
0.1217948717948718
 40
0.1217948717948718
 40
0.1217948717948718
 40
0.1217948717948718
 40
0.1282051282051282
 40
0.1282051282051282
 40
0.1282051282051282
 40
0.1282051282051282
 40
0.1346153846153846
 40
0.1346153846153846
 40
0.1346153846153846
 40
0.1346153846153846
 40
0.141025641025641
 40
0.141025641025641
 40
0.141025641025641
 40
0.141025641025641
 40
0.1474358974358974
 40
0.1474358974358974
 40
0.1474358974358974
 40
0.1474358974358974
 40
0.1538461538461539
 40
0.1538461538461539
 40
0.1538461538461539
 40
0.1538461538461539
 40
0.1602564102564103
 40
0.1602564102564103
 40
0.1602564102564103
 40
0.1602564102564103
 40
0.1666666666666667
 40
0.1666666666666667
 40
0.1666666666666667
 40
0.1666666666666667
 40
0.1730769230769231
 40
0.1730769230769231
 40
0.1730769230769231
 40
0.1730769230769231
 40
0.1794871794871795
 40
0.1794871794871795
 40
0.1794871794871795
 40
0.1794871794871795
 40
0.1858974358974359
 40
0.1858974358974359
 40
0.1858974358974359
 40
0.1858974358974359
 40
0.1923076923076923
 40
0.1923076923076923
 40
0.1923076923076923
 40
0.1923076923076923
 40
0.1987179487179487
 40
0.1987179487179487
 40
0.1987179487179487
 40
0.1987179487179487
 40
0.2051282051282051
 40
0.2051282051282051
 40
0.2051282051282051
 40
0.2051282051282051
 40
0.2115384615384615
 40
0.2115384615384615
 40
0.2115384615384615
 40
0.2115384615384615
 40
0.217948717948718
 40
0.217948717948718
 40
0.217948717948718
 40
0.217948717948718
 40
0.2243589743589744
 40
0.2243589743589744
 40
0.2243589743589744
 40
0.2243589743589744
 40
0.2307692307692308
 40
0.2307692307692308
 40
0.2307692307692308
 40
0.2307692307692308
 40
0.2371794871794872
 40
0.2371794871794872
 40
0.2371794871794872
 40
0.2371794871794872
 40
0.2435897435897436
 40
0.2435897435897436
 40
0.2435897435897436
 40
0.2435897435897436
 40
0.25
 40
0.25
 40
0.25
 40
0.25
 40
0.2564102564102564
 40
0.2564102564102564
 40
0.2564102564102564
 40
0.2564102564102564
 40
0.2628205128205128
 40
0.2628205128205128
 40
0.2628205128205128
 40
0.2628205128205128
 40
0.2692307692307692
 40
0.2692307692307692
 40
0.2692307692307692
 40
0.2692307692307692
 40
0.2756410256410257
 40
0.2756410256410257
 40
0.2756410256410257
 40
0.2756410256410257
 40
0.282051282051282
 40
0.282051282051282
 40
0.282051282051282
 40
0.282051282051282
 40
0.2884615384615384
 40
0.2884615384615384
 40
0.2884615384615384
 40
0.2884615384615384
 40
0.2948717948717949
 40
0.2948717948717949
 40
0.2948717948717949
 40
0.2948717948717949
 40
0.3012820512820513
 40
0.3012820512820513
 40
0.3012820512820513
 40
0.3012820512820513
 40
0.3076923076923077
 40
0.3076923076923077
 40
0.3076923076923077
 40
0.3076923076923077
 40
0.3141025641025641
 40
0.3141025641025641
 40
0.3141025641025641
 40
0.3141025641025641
 40
0.3205128205128205
 40
0.3205128205128205
 40
0.3205128205128205
 40
0.3205128205128205
 40
0.3269230769230769
 40
0.3269230769230769
 40
0.3269230769230769
 40
0.3269230769230769
 40
0.3333333333333333
 40
0.3333333333333333
 40
0.3333333333333333
 40
0.3333333333333333
 40
0.3397435897435898
 40
0.3397435897435898
 40
0.3397435897435898
 40
0.3397435897435898
 40
0.3461538461538461
 40
0.3461538461538461
 40
0.3461538461538461
 40
0.3461538461538461
 40
0.3525641025641026
 40
0.3525641025641026
 40
0.3525641025641026
 40
0.3525641025641026
 40
0.358974358974359
 40
0.358974358974359
 40
0.358974358974359
 40
0.358974358974359
 40
0.3653846153846154
 40
0.3653846153846154
 40
0.3653846153846154
 40
0.3653846153846154
 40
0.3717948717948718
 40
0.3717948717948718
 40
0.3717948717948718
 40
0.3717948717948718
 40
0.3782051282051282
 40
0.3782051282051282
 40
0.3782051282051282
 40
0.3782051282051282
 40
0.3846153846153846
 40
0.3846153846153846
 40
0.3846153846153846
 40
0.3846153846153846
 40
0.391025641025641
 40
0.391025641025641
 40
0.391025641025641
 40
0.391025641025641
 40
0.3974358974358974
 40
0.3974358974358974
 40
0.3974358974358974
 40
0.3974358974358974
 40
0.4038461538461539
 40
0.4038461538461539
 40
0.4038461538461539
 40
0.4038461538461539
 40
0.4102564102564102
 40
0.4102564102564102
 40
0.4102564102564102
 40
0.4102564102564102
 40
0.4166666666666667
 40
0.4166666666666667
 40
0.4166666666666667
 40
0.4166666666666667
 40
0.4230769230769231
 40
0.4230769230769231
 40
0.4230769230769231
 40
0.4230769230769231
 40
0.4294871794871795
 40
0.4294871794871795
 40
0.4294871794871795
 40
0.4294871794871795
 40
0.4358974358974359
 40
0.4358974358974359
 40
0.4358974358974359
 40
0.4358974358974359
 40
0.4423076923076923
 40
0.4423076923076923
 40
0.4423076923076923
 40
0.4423076923076923
 40
0.4487179487179487
 40
0.4487179487179487
 40
0.4487179487179487
 40
0.4487179487179487
 40
0.4551282051282051
 40
0.4551282051282051
 40
0.4551282051282051
 40
0.4551282051282051
 40
0.4615384615384616
 40
0.4615384615384616
 40
0.4615384615384616
 40
0.4615384615384616
 40
0.467948717948718
 40
0.467948717948718
 40
0.467948717948718
 40
0.467948717948718
 40
0.4743589743589743
 40
0.4743589743589743
 40
0.4743589743589743
 40
0.4743589743589743
 40
0.4807692307692308
 40
0.4807692307692308
 40
0.4807692307692308
 40
0.4807692307692308
 40
0.4871794871794872
 40
0.4871794871794872
 40
0.4871794871794872
 40
0.4871794871794872
 40
0.4935897435897436
 40
0.4935897435897436
 40
0.4935897435897436
 40
0.4935897435897436
 40
0.5
 40
0.5
 40
0.5
 40
0.5
 40
0.5064102564102564
 40
0.5064102564102564
 40
0.5064102564102564
 40
0.5064102564102564
 40
0.5128205128205128
 40
0.5128205128205128
 40
0.5128205128205128
 40
0.5128205128205128
 40
0.5192307692307693
 40
0.5192307692307693
 40
0.5192307692307693
 40
0.5192307692307693
 40
0.5256410256410257
 40
0.5256410256410257
 40
0.5256410256410257
 40
0.5256410256410257
 40
0.532051282051282
 40
0.532051282051282
 40
0.532051282051282
 40
0.532051282051282
 40
0.5384615384615384
 40
0.5384615384615384
 40
0.5384615384615384
 40
0.5384615384615384
 40
0.5448717948717948
 40
0.5448717948717948
 40
0.5448717948717948
 40
0.5448717948717948
 40
0.5512820512820513
 40
0.5512820512820513
 40
0.5512820512820513
 40
0.5512820512820513
 40
0.5576923076923077
 40
0.5576923076923077
 40
0.5576923076923077
 40
0.5576923076923077
 40
0.5641025641025641
 40
0.5641025641025641
 40
0.5641025641025641
 40
0.5641025641025641
 40
0.5705128205128205
 40
0.5705128205128205
 40
0.5705128205128205
 40
0.5705128205128205
 40
0.5769230769230769
 40
0.5769230769230769
 40
0.5769230769230769
 40
0.5769230769230769
 40
0.5833333333333334
 40
0.5833333333333334
 40
0.5833333333333334
 40
0.5833333333333334
 40
0.5897435897435898
 40
0.5897435897435898
 40
0.5897435897435898
 40
0.5897435897435898
 40
0.5961538461538461
 40
0.5961538461538461
 40
0.5961538461538461
 40
0.5961538461538461
 40
0.6025641025641025
 40
0.6025641025641025
 40
0.6025641025641025
 40
0.6025641025641025
 40
0.6089743589743589
 40
0.6089743589743589
 40
0.6089743589743589
 40
0.6089743589743589
 40
0.6153846153846154
 40
0.6153846153846154
 40
0.6153846153846154
 40
0.6153846153846154
 40
0.6217948717948718
 40
0.6217948717948718
 40
0.6217948717948718
 40
0.6217948717948718
 40
0.6282051282051282
 40
0.6282051282051282
 40
0.6282051282051282
 40
0.6282051282051282
 40
0.6346153846153846
 40
0.6346153846153846
 40
0.6346153846153846
 40
0.6346153846153846
 40
0.6410256410256411
 40
0.6410256410256411
 40
0.6410256410256411
 40
0.6410256410256411
 40
0.6474358974358975
 40
0.6474358974358975
 40
0.6474358974358975
 40
0.6474358974358975
 40
0.6538461538461539
 40
0.6538461538461539
 40
0.6538461538461539
 40
0.6538461538461539
 40
0.6602564102564102
 40
0.6602564102564102
 40
0.6602564102564102
 40
0.6602564102564102
 40
0.6666666666666666
 40
0.6666666666666666
 40
0.6666666666666666
 40
0.6666666666666666
 40
0.6730769230769231
 40
0.6730769230769231
 40
0.6730769230769231
 40
0.6730769230769231
 40
0.6794871794871795
 40
0.6794871794871795
 40
0.6794871794871795
 40
0.6794871794871795
 40
0.6858974358974359
 40
0.6858974358974359
 40
0.6858974358974359
 40
0.6858974358974359
 40
0.6923076923076923
 40
0.6923076923076923
 40
0.6923076923076923
 40
0.6923076923076923
 40
0.6987179487179487
 40
0.6987179487179487
 40
0.6987179487179487
 40
0.6987179487179487
 40
0.7051282051282052
 40
0.7051282051282052
 40
0.7051282051282052
 40
0.7051282051282052
 40
0.7115384615384616
 40
0.7115384615384616
 40
0.7115384615384616
 40
0.7115384615384616
 40
0.717948717948718
 40
0.717948717948718
 40
0.717948717948718
 40
0.717948717948718
 40
0.7243589743589743
 40
0.7243589743589743
 40
0.7243589743589743
 40
0.7243589743589743
 40
0.7307692307692307
 40
0.7307692307692307
 40
0.7307692307692307
 40
0.7307692307692307
 40
0.7371794871794872
 40
0.7371794871794872
 40
0.7371794871794872
 40
0.7371794871794872
 40
0.7435897435897436
 40
0.7435897435897436
 40
0.7435897435897436
 40
0.7435897435897436
 40
0.75
 40
0.75
 40
0.75
 40
0.75
 40
0.7564102564102564
 40
0.7564102564102564
 40
0.7564102564102564
 40
0.7564102564102564
 40
0.7628205128205128
 40
0.7628205128205128
 40
0.7628205128205128
 40
0.7628205128205128
 40
0.7692307692307693
 40
0.7692307692307693
 40
0.7692307692307693
 40
0.7692307692307693
 40
0.7756410256410257
 40
0.7756410256410257
 40
0.7756410256410257
 40
0.7756410256410257
 40
0.782051282051282
 40
0.782051282051282
 40
0.782051282051282
 40
0.782051282051282
 40
0.7884615384615384
 40
0.7884615384615384
 40
0.7884615384615384
 40
0.7884615384615384
 40
0.7948717948717948
 40
0.7948717948717948
 40
0.7948717948717948
 40
0.7948717948717948
 40
0.8012820512820513
 40
0.8012820512820513
 40
0.8012820512820513
 40
0.8012820512820513
 40
0.8076923076923077
 40
0.8076923076923077
 40
0.8076923076923077
 40
0.8076923076923077
 40
0.8141025641025641
 40
0.8141025641025641
 40
0.8141025641025641
 40
0.8141025641025641
 40
0.8205128205128205
 40
0.8205128205128205
 40
0.8205128205128205
 40
0.8205128205128205
 40
0.8269230769230769
 40
0.8269230769230769
 40
0.8269230769230769
 40
0.8269230769230769
 40
0.8333333333333334
 40
0.8333333333333334
 40
0.8333333333333334
 40
0.8333333333333334
 40
0.8397435897435898
 40
0.8397435897435898
 40
0.8397435897435898
 40
0.8397435897435898
 40
0.8461538461538461
 40
0.8461538461538461
 40
0.8461538461538461
 40
0.8461538461538461
 40
0.8525641025641025
 40
0.8525641025641025
 40
0.8525641025641025
 40
0.8525641025641025
 40
0.8589743589743589
 40
0.8589743589743589
 40
0.8589743589743589
 40
0.8589743589743589
 40
0.8653846153846154
 40
0.8653846153846154
 40
0.8653846153846154
 40
0.8653846153846154
 40
0.8717948717948718
 40
0.8717948717948718
 40
0.8717948717948718
 40
0.8717948717948718
 40
0.8782051282051282
 40
0.8782051282051282
 40
0.8782051282051282
 40
0.8782051282051282
 40
0.8846153846153846
 40
0.8846153846153846
 40
0.8846153846153846
 40
0.8846153846153846
 40
0.8910256410256411
 40
0.8910256410256411
 40
0.8910256410256411
 40
0.8910256410256411
 40
0.8974358974358975
 40
0.8974358974358975
 40
0.8974358974358975
 40
0.8974358974358975
 40
0.9038461538461539
 40
0.9038461538461539
 40
0.9038461538461539
 40
0.9038461538461539
 40
0.9102564102564102
 40
0.9102564102564102
 40
0.9102564102564102
 40
0.9102564102564102
 40
0.9166666666666666
 40
0.9166666666666666
 40
0.9166666666666666
 40
0.9166666666666666
 40
0.9230769230769231
 40
0.9230769230769231
 40
0.9230769230769231
 40
0.9230769230769231
 40
0.9294871794871795
 40
0.9294871794871795
 40
0.9294871794871795
 40
0.9294871794871795
 40
0.9358974358974359
 40
0.9358974358974359
 40
0.9358974358974359
 40
0.9358974358974359
 40
0.9423076923076923
 40
0.9423076923076923
 40
0.9423076923076923
 40
0.9423076923076923
 40
0.9487179487179487
 40
0.9487179487179487
 40
0.9487179487179487
 40
0.9487179487179487
 40
0.9551282051282052
 40
0.9551282051282052
 40
0.9551282051282052
 40
0.9551282051282052
 40
0.9615384615384616
 40
0.9615384615384616
 40
0.9615384615384616
 40
0.9615384615384616
 40
0.967948717948718
 40
0.967948717948718
 40
0.967948717948718
 40
0.967948717948718
 40
0.9743589743589743
 40
0.9743589743589743
 40
0.9743589743589743
 40
0.9743589743589743
 40
0.9807692307692307
 40
0.9807692307692307
 40
0.9807692307692307
 40
0.9807692307692307
 40
0.9871794871794872
 40
0.9871794871794872
 40
0.9871794871794872
 40
0.9871794871794872
 40
1.0
 40
1.0
 40
1.0
 40
1.0
 10
-19.54507
 20
-21.64574
 30
0.0
 10
-21.09706
 20
-21.66017
 30
0.0
 10
-21.74489
 20
-21.5588
 30
0.0
 10
-21.74954
 20
-20.3735
 30
0.0
 10
-21.74954
 20
-20.3735
 30
0.0
 10
-21.5845
 20
-17.04198
 30
0.0
 10
-17.34233
 20
-18.62256
 30
0.0
 10
-19.79627
 20
-19.65712
 30
0.0
 10
-19.79627
 20
-19.65712
 30
0.0
 10
-20.3773
 20
-20.02992
 30
0.0
 10
-19.95067
 20
-20.3859
 30
0.0
 10
-19.36907
 20
-20.36603
 30
0.0
 10
-19.36907
 20
-20.36603
 30
0.0
 10
-11.61895
 20
-20.37851
 30
0.0
 10
-12.41621
 20
-13.33533
 30
0.0
 10
-15.03317
 20
-15.0125
 30
0.0
 10
-15.03317
 20
-15.0125
 30
0.0
 10
-15.29476
 20
-15.2472
 30
0.0
 10
-15.21691
 20
-15.53869
 30
0.0
 10
-14.93949
 20
-15.4399
 30
0.0
 10
-14.93949
 20
-15.4399
 30
0.0
 10
-13.67287
 20
-14.98936
 30
0.0
 10
-13.47346
 20
-16.41922
 30
0.0
 10
-14.67982
 20
-16.74125
 30
0.0
 10
-14.67982
 20
-16.74125
 30
0.0
 10
-15.85644
 20
-16.86999
 30
0.0
 10
-16.82334
 20
-16.36049
 30
0.0
 10
-16.35703
 20
-15.13041
 30
0.0
 10
-16.35703
 20
-15.13041
 30
0.0
 10
-16.89402
 20
-15.31409
 30
0.0
 10
-17.29552
 20
-15.16868
 30
0.0
 10
-17.57328
 20
-14.72275
 30
0.0
 10
-17.57328
 20
-14.72275
 30
0.0
 10
-18.89442
 20
-16.76301
 30
0.0
 10
-21.91114
 20
-16.17604
 30
0.0
 10
-21.78134
 20
-13.65408
 30
0.0
 10
-21.78134
 20
-13.65408
 30
0.0
 10
-21.78458
 20
-13.19657
 30
0.0
 10
-22.27462
 20
-12.96166
 30
0.0
 10
-22.85876
 20
-13.10222
 30
0.0
 10
-22.85876
 20
-13.10222
 30
0.0
 10
-23.20099
 20
-13.17638
 30
0.0
 10
-23.39277
 20
-13.48549
 30
0.0
 10
-23.53063
 20
-13.87888
 30
0.0
 10
-23.53063
 20
-13.87888
 30
0.0
 10
-24.16887
 20
-13.26406
 30
0.0
 10
-24.12636
 20
-12.74568
 30
0.0
 10
-23.52079
 20
-12.30713
 30
0.0
 10
-23.52079
 20
-12.30713
 30
0.0
 10
-24.17754
 20
-10.94667
 30
0.0
 10
-23.80021
 20
-10.07146
 30
0.0
 10
-22.30845
 20
-9.71924
 30
0.0
 10
-22.30845
 20
-9.71924
 30
0.0
 10
-21.11115
 20
-9.63595
 30
0.0
 10
-19.95372
 20
-11.58087
 30
0.0
 10
-22.14456
 20
-11.78906
 30
0.0
 10
-22.14456
 20
-11.78906
 30
0.0
 10
-21.40288
 20
-12.65909
 30
0.0
 10
-20.24204
 20
-12.35633
 30
0.0
 10
-19.86441
 20
-11.6623
 30
0.0
 10
-19.86441
 20
-11.6623
 30
0.0
 10
-20.78045
 20
-10.84991
 30
0.0
 10
-21.02456
 20
-9.96815
 30
0.0
 10
-20.66
 20
-9.02363
 30
0.0
 10
-20.66
 20
-9.02363
 30
0.0
 10
-18.9414
 20
-10.81525
 30
0.0
 10
-18.48037
 20
-10.60804
 30
0.0
 10
-17.51513
 20
-9.41782
 30
0.0
 10
-17.51513
 20
-9.41782
 30
0.0
 10
-19.20915
 20
-9.32581
 30
0.0
 10
-20.03673
 20
-8.42292
 30
0.0
 10
-19.47574
 20
-6.2198
 30
0.0
 10
-19.47574
 20
-6.2198
 30
0.0
 10
-19.85508
 20
-6.17112
 30
0.0
 10
-20.00375
 20
-6.29057
 30
0.0
 10
-20.25361
 20
-6.74647
 30
0.0
 10
-20.25361
 20
-6.74647
 30
0.0
 10
-21.10397
 20
-6.4652
 30
0.0
 10
-21.27808
 20
-5.92444
 30
0.0
 10
-20.85244
 20
-5.15349
 30
0.0
 10
-20.85244
 20
-5.15349
 30
0.0
 10
-21.88164
 20
-4.50691
 30
0.0
 10
-21.86442
 20
-2.73635
 30
0.0
 10
-20.26014
 20
-2.78024
 30
0.0
 10
-20.26014
 20
-2.78024
 30
0.0
 10
-18.86724
 20
-2.81217
 30
0.0
 10
-18.09597
 20
-4.51244
 30
0.0
 10
-19.26048
 20
-4.60389
 30
0.0
 10
-19.26048
 20
-4.60389
 30
0.0
 10
-19.62864
 20
-4.57825
 30
0.0
 10
-20.15784
 20
-4.33244
 30
0.0
 10
-20.06386
 20
-4.69034
 30
0.0
 10
-20.06386
 20
-4.69034
 30
0.0
 10
-19.79709
 20
-5.61711
 30
0.0
 10
-18.0276
 20
-4.9146
 30
0.0
 10
-17.61964
 20
-4.74965
 30
0.0
 10
-17.61964
 20
-4.74965
 30
0.0
 10
-18.71181
 20
-3.77121
 30
0.0
 10
-18.93714
 20
-2.96036
 30
0.0
 10
-18.24431
 20
-2.32709
 30
0.0
 10
-18.24431
 20
-2.32709
 30
0.0
 10
-17.67218
 20
-3.46369
 30
0.0
 10
-17.0183
 20
-3.76972
 30
0.0
 10
-16.27385
 20
-3.15468
 30
0.0
 10
-16.27385
 20
-3.15468
 30
0.0
 10
-14.74319
 20
-2.11314
 30
0.0
 10
-16.19296
 20
-0.11248
 30
0.0
 10
-16.65096
 20
-1.06784
 30
0.0
 10
-16.65096
 20
-1.06784
 30
0.0
 10
-15.57061
 20
-1.90166
 30
0.0
 10
-16.27385
 20
-3.15468
 30
0.0
 10
-17.29502
 20
-2.46374
 30
0.0
 10
-17.29502
 20
-2.46374
 30
0.0
 10
-18.58588
 20
-1.51995
 30
0.0
 10
-18.60816
 20
-0.56726
 30
0.0
 10
-17.51143
 20
0.22517
 30
0.0
 10
-17.51143
 20
0.22517
 30
0.0
 10
-18.33853
 20
1.00646
 30
0.0
 10
-18.63845
 20
1.86488
 30
0.0
 10
-18.22639
 20
2.82737
 30
0.0
 10
-18.22639
 20
2.82737
 30
0.0
 10
-18.7237
 20
2.99339
 30
0.0
 10
-18.9538
 20
2.55115
 30
0.0
 10
-19.31747
 20
2.41302
 30
0.0
 10
-19.31747
 20
2.41302
 30
0.0
 10
-19.93577
 20
3.05343
 30
0.0
 10
-19.90983
 20
3.60098
 30
0.0
 10
-19.26257
 20
4.05912
 30
0.0
 10
-19.26257
 20
4.05912
 30
0.0
 10
-19.92479
 20
5.00055
 30
0.0
 10
-19.92779
 20
6.49448
 30
0.0
 10
-18.24966
 20
6.44677
 30
0.0
 10
-18.24966
 20
6.44677
 30
0.0
 10
-16.74901
 20
6.21647
 30
0.0
 10
-16.48735
 20
3.88831
 30
0.0
 10
-18.05815
 20
4.60828
 30
0.0
 10
-18.05815
 20
4.60828
 30
0.0
 10
-18.25636
 20
3.82783
 30
0.0
 10
-17.87692
 20
3.50022
 30
0.0
 10
-16.95284
 20
3.95029
 30
0.0
 10
-16.95284
 20
3.95029
 30
0.0
 10
-16.23258
 20
4.24956
 30
0.0
 10
-16.036
 20
4.6238
 30
0.0
 10
-16.14462
 20
4.99133
 30
0.0
 10
-16.14462
 20
4.99133
 30
0.0
 10
-17.09573
 20
6.00316
 30
0.0
 10
-17.17164
 20
6.92728
 30
0.0
 10
-16.11112
 20
7.73743
 30
0.0
 10
-16.11112
 20
7.73743
 30
0.0
 10
-16.05216
 20
7.07407
 30
0.0
 10
-15.86248
 20
6.46445
 30
0.0
 10
-15.4224
 20
5.95785
 30
0.0
 10
-15.4224
 20
5.95785
 30
0.0
 10
-15.11705
 20
5.59272
 30
0.0
 10
-14.41527
 20
5.86064
 30
0.0
 10
-14.649
 20
6.27759
 30
0.0
 10
-14.649
 20
6.27759
 30
0.0
 10
-15.56977
 20
7.12302
 30
0.0
 10
-15.77046
 20
7.96191
 30
0.0
 10
-15.15393
 20
8.79338
 30
0.0
 10
-15.15393
 20
8.79338
 30
0.0
 10
-15.59924
 20
9.36132
 30
0.0
 10
-15.66841
 20
9.96308
 30
0.0
 10
-15.2973
 20
10.60448
 30
0.0
 10
-15.2973
 20
10.60448
 30
0.0
 10
-15.62147
 20
10.69642
 30
0.0
 10
-15.82831
 20
10.54822
 30
0.0
 10
-15.9725
 20
10.27158
 30
0.0
 10
-15.9725
 20
10.27158
 30
0.0
 10
-16.4361
 20
10.92968
 30
0.0
 10
-16.32225
 20
11.42758
 30
0.0
 10
-15.70181
 20
11.78506
 30
0.0
 10
-15.70181
 20
11.78506
 30
0.0
 10
-16.35717
 20
13.00946
 30
0.0
 10
-15.95376
 20
13.50205
 30
0.0
 10
-14.52537
 20
13.28635
 30
0.0
 10
-14.52537
 20
13.28635
 30
0.0
 10
-14.74398
 20
13.88254
 30
0.0
 10
-14.61986
 20
14.33986
 30
0.0
 10
-14.10578
 20
14.63919
 30
0.0
 10
-14.10578
 20
14.63919
 30
0.0
 10
-15.06978
 20
16.1253
 30
0.0
 10
-14.84419
 20
17.177
 30
0.0
 10
-13.58347
 20
16.75773
 30
0.0
 10
-13.58347
 20
16.75773
 30
0.0
 10
-12.98792
 20
16.50832
 30
0.0
 10
-12.95789
 20
16.01563
 30
0.0
 10
-13.51155
 20
15.51461
 30
0.0
 10
-13.51155
 20
15.51461
 30
0.0
 10
-13.60966
 20
15.40318
 30
0.0
 10
-13.65585
 20
15.32616
 30
0.0
 10
-13.50732
 20
15.26039
 30
0.0
 10
-13.50732
 20
15.26039
 30
0.0
 10
-12.85106
 20
14.92818
 30
0.0
 10
-12.38677
 20
15.18865
 30
0.0
 10
-12.30441
 20
16.62781
 30
0.0
 10
-12.30441
 20
16.62781
 30
0.0
 10
-12.30441
 20
16.62781
 30
0.0
 10
-12.29564
 20
17.83436
 30
0.0
 10
-12.29564
 20
17.83436
 30
0.0
 10
-12.29564
 20
17.83436
 30
0.0
 10
-12.26003
 20
18.20561
 30
0.0
 10
-12.47051
 20
18.44834
 30
0.0
 10
-13.02091
 20
18.51349
 30
0.0
 10
-13.02091
 20
18.51349
 30
0.0
 10
-13.02091
 20
18.51349
 30
0.0
 10
-15.18744
 20
18.6926
 30
0.0
 10
-15.18744
 20
18.6926
 30
0.0
 10
-15.18744
 20
18.6926
 30
0.0
 10
-15.18744
 20
18.6926
 30
0.0
 10
-13.30507
 20
20.1387
 30
0.0
 10
-13.30507
 20
20.1387
 30
0.0
 10
-13.30507
 20
20.1387
 30
0.0
 10
-13.30507
 20
20.1387
 30
0.0
 10
-15.36155
 20
21.90892
 30
0.0
 10
-15.36155
 20
21.90892
 30
0.0
 10
-15.36155
 20
21.90892
 30
0.0
 10
-15.36155
 20
21.90892
 30
0.0
 10
-12.49018
 20
21.31853
 30
0.0
 10
-12.49018
 20
21.31853
 30
0.0
 10
-12.49018
 20
21.31853
 30
0.0
 10
-12.49018
 20
21.31853
 30
0.0
 10
-11.97778
 20
23.70667
 30
0.0
 10
-11.97778
 20
23.70667
 30
0.0
 10
-11.97778
 20
23.70667
 30
0.0
 10
-11.97778
 20
23.70667
 30
0.0
 10
-11.97583
 20
14.268
 30
0.0
 10
-11.97583
 20
14.268
 30
0.0
 10
-11.97583
 20
14.268
 30
0.0
 10
-12.42121
 20
13.87506
 30
0.0
 10
-13.06356
 20
13.64715
 30
0.0
 10
-13.5698
 20
13.61887
 30
0.0
 10
-13.5698
 20
13.61887
 30
0.0
 10
-13.86158
 20
13.3729
 30
0.0
 10
-13.75737
 20
12.86615
 30
0.0
 10
-13.33206
 20
13.08202
 30
0.0
 10
-13.33206
 20
13.08202
 30
0.0
 10
-13.26261
 20
13.37445
 30
0.0
 10
-12.77416
 20
13.55039
 30
0.0
 10
-12.39128
 20
13.10931
 30
0.0
 10
-12.39128
 20
13.10931
 30
0.0
 10
-11.89734
 20
12.25705
 30
0.0
 10
-12.54473
 20
11.18037
 30
0.0
 10
-13.60379
 20
11.88511
 30
0.0
 10
-13.60379
 20
11.88511
 30
0.0
 10
-13.88905
 20
11.61214
 30
0.0
 10
-14.24938
 20
11.53523
 30
0.0
 10
-14.67126
 20
11.61882
 30
0.0
 10
-14.67126
 20
11.61882
 30
0.0
 10
-14.15698
 20
11.00289
 30
0.0
 10
-13.68906
 20
10.8027
 30
0.0
 10
-13.31288
 20
11.42489
 30
0.0
 10
-13.31288
 20
11.42489
 30
0.0
 10
-13.31288
 20
11.42489
 30
0.0
 10
-11.97725
 20
10.94619
 30
0.0
 10
-11.97725
 20
10.94619
 30
0.0
 10
-11.97725
 20
10.94619
 30
0.0
 10
-11.97725
 20
10.94619
 30
0.0
 10
-11.97731
 20
7.24401
 30
0.0
 10
-11.97731
 20
7.24401
 30
0.0
 10
-11.97731
 20
7.24401
 30
0.0
 10
-12.44967
 20
6.73091
 30
0.0
 10
-13.01919
 20
6.20025
 30
0.0
 10
-13.48198
 20
5.69383
 30
0.0
 10
-13.48198
 20
5.69383
 30
0.0
 10
-13.64507
 20
5.4443
 30
0.0
 10
-13.77443
 20
5.17146
 30
0.0
 10
-13.76391
 20
4.802
 30
0.0
 10
-13.76391
 20
4.802
 30
0.0
 10
-13.70941
 20
4.3169
 30
0.0
 10
-13.22687
 20
4.39053
 30
0.0
 10
-13.43234
 20
4.84359
 30
0.0
 10
-13.43234
 20
4.84359
 30
0.0
 10
-13.44249
 20
5.22091
 30
0.0
 10
-13.32298
 20
5.50243
 30
0.0
 10
-12.88747
 20
5.55002
 30
0.0
 10
-12.88747
 20
5.55002
 30
0.0
 10
-12.88747
 20
5.55002
 30
0.0
 10
-12.35965
 20
5.38959
 30
0.0
 10
-12.35965
 20
5.38959
 30
0.0
 10
-12.35965
 20
5.38959
 30
0.0
 10
-12.34171
 20
5.16804
 30
0.0
 10
-12.14695
 20
5.03165
 30
0.0
 10
-11.97677
 20
4.93552
 30
0.0
 10
-11.97677
 20
4.93552
 30
0.0
 10
-11.97677
 20
4.93552
 30
0.0
 10
-11.97687
 20
3.63875
 30
0.0
 10
-11.97687
 20
3.63875
 30
0.0
 10
-11.97687
 20
3.63875
 30
0.0
 10
-12.22025
 20
3.47581
 30
0.0
 10
-12.61654
 20
3.36678
 30
0.0
 10
-12.98748
 20
3.30031
 30
0.0
 10
-12.98748
 20
3.30031
 30
0.0
 10
-13.30518
 20
3.1613
 30
0.0
 10
-13.46067
 20
2.87622
 30
0.0
 10
-13.56757
 20
2.54744
 30
0.0
 10
-13.56757
 20
2.54744
 30
0.0
 10
-13.00523
 20
2.73116
 30
0.0
 10
-12.39311
 20
2.66748
 30
0.0
 10
-11.97722
 20
2.30077
 30
0.0
 10
-11.97722
 20
2.30077
 30
0.0
 10
-11.97722
 20
2.30077
 30
0.0
 10
-11.97716
 20
1.67137
 30
0.0
 10
-11.97716
 20
1.67137
 30
0.0
 10
-11.97716
 20
1.67137
 30
0.0
 10
-11.97716
 20
1.67137
 30
0.0
 10
-11.78812
 20
1.67144
 30
0.0
 10
-11.78812
 20
1.67144
 30
0.0
 10
-11.78812
 20
1.67144
 30
0.0
 10
-11.78812
 20
1.67144
 30
0.0
 10
-11.67777
 20
1.67146
 30
0.0
 10
-11.67777
 20
1.67146
 30
0.0
 10
-11.67777
 20
1.67146
 30
0.0
 10
-11.67777
 20
1.67146
 30
0.0
 10
-11.67786
 20
2.3064
 30
0.0
 10
-11.67786
 20
2.3064
 30
0.0
 10
-11.67786
 20
2.3064
 30
0.0
 10
-11.26298
 20
2.66744
 30
0.0
 10
-10.64598
 20
2.73008
 30
0.0
 10
-10.08693
 20
2.54744
 30
0.0
 10
-10.08693
 20
2.54744
 30
0.0
 10
-10.19384
 20
2.87622
 30
0.0
 10
-10.34933
 20
3.1613
 30
0.0
 10
-10.66702
 20
3.30031
 30
0.0
 10
-10.66702
 20
3.30031
 30
0.0
 10
-11.03025
 20
3.36539
 30
0.0
 10
-11.43641
 20
3.49342
 30
0.0
 10
-11.67798
 20
3.65077
 30
0.0
 10
-11.67798
 20
3.65077
 30
0.0
 10
-11.67798
 20
3.65077
 30
0.0
 10
-11.67835
 20
4.96404
 30
0.0
 10
-11.67835
 20
4.96404
 30
0.0
 10
-11.67835
 20
4.96404
 30
0.0
 10
-11.51494
 20
5.05979
 30
0.0
 10
-11.31233
 20
5.17373
 30
0.0
 10
-11.29486
 20
5.38959
 30
0.0
 10
-11.29486
 20
5.38959
 30
0.0
 10
-11.29486
 20
5.38959
 30
0.0
 10
-10.76703
 20
5.55002
 30
0.0
 10
-10.76703
 20
5.55002
 30
0.0
 10
-10.76703
 20
5.55002
 30
0.0
 10
-10.33152
 20
5.50243
 30
0.0
 10
-10.212
 20
5.22091
 30
0.0
 10
-10.22216
 20
4.84359
 30
0.0
 10
-10.22216
 20
4.84359
 30
0.0
 10
-10.42764
 20
4.39053
 30
0.0
 10
-9.94509
 20
4.3169
 30
0.0
 10
-9.89059
 20
4.802
 30
0.0
 10
-9.89059
 20
4.802
 30
0.0
 10
-9.88007
 20
5.17146
 30
0.0
 10
-10.00943
 20
5.4443
 30
0.0
 10
-10.17252
 20
5.69383
 30
0.0
 10
-10.17252
 20
5.69383
 30
0.0
 10
-10.63278
 20
6.19751
 30
0.0
 10
-11.20699
 20
6.74751
 30
0.0
 10
-11.67707
 20
7.25804
 30
0.0
 10
-11.67707
 20
7.25804
 30
0.0
 10
-11.67707
 20
7.25804
 30
0.0
 10
-11.67707
 20
10.96981
 30
0.0
 10
-11.67707
 20
10.96981
 30
0.0
 10
-11.67707
 20
10.96981
 30
0.0
 10
-11.67707
 20
10.96981
 30
0.0
 10
-10.34162
 20
11.42489
 30
0.0
 10
-10.34162
 20
11.42489
 30
0.0
 10
-10.34162
 20
11.42489
 30
0.0
 10
-9.96544
 20
10.8027
 30
0.0
 10
-9.49752
 20
11.00289
 30
0.0
 10
-8.98325
 20
11.61882
 30
0.0
 10
-8.98325
 20
11.61882
 30
0.0
 10
-9.40512
 20
11.53523
 30
0.0
 10
-9.76546
 20
11.61214
 30
0.0
 10
-10.05072
 20
11.88511
 30
0.0
 10
-10.05072
 20
11.88511
 30
0.0
 10
-11.10977
 20
11.18037
 30
0.0
 10
-11.75714
 20
12.25705
 30
0.0
 10
-11.26322
 20
13.10931
 30
0.0
 10
-11.26322
 20
13.10931
 30
0.0
 10
-10.88034
 20
13.55039
 30
0.0
 10
-10.39189
 20
13.37445
 30
0.0
 10
-10.32245
 20
13.08202
 30
0.0
 10
-10.32245
 20
13.08202
 30
0.0
 10
-9.89712
 20
12.86615
 30
0.0
 10
-9.79291
 20
13.3729
 30
0.0
 10
-10.0847
 20
13.61887
 30
0.0
 10
-10.0847
 20
13.61887
 30
0.0
 10
-10.58847
 20
13.64702
 30
0.0
 10
-11.23276
 20
13.86791
 30
0.0
 10
-11.67715
 20
14.25714
 30
0.0
 10
-11.67715
 20
14.25714
 30
0.0
 10
-11.67715
 20
14.25714
 30
0.0
 10
-11.67768
 20
23.69646
 30
0.0
 10
-11.67768
 20
23.69646
 30
0.0
 10
-11.67768
 20
23.69646
 30
0.0
 10
-11.67768
 20
23.69646
 30
0.0
 10
-11.16432
 20
21.31853
 30
0.0
 10
-11.16432
 20
21.31853
 30
0.0
 10
-11.16432
 20
21.31853
 30
0.0
 10
-11.16432
 20
21.31853
 30
0.0
 10
-8.29295
 20
21.90892
 30
0.0
 10
-8.29295
 20
21.90892
 30
0.0
 10
-8.29295
 20
21.90892
 30
0.0
 10
-8.29295
 20
21.90892
 30
0.0
 10
-10.34943
 20
20.1387
 30
0.0
 10
-10.34943
 20
20.1387
 30
0.0
 10
-10.34943
 20
20.1387
 30
0.0
 10
-10.34943
 20
20.1387
 30
0.0
 10
-8.46706
 20
18.6926
 30
0.0
 10
-8.46706
 20
18.6926
 30
0.0
 10
-8.46706
 20
18.6926
 30
0.0
 10
-8.46706
 20
18.6926
 30
0.0
 10
-10.63358
 20
18.51349
 30
0.0
 10
-10.63358
 20
18.51349
 30
0.0
 10
-10.63358
 20
18.51349
 30
0.0
 10
-11.18399
 20
18.44834
 30
0.0
 10
-11.39448
 20
18.20561
 30
0.0
 10
-11.35887
 20
17.83436
 30
0.0
 10
-11.35887
 20
17.83436
 30
0.0
 10
-11.35887
 20
17.83436
 30
0.0
 10
-11.35009
 20
16.62781
 30
0.0
 10
-11.35009
 20
16.62781
 30
0.0
 10
-11.35009
 20
16.62781
 30
0.0
 10
-11.26772
 20
15.18865
 30
0.0
 10
-10.80344
 20
14.92818
 30
0.0
 10
-10.14716
 20
15.26039
 30
0.0
 10
-10.14716
 20
15.26039
 30
0.0
 10
-9.99866
 20
15.32616
 30
0.0
 10
-10.04485
 20
15.40318
 30
0.0
 10
-10.14295
 20
15.51461
 30
0.0
 10
-10.14295
 20
15.51461
 30
0.0
 10
-10.69661
 20
16.01563
 30
0.0
 10
-10.66658
 20
16.50832
 30
0.0
 10
-10.07104
 20
16.75773
 30
0.0
 10
-10.07104
 20
16.75773
 30
0.0
 10
-8.81031
 20
17.177
 30
0.0
 10
-8.58473
 20
16.1253
 30
0.0
 10
-9.54872
 20
14.63919
 30
0.0
 10
-9.54872
 20
14.63919
 30
0.0
 10
-9.03464
 20
14.33986
 30
0.0
 10
-8.91052
 20
13.88254
 30
0.0
 10
-9.12912
 20
13.28635
 30
0.0
 10
-9.12912
 20
13.28635
 30
0.0
 10
-7.70074
 20
13.50205
 30
0.0
 10
-7.29733
 20
13.00946
 30
0.0
 10
-7.95269
 20
11.78506
 30
0.0
 10
-7.95269
 20
11.78506
 30
0.0
 10
-7.33224
 20
11.42758
 30
0.0
 10
-7.21841
 20
10.92968
 30
0.0
 10
-7.68199
 20
10.27158
 30
0.0
 10
-7.68199
 20
10.27158
 30
0.0
 10
-7.82618
 20
10.54822
 30
0.0
 10
-8.03304
 20
10.69642
 30
0.0
 10
-8.35719
 20
10.60448
 30
0.0
 10
-8.35719
 20
10.60448
 30
0.0
 10
-7.98609
 20
9.96308
 30
0.0
 10
-8.05527
 20
9.36132
 30
0.0
 10
-8.50058
 20
8.79338
 30
0.0
 10
-8.50058
 20
8.79338
 30
0.0
 10
-7.88405
 20
7.96191
 30
0.0
 10
-8.08472
 20
7.12302
 30
0.0
 10
-9.00549
 20
6.27759
 30
0.0
 10
-9.00549
 20
6.27759
 30
0.0
 10
-9.23922
 20
5.86064
 30
0.0
 10
-8.53745
 20
5.59272
 30
0.0
 10
-8.2321
 20
5.95785
 30
0.0
 10
-8.2321
 20
5.95785
 30
0.0
 10
-7.79203
 20
6.46445
 30
0.0
 10
-7.60234
 20
7.07407
 30
0.0
 10
-7.54338
 20
7.73743
 30
0.0
 10
-7.54338
 20
7.73743
 30
0.0
 10
-6.48287
 20
6.92728
 30
0.0
 10
-6.55877
 20
6.00316
 30
0.0
 10
-7.50988
 20
4.99133
 30
0.0
 10
-7.50988
 20
4.99133
 30
0.0
 10
-7.61849
 20
4.6238
 30
0.0
 10
-7.42192
 20
4.24956
 30
0.0
 10
-6.70166
 20
3.95029
 30
0.0
 10
-6.70166
 20
3.95029
 30
0.0
 10
-5.77758
 20
3.50022
 30
0.0
 10
-5.39815
 20
3.82783
 30
0.0
 10
-5.59635
 20
4.60828
 30
0.0
 10
-5.59635
 20
4.60828
 30
0.0
 10
-7.16716
 20
3.88831
 30
0.0
 10
-6.90548
 20
6.21647
 30
0.0
 10
-5.40485
 20
6.44677
 30
0.0
 10
-5.40485
 20
6.44677
 30
0.0
 10
-3.72671
 20
6.49448
 30
0.0
 10
-3.72971
 20
5.00055
 30
0.0
 10
-4.39193
 20
4.05912
 30
0.0
 10
-4.39193
 20
4.05912
 30
0.0
 10
-3.74467
 20
3.60098
 30
0.0
 10
-3.71874
 20
3.05343
 30
0.0
 10
-4.33703
 20
2.41302
 30
0.0
 10
-4.33703
 20
2.41302
 30
0.0
 10
-4.7007
 20
2.55115
 30
0.0
 10
-4.93079
 20
2.99339
 30
0.0
 10
-5.4281
 20
2.82737
 30
0.0
 10
-5.4281
 20
2.82737
 30
0.0
 10
-5.01605
 20
1.86488
 30
0.0
 10
-5.31597
 20
1.00646
 30
0.0
 10
-6.14308
 20
0.22517
 30
0.0
 10
-6.14308
 20
0.22517
 30
0.0
 10
-5.04635
 20
-0.56726
 30
0.0
 10
-5.06862
 20
-1.51995
 30
0.0
 10
-6.35948
 20
-2.46374
 30
0.0
 10
-6.35948
 20
-2.46374
 30
0.0
 10
-7.38065
 20
-3.15468
 30
0.0
 10
-8.08389
 20
-1.90166
 30
0.0
 10
-7.00352
 20
-1.06784
 30
0.0
 10
-7.00352
 20
-1.06784
 30
0.0
 10
-7.46154
 20
-0.11248
 30
0.0
 10
-8.91132
 20
-2.11314
 30
0.0
 10
-7.38065
 20
-3.15468
 30
0.0
 10
-7.38065
 20
-3.15468
 30
0.0
 10
-6.63621
 20
-3.76972
 30
0.0
 10
-5.9823
 20
-3.46369
 30
0.0
 10
-5.41019
 20
-2.32709
 30
0.0
 10
-5.41019
 20
-2.32709
 30
0.0
 10
-4.71736
 20
-2.96036
 30
0.0
 10
-4.94269
 20
-3.77121
 30
0.0
 10
-6.03485
 20
-4.74965
 30
0.0
 10
-6.03485
 20
-4.74965
 30
0.0
 10
-5.62691
 20
-4.9146
 30
0.0
 10
-3.85742
 20
-5.61711
 30
0.0
 10
-3.59064
 20
-4.69034
 30
0.0
 10
-3.59064
 20
-4.69034
 30
0.0
 10
-3.49664
 20
-4.33244
 30
0.0
 10
-4.02587
 20
-4.57825
 30
0.0
 10
-4.39403
 20
-4.60389
 30
0.0
 10
-4.39403
 20
-4.60389
 30
0.0
 10
-5.55853
 20
-4.51244
 30
0.0
 10
-4.78725
 20
-2.81217
 30
0.0
 10
-3.39436
 20
-2.78024
 30
0.0
 10
-3.39436
 20
-2.78024
 30
0.0
 10
-1.79008
 20
-2.73635
 30
0.0
 10
-1.77286
 20
-4.50691
 30
0.0
 10
-2.80206
 20
-5.15349
 30
0.0
 10
-2.80206
 20
-5.15349
 30
0.0
 10
-2.37642
 20
-5.92444
 30
0.0
 10
-2.55051
 20
-6.4652
 30
0.0
 10
-3.40089
 20
-6.74647
 30
0.0
 10
-3.40089
 20
-6.74647
 30
0.0
 10
-3.65075
 20
-6.29057
 30
0.0
 10
-3.79941
 20
-6.17112
 30
0.0
 10
-4.17875
 20
-6.2198
 30
0.0
 10
-4.17875
 20
-6.2198
 30
0.0
 10
-3.61777
 20
-8.42292
 30
0.0
 10
-4.44535
 20
-9.32581
 30
0.0
 10
-6.13937
 20
-9.41782
 30
0.0
 10
-6.13937
 20
-9.41782
 30
0.0
 10
-5.17413
 20
-10.60804
 30
0.0
 10
-4.71309
 20
-10.81525
 30
0.0
 10
-2.9945
 20
-9.02363
 30
0.0
 10
-2.9945
 20
-9.02363
 30
0.0
 10
-2.62994
 20
-9.96815
 30
0.0
 10
-2.87405
 20
-10.84991
 30
0.0
 10
-3.79008
 20
-11.6623
 30
0.0
 10
-3.79008
 20
-11.6623
 30
0.0
 10
-3.41247
 20
-12.35633
 30
0.0
 10
-2.25162
 20
-12.65909
 30
0.0
 10
-1.50994
 20
-11.78906
 30
0.0
 10
-1.50994
 20
-11.78906
 30
0.0
 10
-3.70078
 20
-11.58087
 30
0.0
 10
-2.54333
 20
-9.63595
 30
0.0
 10
-1.34605
 20
-9.71924
 30
0.0
 10
-1.34605
 20
-9.71924
 30
0.0
 10
0.14571
 20
-10.07146
 30
0.0
 10
0.52303
 20
-10.94667
 30
0.0
 10
-0.13371
 20
-12.30713
 30
0.0
 10
-0.13371
 20
-12.30713
 30
0.0
 10
0.47188
 20
-12.74568
 30
0.0
 10
0.51436
 20
-13.26406
 30
0.0
 10
-0.12387
 20
-13.87888
 30
0.0
 10
-0.12387
 20
-13.87888
 30
0.0
 10
-0.26174
 20
-13.48549
 30
0.0
 10
-0.45352
 20
-13.17638
 30
0.0
 10
-0.79574
 20
-13.10222
 30
0.0
 10
-0.79574
 20
-13.10222
 30
0.0
 10
-1.37988
 20
-12.96166
 30
0.0
 10
-1.86993
 20
-13.19657
 30
0.0
 10
-1.87316
 20
-13.65408
 30
0.0
 10
-1.87316
 20
-13.65408
 30
0.0
 10
-1.74336
 20
-16.17604
 30
0.0
 10
-4.76006
 20
-16.76301
 30
0.0
 10
-6.08122
 20
-14.72275
 30
0.0
 10
-6.08122
 20
-14.72275
 30
0.0
 10
-6.35898
 20
-15.16868
 30
0.0
 10
-6.75737
 20
-15.31409
 30
0.0
 10
-7.29437
 20
-15.13041
 30
0.0
 10
-7.29437
 20
-15.13041
 30
0.0
 10
-6.82806
 20
-16.36049
 30
0.0
 10
-7.79496
 20
-16.86999
 30
0.0
 10
-8.97158
 20
-16.74125
 30
0.0
 10
-8.97158
 20
-16.74125
 30
0.0
 10
-10.17794
 20
-16.41922
 30
0.0
 10
-9.97853
 20
-14.98936
 30
0.0
 10
-8.71191
 20
-15.4399
 30
0.0
 10
-8.71191
 20
-15.4399
 30
0.0
 10
-8.43449
 20
-15.53869
 30
0.0
 10
-8.35665
 20
-15.2472
 30
0.0
 10
-8.61823
 20
-15.0125
 30
0.0
 10
-8.61823
 20
-15.0125
 30
0.0
 10
-11.23519
 20
-13.33533
 30
0.0
 10
-12.03246
 20
-20.37851
 30
0.0
 10
-4.28233
 20
-20.36603
 30
0.0
 10
-4.28233
 20
-20.36603
 30
0.0
 10
-3.70074
 20
-20.3859
 30
0.0
 10
-3.2741
 20
-20.02992
 30
0.0
 10
-3.85513
 20
-19.65712
 30
0.0
 10
-3.85513
 20
-19.65712
 30
0.0
 10
-6.30907
 20
-18.62256
 30
0.0
 10
-2.0669
 20
-17.04198
 30
0.0
 10
-1.90186
 20
-20.3735
 30
0.0
 10
-1.90186
 20
-20.3735
 30
0.0
 10
-1.90652
 20
-21.5588
 30
0.0
 10
-2.55434
 20
-21.66017
 30
0.0
 10
-4.10633
 20
-21.64574
 30
0.0
 10
-4.10633
 20
-21.64574
 30
0.0
 10
-4.10633
 20
-21.64574
 30
0.0
 10
-19.54507
 20
-21.64574
 30
0.0
 10
-19.54507
 20
-21.64574
 30
0.0
  0
SPLINE
  5
86
330
1F
100
AcDbEntity
  8
Camada 1
 62
   114
370
     9
100
AcDbSpline
210
0.0
220
0.0
230
1.0
 70
    11
 71
     3
 72
    20
 73
    16
 74
     0
 42
0.000000001
 43
0.0000000001
 40
0.0
 40
0.0
 40
0.0
 40
0.0
 40
0.2
 40
0.2
 40
0.2
 40
0.2
 40
0.4
 40
0.4
 40
0.4
 40
0.4
 40
0.6
 40
0.6
 40
0.6
 40
0.6
 40
1.0
 40
1.0
 40
1.0
 40
1.0
 10
-14.7038
 20
4.45625
 30
0.0
 10
-14.81544
 20
4.28499
 30
0.0
 10
-14.96645
 20
4.15487
 30
0.0
 10
-15.15132
 20
4.06022
 30
0.0
 10
-15.15132
 20
4.06022
 30
0.0
 10
-14.95921
 20
3.86531
 30
0.0
 10
-14.83582
 20
3.64691
 30
0.0
 10
-14.7499
 20
3.41583
 30
0.0
 10
-14.7499
 20
3.41583
 30
0.0
 10
-14.62457
 20
3.58167
 30
0.0
 10
-14.47487
 20
3.71882
 30
0.0
 10
-14.29762
 20
3.82345
 30
0.0
 10
-14.29762
 20
3.82345
 30
0.0
 10
-14.48657
 20
4.02519
 30
0.0
 10
-14.60899
 20
4.23836
 30
0.0
 10
-14.7038
 20
4.45625
 30
0.0
  0
SPLINE
  5
87
330
1F
100
AcDbEntity
  8
Camada 1
 62
   114
370
     9
100
AcDbSpline
210
0.0
220
0.0
230
1.0
 70
    11
 71
     3
 72
    44
 73
    40
 74
     0
 42
0.000000001
 43
0.0000000001
 40
0.0
 40
0.0
 40
0.0
 40
0.0
 40
0.0909090909090909
 40
0.0909090909090909
 40
0.0909090909090909
 40
0.0909090909090909
 40
0.1818181818181818
 40
0.1818181818181818
 40
0.1818181818181818
 40
0.1818181818181818
 40
0.2727272727272727
 40
0.2727272727272727
 40
0.2727272727272727
 40
0.2727272727272727
 40
0.3636363636363636
 40
0.3636363636363636
 40
0.3636363636363636
 40
0.3636363636363636
 40
0.4545454545454545
 40
0.4545454545454545
 40
0.4545454545454545
 40
0.4545454545454545
 40
0.5454545454545454
 40
0.5454545454545454
 40
0.5454545454545454
 40
0.5454545454545454
 40
0.6363636363636364
 40
0.6363636363636364
 40
0.6363636363636364
 40
0.6363636363636364
 40
0.7272727272727273
 40
0.7272727272727273
 40
0.7272727272727273
 40
0.7272727272727273
 40
0.8181818181818182
 40
0.8181818181818182
 40
0.8181818181818182
 40
0.8181818181818182
 40
1.0
 40
1.0
 40
1.0
 40
1.0
 10
-11.83332
 20
-1.61973
 30
0.0
 10
-12.2464
 20
-1.30209
 30
0.0
 10
-12.72338
 20
-1.47926
 30
0.0
 10
-13.17306
 20
-1.92002
 30
0.0
 10
-13.17306
 20
-1.92002
 30
0.0
 10
-13.34559
 20
-1.16919
 30
0.0
 10
-14.24055
 20
-0.02132
 30
0.0
 10
-13.83702
 20
0.37288
 30
0.0
 10
-13.83702
 20
0.37288
 30
0.0
 10
-13.40301
 20
-0.20985
 30
0.0
 10
-12.78112
 20
-0.43694
 30
0.0
 10
-12.37434
 20
-0.04685
 30
0.0
 10
-12.37434
 20
-0.04685
 30
0.0
 10
-12.05524
 20
0.4117
 30
0.0
 10
-12.23609
 20
0.89074
 30
0.0
 10
-12.94767
 20
1.39145
 30
0.0
 10
-12.94767
 20
1.39145
 30
0.0
 10
-12.71127
 20
1.62694
 30
0.0
 10
-12.32247
 20
1.64978
 30
0.0
 10
-11.82654
 20
1.34454
 30
0.0
 10
-11.82654
 20
1.34454
 30
0.0
 10
-11.33062
 20
1.64978
 30
0.0
 10
-10.94322
 20
1.62694
 30
0.0
 10
-10.70682
 20
1.39145
 30
0.0
 10
-10.70682
 20
1.39145
 30
0.0
 10
-11.41841
 20
0.89074
 30
0.0
 10
-11.59926
 20
0.4117
 30
0.0
 10
-11.28017
 20
-0.04685
 30
0.0
 10
-11.28017
 20
-0.04685
 30
0.0
 10
-10.87338
 20
-0.43694
 30
0.0
 10
-10.2515
 20
-0.20985
 30
0.0
 10
-9.81749
 20
0.37288
 30
0.0
 10
-9.81749
 20
0.37288
 30
0.0
 10
-9.41396
 20
-0.02132
 30
0.0
 10
-10.3089
 20
-1.16919
 30
0.0
 10
-10.48144
 20
-1.92002
 30
0.0
 10
-10.48144
 20
-1.92002
 30
0.0
 10
-10.93112
 20
-1.47926
 30
0.0
 10
-11.42023
 20
-1.30209
 30
0.0
 10
-11.83332
 20
-1.61973
 30
0.0
  0
SPLINE
  5
88
330
1F
100
AcDbEntity
  8
Camada 1
 62
   114
370
     9
100
AcDbSpline
210
0.0
220
0.0
230
1.0
 70
    11
 71
     3
 72
    28
 73
    24
 74
     0
 42
0.000000001
 43
0.0000000001
 40
0.0
 40
0.0
 40
0.0
 40
0.0
 40
0.1428571428571428
 40
0.1428571428571428
 40
0.1428571428571428
 40
0.1428571428571428
 40
0.2857142857142857
 40
0.2857142857142857
 40
0.2857142857142857
 40
0.2857142857142857
 40
0.4285714285714285
 40
0.4285714285714285
 40
0.4285714285714285
 40
0.4285714285714285
 40
0.5714285714285714
 40
0.5714285714285714
 40
0.5714285714285714
 40
0.5714285714285714
 40
0.7142857142857143
 40
0.7142857142857143
 40
0.7142857142857143
 40
0.7142857142857143
 40
1.0
 40
1.0
 40
1.0
 40
1.0
 10
-11.81807
 20
-4.96178
 30
0.0
 10
-11.56487
 20
-4.42303
 30
0.0
 10
-11.12123
 20
-4.356
 30
0.0
 10
-10.56862
 20
-4.55906
 30
0.0
 10
-10.56862
 20
-4.55906
 30
0.0
 10
-10.69345
 20
-4.21708
 30
0.0
 10
-10.72882
 20
-3.88825
 30
0.0
 10
-10.63236
 20
-3.5786
 30
0.0
 10
-10.63236
 20
-3.5786
 30
0.0
 10
-10.51304
 20
-2.81129
 30
0.0
 10
-11.22139
 20
-2.70259
 30
0.0
 10
-11.83663
 20
-2.70607
 30
0.0
 10
-11.83663
 20
-2.70607
 30
0.0
 10
-12.45186
 20
-2.70259
 30
0.0
 10
-13.14147
 20
-2.81129
 30
0.0
 10
-13.02213
 20
-3.5786
 30
0.0
 10
-13.02213
 20
-3.5786
 30
0.0
 10
-12.92567
 20
-3.88825
 30
0.0
 10
-12.96105
 20
-4.21708
 30
0.0
 10
-13.08587
 20
-4.55906
 30
0.0
 10
-13.08587
 20
-4.55906
 30
0.0
 10
-12.53327
 20
-4.356
 30
0.0
 10
-12.07127
 20
-4.42303
 30
0.0
 10
-11.81807
 20
-4.96178
 30
0.0
  0
SPLINE
  5
89
330
1F
100
AcDbEntity
  8
Camada 1
 62
   114
370
     9
100
AcDbSpline
210
0.0
220
0.0
230
1.0
 70
    11
 71
     3
 72
    36
 73
    32
 74
     0
 42
0.000000001
 43
0.0000000001
 40
0.0
 40
0.0
 40
0.0
 40
0.0
 40
0.1111111111111111
 40
0.1111111111111111
 40
0.1111111111111111
 40
0.1111111111111111
 40
0.2222222222222222
 40
0.2222222222222222
 40
0.2222222222222222
 40
0.2222222222222222
 40
0.3333333333333333
 40
0.3333333333333333
 40
0.3333333333333333
 40
0.3333333333333333
 40
0.4444444444444444
 40
0.4444444444444444
 40
0.4444444444444444
 40
0.4444444444444444
 40
0.5555555555555556
 40
0.5555555555555556
 40
0.5555555555555556
 40
0.5555555555555556
 40
0.6666666666666666
 40
0.6666666666666666
 40
0.6666666666666666
 40
0.6666666666666666
 40
0.7777777777777778
 40
0.7777777777777778
 40
0.7777777777777778
 40
0.7777777777777778
 40
1.0
 40
1.0
 40
1.0
 40
1.0
 10
-11.81045
 20
-7.13398
 30
0.0
 10
-11.81045
 20
-7.13398
 30
0.0
 10
-11.5039
 20
-7.03964
 30
0.0
 10
-11.5039
 20
-7.03964
 30
0.0
 10
-11.5039
 20
-7.03964
 30
0.0
 10
-11.37696
 20
-6.43317
 30
0.0
 10
-10.90448
 20
-6.07638
 30
0.0
 10
-10.1401
 20
-5.93041
 30
0.0
 10
-10.1401
 20
-5.93041
 30
0.0
 10
-10.1401
 20
-5.93041
 30
0.0
 10
-10.1183
 20
-5.69946
 30
0.0
 10
-10.1183
 20
-5.69946
 30
0.0
 10
-10.1183
 20
-5.69946
 30
0.0
 10
-10.82114
 20
-5.90966
 30
0.0
 10
-11.4013
 20
-5.89285
 30
0.0
 10
-11.82724
 20
-5.46393
 30
0.0
 10
-11.82724
 20
-5.46393
 30
0.0
 10
-12.25318
 20
-5.89288
 30
0.0
 10
-12.83334
 20
-5.90966
 30
0.0
 10
-13.53621
 20
-5.69946
 30
0.0
 10
-13.53621
 20
-5.69946
 30
0.0
 10
-13.53621
 20
-5.69946
 30
0.0
 10
-13.5144
 20
-5.93041
 30
0.0
 10
-13.5144
 20
-5.93041
 30
0.0
 10
-13.5144
 20
-5.93041
 30
0.0
 10
-12.75002
 20
-6.07638
 30
0.0
 10
-12.27754
 20
-6.43317
 30
0.0
 10
-12.15061
 20
-7.03964
 30
0.0
 10
-12.15061
 20
-7.03964
 30
0.0
 10
-12.15061
 20
-7.03964
 30
0.0
 10
-11.81045
 20
-7.13398
 30
0.0
 10
-11.81045
 20
-7.13398
 30
0.0
  0
SPLINE
  5
8A
330
1F
100
AcDbEntity
  8
Camada 1
 62
   114
370
     9
100
AcDbSpline
210
0.0
220
0.0
230
1.0
 70
    11
 71
     3
 72
    28
 73
    24
 74
     0
 42
0.000000001
 43
0.0000000001
 40
0.0
 40
0.0
 40
0.0
 40
0.0
 40
0.1428571428571428
 40
0.1428571428571428
 40
0.1428571428571428
 40
0.1428571428571428
 40
0.2857142857142857
 40
0.2857142857142857
 40
0.2857142857142857
 40
0.2857142857142857
 40
0.4285714285714285
 40
0.4285714285714285
 40
0.4285714285714285
 40
0.4285714285714285
 40
0.5714285714285714
 40
0.5714285714285714
 40
0.5714285714285714
 40
0.5714285714285714
 40
0.7142857142857143
 40
0.7142857142857143
 40
0.7142857142857143
 40
0.7142857142857143
 40
1.0
 40
1.0
 40
1.0
 40
1.0
 10
-11.83259
 20
-11.54593
 30
0.0
 10
-11.65173
 20
-11.15131
 30
0.0
 10
-11.29433
 20
-10.96312
 30
0.0
 10
-10.76952
 20
-10.9972
 30
0.0
 10
-10.76952
 20
-10.9972
 30
0.0
 10
-11.15574
 20
-10.35794
 30
0.0
 10
-11.20234
 20
-9.68917
 30
0.0
 10
-10.80078
 20
-8.98146
 30
0.0
 10
-10.80078
 20
-8.98146
 30
0.0
 10
-11.17547
 20
-8.98047
 30
0.0
 10
-11.52425
 20
-8.88708
 30
0.0
 10
-11.82287
 20
-8.64005
 30
0.0
 10
-11.82287
 20
-8.64005
 30
0.0
 10
-12.12148
 20
-8.88708
 30
0.0
 10
-12.47903
 20
-8.98047
 30
0.0
 10
-12.85372
 20
-8.98146
 30
0.0
 10
-12.85372
 20
-8.98146
 30
0.0
 10
-12.45217
 20
-9.68917
 30
0.0
 10
-12.49875
 20
-10.35794
 30
0.0
 10
-12.88498
 20
-10.9972
 30
0.0
 10
-12.88498
 20
-10.9972
 30
0.0
 10
-12.36017
 20
-10.96312
 30
0.0
 10
-12.01346
 20
-11.15131
 30
0.0
 10
-11.83259
 20
-11.54593
 30
0.0
  0
SPLINE
  5
8B
330
1F
100
AcDbEntity
  8
Camada 1
 62
   114
370
     9
100
AcDbSpline
210
0.0
220
0.0
230
1.0
 70
    11
 71
     3
 72
    28
 73
    24
 74
     0
 42
0.000000001
 43
0.0000000001
 40
0.0
 40
0.0
 40
0.0
 40
0.0
 40
0.1428571428571428
 40
0.1428571428571428
 40
0.1428571428571428
 40
0.1428571428571428
 40
0.2857142857142857
 40
0.2857142857142857
 40
0.2857142857142857
 40
0.2857142857142857
 40
0.4285714285714285
 40
0.4285714285714285
 40
0.4285714285714285
 40
0.4285714285714285
 40
0.5714285714285714
 40
0.5714285714285714
 40
0.5714285714285714
 40
0.5714285714285714
 40
0.7142857142857143
 40
0.7142857142857143
 40
0.7142857142857143
 40
0.7142857142857143
 40
1.0
 40
1.0
 40
1.0
 40
1.0
 10
-11.83145
 20
-14.52063
 30
0.0
 10
-11.47422
 20
-14.03009
 30
0.0
 10
-11.08851
 20
-13.65132
 30
0.0
 10
-10.45668
 20
-13.38462
 30
0.0
 10
-10.45668
 20
-13.38462
 30
0.0
 10
-9.87573
 20
-13.04915
 30
0.0
 10
-10.00069
 20
-12.32662
 30
0.0
 10
-10.50217
 20
-12.44129
 30
0.0
 10
-10.50217
 20
-12.44129
 30
0.0
 10
-11.13163
 20
-12.60569
 30
0.0
 10
-11.6442
 20
-12.57023
 30
0.0
 10
-11.82895
 20
-12.18461
 30
0.0
 10
-11.82895
 20
-12.18461
 30
0.0
 10
-12.0137
 20
-12.57023
 30
0.0
 10
-12.52287
 20
-12.60569
 30
0.0
 10
-13.15233
 20
-12.44129
 30
0.0
 10
-13.15233
 20
-12.44129
 30
0.0
 10
-13.6538
 20
-12.32662
 30
0.0
 10
-13.77875
 20
-13.04915
 30
0.0
 10
-13.19782
 20
-13.38462
 30
0.0
 10
-13.19782
 20
-13.38462
 30
0.0
 10
-12.566
 20
-13.65132
 30
0.0
 10
-12.18868
 20
-14.03009
 30
0.0
 10
-11.83145
 20
-14.52063
 30
0.0
  0
SPLINE
  5
8C
330
1F
100
AcDbEntity
  8
Camada 1
 62
   114
370
     9
100
AcDbSpline
210
0.0
220
0.0
230
1.0
 70
    11
 71
     3
 72
    32
 73
    28
 74
     0
 42
0.000000001
 43
0.0000000001
 40
0.0
 40
0.0
 40
0.0
 40
0.0
 40
0.125
 40
0.125
 40
0.125
 40
0.125
 40
0.25
 40
0.25
 40
0.25
 40
0.25
 40
0.375
 40
0.375
 40
0.375
 40
0.375
 40
0.5
 40
0.5
 40
0.5
 40
0.5
 40
0.625
 40
0.625
 40
0.625
 40
0.625
 40
0.75
 40
0.75
 40
0.75
 40
0.75
 40
1.0
 40
1.0
 40
1.0
 40
1.0
 10
-14.2018
 20
9.85472
 30
0.0
 10
-13.72311
 20
9.78584
 30
0.0
 10
-13.32765
 20
9.61399
 30
0.0
 10
-13.0593
 20
9.28481
 30
0.0
 10
-13.0593
 20
9.28481
 30
0.0
 10
-12.892
 20
8.93392
 30
0.0
 10
-12.92901
 20
8.62995
 30
0.0
 10
-13.15288
 20
8.36887
 30
0.0
 10
-13.15288
 20
8.36887
 30
0.0
 10
-13.67191
 20
8.0657
 30
0.0
 10
-13.20148
 20
7.59142
 30
0.0
 10
-13.96865
 20
7.51264
 30
0.0
 10
-13.96865
 20
7.51264
 30
0.0
 10
-14.39899
 20
7.40146
 30
0.0
 10
-14.26589
 20
7.00076
 30
0.0
 10
-13.74281
 20
7.07045
 30
0.0
 10
-13.74281
 20
7.07045
 30
0.0
 10
-13.23687
 20
7.26588
 30
0.0
 10
-12.84806
 20
7.67212
 30
0.0
 10
-12.62518
 20
8.37717
 30
0.0
 10
-12.62518
 20
8.37717
 30
0.0
 10
-12.62518
 20
8.37717
 30
0.0
 10
-12.61265
 20
10.00446
 30
0.0
 10
-12.61265
 20
10.00446
 30
0.0
 10
-12.61265
 20
10.00446
 30
0.0
 10
-13.1087
 20
10.01331
 30
0.0
 10
-13.79018
 20
10.19043
 30
0.0
 10
-14.2018
 20
9.85472
 30
0.0
  0
SPLINE
  5
8D
330
1F
100
AcDbEntity
  8
Camada 1
 62
   114
370
     9
100
AcDbSpline
210
0.0
220
0.0
230
1.0
 70
    11
 71
     3
 72
    24
 73
    20
 74
     0
 42
0.000000001
 43
0.0000000001
 40
0.0
 40
0.0
 40
0.0
 40
0.0
 40
0.1666666666666667
 40
0.1666666666666667
 40
0.1666666666666667
 40
0.1666666666666667
 40
0.3333333333333333
 40
0.3333333333333333
 40
0.3333333333333333
 40
0.3333333333333333
 40
0.5
 40
0.5
 40
0.5
 40
0.5
 40
0.6666666666666666
 40
0.6666666666666666
 40
0.6666666666666666
 40
0.6666666666666666
 40
1.0
 40
1.0
 40
1.0
 40
1.0
 10
-10.06208
 20
-8.46229
 30
0.0
 10
-9.84089
 20
-7.71745
 30
0.0
 10
-10.0155
 20
-7.46937
 30
0.0
 10
-10.56087
 20
-7.68684
 30
0.0
 10
-10.56087
 20
-7.68684
 30
0.0
 10
-10.79602
 20
-7.14018
 30
0.0
 10
-10.41445
 20
-6.79789
 30
0.0
 10
-9.98865
 20
-6.90957
 30
0.0
 10
-9.98865
 20
-6.90957
 30
0.0
 10
-8.45753
 20
-7.17419
 30
0.0
 10
-7.70666
 20
-9.59951
 30
0.0
 10
-9.57439
 20
-10.71691
 30
0.0
 10
-9.57439
 20
-10.71691
 30
0.0
 10
-10.00891
 20
-10.81707
 30
0.0
 10
-10.08822
 20
-10.20024
 30
0.0
 10
-9.729
 20
-9.90225
 30
0.0
 10
-9.729
 20
-9.90225
 30
0.0
 10
-8.98711
 20
-9.30773
 30
0.0
 10
-9.13529
 20
-8.52132
 30
0.0
 10
-10.06208
 20
-8.46229
 30
0.0
  0
SPLINE
  5
8E
330
1F
100
AcDbEntity
  8
Camada 1
 62
   114
370
     9
100
AcDbSpline
210
0.0
220
0.0
230
1.0
 70
    11
 71
     3
 72
    20
 73
    16
 74
     0
 42
0.000000001
 43
0.0000000001
 40
0.0
 40
0.0
 40
0.0
 40
0.0
 40
0.2
 40
0.2
 40
0.2
 40
0.2
 40
0.4
 40
0.4
 40
0.4
 40
0.4
 40
0.6
 40
0.6
 40
0.6
 40
0.6
 40
1.0
 40
1.0
 40
1.0
 40
1.0
 10
-9.00075
 20
-11.67547
 30
0.0
 10
-9.00075
 20
-11.67547
 30
0.0
 10
-9.62669
 20
-11.68038
 30
0.0
 10
-9.62669
 20
-11.68038
 30
0.0
 10
-9.62669
 20
-11.68038
 30
0.0
 10
-9.44553
 20
-12.4963
 30
0.0
 10
-9.1507
 20
-13.15043
 30
0.0
 10
-8.47933
 20
-13.60441
 30
0.0
 10
-8.47933
 20
-13.60441
 30
0.0
 10
-6.93558
 20
-14.30161
 30
0.0
 10
-6.30072
 20
-13.0956
 30
0.0
 10
-7.24249
 20
-12.25625
 30
0.0
 10
-7.24249
 20
-12.25625
 30
0.0
 10
-8.0272
 20
-12.94491
 30
0.0
 10
-8.82452
 20
-13.01196
 30
0.0
 10
-9.00075
 20
-11.67547
 30
0.0
  0
SPLINE
  5
8F
330
1F
100
AcDbEntity
  8
Camada 1
 62
   114
370
     9
100
AcDbSpline
210
0.0
220
0.0
230
1.0
 70
    11
 71
     3
 72
    28
 73
    24
 74
     0
 42
0.000000001
 43
0.0000000001
 40
0.0
 40
0.0
 40
0.0
 40
0.0
 40
0.1428571428571428
 40
0.1428571428571428
 40
0.1428571428571428
 40
0.1428571428571428
 40
0.2857142857142857
 40
0.2857142857142857
 40
0.2857142857142857
 40
0.2857142857142857
 40
0.4285714285714285
 40
0.4285714285714285
 40
0.4285714285714285
 40
0.4285714285714285
 40
0.5714285714285714
 40
0.5714285714285714
 40
0.5714285714285714
 40
0.5714285714285714
 40
0.7142857142857143
 40
0.7142857142857143
 40
0.7142857142857143
 40
0.7142857142857143
 40
1.0
 40
1.0
 40
1.0
 40
1.0
 10
-8.15391
 20
-10.94864
 30
0.0
 10
-8.15391
 20
-10.94864
 30
0.0
 10
-7.33555
 20
-9.80792
 30
0.0
 10
-7.33555
 20
-9.80792
 30
0.0
 10
-7.33555
 20
-9.80792
 30
0.0
 10
-6.35879
 20
-11.04125
 30
0.0
 10
-4.95922
 20
-12.15731
 30
0.0
 10
-3.77107
 20
-13.33202
 30
0.0
 10
-3.77107
 20
-13.33202
 30
0.0
 10
-3.24016
 20
-13.74712
 30
0.0
 10
-3.07936
 20
-14.23671
 30
0.0
 10
-3.55005
 20
-14.6695
 30
0.0
 10
-3.55005
 20
-14.6695
 30
0.0
 10
-3.96656
 20
-14.95405
 30
0.0
 10
-4.79322
 20
-15.00038
 30
0.0
 10
-4.47136
 20
-14.18697
 30
0.0
 10
-4.47136
 20
-14.18697
 30
0.0
 10
-3.69502
 20
-12.96767
 30
0.0
 10
-4.67798
 20
-12.96047
 30
0.0
 10
-5.55915
 20
-12.81573
 30
0.0
 10
-5.55915
 20
-12.81573
 30
0.0
 10
-6.07991
 20
-11.60342
 30
0.0
 10
-6.90256
 20
-10.90862
 30
0.0
 10
-8.15391
 20
-10.94864
 30
0.0
  0
SPLINE
  5
90
330
1F
100
AcDbEntity
  8
Camada 1
 62
   114
370
     9
100
AcDbSpline
210
0.0
220
0.0
230
1.0
 70
    11
 71
     3
 72
    48
 73
    44
 74
     0
 42
0.000000001
 43
0.0000000001
 40
0.0
 40
0.0
 40
0.0
 40
0.0
 40
0.0833333333333333
 40
0.0833333333333333
 40
0.0833333333333333
 40
0.0833333333333333
 40
0.1666666666666667
 40
0.1666666666666667
 40
0.1666666666666667
 40
0.1666666666666667
 40
0.25
 40
0.25
 40
0.25
 40
0.25
 40
0.3333333333333333
 40
0.3333333333333333
 40
0.3333333333333333
 40
0.3333333333333333
 40
0.4166666666666667
 40
0.4166666666666667
 40
0.4166666666666667
 40
0.4166666666666667
 40
0.5
 40
0.5
 40
0.5
 40
0.5
 40
0.5833333333333334
 40
0.5833333333333334
 40
0.5833333333333334
 40
0.5833333333333334
 40
0.6666666666666666
 40
0.6666666666666666
 40
0.6666666666666666
 40
0.6666666666666666
 40
0.75
 40
0.75
 40
0.75
 40
0.75
 40
0.8333333333333334
 40
0.8333333333333334
 40
0.8333333333333334
 40
0.8333333333333334
 40
1.0
 40
1.0
 40
1.0
 40
1.0
 10
-9.20759
 20
-1.37574
 30
0.0
 10
-9.72252
 20
-2.39154
 30
0.0
 10
-10.18688
 20
-5.11571
 30
0.0
 10
-9.00412
 20
-5.43124
 30
0.0
 10
-9.00412
 20
-5.43124
 30
0.0
 10
-8.81076
 20
-5.4707
 30
0.0
 10
-8.68892
 20
-5.34334
 30
0.0
 10
-8.84205
 20
-5.20354
 30
0.0
 10
-8.84205
 20
-5.20354
 30
0.0
 10
-9.51665
 20
-5.00847
 30
0.0
 10
-9.19197
 20
-4.19396
 30
0.0
 10
-8.66389
 20
-4.11381
 30
0.0
 10
-8.66389
 20
-4.11381
 30
0.0
 10
-7.23046
 20
-4.06023
 30
0.0
 10
-7.18355
 20
-5.69809
 30
0.0
 10
-8.58038
 20
-6.36102
 30
0.0
 10
-8.58038
 20
-6.36102
 30
0.0
 10
-8.31432
 20
-6.47708
 30
0.0
 10
-8.12275
 20
-6.6722
 30
0.0
 10
-8.02393
 20
-6.96584
 30
0.0
 10
-8.02393
 20
-6.96584
 30
0.0
 10
-8.02393
 20
-6.96584
 30
0.0
 10
-6.84198
 20
-6.18821
 30
0.0
 10
-6.84198
 20
-6.18821
 30
0.0
 10
-6.84198
 20
-6.18821
 30
0.0
 10
-6.03566
 20
-5.81929
 30
0.0
 10
-5.55084
 20
-6.86691
 30
0.0
 10
-6.41113
 20
-7.26364
 30
0.0
 10
-6.41113
 20
-7.26364
 30
0.0
 10
-7.13919
 20
-7.49109
 30
0.0
 10
-7.41538
 20
-8.41863
 30
0.0
 10
-6.41734
 20
-8.50249
 30
0.0
 10
-6.41734
 20
-8.50249
 30
0.0
 10
-5.40647
 20
-8.39273
 30
0.0
 10
-4.73881
 20
-7.54306
 30
0.0
 10
-5.24547
 20
-6.49052
 30
0.0
 10
-5.24547
 20
-6.49052
 30
0.0
 10
-5.72686
 20
-5.73368
 30
0.0
 10
-6.74579
 20
-5.44925
 30
0.0
 10
-7.20423
 20
-4.82662
 30
0.0
 10
-7.20423
 20
-4.82662
 30
0.0
 10
-8.12537
 20
-3.74659
 30
0.0
 10
-8.85024
 20
-2.61209
 30
0.0
 10
-9.20759
 20
-1.37574
 30
0.0
  0
SPLINE
  5
91
330
1F
100
AcDbEntity
  8
Camada 1
 62
   114
370
     9
100
AcDbSpline
210
0.0
220
0.0
230
1.0
 70
    11
 71
     3
 72
    28
 73
    24
 74
     0
 42
0.000000001
 43
0.0000000001
 40
0.0
 40
0.0
 40
0.0
 40
0.0
 40
0.1428571428571428
 40
0.1428571428571428
 40
0.1428571428571428
 40
0.1428571428571428
 40
0.2857142857142857
 40
0.2857142857142857
 40
0.2857142857142857
 40
0.2857142857142857
 40
0.4285714285714285
 40
0.4285714285714285
 40
0.4285714285714285
 40
0.4285714285714285
 40
0.5714285714285714
 40
0.5714285714285714
 40
0.5714285714285714
 40
0.5714285714285714
 40
0.7142857142857143
 40
0.7142857142857143
 40
0.7142857142857143
 40
0.7142857142857143
 40
1.0
 40
1.0
 40
1.0
 40
1.0
 10
-7.99058
 20
-0.12437
 30
0.0
 10
-7.92881
 20
-0.29207
 30
0.0
 10
-8.23199
 20
-0.50319
 30
0.0
 10
-8.44122
 20
-0.34776
 30
0.0
 10
-8.44122
 20
-0.34776
 30
0.0
 10
-8.80814
 20
0.53454
 30
0.0
 10
-8.96275
 20
1.47571
 30
0.0
 10
-8.8093
 20
2.50236
 30
0.0
 10
-8.8093
 20
2.50236
 30
0.0
 10
-7.85279
 20
4.0675
 30
0.0
 10
-5.8883
 20
2.61017
 30
0.0
 10
-6.71536
 20
1.08119
 30
0.0
 10
-6.71536
 20
1.08119
 30
0.0
 10
-6.89907
 20
0.82594
 30
0.0
 10
-7.31535
 20
0.75916
 30
0.0
 10
-7.19915
 20
1.23382
 30
0.0
 10
-7.19915
 20
1.23382
 30
0.0
 10
-6.72756
 20
2.01274
 30
0.0
 10
-7.11224
 20
2.59787
 30
0.0
 10
-7.87061
 20
2.17226
 30
0.0
 10
-7.87061
 20
2.17226
 30
0.0
 10
-8.87312
 20
1.39857
 30
0.0
 10
-8.59385
 20
0.63573
 30
0.0
 10
-7.99058
 20
-0.12437
 30
0.0
  0
SPLINE
  5
92
330
1F
100
AcDbEntity
  8
Camada 1
 62
   114
370
     9
100
AcDbSpline
210
0.0
220
0.0
230
1.0
 70
    11
 71
     3
 72
    20
 73
    16
 74
     0
 42
0.000000001
 43
0.0000000001
 40
0.0
 40
0.0
 40
0.0
 40
0.0
 40
0.2
 40
0.2
 40
0.2
 40
0.2
 40
0.4
 40
0.4
 40
0.4
 40
0.4
 40
0.6
 40
0.6
 40
0.6
 40
0.6
 40
1.0
 40
1.0
 40
1.0
 40
1.0
 10
-8.95071
 20
4.45625
 30
0.0
 10
-8.83906
 20
4.28499
 30
0.0
 10
-8.68805
 20
4.15487
 30
0.0
 10
-8.50318
 20
4.06022
 30
0.0
 10
-8.50318
 20
4.06022
 30
0.0
 10
-8.69529
 20
3.86531
 30
0.0
 10
-8.81866
 20
3.64691
 30
0.0
 10
-8.90459
 20
3.41583
 30
0.0
 10
-8.90459
 20
3.41583
 30
0.0
 10
-9.02993
 20
3.58167
 30
0.0
 10
-9.17963
 20
3.71882
 30
0.0
 10
-9.35688
 20
3.82345
 30
0.0
 10
-9.35688
 20
3.82345
 30
0.0
 10
-9.16794
 20
4.02519
 30
0.0
 10
-9.04551
 20
4.23836
 30
0.0
 10
-8.95071
 20
4.45625
 30
0.0
  0
SPLINE
  5
93
330
1F
100
AcDbEntity
  8
Camada 1
 62
   114
370
     9
100
AcDbSpline
210
0.0
220
0.0
230
1.0
 70
    11
 71
     3
 72
    32
 73
    28
 74
     0
 42
0.000000001
 43
0.0000000001
 40
0.0
 40
0.0
 40
0.0
 40
0.0
 40
0.125
 40
0.125
 40
0.125
 40
0.125
 40
0.25
 40
0.25
 40
0.25
 40
0.25
 40
0.375
 40
0.375
 40
0.375
 40
0.375
 40
0.5
 40
0.5
 40
0.5
 40
0.5
 40
0.625
 40
0.625
 40
0.625
 40
0.625
 40
0.75
 40
0.75
 40
0.75
 40
0.75
 40
1.0
 40
1.0
 40
1.0
 40
1.0
 10
-9.4527
 20
9.85472
 30
0.0
 10
-9.93139
 20
9.78584
 30
0.0
 10
-10.32684
 20
9.61399
 30
0.0
 10
-10.5952
 20
9.28481
 30
0.0
 10
-10.5952
 20
9.28481
 30
0.0
 10
-10.7625
 20
8.93392
 30
0.0
 10
-10.72549
 20
8.62995
 30
0.0
 10
-10.50163
 20
8.36887
 30
0.0
 10
-10.50163
 20
8.36887
 30
0.0
 10
-9.9826
 20
8.0657
 30
0.0
 10
-10.45303
 20
7.59142
 30
0.0
 10
-9.68585
 20
7.51264
 30
0.0
 10
-9.68585
 20
7.51264
 30
0.0
 10
-9.25552
 20
7.40146
 30
0.0
 10
-9.3886
 20
7.00076
 30
0.0
 10
-9.91169
 20
7.07045
 30
0.0
 10
-9.91169
 20
7.07045
 30
0.0
 10
-10.41763
 20
7.26588
 30
0.0
 10
-10.80644
 20
7.67212
 30
0.0
 10
-11.02933
 20
8.37717
 30
0.0
 10
-11.02933
 20
8.37717
 30
0.0
 10
-11.02933
 20
8.37717
 30
0.0
 10
-11.04185
 20
10.00446
 30
0.0
 10
-11.04185
 20
10.00446
 30
0.0
 10
-11.04185
 20
10.00446
 30
0.0
 10
-10.5458
 20
10.01331
 30
0.0
 10
-9.86433
 20
10.19043
 30
0.0
 10
-9.4527
 20
9.85472
 30
0.0
  0
SPLINE
  5
94
330
1F
100
AcDbEntity
  8
Camada 1
 62
   114
370
     9
100
AcDbSpline
210
0.0
220
0.0
230
1.0
 70
    11
 71
     3
 72
    24
 73
    20
 74
     0
 42
0.000000001
 43
0.0000000001
 40
0.0
 40
0.0
 40
0.0
 40
0.0
 40
0.1666666666666667
 40
0.1666666666666667
 40
0.1666666666666667
 40
0.1666666666666667
 40
0.3333333333333333
 40
0.3333333333333333
 40
0.3333333333333333
 40
0.3333333333333333
 40
0.5
 40
0.5
 40
0.5
 40
0.5
 40
0.6666666666666666
 40
0.6666666666666666
 40
0.6666666666666666
 40
0.6666666666666666
 40
1.0
 40
1.0
 40
1.0
 40
1.0
 10
-13.59242
 20
-8.46229
 30
0.0
 10
-13.81361
 20
-7.71745
 30
0.0
 10
-13.63901
 20
-7.46937
 30
0.0
 10
-13.09364
 20
-7.68684
 30
0.0
 10
-13.09364
 20
-7.68684
 30
0.0
 10
-12.85848
 20
-7.14018
 30
0.0
 10
-13.24005
 20
-6.79789
 30
0.0
 10
-13.66586
 20
-6.90957
 30
0.0
 10
-13.66586
 20
-6.90957
 30
0.0
 10
-15.19696
 20
-7.17419
 30
0.0
 10
-15.94785
 20
-9.59951
 30
0.0
 10
-14.08012
 20
-10.71691
 30
0.0
 10
-14.08012
 20
-10.71691
 30
0.0
 10
-13.64558
 20
-10.81707
 30
0.0
 10
-13.56628
 20
-10.20024
 30
0.0
 10
-13.9255
 20
-9.90225
 30
0.0
 10
-13.9255
 20
-9.90225
 30
0.0
 10
-14.66739
 20
-9.30773
 30
0.0
 10
-14.5192
 20
-8.52132
 30
0.0
 10
-13.59242
 20
-8.46229
 30
0.0
  0
SPLINE
  5
95
330
1F
100
AcDbEntity
  8
Camada 1
 62
   114
370
     9
100
AcDbSpline
210
0.0
220
0.0
230
1.0
 70
    11
 71
     3
 72
    20
 73
    16
 74
     0
 42
0.000000001
 43
0.0000000001
 40
0.0
 40
0.0
 40
0.0
 40
0.0
 40
0.2
 40
0.2
 40
0.2
 40
0.2
 40
0.4
 40
0.4
 40
0.4
 40
0.4
 40
0.6
 40
0.6
 40
0.6
 40
0.6
 40
1.0
 40
1.0
 40
1.0
 40
1.0
 10
-14.65375
 20
-11.67547
 30
0.0
 10
-14.65375
 20
-11.67547
 30
0.0
 10
-14.02782
 20
-11.68038
 30
0.0
 10
-14.02782
 20
-11.68038
 30
0.0
 10
-14.02782
 20
-11.68038
 30
0.0
 10
-14.20897
 20
-12.4963
 30
0.0
 10
-14.5038
 20
-13.15043
 30
0.0
 10
-15.17518
 20
-13.60441
 30
0.0
 10
-15.17518
 20
-13.60441
 30
0.0
 10
-16.71892
 20
-14.30161
 30
0.0
 10
-17.35377
 20
-13.0956
 30
0.0
 10
-16.41202
 20
-12.25625
 30
0.0
 10
-16.41202
 20
-12.25625
 30
0.0
 10
-15.62731
 20
-12.94491
 30
0.0
 10
-14.82998
 20
-13.01196
 30
0.0
 10
-14.65375
 20
-11.67547
 30
0.0
  0
SPLINE
  5
96
330
1F
100
AcDbEntity
  8
Camada 1
 62
   114
370
     9
100
AcDbSpline
210
0.0
220
0.0
230
1.0
 70
    11
 71
     3
 72
    28
 73
    24
 74
     0
 42
0.000000001
 43
0.0000000001
 40
0.0
 40
0.0
 40
0.0
 40
0.0
 40
0.1428571428571428
 40
0.1428571428571428
 40
0.1428571428571428
 40
0.1428571428571428
 40
0.2857142857142857
 40
0.2857142857142857
 40
0.2857142857142857
 40
0.2857142857142857
 40
0.4285714285714285
 40
0.4285714285714285
 40
0.4285714285714285
 40
0.4285714285714285
 40
0.5714285714285714
 40
0.5714285714285714
 40
0.5714285714285714
 40
0.5714285714285714
 40
0.7142857142857143
 40
0.7142857142857143
 40
0.7142857142857143
 40
0.7142857142857143
 40
1.0
 40
1.0
 40
1.0
 40
1.0
 10
-15.50058
 20
-10.94864
 30
0.0
 10
-15.50058
 20
-10.94864
 30
0.0
 10
-16.31896
 20
-9.80792
 30
0.0
 10
-16.31896
 20
-9.80792
 30
0.0
 10
-16.31896
 20
-9.80792
 30
0.0
 10
-17.29572
 20
-11.04125
 30
0.0
 10
-18.69529
 20
-12.15731
 30
0.0
 10
-19.88343
 20
-13.33202
 30
0.0
 10
-19.88343
 20
-13.33202
 30
0.0
 10
-20.41434
 20
-13.74712
 30
0.0
 10
-20.57514
 20
-14.23671
 30
0.0
 10
-20.10446
 20
-14.6695
 30
0.0
 10
-20.10446
 20
-14.6695
 30
0.0
 10
-19.68794
 20
-14.95405
 30
0.0
 10
-18.86128
 20
-15.00038
 30
0.0
 10
-19.18313
 20
-14.18697
 30
0.0
 10
-19.18313
 20
-14.18697
 30
0.0
 10
-19.95949
 20
-12.96767
 30
0.0
 10
-18.97653
 20
-12.96047
 30
0.0
 10
-18.09534
 20
-12.81573
 30
0.0
 10
-18.09534
 20
-12.81573
 30
0.0
 10
-17.57459
 20
-11.60342
 30
0.0
 10
-16.75194
 20
-10.90862
 30
0.0
 10
-15.50058
 20
-10.94864
 30
0.0
  0
SPLINE
  5
97
330
1F
100
AcDbEntity
  8
Camada 1
 62
   114
370
     9
100
AcDbSpline
210
0.0
220
0.0
230
1.0
 70
    11
 71
     3
 72
    48
 73
    44
 74
     0
 42
0.000000001
 43
0.0000000001
 40
0.0
 40
0.0
 40
0.0
 40
0.0
 40
0.0833333333333333
 40
0.0833333333333333
 40
0.0833333333333333
 40
0.0833333333333333
 40
0.1666666666666667
 40
0.1666666666666667
 40
0.1666666666666667
 40
0.1666666666666667
 40
0.25
 40
0.25
 40
0.25
 40
0.25
 40
0.3333333333333333
 40
0.3333333333333333
 40
0.3333333333333333
 40
0.3333333333333333
 40
0.4166666666666667
 40
0.4166666666666667
 40
0.4166666666666667
 40
0.4166666666666667
 40
0.5
 40
0.5
 40
0.5
 40
0.5
 40
0.5833333333333334
 40
0.5833333333333334
 40
0.5833333333333334
 40
0.5833333333333334
 40
0.6666666666666666
 40
0.6666666666666666
 40
0.6666666666666666
 40
0.6666666666666666
 40
0.75
 40
0.75
 40
0.75
 40
0.75
 40
0.8333333333333334
 40
0.8333333333333334
 40
0.8333333333333334
 40
0.8333333333333334
 40
1.0
 40
1.0
 40
1.0
 40
1.0
 10
-14.44689
 20
-1.37574
 30
0.0
 10
-13.93197
 20
-2.39154
 30
0.0
 10
-13.46762
 20
-5.11571
 30
0.0
 10
-14.65038
 20
-5.43124
 30
0.0
 10
-14.65038
 20
-5.43124
 30
0.0
 10
-14.84373
 20
-5.4707
 30
0.0
 10
-14.96558
 20
-5.34334
 30
0.0
 10
-14.81245
 20
-5.20354
 30
0.0
 10
-14.81245
 20
-5.20354
 30
0.0
 10
-14.13785
 20
-5.00847
 30
0.0
 10
-14.46253
 20
-4.19396
 30
0.0
 10
-14.99061
 20
-4.11381
 30
0.0
 10
-14.99061
 20
-4.11381
 30
0.0
 10
-16.42403
 20
-4.06023
 30
0.0
 10
-16.47094
 20
-5.69809
 30
0.0
 10
-15.07413
 20
-6.36102
 30
0.0
 10
-15.07413
 20
-6.36102
 30
0.0
 10
-15.34017
 20
-6.47708
 30
0.0
 10
-15.53175
 20
-6.6722
 30
0.0
 10
-15.63057
 20
-6.96584
 30
0.0
 10
-15.63057
 20
-6.96584
 30
0.0
 10
-15.63057
 20
-6.96584
 30
0.0
 10
-16.81252
 20
-6.18821
 30
0.0
 10
-16.81252
 20
-6.18821
 30
0.0
 10
-16.81252
 20
-6.18821
 30
0.0
 10
-17.61883
 20
-5.81929
 30
0.0
 10
-18.10365
 20
-6.86691
 30
0.0
 10
-17.24337
 20
-7.26364
 30
0.0
 10
-17.24337
 20
-7.26364
 30
0.0
 10
-16.51531
 20
-7.49109
 30
0.0
 10
-16.23913
 20
-8.41863
 30
0.0
 10
-17.23717
 20
-8.50249
 30
0.0
 10
-17.23717
 20
-8.50249
 30
0.0
 10
-18.24802
 20
-8.39273
 30
0.0
 10
-18.91569
 20
-7.54306
 30
0.0
 10
-18.40903
 20
-6.49052
 30
0.0
 10
-18.40903
 20
-6.49052
 30
0.0
 10
-17.92764
 20
-5.73368
 30
0.0
 10
-16.90871
 20
-5.44925
 30
0.0
 10
-16.45026
 20
-4.82662
 30
0.0
 10
-16.45026
 20
-4.82662
 30
0.0
 10
-15.52913
 20
-3.74659
 30
0.0
 10
-14.80426
 20
-2.61209
 30
0.0
 10
-14.44689
 20
-1.37574
 30
0.0
  0
SPLINE
  5
98
330
1F
100
AcDbEntity
  8
Camada 1
 62
   114
370
     9
100
AcDbSpline
210
0.0
220
0.0
230
1.0
 70
    11
 71
     3
 72
    28
 73
    24
 74
     0
 42
0.000000001
 43
0.0000000001
 40
0.0
 40
0.0
 40
0.0
 40
0.0
 40
0.1428571428571428
 40
0.1428571428571428
 40
0.1428571428571428
 40
0.1428571428571428
 40
0.2857142857142857
 40
0.2857142857142857
 40
0.2857142857142857
 40
0.2857142857142857
 40
0.4285714285714285
 40
0.4285714285714285
 40
0.4285714285714285
 40
0.4285714285714285
 40
0.5714285714285714
 40
0.5714285714285714
 40
0.5714285714285714
 40
0.5714285714285714
 40
0.7142857142857143
 40
0.7142857142857143
 40
0.7142857142857143
 40
0.7142857142857143
 40
1.0
 40
1.0
 40
1.0
 40
1.0
 10
-15.66393
 20
-0.12437
 30
0.0
 10
-15.72569
 20
-0.29207
 30
0.0
 10
-15.42251
 20
-0.50319
 30
0.0
 10
-15.21329
 20
-0.34776
 30
0.0
 10
-15.21329
 20
-0.34776
 30
0.0
 10
-14.84636
 20
0.53454
 30
0.0
 10
-14.69176
 20
1.47571
 30
0.0
 10
-14.8452
 20
2.50236
 30
0.0
 10
-14.8452
 20
2.50236
 30
0.0
 10
-15.80172
 20
4.0675
 30
0.0
 10
-17.76621
 20
2.61017
 30
0.0
 10
-16.93914
 20
1.08119
 30
0.0
 10
-16.93914
 20
1.08119
 30
0.0
 10
-16.75542
 20
0.82594
 30
0.0
 10
-16.33915
 20
0.75916
 30
0.0
 10
-16.45535
 20
1.23382
 30
0.0
 10
-16.45535
 20
1.23382
 30
0.0
 10
-16.92694
 20
2.01274
 30
0.0
 10
-16.54227
 20
2.59787
 30
0.0
 10
-15.7839
 20
2.17226
 30
0.0
 10
-15.7839
 20
2.17226
 30
0.0
 10
-14.78138
 20
1.39857
 30
0.0
 10
-15.06065
 20
0.63573
 30
0.0
 10
-15.66393
 20
-0.12437
 30
0.0
  0
ENDSEC
  0
SECTION
  2
OBJECTS
  0
DICTIONARY
  5
C
330
0
100
AcDbDictionary
281
     1
  3
ACAD_DETAILVIEWSTYLE
350
D4
  3
ACAD_GROUP
350
D
  3
ACAD_LAYOUT
350
1A
  3
ACAD_MATERIAL
350
43
  3
ACAD_MLEADERSTYLE
350
6B
  3
ACAD_MLINESTYLE
350
17
  3
ACAD_PLOTSETTINGS
350
19
  3
ACAD_PLOTSTYLENAME
350
E
  3
ACAD_SCALELIST
350
47
  3
ACAD_SECTIONVIEWSTYLE
350
D5
  3
ACAD_TABLESTYLE
350
69
  3
ACAD_VISUALSTYLE
350
2A
  3
ACDB_RECOMPOSE_DATA
350
D1
  3
AcDbVariableDictionary
350
99
  0
SUN
  5
6D
330
29
100
AcDbSun
 90
        1
290
     0
 63
     7
421
 16777215
 40
1.0
291
     1
 91
  2455826
 92
 54000000
292
     0
 70
     2
 71
   256
280
     1
  0
DICTIONARY
  5
D4
102
{ACAD_REACTORS
330
C
102
}
330
C
100
AcDbDictionary
281
     1
  0
DICTIONARY
  5
D
102
{ACAD_REACTORS
330
C
102
}
330
C
100
AcDbDictionary
281
     1
  0
DICTIONARY
  5
1A
102
{ACAD_REACTORS
330
C
102
}
330
C
100
AcDbDictionary
281
     1
  3
Layout1
350
1E
  3
Layout2
350
26
  3
Model
350
22
  0
DICTIONARY
  5
43
102
{ACAD_REACTORS
330
C
102
}
330
C
100
AcDbDictionary
281
     1
  3
ByBlock
350
45
  3
ByLayer
350
44
  3
Global
350
46
  0
DICTIONARY
  5
6B
102
{ACAD_REACTORS
330
C
102
}
330
C
100
AcDbDictionary
281
     1
  3
Standard
350
6C
  0
DICTIONARY
  5
17
102
{ACAD_REACTORS
330
C
102
}
330
C
100
AcDbDictionary
281
     1
  3
Standard
350
18
  0
DICTIONARY
  5
19
102
{ACAD_REACTORS
330
C
102
}
330
C
100
AcDbDictionary
281
     1
  0
ACDBDICTIONARYWDFLT
  5
E
102
{ACAD_REACTORS
330
C
102
}
330
C
100
AcDbDictionary
281
     1
  3
Normal
350
F
100
AcDbDictionaryWithDefault
340
F
  0
DICTIONARY
  5
47
102
{ACAD_REACTORS
330
C
102
}
330
C
100
AcDbDictionary
281
     1
  3
A0
350
48
  3
A1
350
49
  3
A2
350
4A
  3
A3
350
4B
  3
A4
350
4C
  3
A5
350
4D
  3
A6
350
4E
  3
A7
350
4F
  3
A8
350
50
  3
A9
350
51
  3
B0
350
52
  3
B1
350
53
  3
B2
350
54
  3
B3
350
55
  3
B4
350
56
  3
B5
350
57
  3
B6
350
58
  3
B7
350
59
  3
B8
350
5A
  3
B9
350
5B
  3
C0
350
5C
  3
C1
350
5D
  3
C2
350
5E
  3
C3
350
5F
  3
C4
350
60
  3
C5
350
61
  3
C6
350
62
  3
C7
350
63
  3
C8
350
64
  3
C9
350
65
  3
D0
350
66
  3
D1
350
67
  3
D2
350
68
  0
DICTIONARY
  5
D5
102
{ACAD_REACTORS
330
C
102
}
330
C
100
AcDbDictionary
281
     1
  0
DICTIONARY
  5
69
102
{ACAD_REACTORS
330
C
102
}
330
C
100
AcDbDictionary
281
     1
  3
Standard
350
6A
  0
DICTIONARY
  5
2A
102
{ACAD_REACTORS
330
C
102
}
330
C
100
AcDbDictionary
281
     1
  3
2dWireframe
350
2F
  3
Basic
350
32
  3
Brighten
350
36
  3
ColorChange
350
3A
  3
Conceptual
350
34
  3
Dim
350
35
  3
EdgeColorOff
350
3D
  3
Facepattern
350
39
  3
Flat
350
2B
  3
FlatWithEdges
350
2C
  3
Gouraud
350
2D
  3
GouraudWithEdges
350
2E
  3
Hidden
350
31
  3
JitterOff
350
3B
  3
Linepattern
350
38
  3
OverhangOff
350
3C
  3
Realistic
350
33
  3
Shaded
350
42
  3
Shaded with edges
350
41
  3
Shades of Gray
350
3E
  3
Sketchy
350
3F
  3
Thicken
350
37
  3
Wireframe
350
30
  3
X-Ray
350
40
  0
XRECORD
  5
D1
102
{ACAD_REACTORS
330
C
102
}
330
C
100
AcDbXrecord
280
     1
 90
        1
330
6A
  0
DICTIONARY
  5
99
102
{ACAD_REACTORS
330
C
102
}
330
C
100
AcDbDictionary
281
     1
  3
CANNOSCALE
350
9A
  3
CMLEADERSTYLE
350
D3
  3
CTABLESTYLE
350
D2
  3
XCLIPFRAME
350
9B
  0
LAYOUT
  5
1E
102
{ACAD_REACTORS
330
1A
102
}
330
1A
100
AcDbPlotSettings
  1

  2
none_device
  4

  6

 40
0.0
 41
0.0
 42
0.0
 43
0.0
 44
0.0
 45
0.0
 46
0.0
 47
0.0
 48
0.0
 49
0.0
140
0.0
141
0.0
142
1.0
143
1.0
 70
   688
 72
     0
 73
     0
 74
     5
  7

 75
    16
 76
     0
 77
     2
 78
   300
147
1.0
148
0.0
149
0.0
100
AcDbLayout
  1
Layout1
 70
     1
 71
     1
 10
0.0
 20
0.0
 11
12.0
 21
9.0
 12
0.0
 22
0.0
 32
0.0
 14
1.000000000000000E+20
 24
1.000000000000000E+20
 34
1.000000000000000E+20
 15
-1.000000000000000E+20
 25
-1.000000000000000E+20
 35
-1.000000000000000E+20
146
0.0
 13
0.0
 23
0.0
 33
0.0
 16
1.0
 26
0.0
 36
0.0
 17
0.0
 27
1.0
 37
0.0
 76
     0
330
1B
  0
LAYOUT
  5
26
102
{ACAD_REACTORS
330
1A
102
}
330
1A
100
AcDbPlotSettings
  1

  2
none_device
  4

  6

 40
0.0
 41
0.0
 42
0.0
 43
0.0
 44
0.0
 45
0.0
 46
0.0
 47
0.0
 48
0.0
 49
0.0
140
0.0
141
0.0
142
1.0
143
1.0
 70
   688
 72
     0
 73
     0
 74
     5
  7

 75
    16
 76
     0
 77
     2
 78
   300
147
1.0
148
0.0
149
0.0
100
AcDbLayout
  1
Layout2
 70
     1
 71
     2
 10
0.0
 20
0.0
 11
0.0
 21
0.0
 12
0.0
 22
0.0
 32
0.0
 14
0.0
 24
0.0
 34
0.0
 15
0.0
 25
0.0
 35
0.0
146
0.0
 13
0.0
 23
0.0
 33
0.0
 16
1.0
 26
0.0
 36
0.0
 17
0.0
 27
1.0
 37
0.0
 76
     0
330
23
  0
LAYOUT
  5
22
102
{ACAD_REACTORS
330
1A
102
}
330
1A
100
AcDbPlotSettings
  1

  2
none_device
  4
Letter_(8.50_x_11.00_Inches)
  6

 40
6.35
 41
6.35
 42
6.35000508
 43
6.35000508
 44
215.9
 45
279.4
 46
0.0
 47
0.0
 48
0.0
 49
0.0
140
0.0
141
0.0
142
1.0
143
1.0
 70
  1712
 72
     0
 73
     0
 74
     0
  7

 75
     0
 76
     0
 77
     2
 78
   300
147
1.0
148
0.0
149
0.0
100
AcDbLayout
  1
Model
 70
     1
 71
     0
 10
0.0
 20
0.0
 11
12.0
 21
9.0
 12
0.0
 22
0.0
 32
0.0
 14
-23.99595
 24
-28.63823
 34
0.0
 15
18.22611
 25
23.85566
 35
0.0
146
0.0
 13
0.0
 23
0.0
 33
0.0
 16
1.0
 26
0.0
 36
0.0
 17
0.0
 27
1.0
 37
0.0
 76
     0
330
1F
331
29
  0
MATERIAL
  5
45
102
{ACAD_REACTORS
330
43
102
}
330
43
100
AcDbMaterial
  1
ByBlock
 72
     1
 94
      127
  0
MATERIAL
  5
44
102
{ACAD_REACTORS
330
43
102
}
330
43
100
AcDbMaterial
  1
ByLayer
 72
     1
 94
      127
  0
MATERIAL
  5
46
102
{ACAD_REACTORS
330
43
102
}
330
43
100
AcDbMaterial
  1
Global
 72
     1
 94
      127
  0
MLEADERSTYLE
  5
6C
102
{ACAD_REACTORS
330
6B
102
}
102
{ACAD_XDICTIONARY
360
CF
102
}
330
6B
100
AcDbMLeaderStyle
170
     2
171
     1
172
     0
 90
        2
 40
0.0
 41
0.0
173
     1
 91
-1056964608
340
14
 92
       -2
290
     1
 42
0.09
291
     1
 43
0.36
  3
Standard
341
0
 44
0.18
300

342
11
174
     1
178
     6
175
     1
176
     0
 93
-1056964608
 45
0.18
292
     0
297
     0
 46
0.18
343
0
 94
-1056964608
 47
1.0
 49
1.0
140
1.0
293
     1
141
0.0
294
     1
177
     0
142
1.0
295
     0
296
     0
143
0.125
1001
ACAD_MLEADERVER
1070
     2
  0
MLINESTYLE
  5
18
102
{ACAD_REACTORS
330
17
102
}
330
17
100
AcDbMlineStyle
  2
Standard
 70
     0
  3

 62
   256
 51
90.0
 52
90.0
 71
     2
 49
0.5
 62
   256
  6
BYLAYER
 49
-0.5
 62
   256
  6
BYLAYER
  0
ACDBPLACEHOLDER
  5
F
102
{ACAD_REACTORS
330
E
102
}
330
E
  0
SCALE
  5
48
102
{ACAD_REACTORS
330
47
102
}
330
47
100
AcDbScale
 70
     0
300
1:1
140
1.0
141
1.0
290
     1
  0
SCALE
  5
49
102
{ACAD_REACTORS
330
47
102
}
330
47
100
AcDbScale
 70
     0
300
1:2
140
1.0
141
2.0
290
     0
  0
SCALE
  5
4A
102
{ACAD_REACTORS
330
47
102
}
330
47
100
AcDbScale
 70
     0
300
1:4
140
1.0
141
4.0
290
     0
  0
SCALE
  5
4B
102
{ACAD_REACTORS
330
47
102
}
330
47
100
AcDbScale
 70
     0
300
1:5
140
1.0
141
5.0
290
     0
  0
SCALE
  5
4C
102
{ACAD_REACTORS
330
47
102
}
330
47
100
AcDbScale
 70
     0
300
1:8
140
1.0
141
8.0
290
     0
  0
SCALE
  5
4D
102
{ACAD_REACTORS
330
47
102
}
330
47
100
AcDbScale
 70
     0
300
1:10
140
1.0
141
10.0
290
     0
  0
SCALE
  5
4E
102
{ACAD_REACTORS
330
47
102
}
330
47
100
AcDbScale
 70
     0
300
1:16
140
1.0
141
16.0
290
     0
  0
SCALE
  5
4F
102
{ACAD_REACTORS
330
47
102
}
330
47
100
AcDbScale
 70
     0
300
1:20
140
1.0
141
20.0
290
     0
  0
SCALE
  5
50
102
{ACAD_REACTORS
330
47
102
}
330
47
100
AcDbScale
 70
     0
300
1:30
140
1.0
141
30.0
290
     0
  0
SCALE
  5
51
102
{ACAD_REACTORS
330
47
102
}
330
47
100
AcDbScale
 70
     0
300
1:40
140
1.0
141
40.0
290
     0
  0
SCALE
  5
52
102
{ACAD_REACTORS
330
47
102
}
330
47
100
AcDbScale
 70
     0
300
1:50
140
1.0
141
50.0
290
     0
  0
SCALE
  5
53
102
{ACAD_REACTORS
330
47
102
}
330
47
100
AcDbScale
 70
     0
300
1:100
140
1.0
141
100.0
290
     0
  0
SCALE
  5
54
102
{ACAD_REACTORS
330
47
102
}
330
47
100
AcDbScale
 70
     0
300
2:1
140
2.0
141
1.0
290
     0
  0
SCALE
  5
55
102
{ACAD_REACTORS
330
47
102
}
330
47
100
AcDbScale
 70
     0
300
4:1
140
4.0
141
1.0
290
     0
  0
SCALE
  5
56
102
{ACAD_REACTORS
330
47
102
}
330
47
100
AcDbScale
 70
     0
300
8:1
140
8.0
141
1.0
290
     0
  0
SCALE
  5
57
102
{ACAD_REACTORS
330
47
102
}
330
47
100
AcDbScale
 70
     0
300
10:1
140
10.0
141
1.0
290
     0
  0
SCALE
  5
58
102
{ACAD_REACTORS
330
47
102
}
330
47
100
AcDbScale
 70
     0
300
100:1
140
100.0
141
1.0
290
     0
  0
SCALE
  5
59
102
{ACAD_REACTORS
330
47
102
}
330
47
100
AcDbScale
 70
     0
300
1/128\" = 1\'-0\"
140
0.0078125
141
12.0
290
     0
  0
SCALE
  5
5A
102
{ACAD_REACTORS
330
47
102
}
330
47
100
AcDbScale
 70
     0
300
1/64\" = 1\'-0\"
140
0.015625
141
12.0
290
     0
  0
SCALE
  5
5B
102
{ACAD_REACTORS
330
47
102
}
330
47
100
AcDbScale
 70
     0
300
1/32\" = 1\'-0\"
140
0.03125
141
12.0
290
     0
  0
SCALE
  5
5C
102
{ACAD_REACTORS
330
47
102
}
330
47
100
AcDbScale
 70
     0
300
1/16\" = 1\'-0\"
140
0.0625
141
12.0
290
     0
  0
SCALE
  5
5D
102
{ACAD_REACTORS
330
47
102
}
330
47
100
AcDbScale
 70
     0
300
3/32\" = 1\'-0\"
140
0.09375
141
12.0
290
     0
  0
SCALE
  5
5E
102
{ACAD_REACTORS
330
47
102
}
330
47
100
AcDbScale
 70
     0
300
1/8\" = 1\'-0\"
140
0.125
141
12.0
290
     0
  0
SCALE
  5
5F
102
{ACAD_REACTORS
330
47
102
}
330
47
100
AcDbScale
 70
     0
300
3/16\" = 1\'-0\"
140
0.1875
141
12.0
290
     0
  0
SCALE
  5
60
102
{ACAD_REACTORS
330
47
102
}
330
47
100
AcDbScale
 70
     0
300
1/4\" = 1\'-0\"
140
0.25
141
12.0
290
     0
  0
SCALE
  5
61
102
{ACAD_REACTORS
330
47
102
}
330
47
100
AcDbScale
 70
     0
300
3/8\" = 1\'-0\"
140
0.375
141
12.0
290
     0
  0
SCALE
  5
62
102
{ACAD_REACTORS
330
47
102
}
330
47
100
AcDbScale
 70
     0
300
1/2\" = 1\'-0\"
140
0.5
141
12.0
290
     0
  0
SCALE
  5
63
102
{ACAD_REACTORS
330
47
102
}
330
47
100
AcDbScale
 70
     0
300
3/4\" = 1\'-0\"
140
0.75
141
12.0
290
     0
  0
SCALE
  5
64
102
{ACAD_REACTORS
330
47
102
}
330
47
100
AcDbScale
 70
     0
300
1\" = 1\'-0\"
140
1.0
141
12.0
290
     0
  0
SCALE
  5
65
102
{ACAD_REACTORS
330
47
102
}
330
47
100
AcDbScale
 70
     0
300
1-1/2\" = 1\'-0\"
140
1.5
141
12.0
290
     0
  0
SCALE
  5
66
102
{ACAD_REACTORS
330
47
102
}
330
47
100
AcDbScale
 70
     0
300
3\" = 1\'-0\"
140
3.0
141
12.0
290
     0
  0
SCALE
  5
67
102
{ACAD_REACTORS
330
47
102
}
330
47
100
AcDbScale
 70
     0
300
6\" = 1\'-0\"
140
6.0
141
12.0
290
     0
  0
SCALE
  5
68
102
{ACAD_REACTORS
330
47
102
}
330
47
100
AcDbScale
 70
     0
300
1\'-0\" = 1\'-0\"
140
12.0
141
12.0
290
     0
  0
TABLESTYLE
  5
6A
102
{ACAD_REACTORS
330
69
102
}
102
{ACAD_XDICTIONARY
360
CC
102
}
330
69
100
AcDbTableStyle
  3
Standard
 70
     0
 71
     0
 40
0.06
 41
0.06
280
     0
281
     0
  7
Standard
140
0.18
170
     2
 62
     0
 63
   257
283
     0
 90
        4
 91
        0
  1

274
    -2
284
     1
 64
     0
275
    -2
285
     1
 65
     0
276
    -2
286
     1
 66
     0
277
    -2
287
     1
 67
     0
278
    -2
288
     1
 68
     0
279
    -2
289
     1
 69
     0
  7
Standard
140
0.25
170
     5
 62
     0
 63
   257
283
     0
 90
        4
 91
        0
  1

274
    -2
284
     1
 64
     0
275
    -2
285
     1
 65
     0
276
    -2
286
     1
 66
     0
277
    -2
287
     1
 67
     0
278
    -2
288
     1
 68
     0
279
    -2
289
     1
 69
     0
  7
Standard
140
0.18
170
     5
 62
     0
 63
   257
283
     0
 90
        4
 91
        0
  1

274
    -2
284
     1
 64
     0
275
    -2
285
     1
 65
     0
276
    -2
286
     1
 66
     0
277
    -2
287
     1
 67
     0
278
    -2
288
     1
 68
     0
279
    -2
289
     1
 69
     0
  0
VISUALSTYLE
  5
2F
102
{ACAD_REACTORS
330
2A
102
}
102
{ACAD_XDICTIONARY
360
A4
102
}
330
2A
100
AcDbVisualStyle
  2
2dWireframe
 70
     4
 71
     0
 72
     2
 73
     0
 90
        0
 40
0.6
 41
30.0
 62
     5
 63
     7
421
 16777215
 74
     1
 91
        4
 64
     7
 65
   257
 75
     1
175
     1
 42
1.0
 92
        0
 66
   257
 43
1.0
 76
     1
 77
     6
 78
     2
 67
     7
 79
     5
170
     0
171
     0
290
     0
174
     0
 93
        1
 44
0.0
173
     0
291
     0
 45
0.0
  0
VISUALSTYLE
  5
32
102
{ACAD_REACTORS
330
2A
102
}
102
{ACAD_XDICTIONARY
360
AA
102
}
330
2A
100
AcDbVisualStyle
  2
Basic
 70
     7
 71
     1
 72
     0
 73
     1
 90
        0
 40
0.6
 41
30.0
 62
     5
 63
     7
421
 16777215
 74
     0
 91
        4
 64
     7
 65
   257
 75
     1
175
     1
 42
1.0
 92
        8
 66
     7
 43
1.0
 76
     1
 77
     6
 78
     2
 67
     7
 79
     5
170
     0
171
     0
290
     0
174
     0
 93
        1
 44
0.0
173
     0
291
     1
 45
0.0
  0
VISUALSTYLE
  5
36
102
{ACAD_REACTORS
330
2A
102
}
102
{ACAD_XDICTIONARY
360
B2
102
}
330
2A
100
AcDbVisualStyle
  2
Brighten
 70
    12
 71
     2
 72
     2
 73
     0
 90
        0
 40
0.6
 41
30.0
 62
     5
 63
     7
421
 16777215
 74
     1
 91
        4
 64
     7
 65
   257
 75
     1
175
     1
 42
1.0
 92
        8
 66
     7
 43
1.0
 76
     1
 77
     6
 78
     2
 67
     7
 79
     5
170
     0
171
     0
290
     0
174
     0
 93
        1
 44
50.0
173
     0
291
     1
 45
0.0
  0
VISUALSTYLE
  5
3A
102
{ACAD_REACTORS
330
2A
102
}
102
{ACAD_XDICTIONARY
360
BA
102
}
330
2A
100
AcDbVisualStyle
  2
ColorChange
 70
    16
 71
     2
 72
     2
 73
     3
 90
        0
 40
0.6
 41
30.0
 62
     5
 63
     8
421
  8421504
 74
     1
 91
        4
 64
     7
 65
   257
 75
     1
175
     1
 42
1.0
 92
        8
 66
     8
424
  8421504
 43
1.0
 76
     1
 77
     6
 78
     2
 67
     7
 79
     5
170
     0
171
     0
290
     0
174
     0
 93
        1
 44
0.0
173
     0
291
     1
 45
0.0
  0
VISUALSTYLE
  5
34
102
{ACAD_REACTORS
330
2A
102
}
102
{ACAD_XDICTIONARY
360
AE
102
}
330
2A
100
AcDbVisualStyle
  2
Conceptual
 70
     9
 71
     3
 72
     2
 73
     0
 90
        0
 40
0.6
 41
30.0
 62
     5
 63
     7
421
 16777215
 74
     2
 91
        2
 64
     7
 65
   257
 75
     1
175
     1
 42
179.0
 92
        8
 66
     7
 43
1.0
 76
     1
 77
     6
 78
     2
 67
     7
 79
     3
170
     0
171
     0
290
     0
174
     0
 93
        1
 44
0.0
173
     0
291
     0
 45
0.0
  0
VISUALSTYLE
  5
35
102
{ACAD_REACTORS
330
2A
102
}
102
{ACAD_XDICTIONARY
360
B0
102
}
330
2A
100
AcDbVisualStyle
  2
Dim
 70
    11
 71
     2
 72
     2
 73
     0
 90
        0
 40
0.6
 41
30.0
 62
     5
 63
     7
421
 16777215
 74
     1
 91
        4
 64
     7
 65
   257
 75
     1
175
     1
 42
1.0
 92
        8
 66
     7
 43
1.0
 76
     1
 77
     6
 78
     2
 67
     7
 79
     5
170
     0
171
     0
290
     0
174
     0
 93
        1
 44
-50.0
173
     0
291
     1
 45
0.0
  0
VISUALSTYLE
  5
3D
102
{ACAD_REACTORS
330
2A
102
}
102
{ACAD_XDICTIONARY
360
C0
102
}
330
2A
100
AcDbVisualStyle
  2
EdgeColorOff
 70
    22
 71
     2
 72
     2
 73
     0
 90
        0
 40
0.6
 41
30.0
 62
     5
 63
     7
421
 16777215
 74
     1
 91
        4
 64
     7
 65
   257
 75
     1
175
     1
 42
1.0
 92
        8
 66
     7
 43
1.0
 76
     1
 77
     6
 78
     2
 67
     7
 79
     5
170
     0
171
     0
290
     0
174
     0
 93
        1
 44
0.0
173
     0
291
     1
 45
0.0
  0
VISUALSTYLE
  5
39
102
{ACAD_REACTORS
330
2A
102
}
102
{ACAD_XDICTIONARY
360
B8
102
}
330
2A
100
AcDbVisualStyle
  2
Facepattern
 70
    15
 71
     2
 72
     2
 73
     0
 90
        0
 40
0.6
 41
30.0
 62
     5
 63
     7
421
 16777215
 74
     1
 91
        4
 64
     7
 65
   257
 75
     1
175
     1
 42
1.0
 92
        8
 66
     7
 43
1.0
 76
     1
 77
     6
 78
     2
 67
     7
 79
     5
170
     0
171
     0
290
     0
174
     0
 93
        1
 44
0.0
173
     0
291
     1
 45
0.0
  0
VISUALSTYLE
  5
2B
102
{ACAD_REACTORS
330
2A
102
}
102
{ACAD_XDICTIONARY
360
9C
102
}
330
2A
100
AcDbVisualStyle
  2
Flat
 70
     0
 71
     2
 72
     1
 73
     1
 90
        2
 40
0.6
 41
30.0
 62
     5
 63
     7
421
 16777215
 74
     0
 91
        0
 64
     7
 65
   257
 75
     1
175
     1
 42
1.0
 92
        8
 66
     7
 43
1.0
 76
     1
 77
     6
 78
     2
 67
     7
 79
     5
170
     0
171
     0
290
     0
174
     0
 93
       13
 44
0.0
173
     0
291
     1
 45
0.0
  0
VISUALSTYLE
  5
2C
102
{ACAD_REACTORS
330
2A
102
}
102
{ACAD_XDICTIONARY
360
9E
102
}
330
2A
100
AcDbVisualStyle
  2
FlatWithEdges
 70
     1
 71
     2
 72
     1
 73
     1
 90
        2
 40
0.6
 41
30.0
 62
     5
 63
     7
421
 16777215
 74
     1
 91
        0
 64
     7
 65
   257
 75
     1
175
     1
 42
1.0
 92
        0
 66
   257
 43
1.0
 76
     1
 77
     6
 78
     2
 67
     7
 79
     5
170
     0
171
     0
290
     0
174
     0
 93
       13
 44
0.0
173
     0
291
     1
 45
0.0
  0
VISUALSTYLE
  5
2D
102
{ACAD_REACTORS
330
2A
102
}
102
{ACAD_XDICTIONARY
360
A0
102
}
330
2A
100
AcDbVisualStyle
  2
Gouraud
 70
     2
 71
     2
 72
     2
 73
     1
 90
        2
 40
0.6
 41
30.0
 62
     5
 63
     7
421
 16777215
 74
     0
 91
        0
 64
     7
 65
   257
 75
     1
175
     1
 42
1.0
 92
        0
 66
     7
 43
1.0
 76
     1
 77
     6
 78
     2
 67
     7
 79
     5
170
     0
171
     0
290
     0
174
     0
 93
       13
 44
0.0
173
     0
291
     1
 45
0.0
  0
VISUALSTYLE
  5
2E
102
{ACAD_REACTORS
330
2A
102
}
102
{ACAD_XDICTIONARY
360
A2
102
}
330
2A
100
AcDbVisualStyle
  2
GouraudWithEdges
 70
     3
 71
     2
 72
     2
 73
     1
 90
        2
 40
0.6
 41
30.0
 62
     5
 63
     7
421
 16777215
 74
     1
 91
        0
 64
     7
 65
   257
 75
     1
175
     1
 42
1.0
 92
        0
 66
   257
 43
1.0
 76
     1
 77
     6
 78
     2
 67
     7
 79
     5
170
     0
171
     0
290
     0
174
     0
 93
       13
 44
0.0
173
     0
291
     1
 45
0.0
  0
VISUALSTYLE
  5
31
102
{ACAD_REACTORS
330
2A
102
}
102
{ACAD_XDICTIONARY
360
A8
102
}
330
2A
100
AcDbVisualStyle
  2
Hidden
 70
     6
 71
     1
 72
     2
 73
     2
 90
        0
 40
0.6
 41
30.0
 62
     5
 63
     7
421
 16777215
 74
     2
 91
        2
 64
     7
 65
   257
 75
     2
175
     1
 42
40.0
 92
        0
 66
   257
 43
1.0
 76
     1
 77
     6
 78
     2
 67
     7
 79
     3
170
     0
171
     0
290
     0
174
     0
 93
        1
 44
0.0
173
     0
291
     0
 45
0.0
  0
VISUALSTYLE
  5
3B
102
{ACAD_REACTORS
330
2A
102
}
102
{ACAD_XDICTIONARY
360
BC
102
}
330
2A
100
AcDbVisualStyle
  2
JitterOff
 70
    20
 71
     2
 72
     2
 73
     0
 90
        0
 40
0.6
 41
30.0
 62
     5
 63
     7
421
 16777215
 74
     1
 91
        4
 64
     7
 65
   257
 75
     1
175
     1
 42
1.0
 92
       10
 66
     7
 43
1.0
 76
     1
 77
     6
 78
     2
 67
     7
 79
     5
170
     0
171
     0
290
     0
174
     0
 93
        1
 44
0.0
173
     0
291
     1
 45
0.0
  0
VISUALSTYLE
  5
38
102
{ACAD_REACTORS
330
2A
102
}
102
{ACAD_XDICTIONARY
360
B6
102
}
330
2A
100
AcDbVisualStyle
  2
Linepattern
 70
    14
 71
     2
 72
     2
 73
     0
 90
        0
 40
0.6
 41
30.0
 62
     5
 63
     7
421
 16777215
 74
     1
 91
        4
 64
     7
 65
   257
 75
     7
175
     7
 42
1.0
 92
        8
 66
     7
 43
1.0
 76
     1
 77
     6
 78
     2
 67
     7
 79
     5
170
     0
171
     0
290
     0
174
     0
 93
        1
 44
0.0
173
     0
291
     1
 45
0.0
  0
VISUALSTYLE
  5
3C
102
{ACAD_REACTORS
330
2A
102
}
102
{ACAD_XDICTIONARY
360
BE
102
}
330
2A
100
AcDbVisualStyle
  2
OverhangOff
 70
    21
 71
     2
 72
     2
 73
     0
 90
        0
 40
0.6
 41
30.0
 62
     5
 63
     7
421
 16777215
 74
     1
 91
        4
 64
     7
 65
   257
 75
     1
175
     1
 42
1.0
 92
        9
 66
     7
 43
1.0
 76
     1
 77
     6
 78
     2
 67
     7
 79
     5
170
     0
171
     0
290
     0
174
     0
 93
        1
 44
0.0
173
     0
291
     1
 45
0.0
  0
VISUALSTYLE
  5
33
102
{ACAD_REACTORS
330
2A
102
}
102
{ACAD_XDICTIONARY
360
AC
102
}
330
2A
100
AcDbVisualStyle
  2
Realistic
 70
     8
 71
     2
 72
     3
 73
     0
 90
        2
 40
0.6
 41
30.0
 62
     5
 63
     7
421
 16777215
 74
     0
 91
        0
 64
     7
 65
   257
 75
     1
175
     1
 42
1.0
 92
        8
 66
   257
 43
1.0
 76
     1
 77
     6
 78
     2
 67
     7
 79
     3
170
     0
171
     0
290
     0
174
     0
 93
       13
 44
0.0
173
     0
291
     0
 45
0.0
  0
VISUALSTYLE
  5
42
102
{ACAD_REACTORS
330
2A
102
}
102
{ACAD_XDICTIONARY
360
CA
102
}
330
2A
100
AcDbVisualStyle
  2
Shaded
 70
    27
 71
     2
 72
     2
 73
     1
 90
        2
 40
0.6
 41
30.0
 62
     5
 63
     7
421
 16777215
 74
     0
 91
        4
 64
     7
 65
   257
 75
     1
175
     1
 42
1.0
 92
        8
 66
   257
 43
1.0
 76
     1
 77
     6
 78
     2
 67
     8
425
  7895160
 79
     3
170
     0
171
     0
290
     0
174
     0
 93
        5
 44
0.0
173
     0
291
     0
 45
0.0
  0
VISUALSTYLE
  5
41
102
{ACAD_REACTORS
330
2A
102
}
102
{ACAD_XDICTIONARY
360
C8
102
}
330
2A
100
AcDbVisualStyle
  2
Shaded with edges
 70
    26
 71
     2
 72
     2
 73
     1
 90
        2
 40
0.6
 41
30.0
 62
     5
 63
     7
421
 16777215
 74
     1
 91
       10
 64
     7
 65
   257
 75
     2
175
     1
 42
1.0
 92
        8
 66
   257
 43
1.0
 76
     1
 77
     6
 78
     2
 67
     7
 79
     3
170
     0
171
     0
290
     0
174
     0
 93
        5
 44
0.0
173
     0
291
     0
 45
0.0
  0
VISUALSTYLE
  5
3E
102
{ACAD_REACTORS
330
2A
102
}
102
{ACAD_XDICTIONARY
360
C2
102
}
330
2A
100
AcDbVisualStyle
  2
Shades of Gray
 70
    23
 71
     2
 72
     2
 73
     3
 90
        0
 40
0.6
 41
30.0
 62
     5
 63
     7
421
 16777215
 74
     2
 91
        2
 64
     7
 65
     7
 75
     1
175
     1
 42
40.0
 92
        8
 66
     7
 43
1.0
 76
     1
 77
     6
 78
     2
 67
     7
 79
     3
170
     0
171
     0
290
     0
174
     0
 93
        1
 44
0.0
173
     0
291
     0
 45
0.0
  0
VISUALSTYLE
  5
3F
102
{ACAD_REACTORS
330
2A
102
}
102
{ACAD_XDICTIONARY
360
C4
102
}
330
2A
100
AcDbVisualStyle
  2
Sketchy
 70
    24
 71
     1
 72
     2
 73
     2
 90
        0
 40
0.6
 41
30.0
 62
     5
 63
     7
421
 16777215
 74
     2
 91
        2
 64
     7
 65
     7
 75
     1
175
     1
 42
40.0
 92
       11
 66
     7
 43
1.0
 76
     1
 77
     6
 78
     2
 67
     7
 79
     6
170
     0
171
     0
290
     0
174
     0
 93
        1
 44
0.0
173
     0
291
     0
 45
0.0
  0
VISUALSTYLE
  5
37
102
{ACAD_REACTORS
330
2A
102
}
102
{ACAD_XDICTIONARY
360
B4
102
}
330
2A
100
AcDbVisualStyle
  2
Thicken
 70
    13
 71
     2
 72
     2
 73
     0
 90
        0
 40
0.6
 41
30.0
 62
     5
 63
     7
421
 16777215
 74
     1
 91
        4
 64
     7
 65
   257
 75
     1
175
     1
 42
1.0
 92
       12
 66
     7
 43
1.0
 76
     1
 77
     6
 78
     2
 67
     7
 79
     5
170
     0
171
     0
290
     0
174
     0
 93
        1
 44
0.0
173
     0
291
     1
 45
0.0
  0
VISUALSTYLE
  5
30
102
{ACAD_REACTORS
330
2A
102
}
102
{ACAD_XDICTIONARY
360
A6
102
}
330
2A
100
AcDbVisualStyle
  2
Wireframe
 70
     5
 71
     0
 72
     2
 73
     0
 90
        0
 40
0.6
 41
30.0
 62
     5
 63
     7
421
 16777215
 74
     1
 91
        4
 64
     7
 65
   257
 75
     1
175
     1
 42
1.0
 92
        0
 66
   257
 43
1.0
 76
     1
 77
     6
 78
     2
 67
     7
 79
     3
170
     0
171
     0
290
     0
174
     0
 93
        1
 44
0.0
173
     0
291
     0
 45
0.0
  0
VISUALSTYLE
  5
40
102
{ACAD_REACTORS
330
2A
102
}
102
{ACAD_XDICTIONARY
360
C6
102
}
330
2A
100
AcDbVisualStyle
  2
X-Ray
 70
    25
 71
     2
 72
     2
 73
     1
 90
        1
 40
0.5
 41
30.0
 62
     5
 63
     7
421
 16777215
 74
     1
 91
        0
 64
     7
 65
   257
 75
     1
175
     1
 42
1.0
 92
        8
 66
     7
 43
1.0
 76
     1
 77
     6
 78
     2
 67
     7
 79
     3
170
     0
171
     0
290
     0
174
     0
 93
       13
 44
0.0
173
     0
291
     0
 45
0.0
  0
DICTIONARYVAR
  5
9A
102
{ACAD_REACTORS
330
99
102
}
330
99
100
DictionaryVariables
280
     0
  1
1:1
  0
DICTIONARYVAR
  5
D3
102
{ACAD_REACTORS
330
99
102
}
330
99
100
DictionaryVariables
280
     0
  1
Standard
  0
DICTIONARYVAR
  5
D2
102
{ACAD_REACTORS
330
99
102
}
330
99
100
DictionaryVariables
280
     0
  1
Standard
  0
DICTIONARYVAR
  5
9B
102
{ACAD_REACTORS
330
99
102
}
330
99
100
DictionaryVariables
280
     0
  1
2
  0
DICTIONARY
  5
CF
330
6C
100
AcDbDictionary
280
     1
281
     1
  3
ACAD_XREC_ROUNDTRIP
360
D0
  0
DICTIONARY
  5
CC
330
6A
100
AcDbDictionary
280
     1
281
     1
  3
ACAD_ROUNDTRIP_2008_TABLESTYLE_CELLSTYLEMAP
360
CD
  0
DICTIONARY
  5
A4
330
2F
100
AcDbDictionary
280
     1
281
     1
  3
ACAD_XREC_ROUNDTRIP
360
A5
  0
DICTIONARY
  5
AA
330
32
100
AcDbDictionary
280
     1
281
     1
  3
ACAD_XREC_ROUNDTRIP
360
AB
  0
DICTIONARY
  5
B2
330
36
100
AcDbDictionary
280
     1
281
     1
  3
ACAD_XREC_ROUNDTRIP
360
B3
  0
DICTIONARY
  5
BA
330
3A
100
AcDbDictionary
280
     1
281
     1
  3
ACAD_XREC_ROUNDTRIP
360
BB
  0
DICTIONARY
  5
AE
330
34
100
AcDbDictionary
280
     1
281
     1
  3
ACAD_XREC_ROUNDTRIP
360
AF
  0
DICTIONARY
  5
B0
330
35
100
AcDbDictionary
280
     1
281
     1
  3
ACAD_XREC_ROUNDTRIP
360
B1
  0
DICTIONARY
  5
C0
330
3D
100
AcDbDictionary
280
     1
281
     1
  3
ACAD_XREC_ROUNDTRIP
360
C1
  0
DICTIONARY
  5
B8
330
39
100
AcDbDictionary
280
     1
281
     1
  3
ACAD_XREC_ROUNDTRIP
360
B9
  0
DICTIONARY
  5
9C
330
2B
100
AcDbDictionary
280
     1
281
     1
  3
ACAD_XREC_ROUNDTRIP
360
9D
  0
DICTIONARY
  5
9E
330
2C
100
AcDbDictionary
280
     1
281
     1
  3
ACAD_XREC_ROUNDTRIP
360
9F
  0
DICTIONARY
  5
A0
330
2D
100
AcDbDictionary
280
     1
281
     1
  3
ACAD_XREC_ROUNDTRIP
360
A1
  0
DICTIONARY
  5
A2
330
2E
100
AcDbDictionary
280
     1
281
     1
  3
ACAD_XREC_ROUNDTRIP
360
A3
  0
DICTIONARY
  5
A8
330
31
100
AcDbDictionary
280
     1
281
     1
  3
ACAD_XREC_ROUNDTRIP
360
A9
  0
DICTIONARY
  5
BC
330
3B
100
AcDbDictionary
280
     1
281
     1
  3
ACAD_XREC_ROUNDTRIP
360
BD
  0
DICTIONARY
  5
B6
330
38
100
AcDbDictionary
280
     1
281
     1
  3
ACAD_XREC_ROUNDTRIP
360
B7
  0
DICTIONARY
  5
BE
330
3C
100
AcDbDictionary
280
     1
281
     1
  3
ACAD_XREC_ROUNDTRIP
360
BF
  0
DICTIONARY
  5
AC
330
33
100
AcDbDictionary
280
     1
281
     1
  3
ACAD_XREC_ROUNDTRIP
360
AD
  0
DICTIONARY
  5
CA
330
42
100
AcDbDictionary
280
     1
281
     1
  3
ACAD_XREC_ROUNDTRIP
360
CB
  0
DICTIONARY
  5
C8
330
41
100
AcDbDictionary
280
     1
281
     1
  3
ACAD_XREC_ROUNDTRIP
360
C9
  0
DICTIONARY
  5
C2
330
3E
100
AcDbDictionary
280
     1
281
     1
  3
ACAD_XREC_ROUNDTRIP
360
C3
  0
DICTIONARY
  5
C4
330
3F
100
AcDbDictionary
280
     1
281
     1
  3
ACAD_XREC_ROUNDTRIP
360
C5
  0
DICTIONARY
  5
B4
330
37
100
AcDbDictionary
280
     1
281
     1
  3
ACAD_XREC_ROUNDTRIP
360
B5
  0
DICTIONARY
  5
A6
330
30
100
AcDbDictionary
280
     1
281
     1
  3
ACAD_XREC_ROUNDTRIP
360
A7
  0
DICTIONARY
  5
C6
330
40
100
AcDbDictionary
280
     1
281
     1
  3
ACAD_XREC_ROUNDTRIP
360
C7
  0
XRECORD
  5
D0
102
{ACAD_REACTORS
330
CF
102
}
330
CF
100
AcDbXrecord
280
     1
102
ACAD_ROUNDTRIP_2010_MLEADER_STYLE
  0
CELLSTYLEMAP
  5
CD
102
{ACAD_REACTORS
330
CC
102
}
330
CC
100
AcDbCellStyleMap
 90
        3
300
CELLSTYLE
  1
TABLEFORMAT_BEGIN
 90
        5
170
     1
 91
        0
 92
    32768
 62
   257
 93
        1
300
CONTENTFORMAT
  1
CONTENTFORMAT_BEGIN
 90
        0
 91
        0
 92
        4
 93
        0
300

 40
0.0
140
1.0
 94
        5
 62
     0
340
11
144
0.25
309
CONTENTFORMAT_END
171
     1
301
MARGIN
  1
CELLMARGIN_BEGIN
 40
0.06
 40
0.06
 40
0.06
 40
0.06
 40
0.06
 40
0.06
309
CELLMARGIN_END
 94
        6
 95
        1
302
GRIDFORMAT
  1
GRIDFORMAT_BEGIN
 90
        0
 91
        1
 62
     0
 92
       -2
340
14
 93
        0
 40
0.045
309
GRIDFORMAT_END
 95
        2
302
GRIDFORMAT
  1
GRIDFORMAT_BEGIN
 90
        0
 91
        1
 62
     0
 92
       -2
340
14
 93
        0
 40
0.045
309
GRIDFORMAT_END
 95
        4
302
GRIDFORMAT
  1
GRIDFORMAT_BEGIN
 90
        0
 91
        1
 62
     0
 92
       -2
340
14
 93
        0
 40
0.045
309
GRIDFORMAT_END
 95
        8
302
GRIDFORMAT
  1
GRIDFORMAT_BEGIN
 90
        0
 91
        1
 62
     0
 92
       -2
340
14
 93
        0
 40
0.045
309
GRIDFORMAT_END
 95
       16
302
GRIDFORMAT
  1
GRIDFORMAT_BEGIN
 90
        0
 91
        1
 62
     0
 92
       -2
340
14
 93
        0
 40
0.045
309
GRIDFORMAT_END
 95
       32
302
GRIDFORMAT
  1
GRIDFORMAT_BEGIN
 90
        0
 91
        1
 62
     0
 92
       -2
340
14
 93
        0
 40
0.045
309
GRIDFORMAT_END
309
TABLEFORMAT_END
  1
CELLSTYLE_BEGIN
 90
        1
 91
        1
300
_TITLE
309
CELLSTYLE_END
300
CELLSTYLE
  1
TABLEFORMAT_BEGIN
 90
        5
170
     1
 91
        0
 92
        0
 62
   257
 93
        1
300
CONTENTFORMAT
  1
CONTENTFORMAT_BEGIN
 90
        0
 91
        0
 92
        4
 93
        0
300

 40
0.0
140
1.0
 94
        5
 62
     0
340
11
144
0.18
309
CONTENTFORMAT_END
171
     1
301
MARGIN
  1
CELLMARGIN_BEGIN
 40
0.06
 40
0.06
 40
0.06
 40
0.06
 40
0.06
 40
0.06
309
CELLMARGIN_END
 94
        6
 95
        1
302
GRIDFORMAT
  1
GRIDFORMAT_BEGIN
 90
        0
 91
        1
 62
     0
 92
       -2
340
14
 93
        0
 40
0.045
309
GRIDFORMAT_END
 95
        2
302
GRIDFORMAT
  1
GRIDFORMAT_BEGIN
 90
        0
 91
        1
 62
     0
 92
       -2
340
14
 93
        0
 40
0.045
309
GRIDFORMAT_END
 95
        4
302
GRIDFORMAT
  1
GRIDFORMAT_BEGIN
 90
        0
 91
        1
 62
     0
 92
       -2
340
14
 93
        0
 40
0.045
309
GRIDFORMAT_END
 95
        8
302
GRIDFORMAT
  1
GRIDFORMAT_BEGIN
 90
        0
 91
        1
 62
     0
 92
       -2
340
14
 93
        0
 40
0.045
309
GRIDFORMAT_END
 95
       16
302
GRIDFORMAT
  1
GRIDFORMAT_BEGIN
 90
        0
 91
        1
 62
     0
 92
       -2
340
14
 93
        0
 40
0.045
309
GRIDFORMAT_END
 95
       32
302
GRIDFORMAT
  1
GRIDFORMAT_BEGIN
 90
        0
 91
        1
 62
     0
 92
       -2
340
14
 93
        0
 40
0.045
309
GRIDFORMAT_END
309
TABLEFORMAT_END
  1
CELLSTYLE_BEGIN
 90
        2
 91
        1
300
_HEADER
309
CELLSTYLE_END
300
CELLSTYLE
  1
TABLEFORMAT_BEGIN
 90
        5
170
     1
 91
        0
 92
        0
 62
   257
 93
        1
300
CONTENTFORMAT
  1
CONTENTFORMAT_BEGIN
 90
        0
 91
        0
 92
        4
 93
        0
300

 40
0.0
140
1.0
 94
        2
 62
     0
340
11
144
0.18
309
CONTENTFORMAT_END
171
     1
301
MARGIN
  1
CELLMARGIN_BEGIN
 40
0.06
 40
0.06
 40
0.06
 40
0.06
 40
0.06
 40
0.06
309
CELLMARGIN_END
 94
        6
 95
        1
302
GRIDFORMAT
  1
GRIDFORMAT_BEGIN
 90
        0
 91
        1
 62
     0
 92
       -2
340
14
 93
        0
 40
0.045
309
GRIDFORMAT_END
 95
        2
302
GRIDFORMAT
  1
GRIDFORMAT_BEGIN
 90
        0
 91
        1
 62
     0
 92
       -2
340
14
 93
        0
 40
0.045
309
GRIDFORMAT_END
 95
        4
302
GRIDFORMAT
  1
GRIDFORMAT_BEGIN
 90
        0
 91
        1
 62
     0
 92
       -2
340
14
 93
        0
 40
0.045
309
GRIDFORMAT_END
 95
        8
302
GRIDFORMAT
  1
GRIDFORMAT_BEGIN
 90
        0
 91
        1
 62
     0
 92
       -2
340
14
 93
        0
 40
0.045
309
GRIDFORMAT_END
 95
       16
302
GRIDFORMAT
  1
GRIDFORMAT_BEGIN
 90
        0
 91
        1
 62
     0
 92
       -2
340
14
 93
        0
 40
0.045
309
GRIDFORMAT_END
 95
       32
302
GRIDFORMAT
  1
GRIDFORMAT_BEGIN
 90
        0
 91
        1
 62
     0
 92
       -2
340
14
 93
        0
 40
0.045
309
GRIDFORMAT_END
309
TABLEFORMAT_END
  1
CELLSTYLE_BEGIN
 90
        3
 91
        2
300
_DATA
309
CELLSTYLE_END
  0
XRECORD
  5
A5
102
{ACAD_REACTORS
330
A4
102
}
330
A4
100
AcDbXrecord
280
     1
102
RTVSPropertyOp0
 70
     1
102
RTVSPropertyOp1
 70
     1
102
RTVSPropertyOp2
 70
     1
102
RTVSPropertyOp3
 70
     1
102
RTVSPropertyOp4
 70
     1
102
RTVSPropertyOp5
 70
     1
102
RTVSPropertyOp6
 70
     1
102
RTVSPropertyOp7
 70
     1
102
RTVSPropertyOp8
 70
     1
102
RTVSPropertyOp9
 70
     1
102
RTVSPropertyOp10
 70
     1
102
RTVSPropertyOp11
 70
     1
102
RTVSPropertyOp12
 70
     1
102
RTVSPropertyOp13
 70
     1
102
RTVSPropertyOp14
 70
     1
102
RTVSPropertyOp15
 70
     1
102
RTVSPropertyOp16
 70
     1
102
RTVSPropertyOp17
 70
     1
102
RTVSPropertyOp18
 70
     1
102
RTVSPropertyOp19
 70
     1
102
RTVSPropertyOp20
 70
     1
102
RTVSPropertyOp21
 70
     1
102
RTVSPropertyOp22
 70
     1
102
RTVSPropertyOp23
 70
     1
102
RTVSPropertyOp24
 70
     1
102
RTVSPropertyOp25
 70
     1
102
RTVSPropertyOp26
 70
     1
102
RTVSPropertyOp27
 70
     1
102
RTVSPropertyOp28
 70
     1
102
RTVSPropertyOp29
 70
     1
102
RTVSPropertyOp30
 70
     1
102
RTVSPropertyOp31
 70
     1
102
RTVSPropertyOp32
 70
     1
102
RTVSPropertyOp33
 70
     1
102
RTVSPropertyOp34
 70
     1
102
RTVSPropertyOp35
 70
     1
102
RTVSPropertyOp36
 70
     1
102
RTVSPropertyOp37
 70
     1
102
RTVSPropertyOp38
 70
     1
102
RTVSPropertyOp39
 70
     1
102
RTVSPropertyOp40
 70
     1
102
RTVSPropertyOp41
 70
     1
102
RTVSPropertyOp42
 70
     1
102
RTVSPropertyOp43
 70
     1
102
RTVSPropertyOp44
 70
     1
102
RTVSPropertyOp45
 70
     1
102
RTVSPropertyOp46
 70
     1
102
RTVSPropertyOp47
 70
     1
102
RTVSPropertyOp48
 70
     1
102
RTVSPropertyOp49
 70
     1
102
RTVSPropertyOp50
 70
     1
102
RTVSPropertyOp51
 70
     0
102
RTVSPropertyOp52
 70
     0
102
RTVSPropertyOp53
 70
     1
102
RTVSPropertyOp54
 70
     1
102
RTVSPropertyOp55
 70
     1
102
RTVSPropertyOp56
 70
     1
102
RTVSPropertyOp57
 70
     1
102
RTVSPost2010Prop28
280
     1
102
RTVSPost2010PropOp28
 70
     1
102
RTVSPost2010Prop29
280
     1
102
RTVSPost2010PropOp29
 70
     1
102
RTVSPost2010Prop30
280
     0
102
RTVSPost2010PropOp30
 70
     1
102
RTVSPost2010Prop31
280
     0
102
RTVSPost2010PropOp31
 70
     1
102
RTVSPost2010Prop32
280
     0
102
RTVSPost2010PropOp32
 70
     1
102
RTVSPost2010Prop33
280
     0
102
RTVSPost2010PropOp33
 70
     1
102
RTVSPost2010Prop34
280
     0
102
RTVSPost2010PropOp34
 70
     1
102
RTVSPost2010Prop35
280
     0
102
RTVSPost2010PropOp35
 70
     1
102
RTVSPost2010Prop36
280
     0
102
RTVSPost2010PropOp36
 70
     1
102
RTVSPost2010Prop37
 90
       50
102
RTVSPost2010PropOp37
 70
     1
102
RTVSPost2010Prop38
140
0.0
102
RTVSPost2010PropOp38
 70
     1
102
RTVSPost2010Prop39
140
1.0
102
RTVSPost2010PropOp39
 70
     1
102
RTVSPost2010Prop40
 90
        0
102
RTVSPost2010PropOp40
 70
     1
102
RTVSPost2010Prop41ColorIndex
 90
       18
102
RTVSPost2010Prop41ColorRGB
 90
        0
102
RTVSPost2010PropOp41
 70
     1
102
RTVSPost2010Prop42
 90
       50
102
RTVSPost2010PropOp42
 70
     1
102
RTVSPost2010Prop43
 90
        3
102
RTVSPost2010PropOp43
 70
     1
102
RTVSPost2010Prop44ColorIndex
 90
        5
102
RTVSPost2010Prop44ColorRGB
 90
      255
102
RTVSPost2010PropOp44
 70
     1
102
RTVSPost2010Prop45
280
     0
102
RTVSPost2010PropOp45
 70
     1
102
RTVSPost2010Prop46
 90
       50
102
RTVSPost2010PropOp46
 70
     1
102
RTVSPost2010Prop47
 90
       50
102
RTVSPost2010PropOp47
 70
     1
102
RTVSPost2010Prop48
 90
       50
102
RTVSPost2010PropOp48
 70
     1
102
RTVSPost2010Prop49
280
     0
102
RTVSPost2010PropOp49
 70
     1
102
RTVSPost2010Prop50
 90
       50
102
RTVSPost2010PropOp50
 70
     1
102
RTVSPost2010Prop51ColorIndex
 90
      256
102
RTVSPost2010Prop51ColorRGB
 90
-16777216
102
RTVSPost2010PropOp51
 70
     0
102
RTVSPost2010Prop52
140
1.0
102
RTVSPost2010PropOp52
 70
     0
102
RTVSPost2010Prop53
 90
        2
102
RTVSPost2010PropOp53
 70
     1
102
RTVSPost2010Prop54
  1
strokes_ogs.tif
102
RTVSPost2010PropOp54
 70
     1
102
RTVSPost2010Prop55
280
     0
102
RTVSPost2010PropOp55
 70
     1
102
RTVSPost2010Prop56
140
1.0
102
RTVSPost2010PropOp56
 70
     1
102
RTVSPost2010Prop57
140
1.0
102
RTVSPost2010PropOp57
 70
     1
  0
XRECORD
  5
AB
102
{ACAD_REACTORS
330
AA
102
}
330
AA
100
AcDbXrecord
280
     1
102
RTVSPropertyOp0
 70
     1
102
RTVSPropertyOp1
 70
     1
102
RTVSPropertyOp2
 70
     1
102
RTVSPropertyOp3
 70
     1
102
RTVSPropertyOp4
 70
     1
102
RTVSPropertyOp5
 70
     1
102
RTVSPropertyOp6
 70
     1
102
RTVSPropertyOp7
 70
     1
102
RTVSPropertyOp8
 70
     1
102
RTVSPropertyOp9
 70
     1
102
RTVSPropertyOp10
 70
     1
102
RTVSPropertyOp11
 70
     1
102
RTVSPropertyOp12
 70
     1
102
RTVSPropertyOp13
 70
     1
102
RTVSPropertyOp14
 70
     1
102
RTVSPropertyOp15
 70
     1
102
RTVSPropertyOp16
 70
     1
102
RTVSPropertyOp17
 70
     1
102
RTVSPropertyOp18
 70
     1
102
RTVSPropertyOp19
 70
     1
102
RTVSPropertyOp20
 70
     1
102
RTVSPropertyOp21
 70
     1
102
RTVSPropertyOp22
 70
     1
102
RTVSPropertyOp23
 70
     1
102
RTVSPropertyOp24
 70
     1
102
RTVSPropertyOp25
 70
     1
102
RTVSPropertyOp26
 70
     1
102
RTVSPropertyOp27
 70
     1
102
RTVSPropertyOp28
 70
     1
102
RTVSPropertyOp29
 70
     1
102
RTVSPropertyOp30
 70
     1
102
RTVSPropertyOp31
 70
     1
102
RTVSPropertyOp32
 70
     1
102
RTVSPropertyOp33
 70
     1
102
RTVSPropertyOp34
 70
     1
102
RTVSPropertyOp35
 70
     1
102
RTVSPropertyOp36
 70
     1
102
RTVSPropertyOp37
 70
     1
102
RTVSPropertyOp38
 70
     1
102
RTVSPropertyOp39
 70
     1
102
RTVSPropertyOp40
 70
     1
102
RTVSPropertyOp41
 70
     1
102
RTVSPropertyOp42
 70
     1
102
RTVSPropertyOp43
 70
     1
102
RTVSPropertyOp44
 70
     1
102
RTVSPropertyOp45
 70
     1
102
RTVSPropertyOp46
 70
     1
102
RTVSPropertyOp47
 70
     1
102
RTVSPropertyOp48
 70
     1
102
RTVSPropertyOp49
 70
     1
102
RTVSPropertyOp50
 70
     1
102
RTVSPropertyOp51
 70
     0
102
RTVSPropertyOp52
 70
     0
102
RTVSPropertyOp53
 70
     1
102
RTVSPropertyOp54
 70
     1
102
RTVSPropertyOp55
 70
     1
102
RTVSPropertyOp56
 70
     1
102
RTVSPropertyOp57
 70
     1
102
RTVSPost2010Prop28
280
     0
102
RTVSPost2010PropOp28
 70
     1
102
RTVSPost2010Prop29
280
     1
102
RTVSPost2010PropOp29
 70
     1
102
RTVSPost2010Prop30
280
     1
102
RTVSPost2010PropOp30
 70
     1
102
RTVSPost2010Prop31
280
     0
102
RTVSPost2010PropOp31
 70
     1
102
RTVSPost2010Prop32
280
     0
102
RTVSPost2010PropOp32
 70
     1
102
RTVSPost2010Prop33
280
     0
102
RTVSPost2010PropOp33
 70
     1
102
RTVSPost2010Prop34
280
     0
102
RTVSPost2010PropOp34
 70
     1
102
RTVSPost2010Prop35
280
     0
102
RTVSPost2010PropOp35
 70
     1
102
RTVSPost2010Prop36
280
     0
102
RTVSPost2010PropOp36
 70
     1
102
RTVSPost2010Prop37
 90
       50
102
RTVSPost2010PropOp37
 70
     1
102
RTVSPost2010Prop38
140
0.0
102
RTVSPost2010PropOp38
 70
     1
102
RTVSPost2010Prop39
140
1.0
102
RTVSPost2010PropOp39
 70
     1
102
RTVSPost2010Prop40
 90
        0
102
RTVSPost2010PropOp40
 70
     1
102
RTVSPost2010Prop41ColorIndex
 90
       18
102
RTVSPost2010Prop41ColorRGB
 90
        0
102
RTVSPost2010PropOp41
 70
     1
102
RTVSPost2010Prop42
 90
       50
102
RTVSPost2010PropOp42
 70
     1
102
RTVSPost2010Prop43
 90
        3
102
RTVSPost2010PropOp43
 70
     1
102
RTVSPost2010Prop44ColorIndex
 90
        5
102
RTVSPost2010Prop44ColorRGB
 90
      255
102
RTVSPost2010PropOp44
 70
     1
102
RTVSPost2010Prop45
280
     0
102
RTVSPost2010PropOp45
 70
     1
102
RTVSPost2010Prop46
 90
       50
102
RTVSPost2010PropOp46
 70
     1
102
RTVSPost2010Prop47
 90
       50
102
RTVSPost2010PropOp47
 70
     1
102
RTVSPost2010Prop48
 90
       50
102
RTVSPost2010PropOp48
 70
     1
102
RTVSPost2010Prop49
280
     0
102
RTVSPost2010PropOp49
 70
     1
102
RTVSPost2010Prop50
 90
       50
102
RTVSPost2010PropOp50
 70
     1
102
RTVSPost2010Prop51ColorIndex
 90
      256
102
RTVSPost2010Prop51ColorRGB
 90
-16777216
102
RTVSPost2010PropOp51
 70
     0
102
RTVSPost2010Prop52
140
1.0
102
RTVSPost2010PropOp52
 70
     0
102
RTVSPost2010Prop53
 90
        2
102
RTVSPost2010PropOp53
 70
     1
102
RTVSPost2010Prop54
  1
strokes_ogs.tif
102
RTVSPost2010PropOp54
 70
     1
102
RTVSPost2010Prop55
280
     0
102
RTVSPost2010PropOp55
 70
     1
102
RTVSPost2010Prop56
140
1.0
102
RTVSPost2010PropOp56
 70
     1
102
RTVSPost2010Prop57
140
1.0
102
RTVSPost2010PropOp57
 70
     1
  0
XRECORD
  5
B3
102
{ACAD_REACTORS
330
B2
102
}
330
B2
100
AcDbXrecord
280
     1
102
RTVSPropertyOp0
 70
     1
102
RTVSPropertyOp1
 70
     1
102
RTVSPropertyOp2
 70
     1
102
RTVSPropertyOp3
 70
     1
102
RTVSPropertyOp4
 70
     1
102
RTVSPropertyOp5
 70
     1
102
RTVSPropertyOp6
 70
     1
102
RTVSPropertyOp7
 70
     1
102
RTVSPropertyOp8
 70
     1
102
RTVSPropertyOp9
 70
     1
102
RTVSPropertyOp10
 70
     1
102
RTVSPropertyOp11
 70
     1
102
RTVSPropertyOp12
 70
     1
102
RTVSPropertyOp13
 70
     1
102
RTVSPropertyOp14
 70
     1
102
RTVSPropertyOp15
 70
     1
102
RTVSPropertyOp16
 70
     1
102
RTVSPropertyOp17
 70
     1
102
RTVSPropertyOp18
 70
     1
102
RTVSPropertyOp19
 70
     1
102
RTVSPropertyOp20
 70
     1
102
RTVSPropertyOp21
 70
     1
102
RTVSPropertyOp22
 70
     1
102
RTVSPropertyOp23
 70
     1
102
RTVSPropertyOp24
 70
     1
102
RTVSPropertyOp25
 70
     1
102
RTVSPropertyOp26
 70
     1
102
RTVSPropertyOp27
 70
     1
102
RTVSPropertyOp28
 70
     1
102
RTVSPropertyOp29
 70
     1
102
RTVSPropertyOp30
 70
     1
102
RTVSPropertyOp31
 70
     1
102
RTVSPropertyOp32
 70
     1
102
RTVSPropertyOp33
 70
     1
102
RTVSPropertyOp34
 70
     1
102
RTVSPropertyOp35
 70
     1
102
RTVSPropertyOp36
 70
     1
102
RTVSPropertyOp37
 70
     1
102
RTVSPropertyOp38
 70
     1
102
RTVSPropertyOp39
 70
     1
102
RTVSPropertyOp40
 70
     1
102
RTVSPropertyOp41
 70
     1
102
RTVSPropertyOp42
 70
     1
102
RTVSPropertyOp43
 70
     1
102
RTVSPropertyOp44
 70
     1
102
RTVSPropertyOp45
 70
     1
102
RTVSPropertyOp46
 70
     1
102
RTVSPropertyOp47
 70
     1
102
RTVSPropertyOp48
 70
     1
102
RTVSPropertyOp49
 70
     1
102
RTVSPropertyOp50
 70
     1
102
RTVSPropertyOp51
 70
     0
102
RTVSPropertyOp52
 70
     0
102
RTVSPropertyOp53
 70
     1
102
RTVSPropertyOp54
 70
     1
102
RTVSPropertyOp55
 70
     1
102
RTVSPropertyOp56
 70
     1
102
RTVSPropertyOp57
 70
     1
102
RTVSPost2010Prop28
280
     0
102
RTVSPost2010PropOp28
 70
     1
102
RTVSPost2010Prop29
280
     1
102
RTVSPost2010PropOp29
 70
     1
102
RTVSPost2010Prop30
280
     1
102
RTVSPost2010PropOp30
 70
     1
102
RTVSPost2010Prop31
280
     0
102
RTVSPost2010PropOp31
 70
     1
102
RTVSPost2010Prop32
280
     0
102
RTVSPost2010PropOp32
 70
     1
102
RTVSPost2010Prop33
280
     0
102
RTVSPost2010PropOp33
 70
     1
102
RTVSPost2010Prop34
280
     0
102
RTVSPost2010PropOp34
 70
     1
102
RTVSPost2010Prop35
280
     0
102
RTVSPost2010PropOp35
 70
     1
102
RTVSPost2010Prop36
280
     0
102
RTVSPost2010PropOp36
 70
     1
102
RTVSPost2010Prop37
 90
       50
102
RTVSPost2010PropOp37
 70
     1
102
RTVSPost2010Prop38
140
0.0
102
RTVSPost2010PropOp38
 70
     1
102
RTVSPost2010Prop39
140
1.0
102
RTVSPost2010PropOp39
 70
     1
102
RTVSPost2010Prop40
 90
        0
102
RTVSPost2010PropOp40
 70
     1
102
RTVSPost2010Prop41ColorIndex
 90
       18
102
RTVSPost2010Prop41ColorRGB
 90
        0
102
RTVSPost2010PropOp41
 70
     1
102
RTVSPost2010Prop42
 90
       50
102
RTVSPost2010PropOp42
 70
     1
102
RTVSPost2010Prop43
 90
        3
102
RTVSPost2010PropOp43
 70
     1
102
RTVSPost2010Prop44ColorIndex
 90
        5
102
RTVSPost2010Prop44ColorRGB
 90
      255
102
RTVSPost2010PropOp44
 70
     1
102
RTVSPost2010Prop45
280
     0
102
RTVSPost2010PropOp45
 70
     1
102
RTVSPost2010Prop46
 90
       50
102
RTVSPost2010PropOp46
 70
     1
102
RTVSPost2010Prop47
 90
       50
102
RTVSPost2010PropOp47
 70
     1
102
RTVSPost2010Prop48
 90
       50
102
RTVSPost2010PropOp48
 70
     1
102
RTVSPost2010Prop49
280
     0
102
RTVSPost2010PropOp49
 70
     1
102
RTVSPost2010Prop50
 90
       50
102
RTVSPost2010PropOp50
 70
     1
102
RTVSPost2010Prop51ColorIndex
 90
      256
102
RTVSPost2010Prop51ColorRGB
 90
-16777216
102
RTVSPost2010PropOp51
 70
     0
102
RTVSPost2010Prop52
140
1.0
102
RTVSPost2010PropOp52
 70
     0
102
RTVSPost2010Prop53
 90
        2
102
RTVSPost2010PropOp53
 70
     1
102
RTVSPost2010Prop54
  1
strokes_ogs.tif
102
RTVSPost2010PropOp54
 70
     1
102
RTVSPost2010Prop55
280
     0
102
RTVSPost2010PropOp55
 70
     1
102
RTVSPost2010Prop56
140
1.0
102
RTVSPost2010PropOp56
 70
     1
102
RTVSPost2010Prop57
140
1.0
102
RTVSPost2010PropOp57
 70
     1
  0
XRECORD
  5
BB
102
{ACAD_REACTORS
330
BA
102
}
330
BA
100
AcDbXrecord
280
     1
102
RTVSPropertyOp0
 70
     1
102
RTVSPropertyOp1
 70
     1
102
RTVSPropertyOp2
 70
     1
102
RTVSPropertyOp3
 70
     1
102
RTVSPropertyOp4
 70
     1
102
RTVSPropertyOp5
 70
     1
102
RTVSPropertyOp6
 70
     1
102
RTVSPropertyOp7
 70
     1
102
RTVSPropertyOp8
 70
     1
102
RTVSPropertyOp9
 70
     1
102
RTVSPropertyOp10
 70
     1
102
RTVSPropertyOp11
 70
     1
102
RTVSPropertyOp12
 70
     1
102
RTVSPropertyOp13
 70
     1
102
RTVSPropertyOp14
 70
     1
102
RTVSPropertyOp15
 70
     1
102
RTVSPropertyOp16
 70
     1
102
RTVSPropertyOp17
 70
     1
102
RTVSPropertyOp18
 70
     1
102
RTVSPropertyOp19
 70
     1
102
RTVSPropertyOp20
 70
     1
102
RTVSPropertyOp21
 70
     1
102
RTVSPropertyOp22
 70
     1
102
RTVSPropertyOp23
 70
     1
102
RTVSPropertyOp24
 70
     1
102
RTVSPropertyOp25
 70
     1
102
RTVSPropertyOp26
 70
     1
102
RTVSPropertyOp27
 70
     1
102
RTVSPropertyOp28
 70
     1
102
RTVSPropertyOp29
 70
     1
102
RTVSPropertyOp30
 70
     1
102
RTVSPropertyOp31
 70
     1
102
RTVSPropertyOp32
 70
     1
102
RTVSPropertyOp33
 70
     1
102
RTVSPropertyOp34
 70
     1
102
RTVSPropertyOp35
 70
     1
102
RTVSPropertyOp36
 70
     1
102
RTVSPropertyOp37
 70
     1
102
RTVSPropertyOp38
 70
     1
102
RTVSPropertyOp39
 70
     1
102
RTVSPropertyOp40
 70
     1
102
RTVSPropertyOp41
 70
     1
102
RTVSPropertyOp42
 70
     1
102
RTVSPropertyOp43
 70
     1
102
RTVSPropertyOp44
 70
     1
102
RTVSPropertyOp45
 70
     1
102
RTVSPropertyOp46
 70
     1
102
RTVSPropertyOp47
 70
     1
102
RTVSPropertyOp48
 70
     1
102
RTVSPropertyOp49
 70
     1
102
RTVSPropertyOp50
 70
     1
102
RTVSPropertyOp51
 70
     0
102
RTVSPropertyOp52
 70
     0
102
RTVSPropertyOp53
 70
     1
102
RTVSPropertyOp54
 70
     1
102
RTVSPropertyOp55
 70
     1
102
RTVSPropertyOp56
 70
     1
102
RTVSPropertyOp57
 70
     1
102
RTVSPost2010Prop28
280
     0
102
RTVSPost2010PropOp28
 70
     1
102
RTVSPost2010Prop29
280
     1
102
RTVSPost2010PropOp29
 70
     1
102
RTVSPost2010Prop30
280
     1
102
RTVSPost2010PropOp30
 70
     1
102
RTVSPost2010Prop31
280
     0
102
RTVSPost2010PropOp31
 70
     1
102
RTVSPost2010Prop32
280
     0
102
RTVSPost2010PropOp32
 70
     1
102
RTVSPost2010Prop33
280
     0
102
RTVSPost2010PropOp33
 70
     1
102
RTVSPost2010Prop34
280
     0
102
RTVSPost2010PropOp34
 70
     1
102
RTVSPost2010Prop35
280
     0
102
RTVSPost2010PropOp35
 70
     1
102
RTVSPost2010Prop36
280
     0
102
RTVSPost2010PropOp36
 70
     1
102
RTVSPost2010Prop37
 90
       50
102
RTVSPost2010PropOp37
 70
     1
102
RTVSPost2010Prop38
140
0.0
102
RTVSPost2010PropOp38
 70
     1
102
RTVSPost2010Prop39
140
1.0
102
RTVSPost2010PropOp39
 70
     1
102
RTVSPost2010Prop40
 90
        0
102
RTVSPost2010PropOp40
 70
     1
102
RTVSPost2010Prop41ColorIndex
 90
       18
102
RTVSPost2010Prop41ColorRGB
 90
        0
102
RTVSPost2010PropOp41
 70
     1
102
RTVSPost2010Prop42
 90
       50
102
RTVSPost2010PropOp42
 70
     1
102
RTVSPost2010Prop43
 90
        3
102
RTVSPost2010PropOp43
 70
     1
102
RTVSPost2010Prop44ColorIndex
 90
        5
102
RTVSPost2010Prop44ColorRGB
 90
      255
102
RTVSPost2010PropOp44
 70
     1
102
RTVSPost2010Prop45
280
     0
102
RTVSPost2010PropOp45
 70
     1
102
RTVSPost2010Prop46
 90
       50
102
RTVSPost2010PropOp46
 70
     1
102
RTVSPost2010Prop47
 90
       50
102
RTVSPost2010PropOp47
 70
     1
102
RTVSPost2010Prop48
 90
       50
102
RTVSPost2010PropOp48
 70
     1
102
RTVSPost2010Prop49
280
     0
102
RTVSPost2010PropOp49
 70
     1
102
RTVSPost2010Prop50
 90
       50
102
RTVSPost2010PropOp50
 70
     1
102
RTVSPost2010Prop51ColorIndex
 90
      256
102
RTVSPost2010Prop51ColorRGB
 90
-16777216
102
RTVSPost2010PropOp51
 70
     0
102
RTVSPost2010Prop52
140
1.0
102
RTVSPost2010PropOp52
 70
     0
102
RTVSPost2010Prop53
 90
        2
102
RTVSPost2010PropOp53
 70
     1
102
RTVSPost2010Prop54
  1
strokes_ogs.tif
102
RTVSPost2010PropOp54
 70
     1
102
RTVSPost2010Prop55
280
     0
102
RTVSPost2010PropOp55
 70
     1
102
RTVSPost2010Prop56
140
1.0
102
RTVSPost2010PropOp56
 70
     1
102
RTVSPost2010Prop57
140
1.0
102
RTVSPost2010PropOp57
 70
     1
  0
XRECORD
  5
AF
102
{ACAD_REACTORS
330
AE
102
}
330
AE
100
AcDbXrecord
280
     1
102
RTVSPropertyOp0
 70
     1
102
RTVSPropertyOp1
 70
     1
102
RTVSPropertyOp2
 70
     1
102
RTVSPropertyOp3
 70
     1
102
RTVSPropertyOp4
 70
     1
102
RTVSPropertyOp5
 70
     1
102
RTVSPropertyOp6
 70
     1
102
RTVSPropertyOp7
 70
     1
102
RTVSPropertyOp8
 70
     1
102
RTVSPropertyOp9
 70
     1
102
RTVSPropertyOp10
 70
     1
102
RTVSPropertyOp11
 70
     1
102
RTVSPropertyOp12
 70
     1
102
RTVSPropertyOp13
 70
     1
102
RTVSPropertyOp14
 70
     1
102
RTVSPropertyOp15
 70
     1
102
RTVSPropertyOp16
 70
     1
102
RTVSPropertyOp17
 70
     1
102
RTVSPropertyOp18
 70
     1
102
RTVSPropertyOp19
 70
     1
102
RTVSPropertyOp20
 70
     1
102
RTVSPropertyOp21
 70
     1
102
RTVSPropertyOp22
 70
     1
102
RTVSPropertyOp23
 70
     1
102
RTVSPropertyOp24
 70
     1
102
RTVSPropertyOp25
 70
     1
102
RTVSPropertyOp26
 70
     1
102
RTVSPropertyOp27
 70
     1
102
RTVSPropertyOp28
 70
     1
102
RTVSPropertyOp29
 70
     1
102
RTVSPropertyOp30
 70
     1
102
RTVSPropertyOp31
 70
     1
102
RTVSPropertyOp32
 70
     1
102
RTVSPropertyOp33
 70
     1
102
RTVSPropertyOp34
 70
     1
102
RTVSPropertyOp35
 70
     1
102
RTVSPropertyOp36
 70
     1
102
RTVSPropertyOp37
 70
     1
102
RTVSPropertyOp38
 70
     1
102
RTVSPropertyOp39
 70
     1
102
RTVSPropertyOp40
 70
     1
102
RTVSPropertyOp41
 70
     1
102
RTVSPropertyOp42
 70
     1
102
RTVSPropertyOp43
 70
     1
102
RTVSPropertyOp44
 70
     1
102
RTVSPropertyOp45
 70
     1
102
RTVSPropertyOp46
 70
     1
102
RTVSPropertyOp47
 70
     1
102
RTVSPropertyOp48
 70
     1
102
RTVSPropertyOp49
 70
     1
102
RTVSPropertyOp50
 70
     1
102
RTVSPropertyOp51
 70
     0
102
RTVSPropertyOp52
 70
     0
102
RTVSPropertyOp53
 70
     1
102
RTVSPropertyOp54
 70
     1
102
RTVSPropertyOp55
 70
     1
102
RTVSPropertyOp56
 70
     1
102
RTVSPropertyOp57
 70
     1
102
RTVSPost2010Prop28
280
     0
102
RTVSPost2010PropOp28
 70
     1
102
RTVSPost2010Prop29
280
     1
102
RTVSPost2010PropOp29
 70
     1
102
RTVSPost2010Prop30
280
     1
102
RTVSPost2010PropOp30
 70
     1
102
RTVSPost2010Prop31
280
     0
102
RTVSPost2010PropOp31
 70
     1
102
RTVSPost2010Prop32
280
     0
102
RTVSPost2010PropOp32
 70
     1
102
RTVSPost2010Prop33
280
     0
102
RTVSPost2010PropOp33
 70
     1
102
RTVSPost2010Prop34
280
     0
102
RTVSPost2010PropOp34
 70
     1
102
RTVSPost2010Prop35
280
     0
102
RTVSPost2010PropOp35
 70
     1
102
RTVSPost2010Prop36
280
     0
102
RTVSPost2010PropOp36
 70
     1
102
RTVSPost2010Prop37
 90
       50
102
RTVSPost2010PropOp37
 70
     1
102
RTVSPost2010Prop38
140
0.0
102
RTVSPost2010PropOp38
 70
     1
102
RTVSPost2010Prop39
140
1.0
102
RTVSPost2010PropOp39
 70
     1
102
RTVSPost2010Prop40
 90
        0
102
RTVSPost2010PropOp40
 70
     1
102
RTVSPost2010Prop41ColorIndex
 90
       18
102
RTVSPost2010Prop41ColorRGB
 90
        0
102
RTVSPost2010PropOp41
 70
     1
102
RTVSPost2010Prop42
 90
       50
102
RTVSPost2010PropOp42
 70
     1
102
RTVSPost2010Prop43
 90
        3
102
RTVSPost2010PropOp43
 70
     1
102
RTVSPost2010Prop44ColorIndex
 90
        5
102
RTVSPost2010Prop44ColorRGB
 90
      255
102
RTVSPost2010PropOp44
 70
     1
102
RTVSPost2010Prop45
280
     0
102
RTVSPost2010PropOp45
 70
     1
102
RTVSPost2010Prop46
 90
       50
102
RTVSPost2010PropOp46
 70
     1
102
RTVSPost2010Prop47
 90
       50
102
RTVSPost2010PropOp47
 70
     1
102
RTVSPost2010Prop48
 90
       50
102
RTVSPost2010PropOp48
 70
     1
102
RTVSPost2010Prop49
280
     0
102
RTVSPost2010PropOp49
 70
     1
102
RTVSPost2010Prop50
 90
       50
102
RTVSPost2010PropOp50
 70
     1
102
RTVSPost2010Prop51ColorIndex
 90
      256
102
RTVSPost2010Prop51ColorRGB
 90
-16777216
102
RTVSPost2010PropOp51
 70
     0
102
RTVSPost2010Prop52
140
1.0
102
RTVSPost2010PropOp52
 70
     0
102
RTVSPost2010Prop53
 90
        2
102
RTVSPost2010PropOp53
 70
     1
102
RTVSPost2010Prop54
  1
strokes_ogs.tif
102
RTVSPost2010PropOp54
 70
     1
102
RTVSPost2010Prop55
280
     0
102
RTVSPost2010PropOp55
 70
     1
102
RTVSPost2010Prop56
140
1.0
102
RTVSPost2010PropOp56
 70
     1
102
RTVSPost2010Prop57
140
1.0
102
RTVSPost2010PropOp57
 70
     1
  0
XRECORD
  5
B1
102
{ACAD_REACTORS
330
B0
102
}
330
B0
100
AcDbXrecord
280
     1
102
RTVSPropertyOp0
 70
     1
102
RTVSPropertyOp1
 70
     1
102
RTVSPropertyOp2
 70
     1
102
RTVSPropertyOp3
 70
     1
102
RTVSPropertyOp4
 70
     1
102
RTVSPropertyOp5
 70
     1
102
RTVSPropertyOp6
 70
     1
102
RTVSPropertyOp7
 70
     1
102
RTVSPropertyOp8
 70
     1
102
RTVSPropertyOp9
 70
     1
102
RTVSPropertyOp10
 70
     1
102
RTVSPropertyOp11
 70
     1
102
RTVSPropertyOp12
 70
     1
102
RTVSPropertyOp13
 70
     1
102
RTVSPropertyOp14
 70
     1
102
RTVSPropertyOp15
 70
     1
102
RTVSPropertyOp16
 70
     1
102
RTVSPropertyOp17
 70
     1
102
RTVSPropertyOp18
 70
     1
102
RTVSPropertyOp19
 70
     1
102
RTVSPropertyOp20
 70
     1
102
RTVSPropertyOp21
 70
     1
102
RTVSPropertyOp22
 70
     1
102
RTVSPropertyOp23
 70
     1
102
RTVSPropertyOp24
 70
     1
102
RTVSPropertyOp25
 70
     1
102
RTVSPropertyOp26
 70
     1
102
RTVSPropertyOp27
 70
     1
102
RTVSPropertyOp28
 70
     1
102
RTVSPropertyOp29
 70
     1
102
RTVSPropertyOp30
 70
     1
102
RTVSPropertyOp31
 70
     1
102
RTVSPropertyOp32
 70
     1
102
RTVSPropertyOp33
 70
     1
102
RTVSPropertyOp34
 70
     1
102
RTVSPropertyOp35
 70
     1
102
RTVSPropertyOp36
 70
     1
102
RTVSPropertyOp37
 70
     1
102
RTVSPropertyOp38
 70
     1
102
RTVSPropertyOp39
 70
     1
102
RTVSPropertyOp40
 70
     1
102
RTVSPropertyOp41
 70
     1
102
RTVSPropertyOp42
 70
     1
102
RTVSPropertyOp43
 70
     1
102
RTVSPropertyOp44
 70
     1
102
RTVSPropertyOp45
 70
     1
102
RTVSPropertyOp46
 70
     1
102
RTVSPropertyOp47
 70
     1
102
RTVSPropertyOp48
 70
     1
102
RTVSPropertyOp49
 70
     1
102
RTVSPropertyOp50
 70
     1
102
RTVSPropertyOp51
 70
     0
102
RTVSPropertyOp52
 70
     0
102
RTVSPropertyOp53
 70
     1
102
RTVSPropertyOp54
 70
     1
102
RTVSPropertyOp55
 70
     1
102
RTVSPropertyOp56
 70
     1
102
RTVSPropertyOp57
 70
     1
102
RTVSPost2010Prop28
280
     0
102
RTVSPost2010PropOp28
 70
     1
102
RTVSPost2010Prop29
280
     1
102
RTVSPost2010PropOp29
 70
     1
102
RTVSPost2010Prop30
280
     1
102
RTVSPost2010PropOp30
 70
     1
102
RTVSPost2010Prop31
280
     0
102
RTVSPost2010PropOp31
 70
     1
102
RTVSPost2010Prop32
280
     0
102
RTVSPost2010PropOp32
 70
     1
102
RTVSPost2010Prop33
280
     0
102
RTVSPost2010PropOp33
 70
     1
102
RTVSPost2010Prop34
280
     0
102
RTVSPost2010PropOp34
 70
     1
102
RTVSPost2010Prop35
280
     0
102
RTVSPost2010PropOp35
 70
     1
102
RTVSPost2010Prop36
280
     0
102
RTVSPost2010PropOp36
 70
     1
102
RTVSPost2010Prop37
 90
       50
102
RTVSPost2010PropOp37
 70
     1
102
RTVSPost2010Prop38
140
0.0
102
RTVSPost2010PropOp38
 70
     1
102
RTVSPost2010Prop39
140
1.0
102
RTVSPost2010PropOp39
 70
     1
102
RTVSPost2010Prop40
 90
        0
102
RTVSPost2010PropOp40
 70
     1
102
RTVSPost2010Prop41ColorIndex
 90
       18
102
RTVSPost2010Prop41ColorRGB
 90
        0
102
RTVSPost2010PropOp41
 70
     1
102
RTVSPost2010Prop42
 90
       50
102
RTVSPost2010PropOp42
 70
     1
102
RTVSPost2010Prop43
 90
        3
102
RTVSPost2010PropOp43
 70
     1
102
RTVSPost2010Prop44ColorIndex
 90
        5
102
RTVSPost2010Prop44ColorRGB
 90
      255
102
RTVSPost2010PropOp44
 70
     1
102
RTVSPost2010Prop45
280
     0
102
RTVSPost2010PropOp45
 70
     1
102
RTVSPost2010Prop46
 90
       50
102
RTVSPost2010PropOp46
 70
     1
102
RTVSPost2010Prop47
 90
       50
102
RTVSPost2010PropOp47
 70
     1
102
RTVSPost2010Prop48
 90
       50
102
RTVSPost2010PropOp48
 70
     1
102
RTVSPost2010Prop49
280
     0
102
RTVSPost2010PropOp49
 70
     1
102
RTVSPost2010Prop50
 90
       50
102
RTVSPost2010PropOp50
 70
     1
102
RTVSPost2010Prop51ColorIndex
 90
      256
102
RTVSPost2010Prop51ColorRGB
 90
-16777216
102
RTVSPost2010PropOp51
 70
     0
102
RTVSPost2010Prop52
140
1.0
102
RTVSPost2010PropOp52
 70
     0
102
RTVSPost2010Prop53
 90
        2
102
RTVSPost2010PropOp53
 70
     1
102
RTVSPost2010Prop54
  1
strokes_ogs.tif
102
RTVSPost2010PropOp54
 70
     1
102
RTVSPost2010Prop55
280
     0
102
RTVSPost2010PropOp55
 70
     1
102
RTVSPost2010Prop56
140
1.0
102
RTVSPost2010PropOp56
 70
     1
102
RTVSPost2010Prop57
140
1.0
102
RTVSPost2010PropOp57
 70
     1
  0
XRECORD
  5
C1
102
{ACAD_REACTORS
330
C0
102
}
330
C0
100
AcDbXrecord
280
     1
102
RTVSPropertyOp0
 70
     0
102
RTVSPropertyOp1
 70
     0
102
RTVSPropertyOp2
 70
     0
102
RTVSPropertyOp3
 70
     0
102
RTVSPropertyOp4
 70
     0
102
RTVSPropertyOp5
 70
     0
102
RTVSPropertyOp6
 70
     0
102
RTVSPropertyOp7
 70
     0
102
RTVSPropertyOp8
 70
     0
102
RTVSPropertyOp9
 70
     0
102
RTVSPropertyOp10
 70
     0
102
RTVSPropertyOp11
 70
     0
102
RTVSPropertyOp12
 70
     0
102
RTVSPropertyOp13
 70
     0
102
RTVSPropertyOp14
 70
     2
102
RTVSPropertyOp15
 70
     0
102
RTVSPropertyOp16
 70
     0
102
RTVSPropertyOp17
 70
     0
102
RTVSPropertyOp18
 70
     0
102
RTVSPropertyOp19
 70
     0
102
RTVSPropertyOp20
 70
     0
102
RTVSPropertyOp21
 70
     0
102
RTVSPropertyOp22
 70
     0
102
RTVSPropertyOp23
 70
     0
102
RTVSPropertyOp24
 70
     0
102
RTVSPropertyOp25
 70
     0
102
RTVSPropertyOp26
 70
     0
102
RTVSPropertyOp27
 70
     0
102
RTVSPropertyOp28
 70
     0
102
RTVSPropertyOp29
 70
     0
102
RTVSPropertyOp30
 70
     0
102
RTVSPropertyOp31
 70
     0
102
RTVSPropertyOp32
 70
     0
102
RTVSPropertyOp33
 70
     0
102
RTVSPropertyOp34
 70
     0
102
RTVSPropertyOp35
 70
     0
102
RTVSPropertyOp36
 70
     0
102
RTVSPropertyOp37
 70
     0
102
RTVSPropertyOp38
 70
     0
102
RTVSPropertyOp39
 70
     0
102
RTVSPropertyOp40
 70
     0
102
RTVSPropertyOp41
 70
     0
102
RTVSPropertyOp42
 70
     0
102
RTVSPropertyOp43
 70
     0
102
RTVSPropertyOp44
 70
     0
102
RTVSPropertyOp45
 70
     0
102
RTVSPropertyOp46
 70
     0
102
RTVSPropertyOp47
 70
     0
102
RTVSPropertyOp48
 70
     0
102
RTVSPropertyOp49
 70
     0
102
RTVSPropertyOp50
 70
     0
102
RTVSPropertyOp51
 70
     0
102
RTVSPropertyOp52
 70
     0
102
RTVSPropertyOp53
 70
     0
102
RTVSPropertyOp54
 70
     0
102
RTVSPropertyOp55
 70
     0
102
RTVSPropertyOp56
 70
     0
102
RTVSPropertyOp57
 70
     0
102
RTVSPost2010Prop28
280
     0
102
RTVSPost2010PropOp28
 70
     0
102
RTVSPost2010Prop29
280
     1
102
RTVSPost2010PropOp29
 70
     0
102
RTVSPost2010Prop30
280
     1
102
RTVSPost2010PropOp30
 70
     0
102
RTVSPost2010Prop31
280
     0
102
RTVSPost2010PropOp31
 70
     0
102
RTVSPost2010Prop32
280
     0
102
RTVSPost2010PropOp32
 70
     0
102
RTVSPost2010Prop33
280
     0
102
RTVSPost2010PropOp33
 70
     0
102
RTVSPost2010Prop34
280
     0
102
RTVSPost2010PropOp34
 70
     0
102
RTVSPost2010Prop35
280
     0
102
RTVSPost2010PropOp35
 70
     0
102
RTVSPost2010Prop36
280
     0
102
RTVSPost2010PropOp36
 70
     0
102
RTVSPost2010Prop37
 90
       50
102
RTVSPost2010PropOp37
 70
     0
102
RTVSPost2010Prop38
140
0.0
102
RTVSPost2010PropOp38
 70
     0
102
RTVSPost2010Prop39
140
1.0
102
RTVSPost2010PropOp39
 70
     0
102
RTVSPost2010Prop40
 90
        0
102
RTVSPost2010PropOp40
 70
     0
102
RTVSPost2010Prop41ColorIndex
 90
       18
102
RTVSPost2010Prop41ColorRGB
 90
        0
102
RTVSPost2010PropOp41
 70
     0
102
RTVSPost2010Prop42
 90
       50
102
RTVSPost2010PropOp42
 70
     0
102
RTVSPost2010Prop43
 90
        3
102
RTVSPost2010PropOp43
 70
     0
102
RTVSPost2010Prop44ColorIndex
 90
        5
102
RTVSPost2010Prop44ColorRGB
 90
      255
102
RTVSPost2010PropOp44
 70
     0
102
RTVSPost2010Prop45
280
     0
102
RTVSPost2010PropOp45
 70
     0
102
RTVSPost2010Prop46
 90
       50
102
RTVSPost2010PropOp46
 70
     0
102
RTVSPost2010Prop47
 90
       50
102
RTVSPost2010PropOp47
 70
     0
102
RTVSPost2010Prop48
 90
       50
102
RTVSPost2010PropOp48
 70
     0
102
RTVSPost2010Prop49
280
     0
102
RTVSPost2010PropOp49
 70
     0
102
RTVSPost2010Prop50
 90
       50
102
RTVSPost2010PropOp50
 70
     0
102
RTVSPost2010Prop51ColorIndex
 90
      256
102
RTVSPost2010Prop51ColorRGB
 90
-16777216
102
RTVSPost2010PropOp51
 70
     0
102
RTVSPost2010Prop52
140
1.0
102
RTVSPost2010PropOp52
 70
     0
102
RTVSPost2010Prop53
 90
        2
102
RTVSPost2010PropOp53
 70
     0
102
RTVSPost2010Prop54
  1
strokes_ogs.tif
102
RTVSPost2010PropOp54
 70
     0
102
RTVSPost2010Prop55
280
     0
102
RTVSPost2010PropOp55
 70
     0
102
RTVSPost2010Prop56
140
1.0
102
RTVSPost2010PropOp56
 70
     0
102
RTVSPost2010Prop57
140
1.0
102
RTVSPost2010PropOp57
 70
     0
  0
XRECORD
  5
B9
102
{ACAD_REACTORS
330
B8
102
}
330
B8
100
AcDbXrecord
280
     1
102
RTVSPropertyOp0
 70
     1
102
RTVSPropertyOp1
 70
     1
102
RTVSPropertyOp2
 70
     1
102
RTVSPropertyOp3
 70
     1
102
RTVSPropertyOp4
 70
     1
102
RTVSPropertyOp5
 70
     1
102
RTVSPropertyOp6
 70
     1
102
RTVSPropertyOp7
 70
     1
102
RTVSPropertyOp8
 70
     1
102
RTVSPropertyOp9
 70
     1
102
RTVSPropertyOp10
 70
     1
102
RTVSPropertyOp11
 70
     1
102
RTVSPropertyOp12
 70
     1
102
RTVSPropertyOp13
 70
     1
102
RTVSPropertyOp14
 70
     1
102
RTVSPropertyOp15
 70
     1
102
RTVSPropertyOp16
 70
     1
102
RTVSPropertyOp17
 70
     1
102
RTVSPropertyOp18
 70
     1
102
RTVSPropertyOp19
 70
     1
102
RTVSPropertyOp20
 70
     1
102
RTVSPropertyOp21
 70
     1
102
RTVSPropertyOp22
 70
     1
102
RTVSPropertyOp23
 70
     1
102
RTVSPropertyOp24
 70
     1
102
RTVSPropertyOp25
 70
     1
102
RTVSPropertyOp26
 70
     1
102
RTVSPropertyOp27
 70
     1
102
RTVSPropertyOp28
 70
     1
102
RTVSPropertyOp29
 70
     1
102
RTVSPropertyOp30
 70
     1
102
RTVSPropertyOp31
 70
     1
102
RTVSPropertyOp32
 70
     1
102
RTVSPropertyOp33
 70
     1
102
RTVSPropertyOp34
 70
     1
102
RTVSPropertyOp35
 70
     1
102
RTVSPropertyOp36
 70
     1
102
RTVSPropertyOp37
 70
     1
102
RTVSPropertyOp38
 70
     1
102
RTVSPropertyOp39
 70
     1
102
RTVSPropertyOp40
 70
     1
102
RTVSPropertyOp41
 70
     1
102
RTVSPropertyOp42
 70
     1
102
RTVSPropertyOp43
 70
     1
102
RTVSPropertyOp44
 70
     1
102
RTVSPropertyOp45
 70
     1
102
RTVSPropertyOp46
 70
     1
102
RTVSPropertyOp47
 70
     1
102
RTVSPropertyOp48
 70
     1
102
RTVSPropertyOp49
 70
     1
102
RTVSPropertyOp50
 70
     1
102
RTVSPropertyOp51
 70
     0
102
RTVSPropertyOp52
 70
     0
102
RTVSPropertyOp53
 70
     1
102
RTVSPropertyOp54
 70
     1
102
RTVSPropertyOp55
 70
     1
102
RTVSPropertyOp56
 70
     1
102
RTVSPropertyOp57
 70
     1
102
RTVSPost2010Prop28
280
     0
102
RTVSPost2010PropOp28
 70
     1
102
RTVSPost2010Prop29
280
     1
102
RTVSPost2010PropOp29
 70
     1
102
RTVSPost2010Prop30
280
     1
102
RTVSPost2010PropOp30
 70
     1
102
RTVSPost2010Prop31
280
     0
102
RTVSPost2010PropOp31
 70
     1
102
RTVSPost2010Prop32
280
     0
102
RTVSPost2010PropOp32
 70
     1
102
RTVSPost2010Prop33
280
     0
102
RTVSPost2010PropOp33
 70
     1
102
RTVSPost2010Prop34
280
     0
102
RTVSPost2010PropOp34
 70
     1
102
RTVSPost2010Prop35
280
     0
102
RTVSPost2010PropOp35
 70
     1
102
RTVSPost2010Prop36
280
     0
102
RTVSPost2010PropOp36
 70
     1
102
RTVSPost2010Prop37
 90
       50
102
RTVSPost2010PropOp37
 70
     1
102
RTVSPost2010Prop38
140
0.0
102
RTVSPost2010PropOp38
 70
     1
102
RTVSPost2010Prop39
140
1.0
102
RTVSPost2010PropOp39
 70
     1
102
RTVSPost2010Prop40
 90
        0
102
RTVSPost2010PropOp40
 70
     1
102
RTVSPost2010Prop41ColorIndex
 90
       18
102
RTVSPost2010Prop41ColorRGB
 90
        0
102
RTVSPost2010PropOp41
 70
     1
102
RTVSPost2010Prop42
 90
       50
102
RTVSPost2010PropOp42
 70
     1
102
RTVSPost2010Prop43
 90
        3
102
RTVSPost2010PropOp43
 70
     1
102
RTVSPost2010Prop44ColorIndex
 90
        5
102
RTVSPost2010Prop44ColorRGB
 90
      255
102
RTVSPost2010PropOp44
 70
     1
102
RTVSPost2010Prop45
280
     0
102
RTVSPost2010PropOp45
 70
     1
102
RTVSPost2010Prop46
 90
       50
102
RTVSPost2010PropOp46
 70
     1
102
RTVSPost2010Prop47
 90
       50
102
RTVSPost2010PropOp47
 70
     1
102
RTVSPost2010Prop48
 90
       50
102
RTVSPost2010PropOp48
 70
     1
102
RTVSPost2010Prop49
280
     0
102
RTVSPost2010PropOp49
 70
     1
102
RTVSPost2010Prop50
 90
       50
102
RTVSPost2010PropOp50
 70
     1
102
RTVSPost2010Prop51ColorIndex
 90
      256
102
RTVSPost2010Prop51ColorRGB
 90
-16777216
102
RTVSPost2010PropOp51
 70
     0
102
RTVSPost2010Prop52
140
1.0
102
RTVSPost2010PropOp52
 70
     0
102
RTVSPost2010Prop53
 90
        2
102
RTVSPost2010PropOp53
 70
     1
102
RTVSPost2010Prop54
  1
strokes_ogs.tif
102
RTVSPost2010PropOp54
 70
     1
102
RTVSPost2010Prop55
280
     0
102
RTVSPost2010PropOp55
 70
     1
102
RTVSPost2010Prop56
140
1.0
102
RTVSPost2010PropOp56
 70
     1
102
RTVSPost2010Prop57
140
1.0
102
RTVSPost2010PropOp57
 70
     1
  0
XRECORD
  5
9D
102
{ACAD_REACTORS
330
9C
102
}
330
9C
100
AcDbXrecord
280
     1
102
RTVSPropertyOp0
 70
     1
102
RTVSPropertyOp1
 70
     1
102
RTVSPropertyOp2
 70
     1
102
RTVSPropertyOp3
 70
     1
102
RTVSPropertyOp4
 70
     1
102
RTVSPropertyOp5
 70
     1
102
RTVSPropertyOp6
 70
     1
102
RTVSPropertyOp7
 70
     1
102
RTVSPropertyOp8
 70
     1
102
RTVSPropertyOp9
 70
     1
102
RTVSPropertyOp10
 70
     1
102
RTVSPropertyOp11
 70
     1
102
RTVSPropertyOp12
 70
     1
102
RTVSPropertyOp13
 70
     1
102
RTVSPropertyOp14
 70
     1
102
RTVSPropertyOp15
 70
     1
102
RTVSPropertyOp16
 70
     1
102
RTVSPropertyOp17
 70
     1
102
RTVSPropertyOp18
 70
     1
102
RTVSPropertyOp19
 70
     1
102
RTVSPropertyOp20
 70
     1
102
RTVSPropertyOp21
 70
     1
102
RTVSPropertyOp22
 70
     1
102
RTVSPropertyOp23
 70
     1
102
RTVSPropertyOp24
 70
     1
102
RTVSPropertyOp25
 70
     1
102
RTVSPropertyOp26
 70
     1
102
RTVSPropertyOp27
 70
     1
102
RTVSPropertyOp28
 70
     1
102
RTVSPropertyOp29
 70
     1
102
RTVSPropertyOp30
 70
     1
102
RTVSPropertyOp31
 70
     1
102
RTVSPropertyOp32
 70
     1
102
RTVSPropertyOp33
 70
     1
102
RTVSPropertyOp34
 70
     1
102
RTVSPropertyOp35
 70
     1
102
RTVSPropertyOp36
 70
     1
102
RTVSPropertyOp37
 70
     1
102
RTVSPropertyOp38
 70
     1
102
RTVSPropertyOp39
 70
     1
102
RTVSPropertyOp40
 70
     1
102
RTVSPropertyOp41
 70
     1
102
RTVSPropertyOp42
 70
     1
102
RTVSPropertyOp43
 70
     1
102
RTVSPropertyOp44
 70
     1
102
RTVSPropertyOp45
 70
     1
102
RTVSPropertyOp46
 70
     1
102
RTVSPropertyOp47
 70
     1
102
RTVSPropertyOp48
 70
     1
102
RTVSPropertyOp49
 70
     1
102
RTVSPropertyOp50
 70
     1
102
RTVSPropertyOp51
 70
     0
102
RTVSPropertyOp52
 70
     0
102
RTVSPropertyOp53
 70
     1
102
RTVSPropertyOp54
 70
     1
102
RTVSPropertyOp55
 70
     1
102
RTVSPropertyOp56
 70
     1
102
RTVSPropertyOp57
 70
     1
102
RTVSPost2010Prop28
280
     0
102
RTVSPost2010PropOp28
 70
     1
102
RTVSPost2010Prop29
280
     1
102
RTVSPost2010PropOp29
 70
     1
102
RTVSPost2010Prop30
280
     1
102
RTVSPost2010PropOp30
 70
     1
102
RTVSPost2010Prop31
280
     0
102
RTVSPost2010PropOp31
 70
     1
102
RTVSPost2010Prop32
280
     0
102
RTVSPost2010PropOp32
 70
     1
102
RTVSPost2010Prop33
280
     0
102
RTVSPost2010PropOp33
 70
     1
102
RTVSPost2010Prop34
280
     0
102
RTVSPost2010PropOp34
 70
     1
102
RTVSPost2010Prop35
280
     0
102
RTVSPost2010PropOp35
 70
     1
102
RTVSPost2010Prop36
280
     0
102
RTVSPost2010PropOp36
 70
     1
102
RTVSPost2010Prop37
 90
       50
102
RTVSPost2010PropOp37
 70
     1
102
RTVSPost2010Prop38
140
0.0
102
RTVSPost2010PropOp38
 70
     1
102
RTVSPost2010Prop39
140
1.0
102
RTVSPost2010PropOp39
 70
     1
102
RTVSPost2010Prop40
 90
        0
102
RTVSPost2010PropOp40
 70
     1
102
RTVSPost2010Prop41ColorIndex
 90
       18
102
RTVSPost2010Prop41ColorRGB
 90
        0
102
RTVSPost2010PropOp41
 70
     1
102
RTVSPost2010Prop42
 90
       50
102
RTVSPost2010PropOp42
 70
     1
102
RTVSPost2010Prop43
 90
        3
102
RTVSPost2010PropOp43
 70
     1
102
RTVSPost2010Prop44ColorIndex
 90
        5
102
RTVSPost2010Prop44ColorRGB
 90
      255
102
RTVSPost2010PropOp44
 70
     1
102
RTVSPost2010Prop45
280
     0
102
RTVSPost2010PropOp45
 70
     1
102
RTVSPost2010Prop46
 90
       50
102
RTVSPost2010PropOp46
 70
     1
102
RTVSPost2010Prop47
 90
       50
102
RTVSPost2010PropOp47
 70
     1
102
RTVSPost2010Prop48
 90
       50
102
RTVSPost2010PropOp48
 70
     1
102
RTVSPost2010Prop49
280
     0
102
RTVSPost2010PropOp49
 70
     1
102
RTVSPost2010Prop50
 90
       50
102
RTVSPost2010PropOp50
 70
     1
102
RTVSPost2010Prop51ColorIndex
 90
      256
102
RTVSPost2010Prop51ColorRGB
 90
-16777216
102
RTVSPost2010PropOp51
 70
     0
102
RTVSPost2010Prop52
140
1.0
102
RTVSPost2010PropOp52
 70
     0
102
RTVSPost2010Prop53
 90
        2
102
RTVSPost2010PropOp53
 70
     1
102
RTVSPost2010Prop54
  1
strokes_ogs.tif
102
RTVSPost2010PropOp54
 70
     1
102
RTVSPost2010Prop55
280
     0
102
RTVSPost2010PropOp55
 70
     1
102
RTVSPost2010Prop56
140
1.0
102
RTVSPost2010PropOp56
 70
     1
102
RTVSPost2010Prop57
140
1.0
102
RTVSPost2010PropOp57
 70
     1
  0
XRECORD
  5
9F
102
{ACAD_REACTORS
330
9E
102
}
330
9E
100
AcDbXrecord
280
     1
102
RTVSPropertyOp0
 70
     1
102
RTVSPropertyOp1
 70
     1
102
RTVSPropertyOp2
 70
     1
102
RTVSPropertyOp3
 70
     1
102
RTVSPropertyOp4
 70
     1
102
RTVSPropertyOp5
 70
     1
102
RTVSPropertyOp6
 70
     1
102
RTVSPropertyOp7
 70
     1
102
RTVSPropertyOp8
 70
     1
102
RTVSPropertyOp9
 70
     1
102
RTVSPropertyOp10
 70
     1
102
RTVSPropertyOp11
 70
     1
102
RTVSPropertyOp12
 70
     1
102
RTVSPropertyOp13
 70
     1
102
RTVSPropertyOp14
 70
     1
102
RTVSPropertyOp15
 70
     1
102
RTVSPropertyOp16
 70
     1
102
RTVSPropertyOp17
 70
     1
102
RTVSPropertyOp18
 70
     1
102
RTVSPropertyOp19
 70
     1
102
RTVSPropertyOp20
 70
     1
102
RTVSPropertyOp21
 70
     1
102
RTVSPropertyOp22
 70
     1
102
RTVSPropertyOp23
 70
     1
102
RTVSPropertyOp24
 70
     1
102
RTVSPropertyOp25
 70
     1
102
RTVSPropertyOp26
 70
     1
102
RTVSPropertyOp27
 70
     1
102
RTVSPropertyOp28
 70
     1
102
RTVSPropertyOp29
 70
     1
102
RTVSPropertyOp30
 70
     1
102
RTVSPropertyOp31
 70
     1
102
RTVSPropertyOp32
 70
     1
102
RTVSPropertyOp33
 70
     1
102
RTVSPropertyOp34
 70
     1
102
RTVSPropertyOp35
 70
     1
102
RTVSPropertyOp36
 70
     1
102
RTVSPropertyOp37
 70
     1
102
RTVSPropertyOp38
 70
     1
102
RTVSPropertyOp39
 70
     1
102
RTVSPropertyOp40
 70
     1
102
RTVSPropertyOp41
 70
     1
102
RTVSPropertyOp42
 70
     1
102
RTVSPropertyOp43
 70
     1
102
RTVSPropertyOp44
 70
     1
102
RTVSPropertyOp45
 70
     1
102
RTVSPropertyOp46
 70
     1
102
RTVSPropertyOp47
 70
     1
102
RTVSPropertyOp48
 70
     1
102
RTVSPropertyOp49
 70
     1
102
RTVSPropertyOp50
 70
     1
102
RTVSPropertyOp51
 70
     0
102
RTVSPropertyOp52
 70
     0
102
RTVSPropertyOp53
 70
     1
102
RTVSPropertyOp54
 70
     1
102
RTVSPropertyOp55
 70
     1
102
RTVSPropertyOp56
 70
     1
102
RTVSPropertyOp57
 70
     1
102
RTVSPost2010Prop28
280
     0
102
RTVSPost2010PropOp28
 70
     1
102
RTVSPost2010Prop29
280
     1
102
RTVSPost2010PropOp29
 70
     1
102
RTVSPost2010Prop30
280
     1
102
RTVSPost2010PropOp30
 70
     1
102
RTVSPost2010Prop31
280
     0
102
RTVSPost2010PropOp31
 70
     1
102
RTVSPost2010Prop32
280
     0
102
RTVSPost2010PropOp32
 70
     1
102
RTVSPost2010Prop33
280
     0
102
RTVSPost2010PropOp33
 70
     1
102
RTVSPost2010Prop34
280
     0
102
RTVSPost2010PropOp34
 70
     1
102
RTVSPost2010Prop35
280
     0
102
RTVSPost2010PropOp35
 70
     1
102
RTVSPost2010Prop36
280
     0
102
RTVSPost2010PropOp36
 70
     1
102
RTVSPost2010Prop37
 90
       50
102
RTVSPost2010PropOp37
 70
     1
102
RTVSPost2010Prop38
140
0.0
102
RTVSPost2010PropOp38
 70
     1
102
RTVSPost2010Prop39
140
1.0
102
RTVSPost2010PropOp39
 70
     1
102
RTVSPost2010Prop40
 90
        0
102
RTVSPost2010PropOp40
 70
     1
102
RTVSPost2010Prop41ColorIndex
 90
       18
102
RTVSPost2010Prop41ColorRGB
 90
        0
102
RTVSPost2010PropOp41
 70
     1
102
RTVSPost2010Prop42
 90
       50
102
RTVSPost2010PropOp42
 70
     1
102
RTVSPost2010Prop43
 90
        3
102
RTVSPost2010PropOp43
 70
     1
102
RTVSPost2010Prop44ColorIndex
 90
        5
102
RTVSPost2010Prop44ColorRGB
 90
      255
102
RTVSPost2010PropOp44
 70
     1
102
RTVSPost2010Prop45
280
     0
102
RTVSPost2010PropOp45
 70
     1
102
RTVSPost2010Prop46
 90
       50
102
RTVSPost2010PropOp46
 70
     1
102
RTVSPost2010Prop47
 90
       50
102
RTVSPost2010PropOp47
 70
     1
102
RTVSPost2010Prop48
 90
       50
102
RTVSPost2010PropOp48
 70
     1
102
RTVSPost2010Prop49
280
     0
102
RTVSPost2010PropOp49
 70
     1
102
RTVSPost2010Prop50
 90
       50
102
RTVSPost2010PropOp50
 70
     1
102
RTVSPost2010Prop51ColorIndex
 90
      256
102
RTVSPost2010Prop51ColorRGB
 90
-16777216
102
RTVSPost2010PropOp51
 70
     0
102
RTVSPost2010Prop52
140
1.0
102
RTVSPost2010PropOp52
 70
     0
102
RTVSPost2010Prop53
 90
        2
102
RTVSPost2010PropOp53
 70
     1
102
RTVSPost2010Prop54
  1
strokes_ogs.tif
102
RTVSPost2010PropOp54
 70
     1
102
RTVSPost2010Prop55
280
     0
102
RTVSPost2010PropOp55
 70
     1
102
RTVSPost2010Prop56
140
1.0
102
RTVSPost2010PropOp56
 70
     1
102
RTVSPost2010Prop57
140
1.0
102
RTVSPost2010PropOp57
 70
     1
  0
XRECORD
  5
A1
102
{ACAD_REACTORS
330
A0
102
}
330
A0
100
AcDbXrecord
280
     1
102
RTVSPropertyOp0
 70
     1
102
RTVSPropertyOp1
 70
     1
102
RTVSPropertyOp2
 70
     1
102
RTVSPropertyOp3
 70
     1
102
RTVSPropertyOp4
 70
     1
102
RTVSPropertyOp5
 70
     1
102
RTVSPropertyOp6
 70
     1
102
RTVSPropertyOp7
 70
     1
102
RTVSPropertyOp8
 70
     1
102
RTVSPropertyOp9
 70
     1
102
RTVSPropertyOp10
 70
     1
102
RTVSPropertyOp11
 70
     1
102
RTVSPropertyOp12
 70
     1
102
RTVSPropertyOp13
 70
     1
102
RTVSPropertyOp14
 70
     1
102
RTVSPropertyOp15
 70
     1
102
RTVSPropertyOp16
 70
     1
102
RTVSPropertyOp17
 70
     1
102
RTVSPropertyOp18
 70
     1
102
RTVSPropertyOp19
 70
     1
102
RTVSPropertyOp20
 70
     1
102
RTVSPropertyOp21
 70
     1
102
RTVSPropertyOp22
 70
     1
102
RTVSPropertyOp23
 70
     1
102
RTVSPropertyOp24
 70
     1
102
RTVSPropertyOp25
 70
     1
102
RTVSPropertyOp26
 70
     1
102
RTVSPropertyOp27
 70
     1
102
RTVSPropertyOp28
 70
     1
102
RTVSPropertyOp29
 70
     1
102
RTVSPropertyOp30
 70
     1
102
RTVSPropertyOp31
 70
     1
102
RTVSPropertyOp32
 70
     1
102
RTVSPropertyOp33
 70
     1
102
RTVSPropertyOp34
 70
     1
102
RTVSPropertyOp35
 70
     1
102
RTVSPropertyOp36
 70
     1
102
RTVSPropertyOp37
 70
     1
102
RTVSPropertyOp38
 70
     1
102
RTVSPropertyOp39
 70
     1
102
RTVSPropertyOp40
 70
     1
102
RTVSPropertyOp41
 70
     1
102
RTVSPropertyOp42
 70
     1
102
RTVSPropertyOp43
 70
     1
102
RTVSPropertyOp44
 70
     1
102
RTVSPropertyOp45
 70
     1
102
RTVSPropertyOp46
 70
     1
102
RTVSPropertyOp47
 70
     1
102
RTVSPropertyOp48
 70
     1
102
RTVSPropertyOp49
 70
     1
102
RTVSPropertyOp50
 70
     1
102
RTVSPropertyOp51
 70
     0
102
RTVSPropertyOp52
 70
     0
102
RTVSPropertyOp53
 70
     1
102
RTVSPropertyOp54
 70
     1
102
RTVSPropertyOp55
 70
     1
102
RTVSPropertyOp56
 70
     1
102
RTVSPropertyOp57
 70
     1
102
RTVSPost2010Prop28
280
     0
102
RTVSPost2010PropOp28
 70
     1
102
RTVSPost2010Prop29
280
     1
102
RTVSPost2010PropOp29
 70
     1
102
RTVSPost2010Prop30
280
     1
102
RTVSPost2010PropOp30
 70
     1
102
RTVSPost2010Prop31
280
     0
102
RTVSPost2010PropOp31
 70
     1
102
RTVSPost2010Prop32
280
     0
102
RTVSPost2010PropOp32
 70
     1
102
RTVSPost2010Prop33
280
     0
102
RTVSPost2010PropOp33
 70
     1
102
RTVSPost2010Prop34
280
     0
102
RTVSPost2010PropOp34
 70
     1
102
RTVSPost2010Prop35
280
     0
102
RTVSPost2010PropOp35
 70
     1
102
RTVSPost2010Prop36
280
     0
102
RTVSPost2010PropOp36
 70
     1
102
RTVSPost2010Prop37
 90
       50
102
RTVSPost2010PropOp37
 70
     1
102
RTVSPost2010Prop38
140
0.0
102
RTVSPost2010PropOp38
 70
     1
102
RTVSPost2010Prop39
140
1.0
102
RTVSPost2010PropOp39
 70
     1
102
RTVSPost2010Prop40
 90
        0
102
RTVSPost2010PropOp40
 70
     1
102
RTVSPost2010Prop41ColorIndex
 90
       18
102
RTVSPost2010Prop41ColorRGB
 90
        0
102
RTVSPost2010PropOp41
 70
     1
102
RTVSPost2010Prop42
 90
       50
102
RTVSPost2010PropOp42
 70
     1
102
RTVSPost2010Prop43
 90
        3
102
RTVSPost2010PropOp43
 70
     1
102
RTVSPost2010Prop44ColorIndex
 90
        5
102
RTVSPost2010Prop44ColorRGB
 90
      255
102
RTVSPost2010PropOp44
 70
     1
102
RTVSPost2010Prop45
280
     0
102
RTVSPost2010PropOp45
 70
     1
102
RTVSPost2010Prop46
 90
       50
102
RTVSPost2010PropOp46
 70
     1
102
RTVSPost2010Prop47
 90
       50
102
RTVSPost2010PropOp47
 70
     1
102
RTVSPost2010Prop48
 90
       50
102
RTVSPost2010PropOp48
 70
     1
102
RTVSPost2010Prop49
280
     0
102
RTVSPost2010PropOp49
 70
     1
102
RTVSPost2010Prop50
 90
       50
102
RTVSPost2010PropOp50
 70
     1
102
RTVSPost2010Prop51ColorIndex
 90
      256
102
RTVSPost2010Prop51ColorRGB
 90
-16777216
102
RTVSPost2010PropOp51
 70
     0
102
RTVSPost2010Prop52
140
1.0
102
RTVSPost2010PropOp52
 70
     0
102
RTVSPost2010Prop53
 90
        2
102
RTVSPost2010PropOp53
 70
     1
102
RTVSPost2010Prop54
  1
strokes_ogs.tif
102
RTVSPost2010PropOp54
 70
     1
102
RTVSPost2010Prop55
280
     0
102
RTVSPost2010PropOp55
 70
     1
102
RTVSPost2010Prop56
140
1.0
102
RTVSPost2010PropOp56
 70
     1
102
RTVSPost2010Prop57
140
1.0
102
RTVSPost2010PropOp57
 70
     1
  0
XRECORD
  5
A3
102
{ACAD_REACTORS
330
A2
102
}
330
A2
100
AcDbXrecord
280
     1
102
RTVSPropertyOp0
 70
     1
102
RTVSPropertyOp1
 70
     1
102
RTVSPropertyOp2
 70
     1
102
RTVSPropertyOp3
 70
     1
102
RTVSPropertyOp4
 70
     1
102
RTVSPropertyOp5
 70
     1
102
RTVSPropertyOp6
 70
     1
102
RTVSPropertyOp7
 70
     1
102
RTVSPropertyOp8
 70
     1
102
RTVSPropertyOp9
 70
     1
102
RTVSPropertyOp10
 70
     1
102
RTVSPropertyOp11
 70
     1
102
RTVSPropertyOp12
 70
     1
102
RTVSPropertyOp13
 70
     1
102
RTVSPropertyOp14
 70
     1
102
RTVSPropertyOp15
 70
     1
102
RTVSPropertyOp16
 70
     1
102
RTVSPropertyOp17
 70
     1
102
RTVSPropertyOp18
 70
     1
102
RTVSPropertyOp19
 70
     1
102
RTVSPropertyOp20
 70
     1
102
RTVSPropertyOp21
 70
     1
102
RTVSPropertyOp22
 70
     1
102
RTVSPropertyOp23
 70
     1
102
RTVSPropertyOp24
 70
     1
102
RTVSPropertyOp25
 70
     1
102
RTVSPropertyOp26
 70
     1
102
RTVSPropertyOp27
 70
     1
102
RTVSPropertyOp28
 70
     1
102
RTVSPropertyOp29
 70
     1
102
RTVSPropertyOp30
 70
     1
102
RTVSPropertyOp31
 70
     1
102
RTVSPropertyOp32
 70
     1
102
RTVSPropertyOp33
 70
     1
102
RTVSPropertyOp34
 70
     1
102
RTVSPropertyOp35
 70
     1
102
RTVSPropertyOp36
 70
     1
102
RTVSPropertyOp37
 70
     1
102
RTVSPropertyOp38
 70
     1
102
RTVSPropertyOp39
 70
     1
102
RTVSPropertyOp40
 70
     1
102
RTVSPropertyOp41
 70
     1
102
RTVSPropertyOp42
 70
     1
102
RTVSPropertyOp43
 70
     1
102
RTVSPropertyOp44
 70
     1
102
RTVSPropertyOp45
 70
     1
102
RTVSPropertyOp46
 70
     1
102
RTVSPropertyOp47
 70
     1
102
RTVSPropertyOp48
 70
     1
102
RTVSPropertyOp49
 70
     1
102
RTVSPropertyOp50
 70
     1
102
RTVSPropertyOp51
 70
     0
102
RTVSPropertyOp52
 70
     0
102
RTVSPropertyOp53
 70
     1
102
RTVSPropertyOp54
 70
     1
102
RTVSPropertyOp55
 70
     1
102
RTVSPropertyOp56
 70
     1
102
RTVSPropertyOp57
 70
     1
102
RTVSPost2010Prop28
280
     0
102
RTVSPost2010PropOp28
 70
     1
102
RTVSPost2010Prop29
280
     1
102
RTVSPost2010PropOp29
 70
     1
102
RTVSPost2010Prop30
280
     1
102
RTVSPost2010PropOp30
 70
     1
102
RTVSPost2010Prop31
280
     0
102
RTVSPost2010PropOp31
 70
     1
102
RTVSPost2010Prop32
280
     0
102
RTVSPost2010PropOp32
 70
     1
102
RTVSPost2010Prop33
280
     0
102
RTVSPost2010PropOp33
 70
     1
102
RTVSPost2010Prop34
280
     0
102
RTVSPost2010PropOp34
 70
     1
102
RTVSPost2010Prop35
280
     0
102
RTVSPost2010PropOp35
 70
     1
102
RTVSPost2010Prop36
280
     0
102
RTVSPost2010PropOp36
 70
     1
102
RTVSPost2010Prop37
 90
       50
102
RTVSPost2010PropOp37
 70
     1
102
RTVSPost2010Prop38
140
0.0
102
RTVSPost2010PropOp38
 70
     1
102
RTVSPost2010Prop39
140
1.0
102
RTVSPost2010PropOp39
 70
     1
102
RTVSPost2010Prop40
 90
        0
102
RTVSPost2010PropOp40
 70
     1
102
RTVSPost2010Prop41ColorIndex
 90
       18
102
RTVSPost2010Prop41ColorRGB
 90
        0
102
RTVSPost2010PropOp41
 70
     1
102
RTVSPost2010Prop42
 90
       50
102
RTVSPost2010PropOp42
 70
     1
102
RTVSPost2010Prop43
 90
        3
102
RTVSPost2010PropOp43
 70
     1
102
RTVSPost2010Prop44ColorIndex
 90
        5
102
RTVSPost2010Prop44ColorRGB
 90
      255
102
RTVSPost2010PropOp44
 70
     1
102
RTVSPost2010Prop45
280
     0
102
RTVSPost2010PropOp45
 70
     1
102
RTVSPost2010Prop46
 90
       50
102
RTVSPost2010PropOp46
 70
     1
102
RTVSPost2010Prop47
 90
       50
102
RTVSPost2010PropOp47
 70
     1
102
RTVSPost2010Prop48
 90
       50
102
RTVSPost2010PropOp48
 70
     1
102
RTVSPost2010Prop49
280
     0
102
RTVSPost2010PropOp49
 70
     1
102
RTVSPost2010Prop50
 90
       50
102
RTVSPost2010PropOp50
 70
     1
102
RTVSPost2010Prop51ColorIndex
 90
      256
102
RTVSPost2010Prop51ColorRGB
 90
-16777216
102
RTVSPost2010PropOp51
 70
     0
102
RTVSPost2010Prop52
140
1.0
102
RTVSPost2010PropOp52
 70
     0
102
RTVSPost2010Prop53
 90
        2
102
RTVSPost2010PropOp53
 70
     1
102
RTVSPost2010Prop54
  1
strokes_ogs.tif
102
RTVSPost2010PropOp54
 70
     1
102
RTVSPost2010Prop55
280
     0
102
RTVSPost2010PropOp55
 70
     1
102
RTVSPost2010Prop56
140
1.0
102
RTVSPost2010PropOp56
 70
     1
102
RTVSPost2010Prop57
140
1.0
102
RTVSPost2010PropOp57
 70
     1
  0
XRECORD
  5
A9
102
{ACAD_REACTORS
330
A8
102
}
330
A8
100
AcDbXrecord
280
     1
102
RTVSPropertyOp0
 70
     1
102
RTVSPropertyOp1
 70
     1
102
RTVSPropertyOp2
 70
     1
102
RTVSPropertyOp3
 70
     1
102
RTVSPropertyOp4
 70
     1
102
RTVSPropertyOp5
 70
     1
102
RTVSPropertyOp6
 70
     1
102
RTVSPropertyOp7
 70
     1
102
RTVSPropertyOp8
 70
     1
102
RTVSPropertyOp9
 70
     1
102
RTVSPropertyOp10
 70
     1
102
RTVSPropertyOp11
 70
     1
102
RTVSPropertyOp12
 70
     1
102
RTVSPropertyOp13
 70
     1
102
RTVSPropertyOp14
 70
     1
102
RTVSPropertyOp15
 70
     1
102
RTVSPropertyOp16
 70
     1
102
RTVSPropertyOp17
 70
     1
102
RTVSPropertyOp18
 70
     1
102
RTVSPropertyOp19
 70
     1
102
RTVSPropertyOp20
 70
     1
102
RTVSPropertyOp21
 70
     1
102
RTVSPropertyOp22
 70
     1
102
RTVSPropertyOp23
 70
     1
102
RTVSPropertyOp24
 70
     1
102
RTVSPropertyOp25
 70
     1
102
RTVSPropertyOp26
 70
     1
102
RTVSPropertyOp27
 70
     1
102
RTVSPropertyOp28
 70
     1
102
RTVSPropertyOp29
 70
     1
102
RTVSPropertyOp30
 70
     1
102
RTVSPropertyOp31
 70
     1
102
RTVSPropertyOp32
 70
     1
102
RTVSPropertyOp33
 70
     1
102
RTVSPropertyOp34
 70
     1
102
RTVSPropertyOp35
 70
     1
102
RTVSPropertyOp36
 70
     1
102
RTVSPropertyOp37
 70
     1
102
RTVSPropertyOp38
 70
     1
102
RTVSPropertyOp39
 70
     1
102
RTVSPropertyOp40
 70
     1
102
RTVSPropertyOp41
 70
     1
102
RTVSPropertyOp42
 70
     1
102
RTVSPropertyOp43
 70
     1
102
RTVSPropertyOp44
 70
     1
102
RTVSPropertyOp45
 70
     1
102
RTVSPropertyOp46
 70
     1
102
RTVSPropertyOp47
 70
     1
102
RTVSPropertyOp48
 70
     1
102
RTVSPropertyOp49
 70
     1
102
RTVSPropertyOp50
 70
     1
102
RTVSPropertyOp51
 70
     0
102
RTVSPropertyOp52
 70
     0
102
RTVSPropertyOp53
 70
     1
102
RTVSPropertyOp54
 70
     1
102
RTVSPropertyOp55
 70
     1
102
RTVSPropertyOp56
 70
     1
102
RTVSPropertyOp57
 70
     1
102
RTVSPost2010Prop28
280
     0
102
RTVSPost2010PropOp28
 70
     1
102
RTVSPost2010Prop29
280
     1
102
RTVSPost2010PropOp29
 70
     1
102
RTVSPost2010Prop30
280
     1
102
RTVSPost2010PropOp30
 70
     1
102
RTVSPost2010Prop31
280
     0
102
RTVSPost2010PropOp31
 70
     1
102
RTVSPost2010Prop32
280
     0
102
RTVSPost2010PropOp32
 70
     1
102
RTVSPost2010Prop33
280
     0
102
RTVSPost2010PropOp33
 70
     1
102
RTVSPost2010Prop34
280
     0
102
RTVSPost2010PropOp34
 70
     1
102
RTVSPost2010Prop35
280
     0
102
RTVSPost2010PropOp35
 70
     1
102
RTVSPost2010Prop36
280
     0
102
RTVSPost2010PropOp36
 70
     1
102
RTVSPost2010Prop37
 90
       50
102
RTVSPost2010PropOp37
 70
     1
102
RTVSPost2010Prop38
140
0.0
102
RTVSPost2010PropOp38
 70
     1
102
RTVSPost2010Prop39
140
1.0
102
RTVSPost2010PropOp39
 70
     1
102
RTVSPost2010Prop40
 90
        0
102
RTVSPost2010PropOp40
 70
     1
102
RTVSPost2010Prop41ColorIndex
 90
       18
102
RTVSPost2010Prop41ColorRGB
 90
        0
102
RTVSPost2010PropOp41
 70
     1
102
RTVSPost2010Prop42
 90
       50
102
RTVSPost2010PropOp42
 70
     1
102
RTVSPost2010Prop43
 90
        3
102
RTVSPost2010PropOp43
 70
     1
102
RTVSPost2010Prop44ColorIndex
 90
        5
102
RTVSPost2010Prop44ColorRGB
 90
      255
102
RTVSPost2010PropOp44
 70
     1
102
RTVSPost2010Prop45
280
     0
102
RTVSPost2010PropOp45
 70
     1
102
RTVSPost2010Prop46
 90
       50
102
RTVSPost2010PropOp46
 70
     1
102
RTVSPost2010Prop47
 90
       50
102
RTVSPost2010PropOp47
 70
     1
102
RTVSPost2010Prop48
 90
       50
102
RTVSPost2010PropOp48
 70
     1
102
RTVSPost2010Prop49
280
     0
102
RTVSPost2010PropOp49
 70
     1
102
RTVSPost2010Prop50
 90
       50
102
RTVSPost2010PropOp50
 70
     1
102
RTVSPost2010Prop51ColorIndex
 90
      256
102
RTVSPost2010Prop51ColorRGB
 90
-16777216
102
RTVSPost2010PropOp51
 70
     0
102
RTVSPost2010Prop52
140
1.0
102
RTVSPost2010PropOp52
 70
     0
102
RTVSPost2010Prop53
 90
        2
102
RTVSPost2010PropOp53
 70
     1
102
RTVSPost2010Prop54
  1
strokes_ogs.tif
102
RTVSPost2010PropOp54
 70
     1
102
RTVSPost2010Prop55
280
     0
102
RTVSPost2010PropOp55
 70
     1
102
RTVSPost2010Prop56
140
1.0
102
RTVSPost2010PropOp56
 70
     1
102
RTVSPost2010Prop57
140
1.0
102
RTVSPost2010PropOp57
 70
     1
  0
XRECORD
  5
BD
102
{ACAD_REACTORS
330
BC
102
}
330
BC
100
AcDbXrecord
280
     1
102
RTVSPropertyOp0
 70
     0
102
RTVSPropertyOp1
 70
     0
102
RTVSPropertyOp2
 70
     0
102
RTVSPropertyOp3
 70
     0
102
RTVSPropertyOp4
 70
     0
102
RTVSPropertyOp5
 70
     0
102
RTVSPropertyOp6
 70
     0
102
RTVSPropertyOp7
 70
     0
102
RTVSPropertyOp8
 70
     0
102
RTVSPropertyOp9
 70
     0
102
RTVSPropertyOp10
 70
     0
102
RTVSPropertyOp11
 70
     0
102
RTVSPropertyOp12
 70
     0
102
RTVSPropertyOp13
 70
     0
102
RTVSPropertyOp14
 70
     2
102
RTVSPropertyOp15
 70
     0
102
RTVSPropertyOp16
 70
     0
102
RTVSPropertyOp17
 70
     0
102
RTVSPropertyOp18
 70
     0
102
RTVSPropertyOp19
 70
     0
102
RTVSPropertyOp20
 70
     0
102
RTVSPropertyOp21
 70
     0
102
RTVSPropertyOp22
 70
     0
102
RTVSPropertyOp23
 70
     0
102
RTVSPropertyOp24
 70
     0
102
RTVSPropertyOp25
 70
     0
102
RTVSPropertyOp26
 70
     0
102
RTVSPropertyOp27
 70
     0
102
RTVSPropertyOp28
 70
     0
102
RTVSPropertyOp29
 70
     0
102
RTVSPropertyOp30
 70
     0
102
RTVSPropertyOp31
 70
     0
102
RTVSPropertyOp32
 70
     0
102
RTVSPropertyOp33
 70
     0
102
RTVSPropertyOp34
 70
     0
102
RTVSPropertyOp35
 70
     0
102
RTVSPropertyOp36
 70
     0
102
RTVSPropertyOp37
 70
     0
102
RTVSPropertyOp38
 70
     0
102
RTVSPropertyOp39
 70
     0
102
RTVSPropertyOp40
 70
     0
102
RTVSPropertyOp41
 70
     0
102
RTVSPropertyOp42
 70
     0
102
RTVSPropertyOp43
 70
     0
102
RTVSPropertyOp44
 70
     0
102
RTVSPropertyOp45
 70
     0
102
RTVSPropertyOp46
 70
     0
102
RTVSPropertyOp47
 70
     0
102
RTVSPropertyOp48
 70
     0
102
RTVSPropertyOp49
 70
     0
102
RTVSPropertyOp50
 70
     0
102
RTVSPropertyOp51
 70
     0
102
RTVSPropertyOp52
 70
     0
102
RTVSPropertyOp53
 70
     0
102
RTVSPropertyOp54
 70
     0
102
RTVSPropertyOp55
 70
     0
102
RTVSPropertyOp56
 70
     0
102
RTVSPropertyOp57
 70
     0
102
RTVSPost2010Prop28
280
     0
102
RTVSPost2010PropOp28
 70
     0
102
RTVSPost2010Prop29
280
     1
102
RTVSPost2010PropOp29
 70
     0
102
RTVSPost2010Prop30
280
     1
102
RTVSPost2010PropOp30
 70
     0
102
RTVSPost2010Prop31
280
     0
102
RTVSPost2010PropOp31
 70
     0
102
RTVSPost2010Prop32
280
     0
102
RTVSPost2010PropOp32
 70
     0
102
RTVSPost2010Prop33
280
     0
102
RTVSPost2010PropOp33
 70
     0
102
RTVSPost2010Prop34
280
     0
102
RTVSPost2010PropOp34
 70
     0
102
RTVSPost2010Prop35
280
     0
102
RTVSPost2010PropOp35
 70
     0
102
RTVSPost2010Prop36
280
     0
102
RTVSPost2010PropOp36
 70
     0
102
RTVSPost2010Prop37
 90
       50
102
RTVSPost2010PropOp37
 70
     0
102
RTVSPost2010Prop38
140
0.0
102
RTVSPost2010PropOp38
 70
     0
102
RTVSPost2010Prop39
140
1.0
102
RTVSPost2010PropOp39
 70
     0
102
RTVSPost2010Prop40
 90
        0
102
RTVSPost2010PropOp40
 70
     0
102
RTVSPost2010Prop41ColorIndex
 90
       18
102
RTVSPost2010Prop41ColorRGB
 90
        0
102
RTVSPost2010PropOp41
 70
     0
102
RTVSPost2010Prop42
 90
       50
102
RTVSPost2010PropOp42
 70
     0
102
RTVSPost2010Prop43
 90
        3
102
RTVSPost2010PropOp43
 70
     0
102
RTVSPost2010Prop44ColorIndex
 90
        5
102
RTVSPost2010Prop44ColorRGB
 90
      255
102
RTVSPost2010PropOp44
 70
     0
102
RTVSPost2010Prop45
280
     0
102
RTVSPost2010PropOp45
 70
     0
102
RTVSPost2010Prop46
 90
       50
102
RTVSPost2010PropOp46
 70
     0
102
RTVSPost2010Prop47
 90
       50
102
RTVSPost2010PropOp47
 70
     0
102
RTVSPost2010Prop48
 90
       50
102
RTVSPost2010PropOp48
 70
     0
102
RTVSPost2010Prop49
280
     0
102
RTVSPost2010PropOp49
 70
     0
102
RTVSPost2010Prop50
 90
       50
102
RTVSPost2010PropOp50
 70
     0
102
RTVSPost2010Prop51ColorIndex
 90
      256
102
RTVSPost2010Prop51ColorRGB
 90
-16777216
102
RTVSPost2010PropOp51
 70
     0
102
RTVSPost2010Prop52
140
1.0
102
RTVSPost2010PropOp52
 70
     0
102
RTVSPost2010Prop53
 90
        2
102
RTVSPost2010PropOp53
 70
     0
102
RTVSPost2010Prop54
  1
strokes_ogs.tif
102
RTVSPost2010PropOp54
 70
     0
102
RTVSPost2010Prop55
280
     0
102
RTVSPost2010PropOp55
 70
     0
102
RTVSPost2010Prop56
140
1.0
102
RTVSPost2010PropOp56
 70
     0
102
RTVSPost2010Prop57
140
1.0
102
RTVSPost2010PropOp57
 70
     0
  0
XRECORD
  5
B7
102
{ACAD_REACTORS
330
B6
102
}
330
B6
100
AcDbXrecord
280
     1
102
RTVSPropertyOp0
 70
     1
102
RTVSPropertyOp1
 70
     1
102
RTVSPropertyOp2
 70
     1
102
RTVSPropertyOp3
 70
     1
102
RTVSPropertyOp4
 70
     1
102
RTVSPropertyOp5
 70
     1
102
RTVSPropertyOp6
 70
     1
102
RTVSPropertyOp7
 70
     1
102
RTVSPropertyOp8
 70
     1
102
RTVSPropertyOp9
 70
     1
102
RTVSPropertyOp10
 70
     1
102
RTVSPropertyOp11
 70
     1
102
RTVSPropertyOp12
 70
     1
102
RTVSPropertyOp13
 70
     1
102
RTVSPropertyOp14
 70
     1
102
RTVSPropertyOp15
 70
     1
102
RTVSPropertyOp16
 70
     1
102
RTVSPropertyOp17
 70
     1
102
RTVSPropertyOp18
 70
     1
102
RTVSPropertyOp19
 70
     1
102
RTVSPropertyOp20
 70
     1
102
RTVSPropertyOp21
 70
     1
102
RTVSPropertyOp22
 70
     1
102
RTVSPropertyOp23
 70
     1
102
RTVSPropertyOp24
 70
     1
102
RTVSPropertyOp25
 70
     1
102
RTVSPropertyOp26
 70
     1
102
RTVSPropertyOp27
 70
     1
102
RTVSPropertyOp28
 70
     1
102
RTVSPropertyOp29
 70
     1
102
RTVSPropertyOp30
 70
     1
102
RTVSPropertyOp31
 70
     1
102
RTVSPropertyOp32
 70
     1
102
RTVSPropertyOp33
 70
     1
102
RTVSPropertyOp34
 70
     1
102
RTVSPropertyOp35
 70
     1
102
RTVSPropertyOp36
 70
     1
102
RTVSPropertyOp37
 70
     1
102
RTVSPropertyOp38
 70
     1
102
RTVSPropertyOp39
 70
     1
102
RTVSPropertyOp40
 70
     1
102
RTVSPropertyOp41
 70
     1
102
RTVSPropertyOp42
 70
     1
102
RTVSPropertyOp43
 70
     1
102
RTVSPropertyOp44
 70
     1
102
RTVSPropertyOp45
 70
     1
102
RTVSPropertyOp46
 70
     1
102
RTVSPropertyOp47
 70
     1
102
RTVSPropertyOp48
 70
     1
102
RTVSPropertyOp49
 70
     1
102
RTVSPropertyOp50
 70
     1
102
RTVSPropertyOp51
 70
     0
102
RTVSPropertyOp52
 70
     0
102
RTVSPropertyOp53
 70
     1
102
RTVSPropertyOp54
 70
     1
102
RTVSPropertyOp55
 70
     1
102
RTVSPropertyOp56
 70
     1
102
RTVSPropertyOp57
 70
     1
102
RTVSPost2010Prop28
280
     0
102
RTVSPost2010PropOp28
 70
     1
102
RTVSPost2010Prop29
280
     1
102
RTVSPost2010PropOp29
 70
     1
102
RTVSPost2010Prop30
280
     1
102
RTVSPost2010PropOp30
 70
     1
102
RTVSPost2010Prop31
280
     0
102
RTVSPost2010PropOp31
 70
     1
102
RTVSPost2010Prop32
280
     0
102
RTVSPost2010PropOp32
 70
     1
102
RTVSPost2010Prop33
280
     0
102
RTVSPost2010PropOp33
 70
     1
102
RTVSPost2010Prop34
280
     0
102
RTVSPost2010PropOp34
 70
     1
102
RTVSPost2010Prop35
280
     0
102
RTVSPost2010PropOp35
 70
     1
102
RTVSPost2010Prop36
280
     0
102
RTVSPost2010PropOp36
 70
     1
102
RTVSPost2010Prop37
 90
       50
102
RTVSPost2010PropOp37
 70
     1
102
RTVSPost2010Prop38
140
0.0
102
RTVSPost2010PropOp38
 70
     1
102
RTVSPost2010Prop39
140
1.0
102
RTVSPost2010PropOp39
 70
     1
102
RTVSPost2010Prop40
 90
        0
102
RTVSPost2010PropOp40
 70
     1
102
RTVSPost2010Prop41ColorIndex
 90
       18
102
RTVSPost2010Prop41ColorRGB
 90
        0
102
RTVSPost2010PropOp41
 70
     1
102
RTVSPost2010Prop42
 90
       50
102
RTVSPost2010PropOp42
 70
     1
102
RTVSPost2010Prop43
 90
        3
102
RTVSPost2010PropOp43
 70
     1
102
RTVSPost2010Prop44ColorIndex
 90
        5
102
RTVSPost2010Prop44ColorRGB
 90
      255
102
RTVSPost2010PropOp44
 70
     1
102
RTVSPost2010Prop45
280
     0
102
RTVSPost2010PropOp45
 70
     1
102
RTVSPost2010Prop46
 90
       50
102
RTVSPost2010PropOp46
 70
     1
102
RTVSPost2010Prop47
 90
       50
102
RTVSPost2010PropOp47
 70
     1
102
RTVSPost2010Prop48
 90
       50
102
RTVSPost2010PropOp48
 70
     1
102
RTVSPost2010Prop49
280
     0
102
RTVSPost2010PropOp49
 70
     1
102
RTVSPost2010Prop50
 90
       50
102
RTVSPost2010PropOp50
 70
     1
102
RTVSPost2010Prop51ColorIndex
 90
      256
102
RTVSPost2010Prop51ColorRGB
 90
-16777216
102
RTVSPost2010PropOp51
 70
     0
102
RTVSPost2010Prop52
140
1.0
102
RTVSPost2010PropOp52
 70
     0
102
RTVSPost2010Prop53
 90
        2
102
RTVSPost2010PropOp53
 70
     1
102
RTVSPost2010Prop54
  1
strokes_ogs.tif
102
RTVSPost2010PropOp54
 70
     1
102
RTVSPost2010Prop55
280
     0
102
RTVSPost2010PropOp55
 70
     1
102
RTVSPost2010Prop56
140
1.0
102
RTVSPost2010PropOp56
 70
     1
102
RTVSPost2010Prop57
140
1.0
102
RTVSPost2010PropOp57
 70
     1
  0
XRECORD
  5
BF
102
{ACAD_REACTORS
330
BE
102
}
330
BE
100
AcDbXrecord
280
     1
102
RTVSPropertyOp0
 70
     0
102
RTVSPropertyOp1
 70
     0
102
RTVSPropertyOp2
 70
     0
102
RTVSPropertyOp3
 70
     0
102
RTVSPropertyOp4
 70
     0
102
RTVSPropertyOp5
 70
     0
102
RTVSPropertyOp6
 70
     0
102
RTVSPropertyOp7
 70
     0
102
RTVSPropertyOp8
 70
     0
102
RTVSPropertyOp9
 70
     0
102
RTVSPropertyOp10
 70
     0
102
RTVSPropertyOp11
 70
     0
102
RTVSPropertyOp12
 70
     0
102
RTVSPropertyOp13
 70
     0
102
RTVSPropertyOp14
 70
     2
102
RTVSPropertyOp15
 70
     0
102
RTVSPropertyOp16
 70
     0
102
RTVSPropertyOp17
 70
     0
102
RTVSPropertyOp18
 70
     0
102
RTVSPropertyOp19
 70
     0
102
RTVSPropertyOp20
 70
     0
102
RTVSPropertyOp21
 70
     0
102
RTVSPropertyOp22
 70
     0
102
RTVSPropertyOp23
 70
     0
102
RTVSPropertyOp24
 70
     0
102
RTVSPropertyOp25
 70
     0
102
RTVSPropertyOp26
 70
     0
102
RTVSPropertyOp27
 70
     0
102
RTVSPropertyOp28
 70
     0
102
RTVSPropertyOp29
 70
     0
102
RTVSPropertyOp30
 70
     0
102
RTVSPropertyOp31
 70
     0
102
RTVSPropertyOp32
 70
     0
102
RTVSPropertyOp33
 70
     0
102
RTVSPropertyOp34
 70
     0
102
RTVSPropertyOp35
 70
     0
102
RTVSPropertyOp36
 70
     0
102
RTVSPropertyOp37
 70
     0
102
RTVSPropertyOp38
 70
     0
102
RTVSPropertyOp39
 70
     0
102
RTVSPropertyOp40
 70
     0
102
RTVSPropertyOp41
 70
     0
102
RTVSPropertyOp42
 70
     0
102
RTVSPropertyOp43
 70
     0
102
RTVSPropertyOp44
 70
     0
102
RTVSPropertyOp45
 70
     0
102
RTVSPropertyOp46
 70
     0
102
RTVSPropertyOp47
 70
     0
102
RTVSPropertyOp48
 70
     0
102
RTVSPropertyOp49
 70
     0
102
RTVSPropertyOp50
 70
     0
102
RTVSPropertyOp51
 70
     0
102
RTVSPropertyOp52
 70
     0
102
RTVSPropertyOp53
 70
     0
102
RTVSPropertyOp54
 70
     0
102
RTVSPropertyOp55
 70
     0
102
RTVSPropertyOp56
 70
     0
102
RTVSPropertyOp57
 70
     0
102
RTVSPost2010Prop28
280
     0
102
RTVSPost2010PropOp28
 70
     0
102
RTVSPost2010Prop29
280
     1
102
RTVSPost2010PropOp29
 70
     0
102
RTVSPost2010Prop30
280
     1
102
RTVSPost2010PropOp30
 70
     0
102
RTVSPost2010Prop31
280
     0
102
RTVSPost2010PropOp31
 70
     0
102
RTVSPost2010Prop32
280
     0
102
RTVSPost2010PropOp32
 70
     0
102
RTVSPost2010Prop33
280
     0
102
RTVSPost2010PropOp33
 70
     0
102
RTVSPost2010Prop34
280
     0
102
RTVSPost2010PropOp34
 70
     0
102
RTVSPost2010Prop35
280
     0
102
RTVSPost2010PropOp35
 70
     0
102
RTVSPost2010Prop36
280
     0
102
RTVSPost2010PropOp36
 70
     0
102
RTVSPost2010Prop37
 90
       50
102
RTVSPost2010PropOp37
 70
     0
102
RTVSPost2010Prop38
140
0.0
102
RTVSPost2010PropOp38
 70
     0
102
RTVSPost2010Prop39
140
1.0
102
RTVSPost2010PropOp39
 70
     0
102
RTVSPost2010Prop40
 90
        0
102
RTVSPost2010PropOp40
 70
     0
102
RTVSPost2010Prop41ColorIndex
 90
       18
102
RTVSPost2010Prop41ColorRGB
 90
        0
102
RTVSPost2010PropOp41
 70
     0
102
RTVSPost2010Prop42
 90
       50
102
RTVSPost2010PropOp42
 70
     0
102
RTVSPost2010Prop43
 90
        3
102
RTVSPost2010PropOp43
 70
     0
102
RTVSPost2010Prop44ColorIndex
 90
        5
102
RTVSPost2010Prop44ColorRGB
 90
      255
102
RTVSPost2010PropOp44
 70
     0
102
RTVSPost2010Prop45
280
     0
102
RTVSPost2010PropOp45
 70
     0
102
RTVSPost2010Prop46
 90
       50
102
RTVSPost2010PropOp46
 70
     0
102
RTVSPost2010Prop47
 90
       50
102
RTVSPost2010PropOp47
 70
     0
102
RTVSPost2010Prop48
 90
       50
102
RTVSPost2010PropOp48
 70
     0
102
RTVSPost2010Prop49
280
     0
102
RTVSPost2010PropOp49
 70
     0
102
RTVSPost2010Prop50
 90
       50
102
RTVSPost2010PropOp50
 70
     0
102
RTVSPost2010Prop51ColorIndex
 90
      256
102
RTVSPost2010Prop51ColorRGB
 90
-16777216
102
RTVSPost2010PropOp51
 70
     0
102
RTVSPost2010Prop52
140
1.0
102
RTVSPost2010PropOp52
 70
     0
102
RTVSPost2010Prop53
 90
        2
102
RTVSPost2010PropOp53
 70
     0
102
RTVSPost2010Prop54
  1
strokes_ogs.tif
102
RTVSPost2010PropOp54
 70
     0
102
RTVSPost2010Prop55
280
     0
102
RTVSPost2010PropOp55
 70
     0
102
RTVSPost2010Prop56
140
1.0
102
RTVSPost2010PropOp56
 70
     0
102
RTVSPost2010Prop57
140
1.0
102
RTVSPost2010PropOp57
 70
     0
  0
XRECORD
  5
AD
102
{ACAD_REACTORS
330
AC
102
}
330
AC
100
AcDbXrecord
280
     1
102
RTVSPropertyOp0
 70
     1
102
RTVSPropertyOp1
 70
     1
102
RTVSPropertyOp2
 70
     1
102
RTVSPropertyOp3
 70
     1
102
RTVSPropertyOp4
 70
     1
102
RTVSPropertyOp5
 70
     1
102
RTVSPropertyOp6
 70
     1
102
RTVSPropertyOp7
 70
     1
102
RTVSPropertyOp8
 70
     1
102
RTVSPropertyOp9
 70
     1
102
RTVSPropertyOp10
 70
     1
102
RTVSPropertyOp11
 70
     1
102
RTVSPropertyOp12
 70
     1
102
RTVSPropertyOp13
 70
     1
102
RTVSPropertyOp14
 70
     1
102
RTVSPropertyOp15
 70
     1
102
RTVSPropertyOp16
 70
     1
102
RTVSPropertyOp17
 70
     1
102
RTVSPropertyOp18
 70
     1
102
RTVSPropertyOp19
 70
     1
102
RTVSPropertyOp20
 70
     1
102
RTVSPropertyOp21
 70
     1
102
RTVSPropertyOp22
 70
     1
102
RTVSPropertyOp23
 70
     1
102
RTVSPropertyOp24
 70
     1
102
RTVSPropertyOp25
 70
     1
102
RTVSPropertyOp26
 70
     1
102
RTVSPropertyOp27
 70
     1
102
RTVSPropertyOp28
 70
     1
102
RTVSPropertyOp29
 70
     1
102
RTVSPropertyOp30
 70
     1
102
RTVSPropertyOp31
 70
     1
102
RTVSPropertyOp32
 70
     1
102
RTVSPropertyOp33
 70
     1
102
RTVSPropertyOp34
 70
     1
102
RTVSPropertyOp35
 70
     1
102
RTVSPropertyOp36
 70
     1
102
RTVSPropertyOp37
 70
     1
102
RTVSPropertyOp38
 70
     1
102
RTVSPropertyOp39
 70
     1
102
RTVSPropertyOp40
 70
     1
102
RTVSPropertyOp41
 70
     1
102
RTVSPropertyOp42
 70
     1
102
RTVSPropertyOp43
 70
     1
102
RTVSPropertyOp44
 70
     1
102
RTVSPropertyOp45
 70
     1
102
RTVSPropertyOp46
 70
     1
102
RTVSPropertyOp47
 70
     1
102
RTVSPropertyOp48
 70
     1
102
RTVSPropertyOp49
 70
     1
102
RTVSPropertyOp50
 70
     1
102
RTVSPropertyOp51
 70
     0
102
RTVSPropertyOp52
 70
     0
102
RTVSPropertyOp53
 70
     1
102
RTVSPropertyOp54
 70
     1
102
RTVSPropertyOp55
 70
     1
102
RTVSPropertyOp56
 70
     1
102
RTVSPropertyOp57
 70
     1
102
RTVSPost2010Prop28
280
     0
102
RTVSPost2010PropOp28
 70
     1
102
RTVSPost2010Prop29
280
     1
102
RTVSPost2010PropOp29
 70
     1
102
RTVSPost2010Prop30
280
     1
102
RTVSPost2010PropOp30
 70
     1
102
RTVSPost2010Prop31
280
     0
102
RTVSPost2010PropOp31
 70
     1
102
RTVSPost2010Prop32
280
     0
102
RTVSPost2010PropOp32
 70
     1
102
RTVSPost2010Prop33
280
     0
102
RTVSPost2010PropOp33
 70
     1
102
RTVSPost2010Prop34
280
     0
102
RTVSPost2010PropOp34
 70
     1
102
RTVSPost2010Prop35
280
     0
102
RTVSPost2010PropOp35
 70
     1
102
RTVSPost2010Prop36
280
     0
102
RTVSPost2010PropOp36
 70
     1
102
RTVSPost2010Prop37
 90
       50
102
RTVSPost2010PropOp37
 70
     1
102
RTVSPost2010Prop38
140
0.0
102
RTVSPost2010PropOp38
 70
     1
102
RTVSPost2010Prop39
140
1.0
102
RTVSPost2010PropOp39
 70
     1
102
RTVSPost2010Prop40
 90
        0
102
RTVSPost2010PropOp40
 70
     1
102
RTVSPost2010Prop41ColorIndex
 90
       18
102
RTVSPost2010Prop41ColorRGB
 90
        0
102
RTVSPost2010PropOp41
 70
     1
102
RTVSPost2010Prop42
 90
       50
102
RTVSPost2010PropOp42
 70
     1
102
RTVSPost2010Prop43
 90
        3
102
RTVSPost2010PropOp43
 70
     1
102
RTVSPost2010Prop44ColorIndex
 90
        5
102
RTVSPost2010Prop44ColorRGB
 90
      255
102
RTVSPost2010PropOp44
 70
     1
102
RTVSPost2010Prop45
280
     0
102
RTVSPost2010PropOp45
 70
     1
102
RTVSPost2010Prop46
 90
       50
102
RTVSPost2010PropOp46
 70
     1
102
RTVSPost2010Prop47
 90
       50
102
RTVSPost2010PropOp47
 70
     1
102
RTVSPost2010Prop48
 90
       50
102
RTVSPost2010PropOp48
 70
     1
102
RTVSPost2010Prop49
280
     0
102
RTVSPost2010PropOp49
 70
     1
102
RTVSPost2010Prop50
 90
       50
102
RTVSPost2010PropOp50
 70
     1
102
RTVSPost2010Prop51ColorIndex
 90
      256
102
RTVSPost2010Prop51ColorRGB
 90
-16777216
102
RTVSPost2010PropOp51
 70
     0
102
RTVSPost2010Prop52
140
1.0
102
RTVSPost2010PropOp52
 70
     0
102
RTVSPost2010Prop53
 90
        2
102
RTVSPost2010PropOp53
 70
     1
102
RTVSPost2010Prop54
  1
strokes_ogs.tif
102
RTVSPost2010PropOp54
 70
     1
102
RTVSPost2010Prop55
280
     0
102
RTVSPost2010PropOp55
 70
     1
102
RTVSPost2010Prop56
140
1.0
102
RTVSPost2010PropOp56
 70
     1
102
RTVSPost2010Prop57
140
1.0
102
RTVSPost2010PropOp57
 70
     1
  0
XRECORD
  5
CB
102
{ACAD_REACTORS
330
CA
102
}
330
CA
100
AcDbXrecord
280
     1
102
RTVSPropertyOp0
 70
     1
102
RTVSPropertyOp1
 70
     1
102
RTVSPropertyOp2
 70
     1
102
RTVSPropertyOp3
 70
     1
102
RTVSPropertyOp4
 70
     1
102
RTVSPropertyOp5
 70
     1
102
RTVSPropertyOp6
 70
     1
102
RTVSPropertyOp7
 70
     1
102
RTVSPropertyOp8
 70
     1
102
RTVSPropertyOp9
 70
     1
102
RTVSPropertyOp10
 70
     1
102
RTVSPropertyOp11
 70
     1
102
RTVSPropertyOp12
 70
     1
102
RTVSPropertyOp13
 70
     1
102
RTVSPropertyOp14
 70
     1
102
RTVSPropertyOp15
 70
     1
102
RTVSPropertyOp16
 70
     1
102
RTVSPropertyOp17
 70
     1
102
RTVSPropertyOp18
 70
     1
102
RTVSPropertyOp19
 70
     1
102
RTVSPropertyOp20
 70
     1
102
RTVSPropertyOp21
 70
     1
102
RTVSPropertyOp22
 70
     1
102
RTVSPropertyOp23
 70
     1
102
RTVSPropertyOp24
 70
     1
102
RTVSPropertyOp25
 70
     1
102
RTVSPropertyOp26
 70
     1
102
RTVSPropertyOp27
 70
     1
102
RTVSPropertyOp28
 70
     1
102
RTVSPropertyOp29
 70
     1
102
RTVSPropertyOp30
 70
     1
102
RTVSPropertyOp31
 70
     1
102
RTVSPropertyOp32
 70
     1
102
RTVSPropertyOp33
 70
     1
102
RTVSPropertyOp34
 70
     1
102
RTVSPropertyOp35
 70
     1
102
RTVSPropertyOp36
 70
     1
102
RTVSPropertyOp37
 70
     1
102
RTVSPropertyOp38
 70
     1
102
RTVSPropertyOp39
 70
     1
102
RTVSPropertyOp40
 70
     1
102
RTVSPropertyOp41
 70
     1
102
RTVSPropertyOp42
 70
     1
102
RTVSPropertyOp43
 70
     1
102
RTVSPropertyOp44
 70
     1
102
RTVSPropertyOp45
 70
     1
102
RTVSPropertyOp46
 70
     1
102
RTVSPropertyOp47
 70
     1
102
RTVSPropertyOp48
 70
     1
102
RTVSPropertyOp49
 70
     1
102
RTVSPropertyOp50
 70
     1
102
RTVSPropertyOp51
 70
     0
102
RTVSPropertyOp52
 70
     0
102
RTVSPropertyOp53
 70
     1
102
RTVSPropertyOp54
 70
     1
102
RTVSPropertyOp55
 70
     1
102
RTVSPropertyOp56
 70
     1
102
RTVSPropertyOp57
 70
     1
102
RTVSPost2010Prop28
280
     0
102
RTVSPost2010PropOp28
 70
     1
102
RTVSPost2010Prop29
280
     1
102
RTVSPost2010PropOp29
 70
     1
102
RTVSPost2010Prop30
280
     1
102
RTVSPost2010PropOp30
 70
     1
102
RTVSPost2010Prop31
280
     0
102
RTVSPost2010PropOp31
 70
     1
102
RTVSPost2010Prop32
280
     0
102
RTVSPost2010PropOp32
 70
     1
102
RTVSPost2010Prop33
280
     0
102
RTVSPost2010PropOp33
 70
     1
102
RTVSPost2010Prop34
280
     0
102
RTVSPost2010PropOp34
 70
     1
102
RTVSPost2010Prop35
280
     0
102
RTVSPost2010PropOp35
 70
     1
102
RTVSPost2010Prop36
280
     0
102
RTVSPost2010PropOp36
 70
     1
102
RTVSPost2010Prop37
 90
       50
102
RTVSPost2010PropOp37
 70
     1
102
RTVSPost2010Prop38
140
0.0
102
RTVSPost2010PropOp38
 70
     1
102
RTVSPost2010Prop39
140
1.0
102
RTVSPost2010PropOp39
 70
     1
102
RTVSPost2010Prop40
 90
        0
102
RTVSPost2010PropOp40
 70
     1
102
RTVSPost2010Prop41ColorIndex
 90
       18
102
RTVSPost2010Prop41ColorRGB
 90
        0
102
RTVSPost2010PropOp41
 70
     1
102
RTVSPost2010Prop42
 90
       50
102
RTVSPost2010PropOp42
 70
     1
102
RTVSPost2010Prop43
 90
        3
102
RTVSPost2010PropOp43
 70
     1
102
RTVSPost2010Prop44ColorIndex
 90
        5
102
RTVSPost2010Prop44ColorRGB
 90
      255
102
RTVSPost2010PropOp44
 70
     1
102
RTVSPost2010Prop45
280
     0
102
RTVSPost2010PropOp45
 70
     1
102
RTVSPost2010Prop46
 90
       50
102
RTVSPost2010PropOp46
 70
     1
102
RTVSPost2010Prop47
 90
       50
102
RTVSPost2010PropOp47
 70
     1
102
RTVSPost2010Prop48
 90
       50
102
RTVSPost2010PropOp48
 70
     1
102
RTVSPost2010Prop49
280
     0
102
RTVSPost2010PropOp49
 70
     1
102
RTVSPost2010Prop50
 90
       50
102
RTVSPost2010PropOp50
 70
     1
102
RTVSPost2010Prop51ColorIndex
 90
      256
102
RTVSPost2010Prop51ColorRGB
 90
-16777216
102
RTVSPost2010PropOp51
 70
     0
102
RTVSPost2010Prop52
140
1.0
102
RTVSPost2010PropOp52
 70
     0
102
RTVSPost2010Prop53
 90
        2
102
RTVSPost2010PropOp53
 70
     1
102
RTVSPost2010Prop54
  1
strokes_ogs.tif
102
RTVSPost2010PropOp54
 70
     1
102
RTVSPost2010Prop55
280
     0
102
RTVSPost2010PropOp55
 70
     1
102
RTVSPost2010Prop56
140
1.0
102
RTVSPost2010PropOp56
 70
     1
102
RTVSPost2010Prop57
140
1.0
102
RTVSPost2010PropOp57
 70
     1
  0
XRECORD
  5
C9
102
{ACAD_REACTORS
330
C8
102
}
330
C8
100
AcDbXrecord
280
     1
102
RTVSPropertyOp0
 70
     1
102
RTVSPropertyOp1
 70
     1
102
RTVSPropertyOp2
 70
     1
102
RTVSPropertyOp3
 70
     1
102
RTVSPropertyOp4
 70
     1
102
RTVSPropertyOp5
 70
     1
102
RTVSPropertyOp6
 70
     1
102
RTVSPropertyOp7
 70
     1
102
RTVSPropertyOp8
 70
     1
102
RTVSPropertyOp9
 70
     1
102
RTVSPropertyOp10
 70
     1
102
RTVSPropertyOp11
 70
     1
102
RTVSPropertyOp12
 70
     1
102
RTVSPropertyOp13
 70
     1
102
RTVSPropertyOp14
 70
     1
102
RTVSPropertyOp15
 70
     1
102
RTVSPropertyOp16
 70
     1
102
RTVSPropertyOp17
 70
     1
102
RTVSPropertyOp18
 70
     1
102
RTVSPropertyOp19
 70
     1
102
RTVSPropertyOp20
 70
     1
102
RTVSPropertyOp21
 70
     1
102
RTVSPropertyOp22
 70
     1
102
RTVSPropertyOp23
 70
     1
102
RTVSPropertyOp24
 70
     1
102
RTVSPropertyOp25
 70
     1
102
RTVSPropertyOp26
 70
     1
102
RTVSPropertyOp27
 70
     1
102
RTVSPropertyOp28
 70
     1
102
RTVSPropertyOp29
 70
     1
102
RTVSPropertyOp30
 70
     1
102
RTVSPropertyOp31
 70
     1
102
RTVSPropertyOp32
 70
     1
102
RTVSPropertyOp33
 70
     1
102
RTVSPropertyOp34
 70
     1
102
RTVSPropertyOp35
 70
     1
102
RTVSPropertyOp36
 70
     1
102
RTVSPropertyOp37
 70
     1
102
RTVSPropertyOp38
 70
     1
102
RTVSPropertyOp39
 70
     1
102
RTVSPropertyOp40
 70
     1
102
RTVSPropertyOp41
 70
     1
102
RTVSPropertyOp42
 70
     1
102
RTVSPropertyOp43
 70
     1
102
RTVSPropertyOp44
 70
     1
102
RTVSPropertyOp45
 70
     1
102
RTVSPropertyOp46
 70
     1
102
RTVSPropertyOp47
 70
     1
102
RTVSPropertyOp48
 70
     1
102
RTVSPropertyOp49
 70
     1
102
RTVSPropertyOp50
 70
     1
102
RTVSPropertyOp51
 70
     0
102
RTVSPropertyOp52
 70
     0
102
RTVSPropertyOp53
 70
     1
102
RTVSPropertyOp54
 70
     1
102
RTVSPropertyOp55
 70
     1
102
RTVSPropertyOp56
 70
     1
102
RTVSPropertyOp57
 70
     1
102
RTVSPost2010Prop28
280
     0
102
RTVSPost2010PropOp28
 70
     1
102
RTVSPost2010Prop29
280
     1
102
RTVSPost2010PropOp29
 70
     1
102
RTVSPost2010Prop30
280
     1
102
RTVSPost2010PropOp30
 70
     1
102
RTVSPost2010Prop31
280
     0
102
RTVSPost2010PropOp31
 70
     1
102
RTVSPost2010Prop32
280
     0
102
RTVSPost2010PropOp32
 70
     1
102
RTVSPost2010Prop33
280
     0
102
RTVSPost2010PropOp33
 70
     1
102
RTVSPost2010Prop34
280
     0
102
RTVSPost2010PropOp34
 70
     1
102
RTVSPost2010Prop35
280
     0
102
RTVSPost2010PropOp35
 70
     1
102
RTVSPost2010Prop36
280
     0
102
RTVSPost2010PropOp36
 70
     1
102
RTVSPost2010Prop37
 90
       50
102
RTVSPost2010PropOp37
 70
     1
102
RTVSPost2010Prop38
140
0.0
102
RTVSPost2010PropOp38
 70
     1
102
RTVSPost2010Prop39
140
1.0
102
RTVSPost2010PropOp39
 70
     1
102
RTVSPost2010Prop40
 90
        0
102
RTVSPost2010PropOp40
 70
     1
102
RTVSPost2010Prop41ColorIndex
 90
       18
102
RTVSPost2010Prop41ColorRGB
 90
        0
102
RTVSPost2010PropOp41
 70
     1
102
RTVSPost2010Prop42
 90
       50
102
RTVSPost2010PropOp42
 70
     1
102
RTVSPost2010Prop43
 90
        3
102
RTVSPost2010PropOp43
 70
     1
102
RTVSPost2010Prop44ColorIndex
 90
        5
102
RTVSPost2010Prop44ColorRGB
 90
      255
102
RTVSPost2010PropOp44
 70
     1
102
RTVSPost2010Prop45
280
     0
102
RTVSPost2010PropOp45
 70
     1
102
RTVSPost2010Prop46
 90
       50
102
RTVSPost2010PropOp46
 70
     1
102
RTVSPost2010Prop47
 90
       50
102
RTVSPost2010PropOp47
 70
     1
102
RTVSPost2010Prop48
 90
       50
102
RTVSPost2010PropOp48
 70
     1
102
RTVSPost2010Prop49
280
     0
102
RTVSPost2010PropOp49
 70
     1
102
RTVSPost2010Prop50
 90
       50
102
RTVSPost2010PropOp50
 70
     1
102
RTVSPost2010Prop51ColorIndex
 90
      256
102
RTVSPost2010Prop51ColorRGB
 90
-16777216
102
RTVSPost2010PropOp51
 70
     0
102
RTVSPost2010Prop52
140
1.0
102
RTVSPost2010PropOp52
 70
     0
102
RTVSPost2010Prop53
 90
        2
102
RTVSPost2010PropOp53
 70
     1
102
RTVSPost2010Prop54
  1
strokes_ogs.tif
102
RTVSPost2010PropOp54
 70
     1
102
RTVSPost2010Prop55
280
     0
102
RTVSPost2010PropOp55
 70
     1
102
RTVSPost2010Prop56
140
1.0
102
RTVSPost2010PropOp56
 70
     1
102
RTVSPost2010Prop57
140
1.0
102
RTVSPost2010PropOp57
 70
     1
  0
XRECORD
  5
C3
102
{ACAD_REACTORS
330
C2
102
}
330
C2
100
AcDbXrecord
280
     1
102
RTVSPropertyOp0
 70
     1
102
RTVSPropertyOp1
 70
     1
102
RTVSPropertyOp2
 70
     1
102
RTVSPropertyOp3
 70
     1
102
RTVSPropertyOp4
 70
     1
102
RTVSPropertyOp5
 70
     1
102
RTVSPropertyOp6
 70
     1
102
RTVSPropertyOp7
 70
     1
102
RTVSPropertyOp8
 70
     1
102
RTVSPropertyOp9
 70
     1
102
RTVSPropertyOp10
 70
     1
102
RTVSPropertyOp11
 70
     1
102
RTVSPropertyOp12
 70
     1
102
RTVSPropertyOp13
 70
     1
102
RTVSPropertyOp14
 70
     1
102
RTVSPropertyOp15
 70
     1
102
RTVSPropertyOp16
 70
     1
102
RTVSPropertyOp17
 70
     1
102
RTVSPropertyOp18
 70
     1
102
RTVSPropertyOp19
 70
     1
102
RTVSPropertyOp20
 70
     1
102
RTVSPropertyOp21
 70
     1
102
RTVSPropertyOp22
 70
     1
102
RTVSPropertyOp23
 70
     1
102
RTVSPropertyOp24
 70
     1
102
RTVSPropertyOp25
 70
     1
102
RTVSPropertyOp26
 70
     1
102
RTVSPropertyOp27
 70
     1
102
RTVSPropertyOp28
 70
     1
102
RTVSPropertyOp29
 70
     1
102
RTVSPropertyOp30
 70
     1
102
RTVSPropertyOp31
 70
     1
102
RTVSPropertyOp32
 70
     1
102
RTVSPropertyOp33
 70
     1
102
RTVSPropertyOp34
 70
     1
102
RTVSPropertyOp35
 70
     1
102
RTVSPropertyOp36
 70
     1
102
RTVSPropertyOp37
 70
     1
102
RTVSPropertyOp38
 70
     1
102
RTVSPropertyOp39
 70
     1
102
RTVSPropertyOp40
 70
     1
102
RTVSPropertyOp41
 70
     1
102
RTVSPropertyOp42
 70
     1
102
RTVSPropertyOp43
 70
     1
102
RTVSPropertyOp44
 70
     1
102
RTVSPropertyOp45
 70
     1
102
RTVSPropertyOp46
 70
     1
102
RTVSPropertyOp47
 70
     1
102
RTVSPropertyOp48
 70
     1
102
RTVSPropertyOp49
 70
     1
102
RTVSPropertyOp50
 70
     1
102
RTVSPropertyOp51
 70
     0
102
RTVSPropertyOp52
 70
     0
102
RTVSPropertyOp53
 70
     1
102
RTVSPropertyOp54
 70
     1
102
RTVSPropertyOp55
 70
     1
102
RTVSPropertyOp56
 70
     1
102
RTVSPropertyOp57
 70
     1
102
RTVSPost2010Prop28
280
     0
102
RTVSPost2010PropOp28
 70
     1
102
RTVSPost2010Prop29
280
     1
102
RTVSPost2010PropOp29
 70
     1
102
RTVSPost2010Prop30
280
     1
102
RTVSPost2010PropOp30
 70
     1
102
RTVSPost2010Prop31
280
     0
102
RTVSPost2010PropOp31
 70
     1
102
RTVSPost2010Prop32
280
     0
102
RTVSPost2010PropOp32
 70
     1
102
RTVSPost2010Prop33
280
     0
102
RTVSPost2010PropOp33
 70
     1
102
RTVSPost2010Prop34
280
     0
102
RTVSPost2010PropOp34
 70
     1
102
RTVSPost2010Prop35
280
     0
102
RTVSPost2010PropOp35
 70
     1
102
RTVSPost2010Prop36
280
     0
102
RTVSPost2010PropOp36
 70
     1
102
RTVSPost2010Prop37
 90
       50
102
RTVSPost2010PropOp37
 70
     1
102
RTVSPost2010Prop38
140
0.0
102
RTVSPost2010PropOp38
 70
     1
102
RTVSPost2010Prop39
140
1.0
102
RTVSPost2010PropOp39
 70
     1
102
RTVSPost2010Prop40
 90
        0
102
RTVSPost2010PropOp40
 70
     1
102
RTVSPost2010Prop41ColorIndex
 90
       18
102
RTVSPost2010Prop41ColorRGB
 90
        0
102
RTVSPost2010PropOp41
 70
     1
102
RTVSPost2010Prop42
 90
       50
102
RTVSPost2010PropOp42
 70
     1
102
RTVSPost2010Prop43
 90
        3
102
RTVSPost2010PropOp43
 70
     1
102
RTVSPost2010Prop44ColorIndex
 90
        5
102
RTVSPost2010Prop44ColorRGB
 90
      255
102
RTVSPost2010PropOp44
 70
     1
102
RTVSPost2010Prop45
280
     0
102
RTVSPost2010PropOp45
 70
     1
102
RTVSPost2010Prop46
 90
       50
102
RTVSPost2010PropOp46
 70
     1
102
RTVSPost2010Prop47
 90
       50
102
RTVSPost2010PropOp47
 70
     1
102
RTVSPost2010Prop48
 90
       50
102
RTVSPost2010PropOp48
 70
     1
102
RTVSPost2010Prop49
280
     0
102
RTVSPost2010PropOp49
 70
     1
102
RTVSPost2010Prop50
 90
       50
102
RTVSPost2010PropOp50
 70
     1
102
RTVSPost2010Prop51ColorIndex
 90
      256
102
RTVSPost2010Prop51ColorRGB
 90
-16777216
102
RTVSPost2010PropOp51
 70
     0
102
RTVSPost2010Prop52
140
1.0
102
RTVSPost2010PropOp52
 70
     0
102
RTVSPost2010Prop53
 90
        2
102
RTVSPost2010PropOp53
 70
     1
102
RTVSPost2010Prop54
  1
strokes_ogs.tif
102
RTVSPost2010PropOp54
 70
     1
102
RTVSPost2010Prop55
280
     0
102
RTVSPost2010PropOp55
 70
     1
102
RTVSPost2010Prop56
140
1.0
102
RTVSPost2010PropOp56
 70
     1
102
RTVSPost2010Prop57
140
1.0
102
RTVSPost2010PropOp57
 70
     1
  0
XRECORD
  5
C5
102
{ACAD_REACTORS
330
C4
102
}
330
C4
100
AcDbXrecord
280
     1
102
RTVSPropertyOp0
 70
     1
102
RTVSPropertyOp1
 70
     1
102
RTVSPropertyOp2
 70
     1
102
RTVSPropertyOp3
 70
     1
102
RTVSPropertyOp4
 70
     1
102
RTVSPropertyOp5
 70
     1
102
RTVSPropertyOp6
 70
     1
102
RTVSPropertyOp7
 70
     1
102
RTVSPropertyOp8
 70
     1
102
RTVSPropertyOp9
 70
     1
102
RTVSPropertyOp10
 70
     1
102
RTVSPropertyOp11
 70
     1
102
RTVSPropertyOp12
 70
     1
102
RTVSPropertyOp13
 70
     1
102
RTVSPropertyOp14
 70
     1
102
RTVSPropertyOp15
 70
     1
102
RTVSPropertyOp16
 70
     1
102
RTVSPropertyOp17
 70
     1
102
RTVSPropertyOp18
 70
     1
102
RTVSPropertyOp19
 70
     1
102
RTVSPropertyOp20
 70
     1
102
RTVSPropertyOp21
 70
     1
102
RTVSPropertyOp22
 70
     1
102
RTVSPropertyOp23
 70
     1
102
RTVSPropertyOp24
 70
     1
102
RTVSPropertyOp25
 70
     1
102
RTVSPropertyOp26
 70
     1
102
RTVSPropertyOp27
 70
     1
102
RTVSPropertyOp28
 70
     1
102
RTVSPropertyOp29
 70
     1
102
RTVSPropertyOp30
 70
     1
102
RTVSPropertyOp31
 70
     1
102
RTVSPropertyOp32
 70
     1
102
RTVSPropertyOp33
 70
     1
102
RTVSPropertyOp34
 70
     1
102
RTVSPropertyOp35
 70
     1
102
RTVSPropertyOp36
 70
     1
102
RTVSPropertyOp37
 70
     1
102
RTVSPropertyOp38
 70
     1
102
RTVSPropertyOp39
 70
     1
102
RTVSPropertyOp40
 70
     1
102
RTVSPropertyOp41
 70
     1
102
RTVSPropertyOp42
 70
     1
102
RTVSPropertyOp43
 70
     1
102
RTVSPropertyOp44
 70
     1
102
RTVSPropertyOp45
 70
     1
102
RTVSPropertyOp46
 70
     1
102
RTVSPropertyOp47
 70
     1
102
RTVSPropertyOp48
 70
     1
102
RTVSPropertyOp49
 70
     1
102
RTVSPropertyOp50
 70
     1
102
RTVSPropertyOp51
 70
     0
102
RTVSPropertyOp52
 70
     0
102
RTVSPropertyOp53
 70
     1
102
RTVSPropertyOp54
 70
     1
102
RTVSPropertyOp55
 70
     1
102
RTVSPropertyOp56
 70
     1
102
RTVSPropertyOp57
 70
     1
102
RTVSPost2010Prop28
280
     0
102
RTVSPost2010PropOp28
 70
     1
102
RTVSPost2010Prop29
280
     1
102
RTVSPost2010PropOp29
 70
     1
102
RTVSPost2010Prop30
280
     1
102
RTVSPost2010PropOp30
 70
     1
102
RTVSPost2010Prop31
280
     0
102
RTVSPost2010PropOp31
 70
     1
102
RTVSPost2010Prop32
280
     0
102
RTVSPost2010PropOp32
 70
     1
102
RTVSPost2010Prop33
280
     0
102
RTVSPost2010PropOp33
 70
     1
102
RTVSPost2010Prop34
280
     0
102
RTVSPost2010PropOp34
 70
     1
102
RTVSPost2010Prop35
280
     0
102
RTVSPost2010PropOp35
 70
     1
102
RTVSPost2010Prop36
280
     0
102
RTVSPost2010PropOp36
 70
     1
102
RTVSPost2010Prop37
 90
       50
102
RTVSPost2010PropOp37
 70
     1
102
RTVSPost2010Prop38
140
0.0
102
RTVSPost2010PropOp38
 70
     1
102
RTVSPost2010Prop39
140
1.0
102
RTVSPost2010PropOp39
 70
     1
102
RTVSPost2010Prop40
 90
        0
102
RTVSPost2010PropOp40
 70
     1
102
RTVSPost2010Prop41ColorIndex
 90
       18
102
RTVSPost2010Prop41ColorRGB
 90
        0
102
RTVSPost2010PropOp41
 70
     1
102
RTVSPost2010Prop42
 90
       50
102
RTVSPost2010PropOp42
 70
     1
102
RTVSPost2010Prop43
 90
        3
102
RTVSPost2010PropOp43
 70
     1
102
RTVSPost2010Prop44ColorIndex
 90
        5
102
RTVSPost2010Prop44ColorRGB
 90
      255
102
RTVSPost2010PropOp44
 70
     1
102
RTVSPost2010Prop45
280
     0
102
RTVSPost2010PropOp45
 70
     1
102
RTVSPost2010Prop46
 90
       50
102
RTVSPost2010PropOp46
 70
     1
102
RTVSPost2010Prop47
 90
       50
102
RTVSPost2010PropOp47
 70
     1
102
RTVSPost2010Prop48
 90
       50
102
RTVSPost2010PropOp48
 70
     1
102
RTVSPost2010Prop49
280
     0
102
RTVSPost2010PropOp49
 70
     1
102
RTVSPost2010Prop50
 90
       50
102
RTVSPost2010PropOp50
 70
     1
102
RTVSPost2010Prop51ColorIndex
 90
      256
102
RTVSPost2010Prop51ColorRGB
 90
-16777216
102
RTVSPost2010PropOp51
 70
     0
102
RTVSPost2010Prop52
140
1.0
102
RTVSPost2010PropOp52
 70
     0
102
RTVSPost2010Prop53
 90
        2
102
RTVSPost2010PropOp53
 70
     1
102
RTVSPost2010Prop54
  1
strokes_ogs.tif
102
RTVSPost2010PropOp54
 70
     1
102
RTVSPost2010Prop55
280
     0
102
RTVSPost2010PropOp55
 70
     1
102
RTVSPost2010Prop56
140
1.0
102
RTVSPost2010PropOp56
 70
     1
102
RTVSPost2010Prop57
140
1.0
102
RTVSPost2010PropOp57
 70
     1
  0
XRECORD
  5
B5
102
{ACAD_REACTORS
330
B4
102
}
330
B4
100
AcDbXrecord
280
     1
102
RTVSPropertyOp0
 70
     1
102
RTVSPropertyOp1
 70
     1
102
RTVSPropertyOp2
 70
     1
102
RTVSPropertyOp3
 70
     1
102
RTVSPropertyOp4
 70
     1
102
RTVSPropertyOp5
 70
     1
102
RTVSPropertyOp6
 70
     1
102
RTVSPropertyOp7
 70
     1
102
RTVSPropertyOp8
 70
     1
102
RTVSPropertyOp9
 70
     1
102
RTVSPropertyOp10
 70
     1
102
RTVSPropertyOp11
 70
     1
102
RTVSPropertyOp12
 70
     1
102
RTVSPropertyOp13
 70
     1
102
RTVSPropertyOp14
 70
     1
102
RTVSPropertyOp15
 70
     1
102
RTVSPropertyOp16
 70
     1
102
RTVSPropertyOp17
 70
     1
102
RTVSPropertyOp18
 70
     1
102
RTVSPropertyOp19
 70
     1
102
RTVSPropertyOp20
 70
     1
102
RTVSPropertyOp21
 70
     1
102
RTVSPropertyOp22
 70
     1
102
RTVSPropertyOp23
 70
     1
102
RTVSPropertyOp24
 70
     1
102
RTVSPropertyOp25
 70
     1
102
RTVSPropertyOp26
 70
     1
102
RTVSPropertyOp27
 70
     1
102
RTVSPropertyOp28
 70
     1
102
RTVSPropertyOp29
 70
     1
102
RTVSPropertyOp30
 70
     1
102
RTVSPropertyOp31
 70
     1
102
RTVSPropertyOp32
 70
     1
102
RTVSPropertyOp33
 70
     1
102
RTVSPropertyOp34
 70
     1
102
RTVSPropertyOp35
 70
     1
102
RTVSPropertyOp36
 70
     1
102
RTVSPropertyOp37
 70
     1
102
RTVSPropertyOp38
 70
     1
102
RTVSPropertyOp39
 70
     1
102
RTVSPropertyOp40
 70
     1
102
RTVSPropertyOp41
 70
     1
102
RTVSPropertyOp42
 70
     1
102
RTVSPropertyOp43
 70
     1
102
RTVSPropertyOp44
 70
     1
102
RTVSPropertyOp45
 70
     1
102
RTVSPropertyOp46
 70
     1
102
RTVSPropertyOp47
 70
     1
102
RTVSPropertyOp48
 70
     1
102
RTVSPropertyOp49
 70
     1
102
RTVSPropertyOp50
 70
     1
102
RTVSPropertyOp51
 70
     0
102
RTVSPropertyOp52
 70
     0
102
RTVSPropertyOp53
 70
     1
102
RTVSPropertyOp54
 70
     1
102
RTVSPropertyOp55
 70
     1
102
RTVSPropertyOp56
 70
     1
102
RTVSPropertyOp57
 70
     1
102
RTVSPost2010Prop28
280
     0
102
RTVSPost2010PropOp28
 70
     1
102
RTVSPost2010Prop29
280
     1
102
RTVSPost2010PropOp29
 70
     1
102
RTVSPost2010Prop30
280
     1
102
RTVSPost2010PropOp30
 70
     1
102
RTVSPost2010Prop31
280
     0
102
RTVSPost2010PropOp31
 70
     1
102
RTVSPost2010Prop32
280
     0
102
RTVSPost2010PropOp32
 70
     1
102
RTVSPost2010Prop33
280
     0
102
RTVSPost2010PropOp33
 70
     1
102
RTVSPost2010Prop34
280
     0
102
RTVSPost2010PropOp34
 70
     1
102
RTVSPost2010Prop35
280
     0
102
RTVSPost2010PropOp35
 70
     1
102
RTVSPost2010Prop36
280
     0
102
RTVSPost2010PropOp36
 70
     1
102
RTVSPost2010Prop37
 90
       50
102
RTVSPost2010PropOp37
 70
     1
102
RTVSPost2010Prop38
140
0.0
102
RTVSPost2010PropOp38
 70
     1
102
RTVSPost2010Prop39
140
1.0
102
RTVSPost2010PropOp39
 70
     1
102
RTVSPost2010Prop40
 90
        0
102
RTVSPost2010PropOp40
 70
     1
102
RTVSPost2010Prop41ColorIndex
 90
       18
102
RTVSPost2010Prop41ColorRGB
 90
        0
102
RTVSPost2010PropOp41
 70
     1
102
RTVSPost2010Prop42
 90
       50
102
RTVSPost2010PropOp42
 70
     1
102
RTVSPost2010Prop43
 90
        3
102
RTVSPost2010PropOp43
 70
     1
102
RTVSPost2010Prop44ColorIndex
 90
        5
102
RTVSPost2010Prop44ColorRGB
 90
      255
102
RTVSPost2010PropOp44
 70
     1
102
RTVSPost2010Prop45
280
     0
102
RTVSPost2010PropOp45
 70
     1
102
RTVSPost2010Prop46
 90
       50
102
RTVSPost2010PropOp46
 70
     1
102
RTVSPost2010Prop47
 90
       50
102
RTVSPost2010PropOp47
 70
     1
102
RTVSPost2010Prop48
 90
       50
102
RTVSPost2010PropOp48
 70
     1
102
RTVSPost2010Prop49
280
     0
102
RTVSPost2010PropOp49
 70
     1
102
RTVSPost2010Prop50
 90
       50
102
RTVSPost2010PropOp50
 70
     1
102
RTVSPost2010Prop51ColorIndex
 90
      256
102
RTVSPost2010Prop51ColorRGB
 90
-16777216
102
RTVSPost2010PropOp51
 70
     0
102
RTVSPost2010Prop52
140
1.0
102
RTVSPost2010PropOp52
 70
     0
102
RTVSPost2010Prop53
 90
        2
102
RTVSPost2010PropOp53
 70
     1
102
RTVSPost2010Prop54
  1
strokes_ogs.tif
102
RTVSPost2010PropOp54
 70
     1
102
RTVSPost2010Prop55
280
     0
102
RTVSPost2010PropOp55
 70
     1
102
RTVSPost2010Prop56
140
1.0
102
RTVSPost2010PropOp56
 70
     1
102
RTVSPost2010Prop57
140
1.0
102
RTVSPost2010PropOp57
 70
     1
  0
XRECORD
  5
A7
102
{ACAD_REACTORS
330
A6
102
}
330
A6
100
AcDbXrecord
280
     1
102
RTVSPropertyOp0
 70
     1
102
RTVSPropertyOp1
 70
     1
102
RTVSPropertyOp2
 70
     1
102
RTVSPropertyOp3
 70
     1
102
RTVSPropertyOp4
 70
     1
102
RTVSPropertyOp5
 70
     1
102
RTVSPropertyOp6
 70
     1
102
RTVSPropertyOp7
 70
     1
102
RTVSPropertyOp8
 70
     1
102
RTVSPropertyOp9
 70
     1
102
RTVSPropertyOp10
 70
     1
102
RTVSPropertyOp11
 70
     1
102
RTVSPropertyOp12
 70
     1
102
RTVSPropertyOp13
 70
     1
102
RTVSPropertyOp14
 70
     1
102
RTVSPropertyOp15
 70
     1
102
RTVSPropertyOp16
 70
     1
102
RTVSPropertyOp17
 70
     1
102
RTVSPropertyOp18
 70
     1
102
RTVSPropertyOp19
 70
     1
102
RTVSPropertyOp20
 70
     1
102
RTVSPropertyOp21
 70
     1
102
RTVSPropertyOp22
 70
     1
102
RTVSPropertyOp23
 70
     1
102
RTVSPropertyOp24
 70
     1
102
RTVSPropertyOp25
 70
     1
102
RTVSPropertyOp26
 70
     1
102
RTVSPropertyOp27
 70
     1
102
RTVSPropertyOp28
 70
     1
102
RTVSPropertyOp29
 70
     1
102
RTVSPropertyOp30
 70
     1
102
RTVSPropertyOp31
 70
     1
102
RTVSPropertyOp32
 70
     1
102
RTVSPropertyOp33
 70
     1
102
RTVSPropertyOp34
 70
     1
102
RTVSPropertyOp35
 70
     1
102
RTVSPropertyOp36
 70
     1
102
RTVSPropertyOp37
 70
     1
102
RTVSPropertyOp38
 70
     1
102
RTVSPropertyOp39
 70
     1
102
RTVSPropertyOp40
 70
     1
102
RTVSPropertyOp41
 70
     1
102
RTVSPropertyOp42
 70
     1
102
RTVSPropertyOp43
 70
     1
102
RTVSPropertyOp44
 70
     1
102
RTVSPropertyOp45
 70
     1
102
RTVSPropertyOp46
 70
     1
102
RTVSPropertyOp47
 70
     1
102
RTVSPropertyOp48
 70
     1
102
RTVSPropertyOp49
 70
     1
102
RTVSPropertyOp50
 70
     1
102
RTVSPropertyOp51
 70
     0
102
RTVSPropertyOp52
 70
     0
102
RTVSPropertyOp53
 70
     1
102
RTVSPropertyOp54
 70
     1
102
RTVSPropertyOp55
 70
     1
102
RTVSPropertyOp56
 70
     1
102
RTVSPropertyOp57
 70
     1
102
RTVSPost2010Prop28
280
     0
102
RTVSPost2010PropOp28
 70
     1
102
RTVSPost2010Prop29
280
     1
102
RTVSPost2010PropOp29
 70
     1
102
RTVSPost2010Prop30
280
     1
102
RTVSPost2010PropOp30
 70
     1
102
RTVSPost2010Prop31
280
     0
102
RTVSPost2010PropOp31
 70
     1
102
RTVSPost2010Prop32
280
     0
102
RTVSPost2010PropOp32
 70
     1
102
RTVSPost2010Prop33
280
     0
102
RTVSPost2010PropOp33
 70
     1
102
RTVSPost2010Prop34
280
     0
102
RTVSPost2010PropOp34
 70
     1
102
RTVSPost2010Prop35
280
     0
102
RTVSPost2010PropOp35
 70
     1
102
RTVSPost2010Prop36
280
     0
102
RTVSPost2010PropOp36
 70
     1
102
RTVSPost2010Prop37
 90
       50
102
RTVSPost2010PropOp37
 70
     1
102
RTVSPost2010Prop38
140
0.0
102
RTVSPost2010PropOp38
 70
     1
102
RTVSPost2010Prop39
140
1.0
102
RTVSPost2010PropOp39
 70
     1
102
RTVSPost2010Prop40
 90
        0
102
RTVSPost2010PropOp40
 70
     1
102
RTVSPost2010Prop41ColorIndex
 90
       18
102
RTVSPost2010Prop41ColorRGB
 90
        0
102
RTVSPost2010PropOp41
 70
     1
102
RTVSPost2010Prop42
 90
       50
102
RTVSPost2010PropOp42
 70
     1
102
RTVSPost2010Prop43
 90
        3
102
RTVSPost2010PropOp43
 70
     1
102
RTVSPost2010Prop44ColorIndex
 90
        5
102
RTVSPost2010Prop44ColorRGB
 90
      255
102
RTVSPost2010PropOp44
 70
     1
102
RTVSPost2010Prop45
280
     0
102
RTVSPost2010PropOp45
 70
     1
102
RTVSPost2010Prop46
 90
       50
102
RTVSPost2010PropOp46
 70
     1
102
RTVSPost2010Prop47
 90
       50
102
RTVSPost2010PropOp47
 70
     1
102
RTVSPost2010Prop48
 90
       50
102
RTVSPost2010PropOp48
 70
     1
102
RTVSPost2010Prop49
280
     0
102
RTVSPost2010PropOp49
 70
     1
102
RTVSPost2010Prop50
 90
       50
102
RTVSPost2010PropOp50
 70
     1
102
RTVSPost2010Prop51ColorIndex
 90
      256
102
RTVSPost2010Prop51ColorRGB
 90
-16777216
102
RTVSPost2010PropOp51
 70
     0
102
RTVSPost2010Prop52
140
1.0
102
RTVSPost2010PropOp52
 70
     0
102
RTVSPost2010Prop53
 90
        2
102
RTVSPost2010PropOp53
 70
     1
102
RTVSPost2010Prop54
  1
strokes_ogs.tif
102
RTVSPost2010PropOp54
 70
     1
102
RTVSPost2010Prop55
280
     0
102
RTVSPost2010PropOp55
 70
     1
102
RTVSPost2010Prop56
140
1.0
102
RTVSPost2010PropOp56
 70
     1
102
RTVSPost2010Prop57
140
1.0
102
RTVSPost2010PropOp57
 70
     1
  0
XRECORD
  5
C7
102
{ACAD_REACTORS
330
C6
102
}
330
C6
100
AcDbXrecord
280
     1
102
RTVSPropertyOp0
 70
     1
102
RTVSPropertyOp1
 70
     1
102
RTVSPropertyOp2
 70
     1
102
RTVSPropertyOp3
 70
     1
102
RTVSPropertyOp4
 70
     1
102
RTVSPropertyOp5
 70
     1
102
RTVSPropertyOp6
 70
     1
102
RTVSPropertyOp7
 70
     1
102
RTVSPropertyOp8
 70
     1
102
RTVSPropertyOp9
 70
     1
102
RTVSPropertyOp10
 70
     1
102
RTVSPropertyOp11
 70
     1
102
RTVSPropertyOp12
 70
     1
102
RTVSPropertyOp13
 70
     1
102
RTVSPropertyOp14
 70
     1
102
RTVSPropertyOp15
 70
     1
102
RTVSPropertyOp16
 70
     1
102
RTVSPropertyOp17
 70
     1
102
RTVSPropertyOp18
 70
     1
102
RTVSPropertyOp19
 70
     1
102
RTVSPropertyOp20
 70
     1
102
RTVSPropertyOp21
 70
     1
102
RTVSPropertyOp22
 70
     1
102
RTVSPropertyOp23
 70
     1
102
RTVSPropertyOp24
 70
     1
102
RTVSPropertyOp25
 70
     1
102
RTVSPropertyOp26
 70
     1
102
RTVSPropertyOp27
 70
     1
102
RTVSPropertyOp28
 70
     1
102
RTVSPropertyOp29
 70
     1
102
RTVSPropertyOp30
 70
     1
102
RTVSPropertyOp31
 70
     1
102
RTVSPropertyOp32
 70
     1
102
RTVSPropertyOp33
 70
     1
102
RTVSPropertyOp34
 70
     1
102
RTVSPropertyOp35
 70
     1
102
RTVSPropertyOp36
 70
     1
102
RTVSPropertyOp37
 70
     1
102
RTVSPropertyOp38
 70
     1
102
RTVSPropertyOp39
 70
     1
102
RTVSPropertyOp40
 70
     1
102
RTVSPropertyOp41
 70
     1
102
RTVSPropertyOp42
 70
     1
102
RTVSPropertyOp43
 70
     1
102
RTVSPropertyOp44
 70
     1
102
RTVSPropertyOp45
 70
     1
102
RTVSPropertyOp46
 70
     1
102
RTVSPropertyOp47
 70
     1
102
RTVSPropertyOp48
 70
     1
102
RTVSPropertyOp49
 70
     1
102
RTVSPropertyOp50
 70
     1
102
RTVSPropertyOp51
 70
     0
102
RTVSPropertyOp52
 70
     0
102
RTVSPropertyOp53
 70
     1
102
RTVSPropertyOp54
 70
     1
102
RTVSPropertyOp55
 70
     1
102
RTVSPropertyOp56
 70
     1
102
RTVSPropertyOp57
 70
     1
102
RTVSPost2010Prop28
280
     0
102
RTVSPost2010PropOp28
 70
     1
102
RTVSPost2010Prop29
280
     1
102
RTVSPost2010PropOp29
 70
     1
102
RTVSPost2010Prop30
280
     1
102
RTVSPost2010PropOp30
 70
     1
102
RTVSPost2010Prop31
280
     0
102
RTVSPost2010PropOp31
 70
     1
102
RTVSPost2010Prop32
280
     0
102
RTVSPost2010PropOp32
 70
     1
102
RTVSPost2010Prop33
280
     0
102
RTVSPost2010PropOp33
 70
     1
102
RTVSPost2010Prop34
280
     0
102
RTVSPost2010PropOp34
 70
     1
102
RTVSPost2010Prop35
280
     0
102
RTVSPost2010PropOp35
 70
     1
102
RTVSPost2010Prop36
280
     0
102
RTVSPost2010PropOp36
 70
     1
102
RTVSPost2010Prop37
 90
       50
102
RTVSPost2010PropOp37
 70
     1
102
RTVSPost2010Prop38
140
0.0
102
RTVSPost2010PropOp38
 70
     1
102
RTVSPost2010Prop39
140
1.0
102
RTVSPost2010PropOp39
 70
     1
102
RTVSPost2010Prop40
 90
        0
102
RTVSPost2010PropOp40
 70
     1
102
RTVSPost2010Prop41ColorIndex
 90
       18
102
RTVSPost2010Prop41ColorRGB
 90
        0
102
RTVSPost2010PropOp41
 70
     1
102
RTVSPost2010Prop42
 90
       50
102
RTVSPost2010PropOp42
 70
     1
102
RTVSPost2010Prop43
 90
        3
102
RTVSPost2010PropOp43
 70
     1
102
RTVSPost2010Prop44ColorIndex
 90
        5
102
RTVSPost2010Prop44ColorRGB
 90
      255
102
RTVSPost2010PropOp44
 70
     1
102
RTVSPost2010Prop45
280
     0
102
RTVSPost2010PropOp45
 70
     1
102
RTVSPost2010Prop46
 90
       50
102
RTVSPost2010PropOp46
 70
     1
102
RTVSPost2010Prop47
 90
       50
102
RTVSPost2010PropOp47
 70
     1
102
RTVSPost2010Prop48
 90
       50
102
RTVSPost2010PropOp48
 70
     1
102
RTVSPost2010Prop49
280
     0
102
RTVSPost2010PropOp49
 70
     1
102
RTVSPost2010Prop50
 90
       50
102
RTVSPost2010PropOp50
 70
     1
102
RTVSPost2010Prop51ColorIndex
 90
      256
102
RTVSPost2010Prop51ColorRGB
 90
-16777216
102
RTVSPost2010PropOp51
 70
     0
102
RTVSPost2010Prop52
140
1.0
102
RTVSPost2010PropOp52
 70
     0
102
RTVSPost2010Prop53
 90
        2
102
RTVSPost2010PropOp53
 70
     1
102
RTVSPost2010Prop54
  1
strokes_ogs.tif
102
RTVSPost2010PropOp54
 70
     1
102
RTVSPost2010Prop55
280
     0
102
RTVSPost2010PropOp55
 70
     1
102
RTVSPost2010Prop56
140
1.0
102
RTVSPost2010PropOp56
 70
     1
102
RTVSPost2010Prop57
140
1.0
102
RTVSPost2010PropOp57
 70
     1
  0
ENDSEC
  0
EOF
