  0
SECTION
  2
HEADER
  9
$ACADVER
  1
AC1009
  9
$EXTMIN
 10
-246.14275245
 20
7.13371611
 30
0.0
  9
$EXTMAX
 10
460.83848936
 20
279.44670961
 30
0.0
  0
ENDSEC
  0
SECTION
  2
TABLES
  0
TABLE
  2
LAYER
 70
1
 0
LAYER
 2
N�vel_Padr�o
 70
0
 62
1
 6
CONTINUOUS
 0
ENDTAB
 0
ENDSEC
  0
SECTION
  2
ENTITIES
  0
POLYLINE
  8
N�vel_Padr�o
 66
   1
 39
0.000000
 70
    1
  0
VERTEX
  8
0
 10
328.76505190
 20
180.99840770
  0
VERTEX
  8
0
 10
328.76505190
 20
181.17129501
  0
VERTEX
  8
0
 10
328.88585618
 20
181.17129501
  0
VERTEX
  8
0
 10
348.17444190
 20
181.17129501
  0
VERTEX
  8
0
 10
348.17444190
 20
183.80491699
  0
VERTEX
  8
0
 10
329.39628709
 20
183.80491699
  0
VERTEX
  8
0
 10
328.76505190
 20
183.80491699
  0
VERTEX
  8
0
 10
328.76505190
 20
183.93820178
  0
VERTEX
  8
0
 10
328.76505190
 20
185.33718824
  0
VERTEX
  8
0
 10
328.76505190
 20
186.37481478
 42
-0.41421356
  0
VERTEX
  8
0
 10
332.68505190
 20
190.29481478
  0
VERTEX
  8
0
 10
332.79846163
 20
190.29481478
  0
VERTEX
  8
0
 10
349.60012314
 20
190.29481478
  0
VERTEX
  8
0
 10
355.91399190
 20
190.29481478
 42
-0.00603001
  0
VERTEX
  8
0
 10
356.00853212
 20
190.29367459
 42
-0.06262420
  0
VERTEX
  8
0
 10
356.97577635
 20
190.14827656
 42
-0.23599171
  0
VERTEX
  8
0
 10
359.56942307
 20
187.79052060
 42
-0.03186731
  0
VERTEX
  8
0
 10
359.71969591
 20
187.31450462
 42
-0.06059252
  0
VERTEX
  8
0
 10
359.83399190
 20
186.37481478
  0
VERTEX
  8
0
 10
359.83399190
 20
175.81151836
  0
VERTEX
  8
0
 10
359.83399190
 20
169.26027297
  0
VERTEX
  8
0
 10
366.55875190
 20
169.26027297
 42
-0.32578906
  0
VERTEX
  8
0
 10
367.49173497
 20
168.58017727
 42
-0.07791074
  0
VERTEX
  8
0
 10
367.53875190
 20
168.28027297
  0
VERTEX
  8
0
 10
367.53875190
 20
163.38027297
 42
-0.41421356
  0
VERTEX
  8
0
 10
366.55875190
 20
162.40027297
  0
VERTEX
  8
0
 10
365.15883931
 20
162.40027297
  0
VERTEX
  8
0
 10
318.96701190
 20
162.40027297
 42
-0.02660440
  0
VERTEX
  8
0
 10
318.86294383
 20
162.40581423
 42
-0.38338430
  0
VERTEX
  8
0
 10
317.98701190
 20
163.38027297
  0
VERTEX
  8
0
 10
317.98701190
 20
163.43225479
  0
VERTEX
  8
0
 10
317.98701190
 20
168.28027297
 42
-0.41421356
  0
VERTEX
  8
0
 10
318.96701190
 20
169.26027297
  0
VERTEX
  8
0
 10
321.63774273
 20
169.26027297
  0
VERTEX
  8
0
 10
328.76505190
 20
169.26027297
  0
VERTEX
  8
0
 10
328.76505190
 20
179.91885379
  0
VERTEX
  8
0
 10
328.76505190
 20
180.99840770
  0
SEQEND
  0
POLYLINE
  8
N�vel_Padr�o
 66
   1
 39
0.000000
 70
    1
  0
VERTEX
  8
0
 10
384.09898621
 20
197.03818224
  0
VERTEX
  8
0
 10
384.09898621
 20
208.69821535
  0
VERTEX
  8
0
 10
383.67181796
 20
208.69821535
  0
VERTEX
  8
0
 10
381.58603686
 20
208.69821535
  0
VERTEX
  8
0
 10
381.15898621
 20
208.69821535
  0
VERTEX
  8
0
 10
381.15898621
 20
197.03821477
  0
VERTEX
  8
0
 10
380.24575021
 20
197.18641681
  0
VERTEX
  8
0
 10
378.94217242
 20
197.38789924
  0
VERTEX
  8
0
 10
377.69813071
 20
197.59908572
  0
VERTEX
  8
0
 10
376.43503153
 20
197.79520005
  0
VERTEX
  8
0
 10
375.77177492
 20
197.87986259
  0
VERTEX
  8
0
 10
375.07428137
 20
197.95146600
  0
VERTEX
  8
0
 10
374.54937257
 20
199.06505344
  0
VERTEX
  8
0
 10
374.07344640
 20
200.19200004
  0
VERTEX
  8
0
 10
373.64507456
 20
201.33145574
  0
VERTEX
  8
0
 10
373.26282874
 20
202.48257052
  0
VERTEX
  8
0
 10
372.92528062
 20
203.64449432
  0
VERTEX
  8
0
 10
372.63100191
 20
204.81637710
  0
VERTEX
  8
0
 10
372.37856429
 20
205.99736882
  0
VERTEX
  8
0
 10
372.16653944
 20
207.18661943
  0
VERTEX
  8
0
 10
371.99349907
 20
208.38327888
  0
VERTEX
  8
0
 10
371.85801486
 20
209.58649714
  0
VERTEX
  8
0
 10
371.75865849
 20
210.79542417
  0
VERTEX
  8
0
 10
371.69400168
 20
212.00920990
  0
VERTEX
  8
0
 10
371.66261609
 20
213.22700431
  0
VERTEX
  8
0
 10
371.66307342
 20
214.44795735
  0
VERTEX
  8
0
 10
371.69394537
 20
215.67121897
  0
VERTEX
  8
0
 10
371.75380363
 20
216.89593913
  0
VERTEX
  8
0
 10
371.84121988
 20
218.12126778
  0
VERTEX
  8
0
 10
371.95476581
 20
219.34635489
  0
VERTEX
  8
0
 10
372.09301311
 20
220.57035040
  0
VERTEX
  8
0
 10
372.25453349
 20
221.79240428
  0
VERTEX
  8
0
 10
372.43789862
 20
223.01166648
  0
VERTEX
  8
0
 10
372.64168019
 20
224.22728695
  0
VERTEX
  8
0
 10
372.86444991
 20
225.43841565
  0
VERTEX
  8
0
 10
373.10477945
 20
226.64420254
  0
VERTEX
  8
0
 10
373.36124050
 20
227.84379757
  0
VERTEX
  8
0
 10
373.63240477
 20
229.03635071
  0
VERTEX
  8
0
 10
374.21312969
 20
231.39693109
  0
VERTEX
  8
0
 10
374.83552773
 20
233.71914334
  0
VERTEX
  8
0
 10
375.48817241
 20
235.99618711
  0
VERTEX
  8
0
 10
375.84725839
 20
237.13575166
  0
VERTEX
  8
0
 10
376.24896819
 20
238.28663167
  0
VERTEX
  8
0
 10
376.68173932
 20
239.44514078
  0
VERTEX
  8
0
 10
377.13400927
 20
240.60759263
  0
VERTEX
  8
0
 10
378.05079567
 20
242.92957912
  0
VERTEX
  8
0
 10
378.49218712
 20
244.08174105
  0
VERTEX
  8
0
 10
378.90682741
 20
245.22310028
  0
VERTEX
  8
0
 10
379.12010883
 20
245.79847631
  0
VERTEX
  8
0
 10
379.36584263
 20
246.36988325
  0
VERTEX
  8
0
 10
379.65350520
 20
246.92025689
  0
VERTEX
  8
0
 10
379.81602114
 20
247.18222365
  0
VERTEX
  8
0
 10
379.99257293
 20
247.43253300
  0
VERTEX
  8
0
 10
380.18434510
 20
247.66905191
  0
VERTEX
  8
0
 10
380.39252221
 20
247.88964734
  0
VERTEX
  8
0
 10
380.61828880
 20
248.09218628
  0
VERTEX
  8
0
 10
380.86282943
 20
248.27453570
  0
VERTEX
  8
0
 10
381.12732864
 20
248.43456256
  0
VERTEX
  8
0
 10
381.41297098
 20
248.57013383
  0
VERTEX
  8
0
 10
381.72094099
 20
248.67911650
  0
VERTEX
  8
0
 10
382.05242324
 20
248.75937752
  0
VERTEX
  8
0
 10
382.34833803
 20
248.80305647
  0
VERTEX
  8
0
 10
382.62908644
 20
248.81955993
  0
VERTEX
  8
0
 10
382.90983485
 20
248.80305647
  0
VERTEX
  8
0
 10
383.20574964
 20
248.75937752
  0
VERTEX
  8
0
 10
383.53723188
 20
248.67911650
  0
VERTEX
  8
0
 10
383.84520190
 20
248.57013383
  0
VERTEX
  8
0
 10
384.13084424
 20
248.43456256
  0
VERTEX
  8
0
 10
384.39534345
 20
248.27453570
  0
VERTEX
  8
0
 10
384.63988407
 20
248.09218628
  0
VERTEX
  8
0
 10
384.86565067
 20
247.88964734
  0
VERTEX
  8
0
 10
385.07382777
 20
247.66905191
  0
VERTEX
  8
0
 10
385.26559995
 20
247.43253300
  0
VERTEX
  8
0
 10
385.44215173
 20
247.18222365
  0
VERTEX
  8
0
 10
385.60466768
 20
246.92025689
  0
VERTEX
  8
0
 10
385.89233025
 20
246.36988325
  0
VERTEX
  8
0
 10
386.13806405
 20
245.79847631
  0
VERTEX
  8
0
 10
386.35134546
 20
245.22310028
  0
VERTEX
  8
0
 10
386.76598575
 20
244.08174105
  0
VERTEX
  8
0
 10
387.20737721
 20
242.92957912
  0
VERTEX
  8
0
 10
388.12416361
 20
240.60759263
  0
VERTEX
  8
0
 10
388.57643356
 20
239.44514078
  0
VERTEX
  8
0
 10
389.00920468
 20
238.28663167
  0
VERTEX
  8
0
 10
389.41091449
 20
237.13575166
  0
VERTEX
  8
0
 10
389.77000047
 20
235.99618711
  0
VERTEX
  8
0
 10
390.42264515
 20
233.71914334
  0
VERTEX
  8
0
 10
391.04504319
 20
231.39693109
  0
VERTEX
  8
0
 10
391.62576811
 20
229.03635071
  0
VERTEX
  8
0
 10
391.89693237
 20
227.84379757
  0
VERTEX
  8
0
 10
392.15339343
 20
226.64420254
  0
VERTEX
  8
0
 10
392.39372297
 20
225.43841565
  0
VERTEX
  8
0
 10
392.61649268
 20
224.22728695
  0
VERTEX
  8
0
 10
392.82027426
 20
223.01166648
  0
VERTEX
  8
0
 10
393.00363939
 20
221.79240428
  0
VERTEX
  8
0
 10
393.16515976
 20
220.57035040
  0
VERTEX
  8
0
 10
393.30340707
 20
219.34635489
  0
VERTEX
  8
0
 10
393.41695300
 20
218.12126778
  0
VERTEX
  8
0
 10
393.50436925
 20
216.89593913
  0
VERTEX
  8
0
 10
393.56422750
 20
215.67121897
  0
VERTEX
  8
0
 10
393.59509945
 20
214.44795735
  0
VERTEX
  8
0
 10
393.59555679
 20
213.22700431
  0
VERTEX
  8
0
 10
393.56417120
 20
212.00920990
  0
VERTEX
  8
0
 10
393.49951438
 20
210.79542417
  0
VERTEX
  8
0
 10
393.40015802
 20
209.58649714
  0
VERTEX
  8
0
 10
393.26467381
 20
208.38327888
  0
VERTEX
  8
0
 10
393.09163343
 20
207.18661943
  0
VERTEX
  8
0
 10
392.87960859
 20
205.99736882
  0
VERTEX
  8
0
 10
392.62717097
 20
204.81637710
  0
VERTEX
  8
0
 10
392.33289225
 20
203.64449432
  0
VERTEX
  8
0
 10
391.99534414
 20
202.48257052
  0
VERTEX
  8
0
 10
391.61309832
 20
201.33145574
  0
VERTEX
  8
0
 10
391.18472648
 20
200.19200004
  0
VERTEX
  8
0
 10
390.70880031
 20
199.06505344
  0
VERTEX
  8
0
 10
390.18389150
 20
197.95146600
  0
VERTEX
  8
0
 10
389.48639795
 20
197.87986259
  0
VERTEX
  8
0
 10
388.82314134
 20
197.79520005
  0
VERTEX
  8
0
 10
387.56004217
 20
197.59908572
  0
VERTEX
  8
0
 10
386.31600045
 20
197.38789924
  0
VERTEX
  8
0
 10
385.01242267
 20
197.18641681
  0
VERTEX
  8
0
 10
384.09898621
 20
197.03818224
  0
SEQEND
  0
POLYLINE
  8
N�vel_Padr�o
 66
   1
 39
0.000000
 70
    1
  0
VERTEX
  8
0
 10
-97.95357732
 20
41.41340997
  0
VERTEX
  8
0
 10
-94.03417070
 20
56.54630561
 42
0.41421356
  0
VERTEX
  8
0
 10
-94.73715592
 20
57.74071415
  0
VERTEX
  8
0
 10
-95.68585281
 20
57.98642581
 42
0.41421356
  0
VERTEX
  8
0
 10
-96.88026135
 20
57.28344058
  0
VERTEX
  8
0
 10
-100.79727927
 20
42.15976780
  0
VERTEX
  8
0
 10
-100.89116029
 20
42.18980125
  0
VERTEX
  8
0
 10
-101.33101549
 20
42.35081032
  0
VERTEX
  8
0
 10
-101.76066725
 20
42.53818025
  0
VERTEX
  8
0
 10
-102.17750882
 20
42.75225718
  0
VERTEX
  8
0
 10
-102.57893346
 20
42.99338725
  0
VERTEX
  8
0
 10
-102.94993869
 20
43.25360200
  0
VERTEX
  8
0
 10
-103.29916487
 20
43.54244757
  0
VERTEX
  8
0
 10
-103.62053652
 20
43.86129294
  0
VERTEX
  8
0
 10
-103.90797814
 20
44.21150712
  0
VERTEX
  8
0
 10
-104.03843881
 20
44.40276760
  0
VERTEX
  8
0
 10
-104.15676091
 20
44.60173907
  0
VERTEX
  8
0
 10
-104.27651229
 20
44.84381165
  0
VERTEX
  8
0
 10
-104.37625535
 20
45.09474383
  0
VERTEX
  8
0
 10
-104.52273908
 20
45.54733323
  0
VERTEX
  8
0
 10
-104.65045921
 20
46.00423532
  0
VERTEX
  8
0
 10
-104.76019745
 20
46.46499787
  0
VERTEX
  8
0
 10
-104.85273547
 20
46.92916867
  0
VERTEX
  8
0
 10
-104.92885498
 20
47.39629547
  0
VERTEX
  8
0
 10
-104.98933765
 20
47.86592604
  0
VERTEX
  8
0
 10
-105.06651927
 20
48.81088961
  0
VERTEX
  8
0
 10
-105.09053383
 20
49.76044154
  0
VERTEX
  8
0
 10
-105.06763487
 20
50.71096399
  0
VERTEX
  8
0
 10
-105.00407590
 20
51.65883912
  0
VERTEX
  8
0
 10
-104.90611043
 20
52.60044909
  0
VERTEX
  8
0
 10
-104.74927226
 20
53.78697768
  0
VERTEX
  8
0
 10
-104.56909569
 20
54.97508748
  0
VERTEX
  8
0
 10
-104.16552510
 20
57.34346847
  0
VERTEX
  8
0
 10
-103.78836253
 20
59.32700475
  0
VERTEX
  8
0
 10
-103.36457789
 20
61.30262543
  0
VERTEX
  8
0
 10
-102.89587964
 20
63.26969218
  0
VERTEX
  8
0
 10
-102.38397624
 20
65.22756670
  0
VERTEX
  8
0
 10
-101.83057615
 20
67.17561068
  0
VERTEX
  8
0
 10
-101.23738784
 20
69.11318581
  0
VERTEX
  8
0
 10
-100.60611975
 20
71.03965379
  0
VERTEX
  8
0
 10
-99.93848035
 20
72.95437630
  0
VERTEX
  8
0
 10
-99.23617810
 20
74.85671504
  0
VERTEX
  8
0
 10
-98.50092146
 20
76.74603169
  0
VERTEX
  8
0
 10
-97.73441889
 20
78.62168796
  0
VERTEX
  8
0
 10
-96.93837885
 20
80.48304552
  0
VERTEX
  8
0
 10
-96.11450980
 20
82.32946607
  0
VERTEX
  8
0
 10
-95.26452019
 20
84.16031130
  0
VERTEX
  8
0
 10
-94.39011850
 20
85.97494290
  0
VERTEX
  8
0
 10
-93.49301317
 20
87.77272257
  0
VERTEX
  8
0
 10
-92.62616615
 20
89.42904503
  0
VERTEX
  8
0
 10
-91.73183059
 20
91.09302756
  0
VERTEX
  8
0
 10
-90.85013478
 20
92.77164852
  0
VERTEX
  8
0
 10
-90.42656687
 20
93.61862914
  0
VERTEX
  8
0
 10
-90.02120701
 20
94.47188624
  0
VERTEX
  8
0
 10
-89.63907122
 20
95.33229213
  0
VERTEX
  8
0
 10
-89.28517555
 20
96.20071908
  0
VERTEX
  8
0
 10
-88.96453604
 20
97.07803940
  0
VERTEX
  8
0
 10
-88.68216872
 20
97.96512539
  0
VERTEX
  8
0
 10
-88.44308962
 20
98.86284932
  0
VERTEX
  8
0
 10
-88.25231478
 20
99.77208350
  0
VERTEX
  8
0
 10
-88.11486023
 20
100.69370022
  0
VERTEX
  8
0
 10
-88.06769559
 20
101.15942463
  0
VERTEX
  8
0
 10
-88.03574203
 20
101.62857178
  0
VERTEX
  8
0
 10
-88.00188422
 20
102.82079834
  0
VERTEX
  8
0
 10
-88.02044443
 20
104.01003718
  0
VERTEX
  8
0
 10
-88.08806346
 20
105.19594029
  0
VERTEX
  8
0
 10
-88.20138211
 20
106.37815967
  0
VERTEX
  8
0
 10
-88.35704117
 20
107.55634730
  0
VERTEX
  8
0
 10
-88.55168144
 20
108.73015518
  0
VERTEX
  8
0
 10
-88.78194372
 20
109.89923530
  0
VERTEX
  8
0
 10
-89.04446880
 20
111.06323965
  0
VERTEX
  8
0
 10
-89.33589749
 20
112.22182022
  0
VERTEX
  8
0
 10
-89.65287057
 20
113.37462901
  0
VERTEX
  8
0
 10
-89.99202885
 20
114.52131800
  0
VERTEX
  8
0
 10
-90.35001312
 20
115.66153919
  0
VERTEX
  8
0
 10
-91.10902283
 20
117.92118613
  0
VERTEX
  8
0
 10
-91.90302608
 20
120.15078577
  0
VERTEX
  8
0
 10
-92.90006893
 20
122.85889542
  0
VERTEX
  8
0
 10
-93.39841975
 20
124.22510108
  0
VERTEX
  8
0
 10
-93.88235793
 20
125.59920487
  0
VERTEX
  8
0
 10
-94.34115931
 20
126.98105497
  0
VERTEX
  8
0
 10
-94.76409971
 20
128.37049956
  0
VERTEX
  8
0
 10
-95.14045497
 20
129.76738682
  0
VERTEX
  8
0
 10
-95.30781186
 20
130.46857401
  0
VERTEX
  8
0
 10
-95.45950091
 20
131.17156493
  0
VERTEX
  8
0
 10
-95.81002756
 20
133.02606065
  0
VERTEX
  8
0
 10
-96.11144065
 20
134.90000470
  0
VERTEX
  8
0
 10
-96.36495999
 20
136.78810111
  0
VERTEX
  8
0
 10
-96.57180539
 20
138.68505395
  0
VERTEX
  8
0
 10
-96.73319665
 20
140.58556724
  0
VERTEX
  8
0
 10
-96.85035358
 20
142.48434505
  0
VERTEX
  8
0
 10
-96.92449600
 20
144.37609141
  0
VERTEX
  8
0
 10
-96.95684370
 20
146.25551037
  0
VERTEX
  8
0
 10
-96.95012812
 20
147.49171687
  0
VERTEX
  8
0
 10
-96.91505085
 20
148.73537042
  0
VERTEX
  8
0
 10
-96.85263110
 20
149.98481467
  0
VERTEX
  8
0
 10
-96.76388807
 20
151.23839329
  0
VERTEX
  8
0
 10
-96.64984096
 20
152.49444994
  0
VERTEX
  8
0
 10
-96.51150896
 20
153.75132829
  0
VERTEX
  8
0
 10
-96.34991127
 20
155.00737200
  0
VERTEX
  8
0
 10
-96.16606709
 20
156.26092473
  0
VERTEX
  8
0
 10
-95.96099562
 20
157.51033015
  0
VERTEX
  8
0
 10
-95.73571606
 20
158.75393191
  0
VERTEX
  8
0
 10
-95.49124760
 20
159.99007370
  0
VERTEX
  8
0
 10
-95.22860945
 20
161.21709916
  0
VERTEX
  8
0
 10
-94.94882080
 20
162.43335197
  0
VERTEX
  8
0
 10
-94.65290085
 20
163.63717578
  0
VERTEX
  8
0
 10
-94.34186880
 20
164.82691426
  0
VERTEX
  8
0
 10
-94.01674385
 20
166.00091107
  0
VERTEX
  8
0
 10
-93.66931280
 20
167.17252139
  0
VERTEX
  8
0
 10
-93.28992783
 20
168.35949017
  0
VERTEX
  8
0
 10
-92.88010431
 20
169.55744424
  0
VERTEX
  8
0
 10
-92.44135758
 20
170.76201043
  0
VERTEX
  8
0
 10
-91.97520303
 20
171.96881557
  0
VERTEX
  8
0
 10
-91.48315599
 20
173.17348649
  0
VERTEX
  8
0
 10
-90.96673183
 20
174.37165001
  0
VERTEX
  8
0
 10
-90.42744592
 20
175.55893295
  0
VERTEX
  8
0
 10
-89.86681361
 20
176.73096216
  0
VERTEX
  8
0
 10
-89.28635025
 20
177.88336445
  0
VERTEX
  8
0
 10
-88.68757122
 20
179.01176665
  0
VERTEX
  8
0
 10
-88.07199186
 20
180.11179559
  0
VERTEX
  8
0
 10
-87.44112754
 20
181.17907810
  0
VERTEX
  8
0
 10
-86.79649362
 20
182.20924100
  0
VERTEX
  8
0
 10
-86.13960546
 20
183.19791113
  0
VERTEX
  8
0
 10
-85.47197841
 20
184.14071530
  0
VERTEX
  8
0
 10
-84.84908470
 20
185.04521567
  0
VERTEX
  8
0
 10
-84.16192012
 20
186.08519595
  0
VERTEX
  8
0
 10
-83.79565272
 20
186.62596082
  0
VERTEX
  8
0
 10
-83.41501735
 20
187.16455938
  0
VERTEX
  8
0
 10
-83.02058059
 20
187.68897954
  0
VERTEX
  8
0
 10
-82.61290903
 20
188.18720921
  0
VERTEX
  8
0
 10
-82.19256925
 20
188.64723629
  0
VERTEX
  8
0
 10
-81.76012783
 20
189.05704870
  0
VERTEX
  8
0
 10
-81.53954606
 20
189.23937062
  0
VERTEX
  8
0
 10
-81.31615136
 20
189.40463433
  0
VERTEX
  8
0
 10
-81.09001453
 20
189.55133833
  0
VERTEX
  8
0
 10
-80.86120641
 20
189.67798109
  0
VERTEX
  8
0
 10
-80.62979781
 20
189.78306112
  0
VERTEX
  8
0
 10
-80.39585957
 20
189.86507690
  0
VERTEX
  8
0
 10
-80.15946250
 20
189.92252691
  0
VERTEX
  8
0
 10
-79.92067742
 20
189.95390965
  0
VERTEX
  8
0
 10
-79.67957517
 20
189.95772360
  0
VERTEX
  8
0
 10
-79.43622655
 20
189.93246725
  0
VERTEX
  8
0
 10
-79.19070240
 20
189.87663909
  0
VERTEX
  8
0
 10
-78.94307354
 20
189.78873761
  0
VERTEX
  8
0
 10
-78.64670980
 20
189.64013995
  0
VERTEX
  8
0
 10
-78.39903866
 20
189.46540262
  0
VERTEX
  8
0
 10
-78.19763458
 20
189.26598619
  0
VERTEX
  8
0
 10
-78.04007200
 20
189.04335127
  0
VERTEX
  8
0
 10
-77.92392536
 20
188.79895843
  0
VERTEX
  8
0
 10
-77.84676913
 20
188.53426827
  0
VERTEX
  8
0
 10
-77.80617774
 20
188.25074137
  0
VERTEX
  8
0
 10
-77.79972564
 20
187.94983832
  0
VERTEX
  8
0
 10
-77.82498729
 20
187.63301970
  0
VERTEX
  8
0
 10
-77.87953713
 20
187.30174610
  0
VERTEX
  8
0
 10
-77.96094961
 20
186.95747812
  0
VERTEX
  8
0
 10
-78.06679918
 20
186.60167633
  0
VERTEX
  8
0
 10
-78.19466029
 20
186.23580132
  0
VERTEX
  8
0
 10
-78.34210738
 20
185.86131369
  0
VERTEX
  8
0
 10
-78.68605731
 20
185.09234288
  0
VERTEX
  8
0
 10
-79.07924457
 20
184.30644861
  0
VERTEX
  8
0
 10
-79.50226475
 20
183.51531556
  0
VERTEX
  8
0
 10
-80.36018618
 20
181.96407194
  0
VERTEX
  8
0
 10
-80.75627862
 20
181.22733076
  0
VERTEX
  8
0
 10
-81.10458633
 20
180.53208959
  0
VERTEX
  8
0
 10
-81.38570489
 20
179.89003315
  0
VERTEX
  8
0
 10
-81.49500436
 20
179.59260066
  0
VERTEX
  8
0
 10
-81.58022989
 20
179.31284611
  0
VERTEX
  8
0
 10
-81.69740287
 20
178.91728208
  0
VERTEX
  8
0
 10
-81.84079605
 20
178.50165896
  0
VERTEX
  8
0
 10
-82.19323618
 20
177.61960742
  0
VERTEX
  8
0
 10
-82.61153663
 20
176.68543550
  0
VERTEX
  8
0
 10
-83.06968376
 20
175.71788723
  0
VERTEX
  8
0
 10
-84.00146341
 20
173.75763767
  0
VERTEX
  8
0
 10
-84.42306864
 20
172.80242440
  0
VERTEX
  8
0
 10
-84.78046594
 20
171.88881084
  0
VERTEX
  8
0
 10
-85.22276045
 20
170.63106615
  0
VERTEX
  8
0
 10
-85.65700549
 20
169.35117491
  0
VERTEX
  8
0
 10
-86.07917174
 20
168.05125153
  0
VERTEX
  8
0
 10
-86.48522987
 20
166.73341039
  0
VERTEX
  8
0
 10
-86.87115053
 20
165.39976589
  0
VERTEX
  8
0
 10
-87.23290442
 20
164.05243243
  0
VERTEX
  8
0
 10
-87.56646219
 20
162.69352439
  0
VERTEX
  8
0
 10
-87.86779452
 20
161.32515618
  0
VERTEX
  8
0
 10
-88.13287207
 20
159.94944219
  0
VERTEX
  8
0
 10
-88.35766553
 20
158.56849682
  0
VERTEX
  8
0
 10
-88.53814555
 20
157.18443446
  0
VERTEX
  8
0
 10
-88.67028282
 20
155.79936950
  0
VERTEX
  8
0
 10
-88.75004799
 20
154.41541634
  0
VERTEX
  8
0
 10
-88.77341175
 20
153.03468938
  0
VERTEX
  8
0
 10
-88.76268393
 20
152.34619647
  0
VERTEX
  8
0
 10
-88.73634476
 20
151.65930301
  0
VERTEX
  8
0
 10
-88.69389057
 20
150.97427329
  0
VERTEX
  8
0
 10
-88.63481769
 20
150.29137162
  0
VERTEX
  8
0
 10
-88.46008466
 20
148.76614133
  0
VERTEX
  8
0
 10
-88.24078859
 20
147.24484708
  0
VERTEX
  8
0
 10
-87.98033522
 20
145.72760499
  0
VERTEX
  8
0
 10
-87.68213027
 20
144.21453118
  0
VERTEX
  8
0
 10
-87.34957947
 20
142.70574176
  0
VERTEX
  8
0
 10
-86.98608857
 20
141.20135285
  0
VERTEX
  8
0
 10
-86.59506328
 20
139.70148056
  0
VERTEX
  8
0
 10
-86.17990933
 20
138.20624101
  0
VERTEX
  8
0
 10
-85.74403247
 20
136.71575031
  0
VERTEX
  8
0
 10
-85.29083842
 20
135.23012457
  0
VERTEX
  8
0
 10
-84.34612166
 20
132.27393247
  0
VERTEX
  8
0
 10
-83.37300492
 20
129.33859362
  0
VERTEX
  8
0
 10
-82.39873403
 20
126.42503695
  0
VERTEX
  8
0
 10
-81.39911828
 20
123.39220040
  0
VERTEX
  8
0
 10
-80.90834951
 20
121.86235493
  0
VERTEX
  8
0
 10
-80.42996231
 20
120.32574547
  0
VERTEX
  8
0
 10
-79.96872328
 20
118.78401264
  0
VERTEX
  8
0
 10
-79.52939905
 20
117.23879704
  0
VERTEX
  8
0
 10
-79.11675622
 20
115.69173929
  0
VERTEX
  8
0
 10
-78.73556142
 20
114.14448001
  0
VERTEX
  8
0
 10
-78.30899056
 20
112.30473013
  0
VERTEX
  8
0
 10
-77.90456670
 20
110.44821614
  0
VERTEX
  8
0
 10
-77.54352521
 20
108.57820766
  0
VERTEX
  8
0
 10
-77.38590891
 20
107.63916474
  0
VERTEX
  8
0
 10
-77.24710146
 20
106.69797430
  0
VERTEX
  8
0
 10
-77.12975728
 20
105.75504506
  0
VERTEX
  8
0
 10
-77.03653079
 20
104.81078570
  0
VERTEX
  8
0
 10
-76.97007641
 20
103.86560494
  0
VERTEX
  8
0
 10
-76.93304857
 20
102.91991148
  0
VERTEX
  8
0
 10
-76.92810167
 20
101.97411402
  0
VERTEX
  8
0
 10
-76.95789015
 20
101.02862125
  0
VERTEX
  8
0
 10
-77.02506842
 20
100.08384190
  0
VERTEX
  8
0
 10
-77.13229090
 20
99.14018465
  0
VERTEX
  8
0
 10
-77.30343154
 20
97.96815359
  0
VERTEX
  8
0
 10
-77.49969454
 20
96.80177829
  0
VERTEX
  8
0
 10
-77.72412906
 20
95.64203002
  0
VERTEX
  8
0
 10
-77.97978424
 20
94.48988002
  0
VERTEX
  8
0
 10
-78.26970923
 20
93.34629958
  0
VERTEX
  8
0
 10
-78.59695316
 20
92.21225994
  0
VERTEX
  8
0
 10
-78.96456519
 20
91.08873238
  0
VERTEX
  8
0
 10
-79.37559446
 20
89.97668815
  0
VERTEX
  8
0
 10
-79.59932917
 20
89.34962909
  0
VERTEX
  8
0
 10
-79.78072826
 20
88.71325179
  0
VERTEX
  8
0
 10
-79.91670932
 20
88.06927161
  0
VERTEX
  8
0
 10
-80.00418993
 20
87.41940390
  0
VERTEX
  8
0
 10
-80.04008768
 20
86.76536399
  0
VERTEX
  8
0
 10
-80.02132013
 20
86.10886723
  0
VERTEX
  8
0
 10
-79.94480489
 20
85.45162896
  0
VERTEX
  8
0
 10
-79.88392862
 20
85.12326781
  0
VERTEX
  8
0
 10
-79.80745952
 20
84.79536454
  0
VERTEX
  8
0
 10
-79.72127759
 20
84.42539188
  0
VERTEX
  8
0
 10
-79.65251216
 20
84.05464126
  0
VERTEX
  8
0
 10
-79.60024871
 20
83.68327127
  0
VERTEX
  8
0
 10
-79.56357271
 20
83.31144052
  0
VERTEX
  8
0
 10
-79.53332490
 20
82.56703108
  0
VERTEX
  8
0
 10
-79.55445249
 20
81.82268175
  0
VERTEX
  8
0
 10
-79.61963923
 20
81.07966130
  0
VERTEX
  8
0
 10
-79.72156885
 20
80.33923852
  0
VERTEX
  8
0
 10
-79.85292512
 20
79.60268220
  0
VERTEX
  8
0
 10
-80.00639176
 20
78.87126111
  0
VERTEX
  8
0
 10
-80.15185151
 20
78.29374711
  0
VERTEX
  8
0
 10
-80.31953197
 20
77.71858558
  0
VERTEX
  8
0
 10
-80.49314035
 20
77.14369889
  0
VERTEX
  8
0
 10
-80.65638389
 20
76.56700942
  0
VERTEX
  8
0
 10
-80.79296979
 20
75.98643953
  0
VERTEX
  8
0
 10
-80.88660529
 20
75.39991160
  0
VERTEX
  8
0
 10
-80.91222515
 20
75.10376411
  0
VERTEX
  8
0
 10
-80.92099761
 20
74.80534799
  0
VERTEX
  8
0
 10
-80.91088608
 20
74.50440355
  0
VERTEX
  8
0
 10
-80.87985396
 20
74.20067108
  0
VERTEX
  8
0
 10
-80.60888431
 20
73.87250187
  0
VERTEX
  8
0
 10
-80.31813492
 20
73.58167338
  0
VERTEX
  8
0
 10
-80.00766206
 20
73.32210240
  0
VERTEX
  8
0
 10
-79.67752200
 20
73.08770575
  0
VERTEX
  8
0
 10
-79.32777099
 20
72.87240021
  0
VERTEX
  8
0
 10
-78.95846530
 20
72.67010259
  0
VERTEX
  8
0
 10
-78.16141496
 20
72.28019833
  0
VERTEX
  8
0
 10
-77.64312241
 20
72.01496604
  0
VERTEX
  8
0
 10
-77.15482479
 20
71.72001779
  0
VERTEX
  8
0
 10
-76.69873828
 20
71.39671634
  0
VERTEX
  8
0
 10
-76.27707906
 20
71.04642445
  0
VERTEX
  8
0
 10
-75.89206330
 20
70.67050485
  0
VERTEX
  8
0
 10
-75.54590719
 20
70.27032031
  0
VERTEX
  8
0
 10
-75.24082689
 20
69.84723358
  0
VERTEX
  8
0
 10
-74.97903858
 20
69.40260741
  0
VERTEX
  8
0
 10
-74.76275843
 20
68.93780456
  0
VERTEX
  8
0
 10
-74.59420263
 20
68.45418778
  0
VERTEX
  8
0
 10
-74.47558734
 20
67.95311982
  0
VERTEX
  8
0
 10
-74.40912875
 20
67.43596343
  0
VERTEX
  8
0
 10
-74.39704303
 20
66.90408138
  0
VERTEX
  8
0
 10
-74.44154636
 20
66.35883641
  0
VERTEX
  8
0
 10
-74.54485491
 20
65.80159127
  0
VERTEX
  8
0
 10
-74.70918485
 20
65.23370872
  0
VERTEX
  8
0
 10
-74.99641798
 20
64.42823216
  0
VERTEX
  8
0
 10
-75.29287131
 20
63.67098136
  0
VERTEX
  8
0
 10
-75.60381591
 20
62.95233506
  0
VERTEX
  8
0
 10
-75.93452283
 20
62.26267202
  0
VERTEX
  8
0
 10
-76.29026314
 20
61.59237099
  0
VERTEX
  8
0
 10
-76.67630787
 20
60.93181071
  0
VERTEX
  8
0
 10
-77.09792810
 20
60.27136995
  0
VERTEX
  8
0
 10
-77.56039488
 20
59.60142744
  0
VERTEX
  8
0
 10
-78.39890865
 20
58.46501021
  0
VERTEX
  8
0
 10
-79.26012789
 20
57.37035729
  0
VERTEX
  8
0
 10
-80.14667006
 20
56.31472932
  0
VERTEX
  8
0
 10
-81.06115259
 20
55.29538695
  0
VERTEX
  8
0
 10
-82.00619292
 20
54.30959082
  0
VERTEX
  8
0
 10
-82.98440849
 20
53.35460158
  0
VERTEX
  8
0
 10
-83.99841673
 20
52.42767989
  0
VERTEX
  8
0
 10
-85.05083509
 20
51.52608639
  0
VERTEX
  8
0
 10
-85.53349218
 20
51.11268076
  0
VERTEX
  8
0
 10
-86.00286807
 20
50.68488744
  0
VERTEX
  8
0
 10
-86.45900721
 20
50.24340409
  0
VERTEX
  8
0
 10
-86.90195404
 20
49.78892834
  0
VERTEX
  8
0
 10
-87.33175303
 20
49.32215782
  0
VERTEX
  8
0
 10
-87.74844861
 20
48.84379018
  0
VERTEX
  8
0
 10
-88.15208525
 20
48.35452306
  0
VERTEX
  8
0
 10
-88.54270738
 20
47.85505410
  0
VERTEX
  8
0
 10
-88.92035946
 20
47.34608094
  0
VERTEX
  8
0
 10
-89.28508594
 20
46.82830121
  0
VERTEX
  8
0
 10
-89.97593989
 20
45.76911262
  0
VERTEX
  8
0
 10
-90.61562482
 20
44.68306945
  0
VERTEX
  8
0
 10
-91.20449635
 20
43.57575282
  0
VERTEX
  8
0
 10
-91.49892175
 20
42.99092967
  0
VERTEX
  8
0
 10
-91.65642430
 20
42.69837326
  0
VERTEX
  8
0
 10
-91.82601094
 20
42.41453085
  0
VERTEX
  8
0
 10
-92.01159976
 20
42.14601038
  0
VERTEX
  8
0
 10
-92.21710891
 20
41.89941978
  0
VERTEX
  8
0
 10
-92.44645650
 20
41.68136698
  0
VERTEX
  8
0
 10
-92.70356066
 20
41.49845990
  0
VERTEX
  8
0
 10
-92.79262928
 20
41.46291110
 42
-0.15266212
  0
VERTEX
  8
0
 10
-97.97653702
 20
41.42034638
  0
VERTEX
  8
0
 10
-97.95357732
 20
41.41340997
  0
SEQEND
  0
POLYLINE
  8
N�vel_Padr�o
 66
   1
 39
0.000000
 70
    1
  0
VERTEX
  8
0
 10
396.12307093
 20
161.33280793
  0
VERTEX
  8
0
 10
396.29829197
 20
161.79866731
  0
VERTEX
  8
0
 10
396.48322210
 20
162.25341192
  0
VERTEX
  8
0
 10
396.84777761
 20
163.11461187
  0
VERTEX
  8
0
 10
396.97064547
 20
163.37123240
  0
VERTEX
  8
0
 10
397.11884067
 20
163.61703498
  0
VERTEX
  8
0
 10
397.29037710
 20
163.85120088
  0
VERTEX
  8
0
 10
397.48326868
 20
164.07291133
  0
VERTEX
  8
0
 10
397.69552933
 20
164.28134761
  0
VERTEX
  8
0
 10
397.92517295
 20
164.47569095
  0
VERTEX
  8
0
 10
398.17021347
 20
164.65512262
  0
VERTEX
  8
0
 10
398.42866480
 20
164.81882386
  0
VERTEX
  8
0
 10
398.69854085
 20
164.96597594
  0
VERTEX
  8
0
 10
398.97785553
 20
165.09576009
  0
VERTEX
  8
0
 10
399.26462276
 20
165.20735759
  0
VERTEX
  8
0
 10
399.55685645
 20
165.29994967
  0
VERTEX
  8
0
 10
399.85257051
 20
165.37271759
  0
VERTEX
  8
0
 10
400.14977887
 20
165.42484261
  0
VERTEX
  8
0
 10
400.44649542
 20
165.45550598
  0
VERTEX
  8
0
 10
400.74073410
 20
165.46388895
  0
VERTEX
  8
0
 10
402.21001908
 20
165.41919786
  0
VERTEX
  8
0
 10
403.68721672
 20
165.31988471
  0
VERTEX
  8
0
 10
405.16864578
 20
165.17256253
  0
VERTEX
  8
0
 10
406.65062502
 20
164.98384437
  0
VERTEX
  8
0
 10
408.12947319
 20
164.76034325
  0
VERTEX
  8
0
 10
409.60150905
 20
164.50867221
  0
VERTEX
  8
0
 10
411.06305135
 20
164.23544428
  0
VERTEX
  8
0
 10
412.51041887
 20
163.94727250
  0
VERTEX
  8
0
 10
413.70236071
 20
163.71006497
  0
VERTEX
  8
0
 10
414.90518155
 20
163.48586045
  0
VERTEX
  8
0
 10
416.11629620
 20
163.28048901
  0
VERTEX
  8
0
 10
417.33311943
 20
163.09978072
  0
VERTEX
  8
0
 10
418.55306604
 20
162.94956567
  0
VERTEX
  8
0
 10
419.77355082
 20
162.83567392
  0
VERTEX
  8
0
 10
420.99198855
 20
162.76393555
  0
VERTEX
  8
0
 10
422.20579404
 20
162.74018063
  0
VERTEX
  8
0
 10
423.40615026
 20
162.76891946
  0
VERTEX
  8
0
 10
424.61550688
 20
162.84421392
  0
VERTEX
  8
0
 10
425.82958076
 20
162.95613395
  0
VERTEX
  8
0
 10
427.04408874
 20
163.09474947
  0
VERTEX
  8
0
 10
429.45727442
 20
163.41234678
  0
VERTEX
  8
0
 10
431.82079873
 20
163.71756532
  0
VERTEX
  8
0
 10
433.90387042
 20
163.96822930
  0
VERTEX
  8
0
 10
436.03786549
 20
164.20356668
  0
VERTEX
  8
0
 10
437.11567015
 20
164.29824342
  0
VERTEX
  8
0
 10
438.19625868
 20
164.36839513
  0
VERTEX
  8
0
 10
439.27631542
 20
164.40712402
  0
VERTEX
  8
0
 10
440.35252472
 20
164.40753230
  0
VERTEX
  8
0
 10
441.42157091
 20
164.36272217
  0
VERTEX
  8
0
 10
442.48013835
 20
164.26579584
  0
VERTEX
  8
0
 10
443.00445639
 20
164.19563354
  0
VERTEX
  8
0
 10
443.52491136
 20
164.10985552
  0
VERTEX
  8
0
 10
444.04108882
 20
164.00759955
  0
VERTEX
  8
0
 10
444.55257430
 20
163.88800342
  0
VERTEX
  8
0
 10
445.05895334
 20
163.75020489
  0
VERTEX
  8
0
 10
445.55981150
 20
163.59334174
  0
VERTEX
  8
0
 10
446.05473430
 20
163.41655175
  0
VERTEX
  8
0
 10
446.54330730
 20
163.21897269
  0
VERTEX
  8
0
 10
447.02511603
 20
162.99974234
  0
VERTEX
  8
0
 10
447.49974605
 20
162.75799848
  0
VERTEX
  8
0
 10
447.96678289
 20
162.49287888
  0
VERTEX
  8
0
 10
448.42581209
 20
162.20352132
  0
VERTEX
  8
0
 10
448.81316633
 20
161.91976055
  0
VERTEX
  8
0
 10
449.17144803
 20
161.60331661
  0
VERTEX
  8
0
 10
449.49959685
 20
161.25732971
  0
VERTEX
  8
0
 10
449.79655249
 20
160.88494009
  0
VERTEX
  8
0
 10
450.06125461
 20
160.48928799
  0
VERTEX
  8
0
 10
450.29264289
 20
160.07351363
  0
VERTEX
  8
0
 10
450.48965702
 20
159.64075724
  0
VERTEX
  8
0
 10
450.65123667
 20
159.19415907
  0
VERTEX
  8
0
 10
450.77632152
 20
158.73685933
  0
VERTEX
  8
0
 10
450.86385125
 20
158.27199827
  0
VERTEX
  8
0
 10
450.91276555
 20
157.80271610
  0
VERTEX
  8
0
 10
450.92200407
 20
157.33215307
  0
VERTEX
  8
0
 10
450.89050652
 20
156.86344941
  0
VERTEX
  8
0
 10
450.81721256
 20
156.39974535
  0
VERTEX
  8
0
 10
450.70106187
 20
155.94418111
  0
VERTEX
  8
0
 10
450.54099414
 20
155.49989694
  0
VERTEX
  8
0
 10
450.36437433
 20
155.10538964
  0
VERTEX
  8
0
 10
450.16721700
 20
154.71989769
  0
VERTEX
  8
0
 10
449.95018197
 20
154.34463315
  0
VERTEX
  8
0
 10
449.71392906
 20
153.98080813
  0
VERTEX
  8
0
 10
449.45911808
 20
153.62963471
  0
VERTEX
  8
0
 10
449.18640887
 20
153.29232499
  0
VERTEX
  8
0
 10
448.89646124
 20
152.97009104
  0
VERTEX
  8
0
 10
448.58993500
 20
152.66414496
  0
VERTEX
  8
0
 10
448.26748999
 20
152.37569883
  0
VERTEX
  8
0
 10
447.92978601
 20
152.10596476
  0
VERTEX
  8
0
 10
447.57748289
 20
151.85615481
  0
VERTEX
  8
0
 10
447.21124045
 20
151.62748109
  0
VERTEX
  8
0
 10
446.83171852
 20
151.42115567
  0
VERTEX
  8
0
 10
446.43957689
 20
151.23839066
  0
VERTEX
  8
0
 10
446.03547541
 20
151.08039813
  0
VERTEX
  8
0
 10
445.62007389
 20
150.94839018
  0
VERTEX
  8
0
 10
444.99044466
 20
150.79904295
  0
VERTEX
  8
0
 10
444.35670707
 20
150.70205069
  0
VERTEX
  8
0
 10
443.71995172
 20
150.65364778
  0
VERTEX
  8
0
 10
443.08126920
 20
150.65006861
  0
VERTEX
  8
0
 10
442.44175009
 20
150.68754755
  0
VERTEX
  8
0
 10
441.80248500
 20
150.76231897
  0
VERTEX
  8
0
 10
441.16456451
 20
150.87061727
  0
VERTEX
  8
0
 10
440.52907923
 20
151.00867681
  0
VERTEX
  8
0
 10
439.89711973
 20
151.17273197
  0
VERTEX
  8
0
 10
439.26977662
 20
151.35901714
  0
VERTEX
  8
0
 10
438.64814049
 20
151.56376668
  0
VERTEX
  8
0
 10
438.03330193
 20
151.78321499
  0
VERTEX
  8
0
 10
436.82837988
 20
152.25114539
  0
VERTEX
  8
0
 10
435.66373524
 20
152.73268335
  0
VERTEX
  8
0
 10
434.47367009
 20
153.24519053
  0
VERTEX
  8
0
 10
433.24605927
 20
153.77127176
  0
VERTEX
  8
0
 10
432.62084649
 20
154.02424043
  0
VERTEX
  8
0
 10
431.98945401
 20
154.26240796
  0
VERTEX
  8
0
 10
431.35295073
 20
154.47970947
  0
VERTEX
  8
0
 10
430.71240556
 20
154.67008008
  0
VERTEX
  8
0
 10
430.06888739
 20
154.82745489
  0
VERTEX
  8
0
 10
429.42346513
 20
154.94576903
  0
VERTEX
  8
0
 10
428.77720769
 20
155.01895762
  0
VERTEX
  8
0
 10
428.13118397
 20
155.04095576
  0
VERTEX
  8
0
 10
427.80859379
 20
155.03086313
  0
VERTEX
  8
0
 10
427.48646288
 20
155.00569857
  0
VERTEX
  8
0
 10
427.16492485
 20
154.96470395
  0
VERTEX
  8
0
 10
426.84411332
 20
154.90712117
  0
VERTEX
  8
0
 10
426.52416189
 20
154.83219212
  0
VERTEX
  8
0
 10
426.20520418
 20
154.73915868
  0
VERTEX
  8
0
 10
425.88737381
 20
154.62726275
  0
VERTEX
  8
0
 10
425.57080439
 20
154.49574622
  0
VERTEX
  8
0
 10
424.85827258
 20
154.16411604
  0
VERTEX
  8
0
 10
424.17035463
 20
153.81905107
  0
VERTEX
  8
0
 10
423.50315790
 20
153.45895666
  0
VERTEX
  8
0
 10
422.85278971
 20
153.08223816
  0
VERTEX
  8
0
 10
422.21535741
 20
152.68730092
  0
VERTEX
  8
0
 10
421.58696834
 20
152.27255029
  0
VERTEX
  8
0
 10
420.96372983
 20
151.83639162
  0
VERTEX
  8
0
 10
420.34174923
 20
151.37723026
  0
VERTEX
  8
0
 10
419.85041448
 20
151.01736807
  0
VERTEX
  8
0
 10
419.35118939
 20
150.67522034
  0
VERTEX
  8
0
 10
418.84421229
 20
150.35054332
  0
VERTEX
  8
0
 10
418.32962152
 20
150.04309324
  0
VERTEX
  8
0
 10
417.80755539
 20
149.75262635
  0
VERTEX
  8
0
 10
417.27815223
 20
149.47889889
  0
VERTEX
  8
0
 10
416.74155037
 20
149.22166712
  0
VERTEX
  8
0
 10
416.19788813
 20
148.98068725
  0
VERTEX
  8
0
 10
415.64730385
 20
148.75571555
  0
VERTEX
  8
0
 10
415.08993584
 20
148.54650825
  0
VERTEX
  8
0
 10
414.52592244
 20
148.35282160
  0
VERTEX
  8
0
 10
413.95540197
 20
148.17441184
  0
VERTEX
  8
0
 10
413.37851275
 20
148.01103520
  0
VERTEX
  8
0
 10
412.79539312
 20
147.86244795
  0
VERTEX
  8
0
 10
412.20618139
 20
147.72840630
  0
VERTEX
  8
0
 10
411.61101590
 20
147.60866652
  0
VERTEX
  8
0
 10
410.27406047
 20
147.38538428
  0
VERTEX
  8
0
 10
408.94148217
 20
147.21821295
  0
VERTEX
  8
0
 10
407.61100522
 20
147.10392809
  0
VERTEX
  8
0
 10
406.28035382
 20
147.03930525
  0
VERTEX
  8
0
 10
404.94725218
 20
147.02112002
  0
VERTEX
  8
0
 10
403.60942452
 20
147.04614796
  0
VERTEX
  8
0
 10
402.26459504
 20
147.11116463
  0
VERTEX
  8
0
 10
400.91048795
 20
147.21294560
  0
VERTEX
  8
0
 10
400.47857133
 20
147.26576913
  0
VERTEX
  8
0
 10
400.05374648
 20
147.34767596
  0
VERTEX
  8
0
 10
399.63790080
 20
147.45809057
  0
VERTEX
  8
0
 10
399.23292170
 20
147.59643745
  0
VERTEX
  8
0
 10
398.84069658
 20
147.76214108
  0
VERTEX
  8
0
 10
398.46311287
 20
147.95462594
  0
VERTEX
  8
0
 10
398.10205796
 20
148.17331650
  0
VERTEX
  8
0
 10
397.75941926
 20
148.41763726
  0
VERTEX
  8
0
 10
397.43708418
 20
148.68701269
  0
VERTEX
  8
0
 10
397.13694012
 20
148.98086728
  0
VERTEX
  8
0
 10
396.86087451
 20
149.29862550
  0
VERTEX
  8
0
 10
396.61077474
 20
149.63971184
  0
VERTEX
  8
0
 10
396.38852822
 20
150.00355077
  0
VERTEX
  8
0
 10
396.19602236
 20
150.38956678
  0
VERTEX
  8
0
 10
396.03514457
 20
150.79718436
  0
VERTEX
  8
0
 10
395.90778225
 20
151.22582797
  0
VERTEX
  8
0
 10
395.85496986
 20
151.43085210
  0
VERTEX
  8
0
 10
395.44893002
 20
152.94457927
  0
VERTEX
  8
0
 10
395.30849278
 20
153.50018886
  0
VERTEX
  8
0
 10
395.22280255
 20
153.93398992
  0
VERTEX
  8
0
 10
395.20354035
 20
154.10810931
  0
VERTEX
  8
0
 10
395.20162824
 20
154.25525304
  0
VERTEX
  8
0
 10
395.21828734
 20
154.37657994
  0
VERTEX
  8
0
 10
395.25473877
 20
154.47324882
  0
VERTEX
  8
0
 10
395.31220364
 20
154.54641852
  0
VERTEX
  8
0
 10
395.39190306
 20
154.59724786
  0
VERTEX
  8
0
 10
395.49505815
 20
154.62689565
  0
VERTEX
  8
0
 10
395.62289002
 20
154.63652074
  0
VERTEX
  8
0
 10
406.06407529
 20
154.63652074
 42
0.41421356
  0
VERTEX
  8
0
 10
407.04407529
 20
155.61652074
  0
VERTEX
  8
0
 10
407.04407529
 20
156.59652074
 42
0.41421356
  0
VERTEX
  8
0
 10
406.06407529
 20
157.57652074
  0
VERTEX
  8
0
 10
396.14477636
 20
157.57652074
  0
VERTEX
  8
0
 10
395.63216047
 20
157.57652074
  0
VERTEX
  8
0
 10
395.48050851
 20
157.58392511
  0
VERTEX
  8
0
 10
395.35476697
 20
157.60807654
  0
VERTEX
  8
0
 10
395.25459316
 20
157.65188246
  0
VERTEX
  8
0
 10
395.17964437
 20
157.71825033
  0
VERTEX
  8
0
 10
395.12957792
 20
157.81008760
  0
VERTEX
  8
0
 10
395.10405112
 20
157.93030171
  0
VERTEX
  8
0
 10
395.10272127
 20
158.08180011
  0
VERTEX
  8
0
 10
395.12524567
 20
158.26749026
  0
VERTEX
  8
0
 10
395.24048648
 20
158.75307556
  0
VERTEX
  8
0
 10
395.44703199
 20
159.41031722
  0
VERTEX
  8
0
 10
396.12307093
 20
161.33280793
  0
SEQEND
  0
POLYLINE
  8
N�vel_Padr�o
 66
   1
 39
0.000000
 70
    1
  0
VERTEX
  8
0
 10
457.57807295
 20
185.26278970
  0
VERTEX
  8
0
 10
457.40285192
 20
184.79693032
  0
VERTEX
  8
0
 10
457.21792179
 20
184.34218572
  0
VERTEX
  8
0
 10
456.85336628
 20
183.48098576
  0
VERTEX
  8
0
 10
456.73049841
 20
183.22436524
  0
VERTEX
  8
0
 10
456.58230322
 20
182.97856265
  0
VERTEX
  8
0
 10
456.41076679
 20
182.74439676
  0
VERTEX
  8
0
 10
456.21787521
 20
182.52268630
  0
VERTEX
  8
0
 10
456.00561456
 20
182.31425002
  0
VERTEX
  8
0
 10
455.77597093
 20
182.11990668
  0
VERTEX
  8
0
 10
455.53093041
 20
181.94047501
  0
VERTEX
  8
0
 10
455.27247908
 20
181.77677377
  0
VERTEX
  8
0
 10
455.00260304
 20
181.62962170
  0
VERTEX
  8
0
 10
454.72328836
 20
181.49983754
  0
VERTEX
  8
0
 10
454.43652113
 20
181.38824005
  0
VERTEX
  8
0
 10
454.14428744
 20
181.29564796
  0
VERTEX
  8
0
 10
453.84857337
 20
181.22288004
  0
VERTEX
  8
0
 10
453.55136502
 20
181.17075502
  0
VERTEX
  8
0
 10
453.25464846
 20
181.14009165
  0
VERTEX
  8
0
 10
452.96040979
 20
181.13170868
  0
VERTEX
  8
0
 10
451.49112481
 20
181.17639977
  0
VERTEX
  8
0
 10
450.01392717
 20
181.27571293
  0
VERTEX
  8
0
 10
448.53249811
 20
181.42303510
  0
VERTEX
  8
0
 10
447.05051887
 20
181.61175326
  0
VERTEX
  8
0
 10
445.57167070
 20
181.83525438
  0
VERTEX
  8
0
 10
444.09963484
 20
182.08692542
  0
VERTEX
  8
0
 10
442.63809253
 20
182.36015335
  0
VERTEX
  8
0
 10
441.19072502
 20
182.64832513
  0
VERTEX
  8
0
 10
439.99878318
 20
182.88553267
  0
VERTEX
  8
0
 10
438.79596233
 20
183.10973719
  0
VERTEX
  8
0
 10
437.58484769
 20
183.31510863
  0
VERTEX
  8
0
 10
436.36802446
 20
183.49581691
  0
VERTEX
  8
0
 10
435.14807785
 20
183.64603196
  0
VERTEX
  8
0
 10
433.92759307
 20
183.75992371
  0
VERTEX
  8
0
 10
432.70915533
 20
183.83166208
  0
VERTEX
  8
0
 10
431.49534985
 20
183.85541700
  0
VERTEX
  8
0
 10
430.29499363
 20
183.82667817
  0
VERTEX
  8
0
 10
429.08563700
 20
183.75138371
  0
VERTEX
  8
0
 10
427.87156312
 20
183.63946368
  0
VERTEX
  8
0
 10
426.65705514
 20
183.50084816
  0
VERTEX
  8
0
 10
424.24386946
 20
183.18325086
  0
VERTEX
  8
0
 10
421.88034515
 20
182.87803232
  0
VERTEX
  8
0
 10
419.79727347
 20
182.62736833
  0
VERTEX
  8
0
 10
417.66327840
 20
182.39203095
  0
VERTEX
  8
0
 10
416.58547374
 20
182.29735421
  0
VERTEX
  8
0
 10
415.50488521
 20
182.22720250
  0
VERTEX
  8
0
 10
414.42482846
 20
182.18847361
  0
VERTEX
  8
0
 10
413.34861916
 20
182.18806534
  0
VERTEX
  8
0
 10
412.27957297
 20
182.23287547
  0
VERTEX
  8
0
 10
411.22100554
 20
182.32980179
  0
VERTEX
  8
0
 10
410.69668750
 20
182.39996409
  0
VERTEX
  8
0
 10
410.17623252
 20
182.48574211
  0
VERTEX
  8
0
 10
409.66005507
 20
182.58799808
  0
VERTEX
  8
0
 10
409.14856959
 20
182.70759422
  0
VERTEX
  8
0
 10
408.64219054
 20
182.84539275
  0
VERTEX
  8
0
 10
408.14133239
 20
183.00225589
  0
VERTEX
  8
0
 10
407.64640958
 20
183.17904588
  0
VERTEX
  8
0
 10
407.15783659
 20
183.37662494
  0
VERTEX
  8
0
 10
406.67602785
 20
183.59585529
  0
VERTEX
  8
0
 10
406.20139784
 20
183.83759915
  0
VERTEX
  8
0
 10
405.73436100
 20
184.10271875
  0
VERTEX
  8
0
 10
405.27533180
 20
184.39207631
  0
VERTEX
  8
0
 10
404.88797755
 20
184.67583708
  0
VERTEX
  8
0
 10
404.52969585
 20
184.99228103
  0
VERTEX
  8
0
 10
404.20154703
 20
185.33826792
  0
VERTEX
  8
0
 10
403.90459140
 20
185.71065754
  0
VERTEX
  8
0
 10
403.63988928
 20
186.10630964
  0
VERTEX
  8
0
 10
403.40850099
 20
186.52208400
  0
VERTEX
  8
0
 10
403.21148686
 20
186.95484039
  0
VERTEX
  8
0
 10
403.04990721
 20
187.40143856
  0
VERTEX
  8
0
 10
402.92482236
 20
187.85873830
  0
VERTEX
  8
0
 10
402.83729263
 20
188.32359937
  0
VERTEX
  8
0
 10
402.78837834
 20
188.79288153
  0
VERTEX
  8
0
 10
402.77913981
 20
189.26344456
  0
VERTEX
  8
0
 10
402.81063736
 20
189.73214822
  0
VERTEX
  8
0
 10
402.88393132
 20
190.19585229
  0
VERTEX
  8
0
 10
403.00008201
 20
190.65141652
  0
VERTEX
  8
0
 10
403.16014974
 20
191.09570069
  0
VERTEX
  8
0
 10
403.33676956
 20
191.49020799
  0
VERTEX
  8
0
 10
403.53392689
 20
191.87569995
  0
VERTEX
  8
0
 10
403.75096192
 20
192.25096448
  0
VERTEX
  8
0
 10
403.98721483
 20
192.61478950
  0
VERTEX
  8
0
 10
404.24202580
 20
192.96596292
  0
VERTEX
  8
0
 10
404.51473501
 20
193.30327265
  0
VERTEX
  8
0
 10
404.80468265
 20
193.62550659
  0
VERTEX
  8
0
 10
405.11120888
 20
193.93145267
  0
VERTEX
  8
0
 10
405.43365390
 20
194.21989880
  0
VERTEX
  8
0
 10
405.77135787
 20
194.48963288
  0
VERTEX
  8
0
 10
406.12366099
 20
194.73944282
  0
VERTEX
  8
0
 10
406.48990343
 20
194.96811655
  0
VERTEX
  8
0
 10
406.86942537
 20
195.17444196
  0
VERTEX
  8
0
 10
407.26156699
 20
195.35720697
  0
VERTEX
  8
0
 10
407.66566847
 20
195.51519950
  0
VERTEX
  8
0
 10
408.08106999
 20
195.64720745
  0
VERTEX
  8
0
 10
408.71069922
 20
195.79655469
  0
VERTEX
  8
0
 10
409.34443681
 20
195.89354695
  0
VERTEX
  8
0
 10
409.98119216
 20
195.94194985
  0
VERTEX
  8
0
 10
410.61987469
 20
195.94552903
  0
VERTEX
  8
0
 10
411.25939379
 20
195.90805009
  0
VERTEX
  8
0
 10
411.89865888
 20
195.83327866
  0
VERTEX
  8
0
 10
412.53657937
 20
195.72498037
  0
VERTEX
  8
0
 10
413.17206466
 20
195.58692082
  0
VERTEX
  8
0
 10
413.80402415
 20
195.42286566
  0
VERTEX
  8
0
 10
414.43136726
 20
195.23658050
  0
VERTEX
  8
0
 10
415.05300339
 20
195.03183095
  0
VERTEX
  8
0
 10
415.66784196
 20
194.81238264
  0
VERTEX
  8
0
 10
416.87276400
 20
194.34445225
  0
VERTEX
  8
0
 10
418.03740865
 20
193.86291428
  0
VERTEX
  8
0
 10
419.22747380
 20
193.35040710
  0
VERTEX
  8
0
 10
420.45508461
 20
192.82432588
  0
VERTEX
  8
0
 10
421.08029739
 20
192.57135720
  0
VERTEX
  8
0
 10
421.71168987
 20
192.33318967
  0
VERTEX
  8
0
 10
422.34819315
 20
192.11588816
  0
VERTEX
  8
0
 10
422.98873833
 20
191.92551755
  0
VERTEX
  8
0
 10
423.63225650
 20
191.76814274
  0
VERTEX
  8
0
 10
424.27767875
 20
191.64982860
  0
VERTEX
  8
0
 10
424.92393619
 20
191.57664002
  0
VERTEX
  8
0
 10
425.56995991
 20
191.55464188
  0
VERTEX
  8
0
 10
425.89255009
 20
191.56473450
  0
VERTEX
  8
0
 10
426.21468100
 20
191.58989906
  0
VERTEX
  8
0
 10
426.53621903
 20
191.63089368
  0
VERTEX
  8
0
 10
426.85703057
 20
191.68847646
  0
VERTEX
  8
0
 10
427.17698199
 20
191.76340551
  0
VERTEX
  8
0
 10
427.49593970
 20
191.85643895
  0
VERTEX
  8
0
 10
427.81377007
 20
191.96833488
  0
VERTEX
  8
0
 10
428.13033949
 20
192.09985142
  0
VERTEX
  8
0
 10
428.84287131
 20
192.43148159
  0
VERTEX
  8
0
 10
429.53078925
 20
192.77654656
  0
VERTEX
  8
0
 10
430.19798599
 20
193.13664097
  0
VERTEX
  8
0
 10
430.84835418
 20
193.51335947
  0
VERTEX
  8
0
 10
431.48578648
 20
193.90829671
  0
VERTEX
  8
0
 10
432.11417555
 20
194.32304734
  0
VERTEX
  8
0
 10
432.73741405
 20
194.75920601
  0
VERTEX
  8
0
 10
433.35939465
 20
195.21836737
  0
VERTEX
  8
0
 10
433.85072941
 20
195.57822956
  0
VERTEX
  8
0
 10
434.34995450
 20
195.92037729
  0
VERTEX
  8
0
 10
434.85693159
 20
196.24505432
  0
VERTEX
  8
0
 10
435.37152237
 20
196.55250439
  0
VERTEX
  8
0
 10
435.89358850
 20
196.84297128
  0
VERTEX
  8
0
 10
436.42299165
 20
197.11669874
  0
VERTEX
  8
0
 10
436.95959351
 20
197.37393052
  0
VERTEX
  8
0
 10
437.50325575
 20
197.61491038
  0
VERTEX
  8
0
 10
438.05384003
 20
197.83988208
  0
VERTEX
  8
0
 10
438.61120804
 20
198.04908938
  0
VERTEX
  8
0
 10
439.17522144
 20
198.24277603
  0
VERTEX
  8
0
 10
439.74574192
 20
198.42118579
  0
VERTEX
  8
0
 10
440.32263113
 20
198.58456243
  0
VERTEX
  8
0
 10
440.90575077
 20
198.73314969
  0
VERTEX
  8
0
 10
441.49496249
 20
198.86719133
  0
VERTEX
  8
0
 10
442.09012798
 20
198.98693111
  0
VERTEX
  8
0
 10
443.42708341
 20
199.21021335
  0
VERTEX
  8
0
 10
444.75966171
 20
199.37738468
  0
VERTEX
  8
0
 10
446.09013866
 20
199.49166955
  0
VERTEX
  8
0
 10
447.42079006
 20
199.55629238
  0
VERTEX
  8
0
 10
448.75389170
 20
199.57447761
  0
VERTEX
  8
0
 10
450.09171936
 20
199.54944967
  0
VERTEX
  8
0
 10
451.43654884
 20
199.48443300
  0
VERTEX
  8
0
 10
452.79065593
 20
199.38265203
  0
VERTEX
  8
0
 10
453.22257255
 20
199.32982850
  0
VERTEX
  8
0
 10
453.64739740
 20
199.24792167
  0
VERTEX
  8
0
 10
454.06324309
 20
199.13750706
  0
VERTEX
  8
0
 10
454.46822219
 20
198.99916018
  0
VERTEX
  8
0
 10
454.86044730
 20
198.83345655
  0
VERTEX
  8
0
 10
455.23803102
 20
198.64097169
  0
VERTEX
  8
0
 10
455.59908593
 20
198.42228113
  0
VERTEX
  8
0
 10
455.94172463
 20
198.17796037
  0
VERTEX
  8
0
 10
456.26405971
 20
197.90858494
  0
VERTEX
  8
0
 10
456.56420376
 20
197.61473035
  0
VERTEX
  8
0
 10
456.84026938
 20
197.29697213
  0
VERTEX
  8
0
 10
457.09036915
 20
196.95588580
  0
VERTEX
  8
0
 10
457.31261567
 20
196.59204686
  0
VERTEX
  8
0
 10
457.50512153
 20
196.20603085
  0
VERTEX
  8
0
 10
457.66599932
 20
195.79841328
  0
VERTEX
  8
0
 10
457.79336163
 20
195.36976966
  0
VERTEX
  8
0
 10
457.84617403
 20
195.16474553
  0
VERTEX
  8
0
 10
458.25221386
 20
193.65101837
  0
VERTEX
  8
0
 10
458.39265110
 20
193.09540877
  0
VERTEX
  8
0
 10
458.47834133
 20
192.66160771
  0
VERTEX
  8
0
 10
458.49760354
 20
192.48748832
  0
VERTEX
  8
0
 10
458.49951564
 20
192.34034459
  0
VERTEX
  8
0
 10
458.48285654
 20
192.21901769
  0
VERTEX
  8
0
 10
458.44640511
 20
192.12234881
  0
VERTEX
  8
0
 10
458.38894024
 20
192.04917911
  0
VERTEX
  8
0
 10
458.30924082
 20
191.99834978
  0
VERTEX
  8
0
 10
458.20608573
 20
191.96870198
  0
VERTEX
  8
0
 10
458.07825386
 20
191.95907690
  0
VERTEX
  8
0
 10
447.63706859
 20
191.95907690
 42
0.41421356
  0
VERTEX
  8
0
 10
446.65706859
 20
190.97907690
  0
VERTEX
  8
0
 10
446.65706859
 20
189.99907690
 42
0.41421356
  0
VERTEX
  8
0
 10
447.63706859
 20
189.01907690
  0
VERTEX
  8
0
 10
457.55636753
 20
189.01907690
  0
VERTEX
  8
0
 10
458.06898341
 20
189.01907690
  0
VERTEX
  8
0
 10
458.22063537
 20
189.01167252
  0
VERTEX
  8
0
 10
458.34637691
 20
188.98752110
  0
VERTEX
  8
0
 10
458.44655073
 20
188.94371517
  0
VERTEX
  8
0
 10
458.52149951
 20
188.87734730
  0
VERTEX
  8
0
 10
458.57156596
 20
188.78551004
  0
VERTEX
  8
0
 10
458.59709276
 20
188.66529592
  0
VERTEX
  8
0
 10
458.59842262
 20
188.51379752
  0
VERTEX
  8
0
 10
458.57589821
 20
188.32810738
  0
VERTEX
  8
0
 10
458.46065741
 20
187.84252207
  0
VERTEX
  8
0
 10
458.25411189
 20
187.18528041
  0
VERTEX
  8
0
 10
457.57807295
 20
185.26278970
  0
SEQEND
  0
POLYLINE
  8
N�vel_Padr�o
 66
   1
 39
0.000000
 70
    1
  0
VERTEX
  8
0
 10
-223.05764526
 20
213.21855211
  0
VERTEX
  8
0
 10
-223.05764526
 20
204.67372337
 42
0.41421356
  0
VERTEX
  8
0
 10
-222.07764526
 20
203.69372337
  0
VERTEX
  8
0
 10
-221.09764526
 20
203.69372337
 42
0.41421356
  0
VERTEX
  8
0
 10
-220.11764526
 20
204.67372337
  0
VERTEX
  8
0
 10
-220.11764526
 20
213.23613501
  0
VERTEX
  8
0
 10
-219.80830495
 20
213.27433983
  0
VERTEX
  8
0
 10
-219.50130657
 20
213.29722628
  0
VERTEX
  8
0
 10
-218.89589482
 20
213.29815688
  0
VERTEX
  8
0
 10
-218.30452852
 20
213.24115247
  0
VERTEX
  8
0
 10
-217.73032615
 20
213.12843875
  0
VERTEX
  8
0
 10
-217.17640624
 20
212.96224139
  0
VERTEX
  8
0
 10
-216.64588728
 20
212.74478607
  0
VERTEX
  8
0
 10
-216.14188777
 20
212.47829846
  0
VERTEX
  8
0
 10
-215.66752623
 20
212.16500426
  0
VERTEX
  8
0
 10
-215.22592116
 20
211.80712913
  0
VERTEX
  8
0
 10
-214.82019105
 20
211.40689876
  0
VERTEX
  8
0
 10
-214.45345443
 20
210.96653883
  0
VERTEX
  8
0
 10
-214.12882978
 20
210.48827501
  0
VERTEX
  8
0
 10
-213.84943561
 20
209.97433299
  0
VERTEX
  8
0
 10
-213.61839043
 20
209.42693845
  0
VERTEX
  8
0
 10
-213.43881275
 20
208.84831706
  0
VERTEX
  8
0
 10
-213.36929874
 20
208.54799182
  0
VERTEX
  8
0
 10
-213.31382106
 20
208.24069450
  0
VERTEX
  8
0
 10
-213.20168288
 20
207.67221423
  0
VERTEX
  8
0
 10
-213.04710047
 20
207.12366726
  0
VERTEX
  8
0
 10
-212.85284519
 20
206.59482711
  0
VERTEX
  8
0
 10
-212.62168840
 20
206.08546734
  0
VERTEX
  8
0
 10
-212.35640147
 20
205.59536147
  0
VERTEX
  8
0
 10
-212.05975576
 20
205.12428305
  0
VERTEX
  8
0
 10
-211.73452264
 20
204.67200561
  0
VERTEX
  8
0
 10
-211.38347348
 20
204.23830270
  0
VERTEX
  8
0
 10
-211.00937964
 20
203.82294785
  0
VERTEX
  8
0
 10
-210.61501249
 20
203.42571460
  0
VERTEX
  8
0
 10
-210.20314339
 20
203.04637650
  0
VERTEX
  8
0
 10
-209.77654371
 20
202.68470708
  0
VERTEX
  8
0
 10
-209.33798481
 20
202.34047988
  0
VERTEX
  8
0
 10
-208.89023806
 20
202.01346844
  0
VERTEX
  8
0
 10
-208.43607482
 20
201.70344629
  0
VERTEX
  8
0
 10
-207.97826647
 20
201.41018698
  0
VERTEX
  8
0
 10
-206.96156961
 20
200.77779547
  0
VERTEX
  8
0
 10
-205.92573171
 20
200.11562175
  0
VERTEX
  8
0
 10
-204.89649101
 20
199.41524560
  0
VERTEX
  8
0
 10
-204.39238780
 20
199.04810030
  0
VERTEX
  8
0
 10
-203.89958574
 20
198.66824680
  0
VERTEX
  8
0
 10
-203.42130209
 20
198.27463259
  0
VERTEX
  8
0
 10
-202.96075415
 20
197.86620514
  0
VERTEX
  8
0
 10
-202.52115919
 20
197.44191191
  0
VERTEX
  8
0
 10
-202.10573449
 20
197.00070037
  0
VERTEX
  8
0
 10
-201.71769733
 20
196.54151801
  0
VERTEX
  8
0
 10
-201.36026499
 20
196.06331229
  0
VERTEX
  8
0
 10
-201.03665476
 20
195.56503068
  0
VERTEX
  8
0
 10
-200.75008391
 20
195.04562066
  0
VERTEX
  8
0
 10
-200.66322661
 20
194.15736353
  0
VERTEX
  8
0
 10
-200.64092898
 20
193.71570917
  0
VERTEX
  8
0
 10
-200.63794795
 20
193.27670912
  0
VERTEX
  8
0
 10
-200.65820548
 20
192.84111699
  0
VERTEX
  8
0
 10
-200.70562351
 20
192.40968642
  0
VERTEX
  8
0
 10
-200.78412399
 20
191.98317102
  0
VERTEX
  8
0
 10
-200.89762885
 20
191.56232443
  0
VERTEX
  8
0
 10
-201.03503074
 20
191.04680152
  0
VERTEX
  8
0
 10
-201.03716197
 20
191.03744504
  0
VERTEX
  8
0
 10
-201.26883013
 20
190.39099342
  0
VERTEX
  8
0
 10
-201.49693032
 20
189.75477904
  0
VERTEX
  8
0
 10
-205.76885895
 20
191.61033748
  0
VERTEX
  8
0
 10
-210.04606946
 20
193.45910331
  0
VERTEX
  8
0
 10
-210.15072649
 20
193.49054600
  0
VERTEX
  8
0
 10
-210.25678329
 20
193.50104655
  0
VERTEX
  8
0
 10
-210.47115854
 20
193.48880691
  0
VERTEX
  8
0
 10
-210.59743586
 20
193.46551495
  0
VERTEX
  8
0
 10
-210.71912997
 20
193.42160395
  0
VERTEX
  8
0
 10
-210.83392325
 20
193.36104347
  0
VERTEX
  8
0
 10
-210.93949811
 20
193.28780306
  0
VERTEX
  8
0
 10
-211.09040117
 20
193.14025721
  0
VERTEX
  8
0
 10
-211.20408893
 20
192.96186653
  0
VERTEX
  8
0
 10
-211.55497190
 20
192.16284939
  0
VERTEX
  8
0
 10
-211.65192340
 20
191.92300064
  0
VERTEX
  8
0
 10
-211.68446496
 20
191.79824215
  0
VERTEX
  8
0
 10
-211.69945022
 20
191.66984978
  0
VERTEX
  8
0
 10
-211.68925370
 20
191.47832411
  0
VERTEX
  8
0
 10
-211.64335810
 20
191.29297961
  0
VERTEX
  8
0
 10
-211.54409503
 20
191.09191629
  0
VERTEX
  8
0
 10
-211.40283761
 20
190.91926520
  0
VERTEX
  8
0
 10
-211.26503173
 20
190.80755259
  0
VERTEX
  8
0
 10
-211.11076248
 20
190.72260241
  0
VERTEX
  8
0
 10
-208.96177308
 20
189.79450953
  0
VERTEX
  8
0
 10
-206.78114373
 20
188.83890066
  0
VERTEX
  8
0
 10
-204.60650722
 20
187.90089667
  0
VERTEX
  8
0
 10
-202.47549630
 20
187.02561843
  0
VERTEX
  8
0
 10
-202.54908659
 20
186.51760567
  0
VERTEX
  8
0
 10
-202.64912746
 20
186.03849246
  0
VERTEX
  8
0
 10
-202.77454918
 20
185.58780829
  0
VERTEX
  8
0
 10
-202.92428203
 20
185.16508262
  0
VERTEX
  8
0
 10
-203.09725630
 20
184.76984494
  0
VERTEX
  8
0
 10
-203.29240225
 20
184.40162472
  0
VERTEX
  8
0
 10
-203.50865017
 20
184.05995144
  0
VERTEX
  8
0
 10
-203.74493034
 20
183.74435458
  0
VERTEX
  8
0
 10
-204.00017303
 20
183.45436361
  0
VERTEX
  8
0
 10
-204.27330852
 20
183.18950801
  0
VERTEX
  8
0
 10
-204.56326710
 20
182.94931725
  0
VERTEX
  8
0
 10
-204.86897904
 20
182.73332082
  0
VERTEX
  8
0
 10
-205.18937461
 20
182.54104819
  0
VERTEX
  8
0
 10
-205.52338411
 20
182.37202883
  0
VERTEX
  8
0
 10
-205.86993780
 20
182.22579223
  0
VERTEX
  8
0
 10
-206.22796596
 20
182.10186785
  0
VERTEX
  8
0
 10
-206.59639887
 20
181.99978519
  0
VERTEX
  8
0
 10
-206.97416682
 20
181.91907370
  0
VERTEX
  8
0
 10
-207.36020007
 20
181.85926288
  0
VERTEX
  8
0
 10
-207.75342892
 20
181.81988220
  0
VERTEX
  8
0
 10
-208.15278363
 20
181.80046112
  0
VERTEX
  8
0
 10
-208.55719448
 20
181.80052914
  0
VERTEX
  8
0
 10
-208.96559176
 20
181.81961572
  0
VERTEX
  8
0
 10
-209.37690574
 20
181.85725035
  0
VERTEX
  8
0
 10
-209.79006670
 20
181.91296250
  0
VERTEX
  8
0
 10
-210.20400492
 20
181.98628165
  0
VERTEX
  8
0
 10
-210.61765068
 20
182.07673727
  0
VERTEX
  8
0
 10
-211.02993425
 20
182.18385884
  0
VERTEX
  8
0
 10
-211.43978592
 20
182.30717584
  0
VERTEX
  8
0
 10
-211.84613595
 20
182.44621774
  0
VERTEX
  8
0
 10
-212.24791464
 20
182.60051403
  0
VERTEX
  8
0
 10
-212.64405226
 20
182.76959417
  0
VERTEX
  8
0
 10
-213.75111546
 20
183.23398769
  0
VERTEX
  8
0
 10
-214.30627540
 20
183.44274395
  0
VERTEX
  8
0
 10
-214.86242176
 20
183.63589556
  0
VERTEX
  8
0
 10
-215.41948018
 20
183.81345930
  0
VERTEX
  8
0
 10
-215.97737631
 20
183.97545192
  0
VERTEX
  8
0
 10
-216.53603580
 20
184.12189020
  0
VERTEX
  8
0
 10
-217.09538428
 20
184.25279090
  0
VERTEX
  8
0
 10
-217.65534741
 20
184.36817078
  0
VERTEX
  8
0
 10
-218.21585081
 20
184.46804662
  0
VERTEX
  8
0
 10
-218.77682015
 20
184.55243518
  0
VERTEX
  8
0
 10
-219.33818106
 20
184.62135322
  0
VERTEX
  8
0
 10
-219.89985919
 20
184.67481752
  0
VERTEX
  8
0
 10
-220.46178018
 20
184.71284484
  0
VERTEX
  8
0
 10
-221.02386968
 20
184.73545194
  0
VERTEX
  8
0
 10
-221.58605332
 20
184.74265559
  0
VERTEX
  8
0
 10
-222.14825676
 20
184.73447257
  0
VERTEX
  8
0
 10
-222.71040564
 20
184.71091962
  0
VERTEX
  8
0
 10
-223.27242560
 20
184.67201353
  0
VERTEX
  8
0
 10
-223.83424228
 20
184.61777106
  0
VERTEX
  8
0
 10
-224.39578134
 20
184.54820897
  0
VERTEX
  8
0
 10
-224.95696841
 20
184.46334403
  0
VERTEX
  8
0
 10
-225.51772913
 20
184.36319301
  0
VERTEX
  8
0
 10
-226.07798916
 20
184.24777267
  0
VERTEX
  8
0
 10
-227.19670971
 20
183.97119111
  0
VERTEX
  8
0
 10
-228.31253519
 20
183.63373348
  0
VERTEX
  8
0
 10
-229.42487076
 20
183.23553390
  0
VERTEX
  8
0
 10
-230.53312157
 20
182.77672653
  0
VERTEX
  8
0
 10
-230.92977734
 20
182.60956483
  0
VERTEX
  8
0
 10
-231.33174687
 20
182.45655520
  0
VERTEX
  8
0
 10
-231.73797640
 20
182.31820976
  0
VERTEX
  8
0
 10
-232.14741216
 20
182.19504063
  0
VERTEX
  8
0
 10
-232.55900037
 20
182.08755994
  0
VERTEX
  8
0
 10
-232.97168725
 20
181.99627982
  0
VERTEX
  8
0
 10
-233.38441905
 20
181.92171239
  0
VERTEX
  8
0
 10
-233.79614197
 20
181.86436977
  0
VERTEX
  8
0
 10
-234.20580226
 20
181.82476409
  0
VERTEX
  8
0
 10
-234.61234613
 20
181.80340748
  0
VERTEX
  8
0
 10
-235.01471982
 20
181.80081205
  0
VERTEX
  8
0
 10
-235.41186955
 20
181.81748994
  0
VERTEX
  8
0
 10
-235.80274155
 20
181.85395327
  0
VERTEX
  8
0
 10
-236.18628205
 20
181.91071416
  0
VERTEX
  8
0
 10
-236.56143727
 20
181.98828474
  0
VERTEX
  8
0
 10
-236.92715344
 20
182.08717713
  0
VERTEX
  8
0
 10
-237.28237679
 20
182.20790346
  0
VERTEX
  8
0
 10
-237.62605355
 20
182.35097585
  0
VERTEX
  8
0
 10
-237.95712994
 20
182.51690643
  0
VERTEX
  8
0
 10
-238.27455219
 20
182.70620733
  0
VERTEX
  8
0
 10
-238.57726652
 20
182.91939066
  0
VERTEX
  8
0
 10
-238.86421917
 20
183.15696855
  0
VERTEX
  8
0
 10
-239.13435636
 20
183.41945313
  0
VERTEX
  8
0
 10
-239.38662432
 20
183.70735652
  0
VERTEX
  8
0
 10
-239.61996928
 20
184.02119085
  0
VERTEX
  8
0
 10
-239.83333746
 20
184.36146824
  0
VERTEX
  8
0
 10
-240.02567509
 20
184.72870082
  0
VERTEX
  8
0
 10
-240.19592839
 20
185.12340071
  0
VERTEX
  8
0
 10
-240.34304361
 20
185.54608003
  0
VERTEX
  8
0
 10
-240.46596695
 20
185.99725092
  0
VERTEX
  8
0
 10
-240.56364465
 20
186.47742549
  0
VERTEX
  8
0
 10
-240.63502294
 20
186.98711588
  0
VERTEX
  8
0
 10
-238.50915302
 20
187.90229214
  0
VERTEX
  8
0
 10
-236.33027107
 20
188.85850503
  0
VERTEX
  8
0
 10
-231.96235718
 20
190.77400805
  0
VERTEX
  8
0
 10
-231.86872233
 20
190.82844657
  0
VERTEX
  8
0
 10
-231.78844302
 20
190.89946682
  0
VERTEX
  8
0
 10
-231.65068056
 20
191.06491538
  0
VERTEX
  8
0
 10
-231.58172264
 20
191.17248829
  0
VERTEX
  8
0
 10
-231.53059530
 20
191.29163698
  0
VERTEX
  8
0
 10
-231.49626462
 20
191.41727177
  0
VERTEX
  8
0
 10
-231.47769670
 20
191.54430300
  0
VERTEX
  8
0
 10
-231.48248148
 20
191.75519769
  0
VERTEX
  8
0
 10
-231.53518886
 20
191.96016573
  0
VERTEX
  8
0
 10
-231.87974623
 20
192.76194453
  0
VERTEX
  8
0
 10
-231.97361500
 20
192.96971119
  0
VERTEX
  8
0
 10
-232.03090127
 20
193.06801790
  0
VERTEX
  8
0
 10
-232.09944652
 20
193.15864716
  0
VERTEX
  8
0
 10
-232.23692939
 20
193.29026639
  0
VERTEX
  8
0
 10
-232.39605107
 20
193.39257347
  0
VERTEX
  8
0
 10
-232.57656500
 20
193.46443935
  0
VERTEX
  8
0
 10
-232.76626140
 20
193.49692102
  0
VERTEX
  8
0
 10
-232.94981031
 20
193.49746438
  0
VERTEX
  8
0
 10
-233.04118486
 20
193.48584342
  0
VERTEX
  8
0
 10
-233.12827941
 20
193.45953126
  0
VERTEX
  8
0
 10
-235.29353975
 20
192.52772133
  0
VERTEX
  8
0
 10
-237.45566170
 20
191.58679953
  0
VERTEX
  8
0
 10
-241.67737298
 20
189.75482906
  0
VERTEX
  8
0
 10
-242.05734469
 20
190.81515780
  0
VERTEX
  8
0
 10
-242.13535590
 20
191.03285567
  0
VERTEX
  8
0
 10
-242.14017867
 20
191.05030297
  0
VERTEX
  8
0
 10
-242.32330867
 20
191.73003800
  0
VERTEX
  8
0
 10
-242.42389935
 20
192.13084664
  0
VERTEX
  8
0
 10
-242.49015189
 20
192.53632371
  0
VERTEX
  8
0
 10
-242.52664968
 20
192.94565597
  0
VERTEX
  8
0
 10
-242.53797614
 20
193.35803018
  0
VERTEX
  8
0
 10
-242.52871467
 20
193.77263313
  0
VERTEX
  8
0
 10
-242.50344866
 20
194.18865158
  0
VERTEX
  8
0
 10
-242.42323665
 20
195.02168205
  0
VERTEX
  8
0
 10
-242.13876170
 20
195.54326296
  0
VERTEX
  8
0
 10
-241.81665861
 20
196.04382877
  0
VERTEX
  8
0
 10
-241.46021260
 20
196.52438875
  0
VERTEX
  8
0
 10
-241.07270887
 20
196.98595217
  0
VERTEX
  8
0
 10
-240.65743264
 20
197.42952830
  0
VERTEX
  8
0
 10
-240.21766910
 20
197.85612642
  0
VERTEX
  8
0
 10
-239.75670346
 20
198.26675581
  0
VERTEX
  8
0
 10
-239.27782093
 20
198.66242572
  0
VERTEX
  8
0
 10
-238.78430672
 20
199.04414544
  0
VERTEX
  8
0
 10
-238.27944604
 20
199.41292425
  0
VERTEX
  8
0
 10
-237.24882607
 20
200.11569618
  0
VERTEX
  8
0
 10
-236.21224268
 20
200.77881571
  0
VERTEX
  8
0
 10
-235.19597752
 20
201.41035703
  0
VERTEX
  8
0
 10
-234.73825233
 20
201.70314498
  0
VERTEX
  8
0
 10
-234.28424707
 20
202.01281939
  0
VERTEX
  8
0
 10
-233.83671106
 20
202.33959326
  0
VERTEX
  8
0
 10
-233.39839364
 20
202.68367954
  0
VERTEX
  8
0
 10
-232.97204415
 20
203.04529123
  0
VERTEX
  8
0
 10
-232.56041192
 20
203.42464129
  0
VERTEX
  8
0
 10
-232.16624628
 20
203.82194270
  0
VERTEX
  8
0
 10
-231.79229658
 20
204.23740844
  0
VERTEX
  8
0
 10
-231.44131214
 20
204.67125148
  0
VERTEX
  8
0
 10
-231.11604230
 20
205.12368481
  0
VERTEX
  8
0
 10
-230.81923641
 20
205.59492139
  0
VERTEX
  8
0
 10
-230.55364379
 20
206.08517421
  0
VERTEX
  8
0
 10
-230.32201377
 20
206.59465624
  0
VERTEX
  8
0
 10
-230.12709570
 20
207.12358045
  0
VERTEX
  8
0
 10
-229.97163891
 20
207.67215983
  0
VERTEX
  8
0
 10
-229.85839274
 20
208.24060735
  0
VERTEX
  8
0
 10
-229.80233992
 20
208.54808224
  0
VERTEX
  8
0
 10
-229.73248795
 20
208.84852827
  0
VERTEX
  8
0
 10
-229.55286826
 20
209.42722492
  0
VERTEX
  8
0
 10
-229.32249708
 20
209.97447967
  0
VERTEX
  8
0
 10
-229.04433784
 20
210.48807489
  0
VERTEX
  8
0
 10
-228.72135397
 20
210.96579292
  0
VERTEX
  8
0
 10
-228.35650889
 20
211.40541613
  0
VERTEX
  8
0
 10
-227.95276602
 20
211.80472688
  0
VERTEX
  8
0
 10
-227.51308880
 20
212.16150753
  0
VERTEX
  8
0
 10
-227.04044065
 20
212.47354043
  0
VERTEX
  8
0
 10
-226.53778499
 20
212.73860795
  0
VERTEX
  8
0
 10
-226.00808526
 20
212.95449245
  0
VERTEX
  8
0
 10
-225.45430486
 20
213.11897627
  0
VERTEX
  8
0
 10
-224.87940724
 20
213.22984180
  0
VERTEX
  8
0
 10
-224.28635582
 20
213.28487137
  0
VERTEX
  8
0
 10
-223.67811401
 20
213.28184736
  0
VERTEX
  8
0
 10
-223.36922279
 20
213.25787224
  0
VERTEX
  8
0
 10
-223.05764526
 20
213.21855211
  0
SEQEND
  0
POLYLINE
  8
N�vel_Padr�o
 66
   1
 39
0.000000
 70
    0
  0
VERTEX
  8
0
 10
-101.20999010
 20
275.03833272
  0
VERTEX
  8
0
 10
-101.22436822
 20
275.03624280
  0
SEQEND
  0
POLYLINE
  8
N�vel_Padr�o
 66
   1
 39
0.000000
 70
    1
  0
VERTEX
  8
0
 10
-218.53071732
 20
8.85521650
  0
VERTEX
  8
0
 10
-219.87300389
 20
8.79995873
  0
VERTEX
  8
0
 10
-221.19351711
 20
8.78060333
  0
VERTEX
  8
0
 10
-222.49557028
 20
8.79103960
  0
VERTEX
  8
0
 10
-223.78247666
 20
8.82515686
  0
VERTEX
  8
0
 10
-226.32410220
 20
8.93999154
  0
VERTEX
  8
0
 10
-228.84489997
 20
9.07622184
  0
VERTEX
  8
0
 10
-230.10577164
 20
9.13708361
  0
VERTEX
  8
0
 10
-231.37137621
 20
9.18496221
  0
VERTEX
  8
0
 10
-232.64502696
 20
9.21374694
  0
VERTEX
  8
0
 10
-233.93003716
 20
9.21732711
  0
VERTEX
  8
0
 10
-235.22972011
 20
9.18959203
  0
VERTEX
  8
0
 10
-236.54738907
 20
9.12443100
  0
VERTEX
  8
0
 10
-237.88635733
 20
9.01573334
  0
VERTEX
  8
0
 10
-239.24993816
 20
8.85738834
  0
VERTEX
  8
0
 10
-239.66359275
 20
8.81226772
  0
VERTEX
  8
0
 10
-240.07412687
 20
8.78824212
  0
VERTEX
  8
0
 10
-240.48044512
 20
8.78492388
  0
VERTEX
  8
0
 10
-240.88145210
 20
8.80192536
  0
VERTEX
  8
0
 10
-241.27605239
 20
8.83885892
  0
VERTEX
  8
0
 10
-241.66315059
 20
8.89533691
  0
VERTEX
  8
0
 10
-242.04165130
 20
8.97097169
  0
VERTEX
  8
0
 10
-242.41045912
 20
9.06537561
  0
VERTEX
  8
0
 10
-242.76847863
 20
9.17816102
  0
VERTEX
  8
0
 10
-243.11461443
 20
9.30894028
  0
VERTEX
  8
0
 10
-243.44777113
 20
9.45732575
  0
VERTEX
  8
0
 10
-243.76685330
 20
9.62292977
  0
VERTEX
  8
0
 10
-244.07076555
 20
9.80536470
  0
VERTEX
  8
0
 10
-244.35841247
 20
10.00424290
  0
VERTEX
  8
0
 10
-244.62869866
 20
10.21917672
  0
VERTEX
  8
0
 10
-244.88052871
 20
10.44977852
  0
VERTEX
  8
0
 10
-245.11280721
 20
10.69566065
  0
VERTEX
  8
0
 10
-245.32443877
 20
10.95643546
  0
VERTEX
  8
0
 10
-245.51432797
 20
11.23171531
  0
VERTEX
  8
0
 10
-245.68137942
 20
11.52111255
  0
VERTEX
  8
0
 10
-245.82449770
 20
11.82423954
  0
VERTEX
  8
0
 10
-245.94258741
 20
12.14070863
  0
VERTEX
  8
0
 10
-246.03455314
 20
12.47013218
  0
VERTEX
  8
0
 10
-246.09929950
 20
12.81212253
  0
VERTEX
  8
0
 10
-246.13573107
 20
13.16629206
  0
VERTEX
  8
0
 10
-246.14275245
 20
13.53225310
  0
VERTEX
  8
0
 10
-246.11926823
 20
13.90961802
  0
VERTEX
  8
0
 10
-246.06418301
 20
14.29799916
  0
VERTEX
  8
0
 10
-245.97640139
 20
14.69700889
  0
VERTEX
  8
0
 10
-245.85482796
 20
15.10625955
  0
VERTEX
  8
0
 10
-245.69836731
 20
15.52536351
  0
VERTEX
  8
0
 10
-245.50592404
 20
15.95393311
  0
VERTEX
  8
0
 10
-245.33951631
 20
16.31727327
  0
VERTEX
  8
0
 10
-245.19820546
 20
16.66856126
  0
VERTEX
  8
0
 10
-245.07897709
 20
17.00910606
  0
VERTEX
  8
0
 10
-244.97881679
 20
17.34021666
  0
VERTEX
  8
0
 10
-244.82364275
 20
17.97937123
  0
VERTEX
  8
0
 10
-244.70856803
 20
18.59649688
  0
VERTEX
  8
0
 10
-244.60947735
 20
19.20206551
  0
VERTEX
  8
0
 10
-244.50225540
 20
19.80654905
  0
VERTEX
  8
0
 10
-244.36278690
 20
20.42041941
  0
VERTEX
  8
0
 10
-244.27342416
 20
20.73414712
  0
VERTEX
  8
0
 10
-244.16695654
 20
21.05414850
  0
VERTEX
  8
0
 10
-243.30208702
 20
23.39800767
  0
VERTEX
  8
0
 10
-242.39897469
 20
25.71402394
  0
VERTEX
  8
0
 10
-241.45805181
 20
28.00361383
  0
VERTEX
  8
0
 10
-240.47975064
 20
30.26819383
  0
VERTEX
  8
0
 10
-239.46450344
 20
32.50918048
  0
VERTEX
  8
0
 10
-238.41274247
 20
34.72799027
  0
VERTEX
  8
0
 10
-237.32490000
 20
36.92603972
  0
VERTEX
  8
0
 10
-236.20140827
 20
39.10474534
  0
VERTEX
  8
0
 10
-235.04269955
 20
41.26552364
  0
VERTEX
  8
0
 10
-233.84920611
 20
43.40979113
  0
VERTEX
  8
0
 10
-232.62136019
 20
45.53896433
  0
VERTEX
  8
0
 10
-231.35959405
 20
47.65445974
  0
VERTEX
  8
0
 10
-230.06433997
 20
49.75769389
  0
VERTEX
  8
0
 10
-228.73603019
 20
51.85008327
  0
VERTEX
  8
0
 10
-227.37509698
 20
53.93304440
  0
VERTEX
  8
0
 10
-225.98197259
 20
56.00799379
  0
VERTEX
  8
0
 10
-225.01101814
 20
57.45266854
  0
VERTEX
  8
0
 10
-224.05948069
 20
58.90366677
  0
VERTEX
  8
0
 10
-223.12747186
 20
60.36116372
  0
VERTEX
  8
0
 10
-222.21510329
 20
61.82533461
  0
VERTEX
  8
0
 10
-221.32248660
 20
63.29635468
  0
VERTEX
  8
0
 10
-220.44973345
 20
64.77439916
  0
VERTEX
  8
0
 10
-219.59695545
 20
66.25964328
  0
VERTEX
  8
0
 10
-218.76426425
 20
67.75226227
  0
VERTEX
  8
0
 10
-217.95177147
 20
69.25243137
  0
VERTEX
  8
0
 10
-217.15958875
 20
70.76032579
  0
VERTEX
  8
0
 10
-216.38782773
 20
72.27612078
  0
VERTEX
  8
0
 10
-215.63660004
 20
73.79999157
  0
VERTEX
  8
0
 10
-214.90601731
 20
75.33211338
  0
VERTEX
  8
0
 10
-214.19619118
 20
76.87266145
  0
VERTEX
  8
0
 10
-213.50723327
 20
78.42181100
  0
VERTEX
  8
0
 10
-212.83925523
 20
79.97973728
  0
VERTEX
  8
0
 10
-212.19236869
 20
81.54661551
  0
VERTEX
  8
0
 10
-211.56668528
 20
83.12262092
  0
VERTEX
  8
0
 10
-210.96231664
 20
84.70792874
  0
VERTEX
  8
0
 10
-210.37937440
 20
86.30271420
  0
VERTEX
  8
0
 10
-209.81797019
 20
87.90715255
  0
VERTEX
  8
0
 10
-209.27821564
 20
89.52141899
  0
VERTEX
  8
0
 10
-208.76022240
 20
91.14568878
  0
VERTEX
  8
0
 10
-208.26410209
 20
92.78013713
  0
VERTEX
  8
0
 10
-207.78996636
 20
94.42493928
  0
VERTEX
  8
0
 10
-207.33792682
 20
96.08027047
  0
VERTEX
  8
0
 10
-206.90809512
 20
97.74630591
  0
VERTEX
  8
0
 10
-206.50058290
 20
99.42322085
  0
VERTEX
  8
0
 10
-206.11550178
 20
101.11119051
  0
VERTEX
  8
0
 10
-205.75296339
 20
102.81039013
  0
VERTEX
  8
0
 10
-205.41307938
 20
104.52099493
  0
VERTEX
  8
0
 10
-205.09596137
 20
106.24318015
  0
VERTEX
  8
0
 10
-204.89013872
 20
107.52377255
  0
VERTEX
  8
0
 10
-204.72529351
 20
108.80466370
  0
VERTEX
  8
0
 10
-204.60094447
 20
110.08509129
  0
VERTEX
  8
0
 10
-204.51661033
 20
111.36429301
  0
VERTEX
  8
0
 10
-204.47180983
 20
112.64150659
  0
VERTEX
  8
0
 10
-204.46606169
 20
113.91596971
  0
VERTEX
  8
0
 10
-204.49888465
 20
115.18692007
  0
VERTEX
  8
0
 10
-204.56979744
 20
116.45359539
  0
VERTEX
  8
0
 10
-204.67831879
 20
117.71523335
  0
VERTEX
  8
0
 10
-204.82396742
 20
118.97107167
  0
VERTEX
  8
0
 10
-205.00626208
 20
120.22034804
  0
VERTEX
  8
0
 10
-205.22472150
 20
121.46230016
  0
VERTEX
  8
0
 10
-205.47886439
 20
122.69616574
  0
VERTEX
  8
0
 10
-205.76820950
 20
123.92118248
  0
VERTEX
  8
0
 10
-206.09227556
 20
125.13658807
  0
VERTEX
  8
0
 10
-206.45058130
 20
126.34162022
  0
VERTEX
  8
0
 10
-206.84264544
 20
127.53551664
  0
VERTEX
  8
0
 10
-207.26798672
 20
128.71751502
  0
VERTEX
  8
0
 10
-207.72612388
 20
129.88685306
  0
VERTEX
  8
0
 10
-208.21657563
 20
131.04276847
  0
VERTEX
  8
0
 10
-208.73886072
 20
132.18449894
  0
VERTEX
  8
0
 10
-209.29249787
 20
133.31128219
  0
VERTEX
  8
0
 10
-209.87700582
 20
134.42235590
  0
VERTEX
  8
0
 10
-210.49190329
 20
135.51695779
  0
VERTEX
  8
0
 10
-211.13670903
 20
136.59432554
  0
VERTEX
  8
0
 10
-211.81094175
 20
137.65369688
  0
VERTEX
  8
0
 10
-212.51412019
 20
138.69430948
  0
VERTEX
  8
0
 10
-213.24576308
 20
139.71540107
  0
VERTEX
  8
0
 10
-214.00538915
 20
140.71620933
  0
VERTEX
  8
0
 10
-214.79251714
 20
141.69597197
  0
VERTEX
  8
0
 10
-215.60666577
 20
142.65392669
  0
VERTEX
  8
0
 10
-216.44735378
 20
143.58931120
  0
VERTEX
  8
0
 10
-217.62496653
 20
144.84007938
  0
VERTEX
  8
0
 10
-218.84668575
 20
146.10776286
  0
VERTEX
  8
0
 10
-220.09207642
 20
147.39441352
  0
VERTEX
  8
0
 10
-221.34070354
 20
148.70208321
  0
VERTEX
  8
0
 10
-222.57213208
 20
150.03282382
  0
VERTEX
  8
0
 10
-223.76592704
 20
151.38868719
  0
VERTEX
  8
0
 10
-224.34232598
 20
152.07668113
  0
VERTEX
  8
0
 10
-224.90165340
 20
152.77172522
  0
VERTEX
  8
0
 10
-225.44135492
 20
153.47407593
  0
VERTEX
  8
0
 10
-225.95887616
 20
154.18398975
  0
VERTEX
  8
0
 10
-226.45166274
 20
154.90172317
  0
VERTEX
  8
0
 10
-226.91716029
 20
155.62753267
  0
VERTEX
  8
0
 10
-227.35281444
 20
156.36167473
  0
VERTEX
  8
0
 10
-227.75607080
 20
157.10440583
  0
VERTEX
  8
0
 10
-228.12437500
 20
157.85598247
  0
VERTEX
  8
0
 10
-228.45517266
 20
158.61666112
  0
VERTEX
  8
0
 10
-228.74590940
 20
159.38669826
  0
VERTEX
  8
0
 10
-228.99403086
 20
160.16635038
  0
VERTEX
  8
0
 10
-229.19698265
 20
160.95587397
  0
VERTEX
  8
0
 10
-229.35221040
 20
161.75552550
  0
VERTEX
  8
0
 10
-229.45715972
 20
162.56556146
  0
VERTEX
  8
0
 10
-229.50927625
 20
163.38623834
  0
VERTEX
  8
0
 10
-229.50600561
 20
164.21781262
  0
VERTEX
  8
0
 10
-229.44479341
 20
165.06054077
  0
VERTEX
  8
0
 10
-229.32308529
 20
165.91467929
  0
VERTEX
  8
0
 10
-229.23874702
 20
166.34610759
  0
VERTEX
  8
0
 10
-229.13832687
 20
166.78048466
  0
VERTEX
  8
0
 10
-229.01903768
 20
167.17301745
  0
VERTEX
  8
0
 10
-228.86719203
 20
167.52905872
  0
VERTEX
  8
0
 10
-228.68459895
 20
167.84967329
  0
VERTEX
  8
0
 10
-228.47306752
 20
168.13592599
  0
VERTEX
  8
0
 10
-228.23440677
 20
168.38888164
  0
VERTEX
  8
0
 10
-227.97042575
 20
168.60960508
  0
VERTEX
  8
0
 10
-227.68293353
 20
168.79916112
  0
VERTEX
  8
0
 10
-227.37373914
 20
168.95861460
  0
VERTEX
  8
0
 10
-227.04465165
 20
169.08903034
  0
VERTEX
  8
0
 10
-226.69748010
 20
169.19147316
  0
VERTEX
  8
0
 10
-226.33403354
 20
169.26700790
  0
VERTEX
  8
0
 10
-225.95612103
 20
169.31669939
  0
VERTEX
  8
0
 10
-225.56555161
 20
169.34161244
  0
VERTEX
  8
0
 10
-225.16413434
 20
169.34281188
  0
VERTEX
  8
0
 10
-224.75367827
 20
169.32136254
  0
VERTEX
  8
0
 10
-224.33599244
 20
169.27832926
  0
VERTEX
  8
0
 10
-223.91288592
 20
169.21477684
  0
VERTEX
  8
0
 10
-223.48616775
 20
169.13177013
  0
VERTEX
  8
0
 10
-223.05764698
 20
169.03037394
  0
VERTEX
  8
0
 10
-222.62913267
 20
168.91165311
  0
VERTEX
  8
0
 10
-222.20243386
 20
168.77667246
  0
VERTEX
  8
0
 10
-221.77935961
 20
168.62649681
  0
VERTEX
  8
0
 10
-220.95132099
 20
168.28481985
  0
VERTEX
  8
0
 10
-220.15948921
 20
167.89514083
  0
VERTEX
  8
0
 10
-219.41833667
 20
167.46597837
  0
VERTEX
  8
0
 10
-219.07128775
 20
167.23925292
  0
VERTEX
  8
0
 10
-218.74233580
 20
167.00585109
  0
VERTEX
  8
0
 10
-218.43328987
 20
166.76683770
  0
VERTEX
  8
0
 10
-218.14595900
 20
166.52327758
  0
VERTEX
  8
0
 10
-217.54131409
 20
165.99813420
  0
VERTEX
  8
0
 10
-216.92161397
 20
165.48470291
  0
VERTEX
  8
0
 10
-216.28754166
 20
164.98258557
  0
VERTEX
  8
0
 10
-215.63978017
 20
164.49138403
  0
VERTEX
  8
0
 10
-214.97901252
 20
164.01070017
  0
VERTEX
  8
0
 10
-214.30592174
 20
163.54013582
  0
VERTEX
  8
0
 10
-212.92550282
 20
162.62777311
  0
VERTEX
  8
0
 10
-211.50398755
 20
161.75111076
  0
VERTEX
  8
0
 10
-210.04684008
 20
160.90696362
  0
VERTEX
  8
0
 10
-208.55952454
 20
160.09214654
  0
VERTEX
  8
0
 10
-207.04750509
 20
159.30347437
  0
VERTEX
  8
0
 10
-205.51624585
 20
158.53776196
  0
VERTEX
  8
0
 10
-203.97121098
 20
157.79182416
  0
VERTEX
  8
0
 10
-202.41786461
 20
157.06247583
  0
VERTEX
  8
0
 10
-200.86167088
 20
156.34653181
  0
VERTEX
  8
0
 10
-197.76259794
 20
154.94211612
  0
VERTEX
  8
0
 10
-194.71770528
 20
153.55309590
  0
VERTEX
  8
0
 10
-192.88369091
 20
152.68966317
  0
VERTEX
  8
0
 10
-191.05990178
 20
151.79843690
  0
VERTEX
  8
0
 10
-189.24984295
 20
150.87634881
  0
VERTEX
  8
0
 10
-187.45701948
 20
149.92033058
  0
VERTEX
  8
0
 10
-185.68493641
 20
148.92731392
  0
VERTEX
  8
0
 10
-183.93709880
 20
147.89423052
  0
VERTEX
  8
0
 10
-182.21701170
 20
146.81801210
  0
VERTEX
  8
0
 10
-180.52818017
 20
145.69559034
  0
VERTEX
  8
0
 10
-179.69658057
 20
145.11609436
  0
VERTEX
  8
0
 10
-178.87410925
 20
144.52389694
  0
VERTEX
  8
0
 10
-178.06120435
 20
143.91861454
  0
VERTEX
  8
0
 10
-177.25830400
 20
143.29986362
  0
VERTEX
  8
0
 10
-176.46584633
 20
142.66726063
  0
VERTEX
  8
0
 10
-175.68426948
 20
142.02042206
  0
VERTEX
  8
0
 10
-174.91401157
 20
141.35896435
  0
VERTEX
  8
0
 10
-174.15551073
 20
140.68250397
  0
VERTEX
  8
0
 10
-173.40920510
 20
139.99065738
  0
VERTEX
  8
0
 10
-172.67553281
 20
139.28304104
  0
VERTEX
  8
0
 10
-171.95493199
 20
138.55927142
  0
VERTEX
  8
0
 10
-171.24784077
 20
137.81896498
  0
VERTEX
  8
0
 10
-170.55469728
 20
137.06173819
  0
VERTEX
  8
0
 10
-169.87593966
 20
136.28720749
  0
VERTEX
  8
0
 10
-169.21200604
 20
135.49498937
  0
VERTEX
  8
0
 10
-168.56333454
 20
134.68470027
  0
VERTEX
  8
0
 10
-167.73521896
 20
133.60943247
  0
VERTEX
  8
0
 10
-166.92552662
 20
132.52494805
  0
VERTEX
  8
0
 10
-166.13422478
 20
131.43134495
  0
VERTEX
  8
0
 10
-165.36128072
 20
130.32872107
  0
VERTEX
  8
0
 10
-164.60666170
 20
129.21717434
  0
VERTEX
  8
0
 10
-163.87033502
 20
128.09680267
  0
VERTEX
  8
0
 10
-163.15226792
 20
126.96770399
  0
VERTEX
  8
0
 10
-162.45242770
 20
125.82997621
  0
VERTEX
  8
0
 10
-161.77078161
 20
124.68371726
  0
VERTEX
  8
0
 10
-161.10729693
 20
123.52902505
  0
VERTEX
  8
0
 10
-160.46194094
 20
122.36599751
  0
VERTEX
  8
0
 10
-159.83468091
 20
121.19473255
  0
VERTEX
  8
0
 10
-159.22548410
 20
120.01532808
  0
VERTEX
  8
0
 10
-158.63431779
 20
118.82788204
  0
VERTEX
  8
0
 10
-158.06114926
 20
117.63249234
  0
VERTEX
  8
0
 10
-157.50594577
 20
116.42925690
  0
VERTEX
  8
0
 10
-156.96867460
 20
115.21827364
  0
VERTEX
  8
0
 10
-156.44930302
 20
113.99964047
  0
VERTEX
  8
0
 10
-155.94779830
 20
112.77345532
  0
VERTEX
  8
0
 10
-155.46412772
 20
111.53981611
  0
VERTEX
  8
0
 10
-154.99825854
 20
110.29882076
  0
VERTEX
  8
0
 10
-154.55015804
 20
109.05056718
  0
VERTEX
  8
0
 10
-154.11979349
 20
107.79515330
  0
VERTEX
  8
0
 10
-153.70713216
 20
106.53267703
  0
VERTEX
  8
0
 10
-153.31214133
 20
105.26323629
  0
VERTEX
  8
0
 10
-152.93478827
 20
103.98692901
  0
VERTEX
  8
0
 10
-152.57504025
 20
102.70385310
  0
VERTEX
  8
0
 10
-152.23286454
 20
101.41410648
  0
VERTEX
  8
0
 10
-151.90822841
 20
100.11778707
  0
VERTEX
  8
0
 10
-151.60109914
 20
98.81499279
  0
VERTEX
  8
0
 10
-151.31144400
 20
97.50582156
  0
VERTEX
  8
0
 10
-151.03923026
 20
96.19037130
  0
VERTEX
  8
0
 10
-150.74975121
 20
94.78473964
  0
VERTEX
  8
0
 10
-150.44345317
 20
93.38170337
  0
VERTEX
  8
0
 10
-150.12014437
 20
91.98172798
  0
VERTEX
  8
0
 10
-149.77963304
 20
90.58527893
  0
VERTEX
  8
0
 10
-149.42172741
 20
89.19282169
  0
VERTEX
  8
0
 10
-149.04623571
 20
87.80482173
  0
VERTEX
  8
0
 10
-148.65296618
 20
86.42174453
  0
VERTEX
  8
0
 10
-148.24172704
 20
85.04405555
  0
VERTEX
  8
0
 10
-147.81232652
 20
83.67222026
  0
VERTEX
  8
0
 10
-147.36457286
 20
82.30670414
  0
VERTEX
  8
0
 10
-146.89827429
 20
80.94797265
  0
VERTEX
  8
0
 10
-146.41323903
 20
79.59649127
  0
VERTEX
  8
0
 10
-145.90927531
 20
78.25272547
  0
VERTEX
  8
0
 10
-145.38619137
 20
76.91714071
  0
VERTEX
  8
0
 10
-144.84379545
 20
75.59020246
  0
VERTEX
  8
0
 10
-144.28189575
 20
74.27237621
  0
VERTEX
  8
0
 10
-143.70030053
 20
72.96412741
  0
VERTEX
  8
0
 10
-143.09881801
 20
71.66592154
  0
VERTEX
  8
0
 10
-142.47725641
 20
70.37822407
  0
VERTEX
  8
0
 10
-141.83542398
 20
69.10150047
  0
VERTEX
  8
0
 10
-141.17312894
 20
67.83621620
  0
VERTEX
  8
0
 10
-140.49017951
 20
66.58283675
  0
VERTEX
  8
0
 10
-139.78638394
 20
65.34182758
  0
VERTEX
  8
0
 10
-139.06155046
 20
64.11365415
  0
VERTEX
  8
0
 10
-138.31548728
 20
62.89878195
  0
VERTEX
  8
0
 10
-137.54800265
 20
61.69767644
  0
VERTEX
  8
0
 10
-136.75890479
 20
60.51080310
  0
VERTEX
  8
0
 10
-135.94800194
 20
59.33862738
  0
VERTEX
  8
0
 10
-135.11510232
 20
58.18161477
  0
VERTEX
  8
0
 10
-134.26001417
 20
57.04023073
  0
VERTEX
  8
0
 10
-133.38254572
 20
55.91494074
  0
VERTEX
  8
0
 10
-132.48250519
 20
54.80621026
  0
VERTEX
  8
0
 10
-131.76617090
 20
53.96885651
  0
VERTEX
  8
0
 10
-131.02315993
 20
53.15073852
  0
VERTEX
  8
0
 10
-130.25639005
 20
52.35017326
  0
VERTEX
  8
0
 10
-129.46877903
 20
51.56547773
  0
VERTEX
  8
0
 10
-128.66324466
 20
50.79496888
  0
VERTEX
  8
0
 10
-127.84270470
 20
50.03696372
  0
VERTEX
  8
0
 10
-126.16827916
 20
48.55173233
  0
VERTEX
  8
0
 10
-124.46884460
 20
47.09631940
  0
VERTEX
  8
0
 10
-122.76774325
 20
45.65726077
  0
VERTEX
  8
0
 10
-121.08831731
 20
44.22109228
  0
VERTEX
  8
0
 10
-119.45390899
 20
42.77434975
  0
VERTEX
  8
0
 10
-118.77605707
 20
42.18184821
  0
VERTEX
  8
0
 10
-118.07098103
 20
41.60324982
  0
VERTEX
  8
0
 10
-116.60779927
 20
40.46976019
  0
VERTEX
  8
0
 10
-115.12164902
 20
39.33787618
  0
VERTEX
  8
0
 10
-114.38786237
 20
38.76128481
  0
VERTEX
  8
0
 10
-113.66981559
 20
38.17159307
  0
VERTEX
  8
0
 10
-112.97466934
 20
37.56430040
  0
VERTEX
  8
0
 10
-112.30958428
 20
36.93490619
  0
VERTEX
  8
0
 10
-111.68172108
 20
36.27890986
  0
VERTEX
  8
0
 10
-111.09824041
 20
35.59181083
  0
VERTEX
  8
0
 10
-110.82538122
 20
35.23519137
  0
VERTEX
  8
0
 10
-110.56630292
 20
34.86910851
  0
VERTEX
  8
0
 10
-110.32190058
 20
34.49299968
  0
VERTEX
  8
0
 10
-110.09306928
 20
34.10630230
  0
VERTEX
  8
0
 10
-109.88070411
 20
33.70845381
  0
VERTEX
  8
0
 10
-109.68570015
 20
33.29889163
  0
VERTEX
  8
0
 10
-109.50895249
 20
32.87705318
  0
VERTEX
  8
0
 10
-109.35135621
 20
32.44237590
  0
VERTEX
  8
0
 10
-112.97042892
 20
32.27266090
  0
VERTEX
  8
0
 10
-116.51777909
 20
32.13787270
  0
VERTEX
  8
0
 10
-120.05188949
 20
32.01433260
  0
VERTEX
  8
0
 10
-123.63124290
 20
31.87836185
  0
VERTEX
  8
0
 10
-123.80690865
 20
31.85643486
  0
VERTEX
  8
0
 10
-123.97496336
 20
31.80321599
  0
VERTEX
  8
0
 10
-124.17006149
 20
31.69336278
  0
VERTEX
  8
0
 10
-124.33493221
 20
31.54258016
  0
VERTEX
  8
0
 10
-124.44546370
 20
31.38655173
  0
VERTEX
  8
0
 10
-124.52438362
 20
31.21203990
  0
VERTEX
  8
0
 10
-124.55726303
 20
31.08693455
  0
VERTEX
  8
0
 10
-124.57248065
 20
30.95895022
  0
VERTEX
  8
0
 10
-124.56926970
 20
30.70031331
  0
VERTEX
  8
0
 10
-124.55282711
 20
30.26292162
  0
VERTEX
  8
0
 10
-124.53269456
 20
29.82590181
  0
VERTEX
  8
0
 10
-124.49201414
 20
29.61625367
  0
VERTEX
  8
0
 10
-124.40102152
 20
29.42266583
  0
VERTEX
  8
0
 10
-124.25597915
 20
29.22787189
  0
VERTEX
  8
0
 10
-124.16684784
 20
29.14656830
  0
VERTEX
  8
0
 10
-124.05794832
 20
29.08093543
  0
VERTEX
  8
0
 10
-123.83988886
 20
28.97914251
  0
VERTEX
  8
0
 10
-123.73032765
 20
28.94959472
  0
VERTEX
  8
0
 10
-123.59621871
 20
28.94204624
  0
VERTEX
  8
0
 10
-108.16920761
 20
29.51490136
  0
VERTEX
  8
0
 10
-108.03072750
 20
29.21297716
  0
VERTEX
  8
0
 10
-107.91069586
 20
28.90695026
  0
VERTEX
  8
0
 10
-107.80876808
 20
28.59736474
  0
VERTEX
  8
0
 10
-107.72459956
 20
28.28476466
  0
VERTEX
  8
0
 10
-107.65784568
 20
27.96969408
  0
VERTEX
  8
0
 10
-107.60816182
 20
27.65269706
  0
VERTEX
  8
0
 10
-107.57520337
 20
27.33431767
  0
VERTEX
  8
0
 10
-107.55862571
 20
27.01509997
  0
VERTEX
  8
0
 10
-107.55808424
 20
26.69558803
  0
VERTEX
  8
0
 10
-107.57323433
 20
26.37632592
  0
VERTEX
  8
0
 10
-107.60373138
 20
26.05785768
  0
VERTEX
  8
0
 10
-107.64923077
 20
25.74072740
  0
VERTEX
  8
0
 10
-107.78385812
 20
25.11265693
  0
VERTEX
  8
0
 10
-107.97435946
 20
24.49646702
  0
VERTEX
  8
0
 10
-108.21797788
 20
23.89651019
  0
VERTEX
  8
0
 10
-108.51195648
 20
23.31713895
  0
VERTEX
  8
0
 10
-108.85353834
 20
22.76270580
  0
VERTEX
  8
0
 10
-109.23996655
 20
22.23756327
  0
VERTEX
  8
0
 10
-109.66848420
 20
21.74606385
  0
VERTEX
  8
0
 10
-110.13633437
 20
21.29256007
  0
VERTEX
  8
0
 10
-110.64076017
 20
20.88140444
  0
VERTEX
  8
0
 10
-111.17900467
 20
20.51694946
  0
VERTEX
  8
0
 10
-111.73846042
 20
20.14848566
  0
VERTEX
  8
0
 10
-112.27021582
 20
19.74659826
  0
VERTEX
  8
0
 10
-112.77325068
 20
19.31314488
  0
VERTEX
  8
0
 10
-113.24654479
 20
18.84998316
  0
VERTEX
  8
0
 10
-113.68907797
 20
18.35897074
  0
VERTEX
  8
0
 10
-114.09983001
 20
17.84196524
  0
VERTEX
  8
0
 10
-114.47778073
 20
17.30082429
  0
VERTEX
  8
0
 10
-114.82190991
 20
16.73740554
  0
VERTEX
  8
0
 10
-115.13119736
 20
16.15356661
  0
VERTEX
  8
0
 10
-115.40462290
 20
15.55116513
  0
VERTEX
  8
0
 10
-115.64116631
 20
14.93205875
  0
VERTEX
  8
0
 10
-115.83980740
 20
14.29810508
  0
VERTEX
  8
0
 10
-115.99952599
 20
13.65116177
  0
VERTEX
  8
0
 10
-116.11930186
 20
12.99308645
  0
VERTEX
  8
0
 10
-116.19811482
 20
12.32573675
  0
VERTEX
  8
0
 10
-116.23494468
 20
11.65097030
  0
VERTEX
  8
0
 10
-116.26449102
 20
11.07734345
  0
VERTEX
  8
0
 10
-116.32024609
 20
10.51126408
  0
VERTEX
  8
0
 10
-116.47172445
 20
9.39177858
  0
VERTEX
  8
0
 10
-116.54811876
 20
8.83338785
  0
VERTEX
  8
0
 10
-116.61206382
 20
8.27257539
  0
VERTEX
  8
0
 10
-116.65389515
 20
7.70684891
  0
VERTEX
  8
0
 10
-116.66394825
 20
7.13371611
  0
VERTEX
  8
0
 10
-215.56639292
 20
8.80944336
  0
VERTEX
  8
0
 10
-215.02113134
 20
14.33660211
  0
VERTEX
  8
0
 10
-214.74034269
 20
17.15669350
  0
VERTEX
  8
0
 10
-214.47004574
 20
19.97689224
  0
VERTEX
  8
0
 10
-214.47261523
 20
20.08367823
  0
VERTEX
  8
0
 10
-214.49475951
 20
20.18967212
  0
VERTEX
  8
0
 10
-214.57096937
 20
20.39096802
  0
VERTEX
  8
0
 10
-214.62378765
 20
20.48915150
  0
VERTEX
  8
0
 10
-214.69102816
 20
20.58132306
  0
VERTEX
  8
0
 10
-214.85457157
 20
20.73792347
  0
VERTEX
  8
0
 10
-215.03744623
 20
20.84983751
  0
VERTEX
  8
0
 10
-215.13774786
 20
20.89027867
  0
VERTEX
  8
0
 10
-215.24147853
 20
20.91652384
  0
VERTEX
  8
0
 10
-215.70307529
 20
20.97100896
  0
VERTEX
  8
0
 10
-216.16585247
 20
21.01639151
  0
VERTEX
  8
0
 10
-216.45553879
 20
21.03497606
  0
VERTEX
  8
0
 10
-216.59964271
 20
21.02121954
  0
VERTEX
  8
0
 10
-216.73899155
 20
20.98437699
  0
VERTEX
  8
0
 10
-216.85789525
 20
20.93417799
  0
VERTEX
  8
0
 10
-216.97075489
 20
20.87141614
  0
VERTEX
  8
0
 10
-217.07317229
 20
20.79405285
  0
VERTEX
  8
0
 10
-217.16074926
 20
20.70004951
  0
VERTEX
  8
0
 10
-217.30257411
 20
20.49798805
  0
VERTEX
  8
0
 10
-217.35382808
 20
20.38769814
  0
VERTEX
  8
0
 10
-217.38170497
 20
20.26452270
  0
VERTEX
  8
0
 10
-217.95371516
 20
14.55831148
  0
VERTEX
  8
0
 10
-218.51688182
 20
8.85464577
  0
VERTEX
  8
0
 10
-218.51762644
 20
8.86298590
  0
VERTEX
  8
0
 10
-218.52573981
 20
8.84843822
  0
VERTEX
  8
0
 10
-218.53288306
 20
8.83713701
  0
VERTEX
  8
0
 10
-218.53071732
 20
8.85521650
  0
SEQEND
  0
POLYLINE
  8
N�vel_Padr�o
 66
   1
 39
0.000000
 70
    1
  0
VERTEX
  8
0
 10
-152.18623994
 20
62.70954022
  0
VERTEX
  8
0
 10
-143.79040695
 20
49.10944558
  0
VERTEX
  8
0
 10
-143.77743460
 20
49.07819610
  0
VERTEX
  8
0
 10
-143.67973443
 20
48.81356313
  0
VERTEX
  8
0
 10
-143.60455663
 20
48.54670094
  0
VERTEX
  8
0
 10
-143.55162875
 20
48.28006775
  0
VERTEX
  8
0
 10
-143.52067838
 20
48.01612181
  0
VERTEX
  8
0
 10
-143.51143308
 20
47.75732133
  0
VERTEX
  8
0
 10
-143.52362040
 20
47.50612454
  0
VERTEX
  8
0
 10
-143.55696793
 20
47.26498967
  0
VERTEX
  8
0
 10
-143.61120323
 20
47.03637495
  0
VERTEX
  8
0
 10
-143.68605386
 20
46.82273861
  0
VERTEX
  8
0
 10
-143.78124740
 20
46.62653887
  0
VERTEX
  8
0
 10
-143.89651141
 20
46.45023396
  0
VERTEX
  8
0
 10
-144.03157345
 20
46.29628212
  0
VERTEX
  8
0
 10
-144.18616110
 20
46.16714156
  0
VERTEX
  8
0
 10
-144.36000192
 20
46.06527052
  0
VERTEX
  8
0
 10
-144.55282348
 20
45.99312723
  0
VERTEX
  8
0
 10
-144.76435335
 20
45.95316990
  0
VERTEX
  8
0
 10
-145.27363107
 20
45.90001488
  0
VERTEX
  8
0
 10
-214.21375742
 20
38.48526776
  0
VERTEX
  8
0
 10
-214.65399155
 20
38.45691687
  0
VERTEX
  8
0
 10
-215.08277081
 20
38.46605852
  0
VERTEX
  8
0
 10
-215.49678743
 20
38.51044582
  0
VERTEX
  8
0
 10
-215.89273364
 20
38.58783192
  0
VERTEX
  8
0
 10
-216.26730168
 20
38.69596993
  0
VERTEX
  8
0
 10
-216.61718377
 20
38.83261300
  0
VERTEX
  8
0
 10
-216.93907215
 20
38.99551424
  0
VERTEX
  8
0
 10
-217.22965904
 20
39.18242679
  0
VERTEX
  8
0
 10
-217.48563668
 20
39.39110378
  0
VERTEX
  8
0
 10
-217.70369730
 20
39.61929834
  0
VERTEX
  8
0
 10
-217.88053312
 20
39.86476360
  0
VERTEX
  8
0
 10
-218.01283639
 20
40.12525269
  0
VERTEX
  8
0
 10
-218.09729933
 20
40.39851873
  0
VERTEX
  8
0
 10
-218.13061417
 20
40.68231486
  0
VERTEX
  8
0
 10
-218.10947315
 20
40.97439420
  0
VERTEX
  8
0
 10
-218.03056849
 20
41.27250989
  0
VERTEX
  8
0
 10
-212.22908855
 20
57.27666020
  0
VERTEX
  8
0
 10
-212.10843714
 20
57.57136336
  0
VERTEX
  8
0
 10
-211.96340215
 20
57.85305495
  0
VERTEX
  8
0
 10
-211.79434418
 20
58.11471398
  0
VERTEX
  8
0
 10
-211.60162380
 20
58.34931946
  0
VERTEX
  8
0
 10
-211.38560160
 20
58.54985042
  0
VERTEX
  8
0
 10
-211.14663819
 20
58.70928588
  0
VERTEX
  8
0
 10
-210.88509414
 20
58.82060485
  0
VERTEX
  8
0
 10
-210.74596707
 20
58.85602659
  0
VERTEX
  8
0
 10
-210.60133005
 20
58.87678634
  0
VERTEX
  8
0
 10
-154.45042006
 20
63.88171126
  0
VERTEX
  8
0
 10
-154.11137455
 20
63.88683331
  0
VERTEX
  8
0
 10
-153.78031669
 20
63.84312104
  0
VERTEX
  8
0
 10
-153.46125593
 20
63.75332825
  0
VERTEX
  8
0
 10
-153.15820175
 20
63.62020877
  0
VERTEX
  8
0
 10
-152.87516360
 20
63.44651640
  0
VERTEX
  8
0
 10
-152.61615093
 20
63.23500498
  0
VERTEX
  8
0
 10
-152.38517323
 20
62.98842831
  0
VERTEX
  8
0
 10
-152.18623994
 20
62.70954022
  0
SEQEND
  0
POLYLINE
  8
N�vel_Padr�o
 66
   1
 39
0.000000
 70
    0
  0
VERTEX
  8
0
 10
-100.56611762
 20
264.09514624
  0
VERTEX
  8
0
 10
-100.58064162
 20
264.09553563
  0
SEQEND
  0
POLYLINE
  8
N�vel_Padr�o
 66
   1
 39
0.000000
 70
    1
  0
VERTEX
  8
0
 10
-96.67859999
 20
256.14428364
  0
VERTEX
  8
0
 10
-95.33658714
 20
256.08273548
  0
VERTEX
  8
0
 10
-94.01938398
 20
255.98731200
  0
VERTEX
  8
0
 10
-92.72315894
 20
255.86381297
  0
VERTEX
  8
0
 10
-91.44408047
 20
255.71803820
  0
VERTEX
  8
0
 10
-88.92203699
 20
255.38286053
  0
VERTEX
  8
0
 10
-86.42260107
 20
255.02817733
  0
VERTEX
  8
0
 10
-85.17178205
 20
254.85802061
  0
VERTEX
  8
0
 10
-83.91512025
 20
254.70038688
  0
VERTEX
  8
0
 10
-82.64878410
 20
254.56107591
  0
VERTEX
  8
0
 10
-81.36894204
 20
254.44588750
  0
VERTEX
  8
0
 10
-80.07176253
 20
254.36062144
  0
VERTEX
  8
0
 10
-78.75341400
 20
254.31107751
  0
VERTEX
  8
0
 10
-77.41006489
 20
254.30305550
  0
VERTEX
  8
0
 10
-76.03788365
 20
254.34235520
  0
VERTEX
  8
0
 10
-75.62187324
 20
254.35137337
  0
VERTEX
  8
0
 10
-75.21080391
 20
254.33964732
  0
VERTEX
  8
0
 10
-74.80573325
 20
254.30765839
  0
VERTEX
  8
0
 10
-74.40771885
 20
254.25588789
  0
VERTEX
  8
0
 10
-74.01781831
 20
254.18481718
  0
VERTEX
  8
0
 10
-73.63708922
 20
254.09492757
  0
VERTEX
  8
0
 10
-73.26658917
 20
253.98670041
  0
VERTEX
  8
0
 10
-72.90737574
 20
253.86061702
  0
VERTEX
  8
0
 10
-72.56050655
 20
253.71715873
  0
VERTEX
  8
0
 10
-72.22703916
 20
253.55680689
  0
VERTEX
  8
0
 10
-71.90803119
 20
253.38004281
  0
VERTEX
  8
0
 10
-71.60454021
 20
253.18734783
  0
VERTEX
  8
0
 10
-71.31762383
 20
252.97920329
  0
VERTEX
  8
0
 10
-71.04833963
 20
252.75609052
  0
VERTEX
  8
0
 10
-70.79774521
 20
252.51849084
  0
VERTEX
  8
0
 10
-70.56689815
 20
252.26688560
  0
VERTEX
  8
0
 10
-70.35685606
 20
252.00175612
  0
VERTEX
  8
0
 10
-70.16867651
 20
251.72358373
  0
VERTEX
  8
0
 10
-70.00341711
 20
251.43284977
  0
VERTEX
  8
0
 10
-69.86213545
 20
251.13003557
  0
VERTEX
  8
0
 10
-69.74588911
 20
250.81562246
  0
VERTEX
  8
0
 10
-69.65573569
 20
250.49009178
  0
VERTEX
  8
0
 10
-69.59273279
 20
250.15392485
  0
VERTEX
  8
0
 10
-69.55793799
 20
249.80760301
  0
VERTEX
  8
0
 10
-69.55240888
 20
249.45160759
  0
VERTEX
  8
0
 10
-69.57720307
 20
249.08641992
  0
VERTEX
  8
0
 10
-69.63337813
 20
248.71252134
  0
VERTEX
  8
0
 10
-69.72199167
 20
248.33039317
  0
VERTEX
  8
0
 10
-69.84410127
 20
247.94051675
  0
VERTEX
  8
0
 10
-70.00076452
 20
247.54337341
  0
VERTEX
  8
0
 10
-70.19303903
 20
247.13944449
  0
VERTEX
  8
0
 10
-70.42198237
 20
246.72921131
  0
VERTEX
  8
0
 10
-70.61932247
 20
246.38169945
  0
VERTEX
  8
0
 10
-70.79061364
 20
246.04401418
  0
VERTEX
  8
0
 10
-70.93897260
 20
245.71511331
  0
VERTEX
  8
0
 10
-71.06751606
 20
245.39395463
  0
VERTEX
  8
0
 10
-71.27762341
 20
244.77069510
  0
VERTEX
  8
0
 10
-71.44586947
 20
244.16589801
  0
VERTEX
  8
0
 10
-71.59718802
 20
243.57122581
  0
VERTEX
  8
0
 10
-71.75651285
 20
242.97834091
  0
VERTEX
  8
0
 10
-71.94877772
 20
242.37890576
  0
VERTEX
  8
0
 10
-72.06505448
 20
242.07412635
  0
VERTEX
  8
0
 10
-72.19891643
 20
241.76458279
  0
VERTEX
  8
0
 10
-73.26411502
 20
239.50470955
  0
VERTEX
  8
0
 10
-74.36499331
 20
237.27589591
  0
VERTEX
  8
0
 10
-75.50124372
 20
235.07669317
  0
VERTEX
  8
0
 10
-76.67255866
 20
232.90565261
  0
VERTEX
  8
0
 10
-77.87863054
 20
230.76132553
  0
VERTEX
  8
0
 10
-79.11915180
 20
228.64226323
  0
VERTEX
  8
0
 10
-80.39381485
 20
226.54701701
  0
VERTEX
  8
0
 10
-81.70231211
 20
224.47413815
  0
VERTEX
  8
0
 10
-83.04433600
 20
222.42217796
  0
VERTEX
  8
0
 10
-84.41957893
 20
220.38968772
  0
VERTEX
  8
0
 10
-85.82773333
 20
218.37521873
  0
VERTEX
  8
0
 10
-87.26849161
 20
216.37732229
  0
VERTEX
  8
0
 10
-88.74154620
 20
214.39454969
  0
VERTEX
  8
0
 10
-90.24658951
 20
212.42545222
  0
VERTEX
  8
0
 10
-91.78331396
 20
210.46858119
  0
VERTEX
  8
0
 10
-93.35141197
 20
208.52248788
  0
VERTEX
  8
0
 10
-94.44418729
 20
207.16761528
  0
VERTEX
  8
0
 10
-95.51816830
 20
205.80475645
  0
VERTEX
  8
0
 10
-96.57325901
 20
204.43372713
  0
VERTEX
  8
0
 10
-97.60936343
 20
203.05434304
  0
VERTEX
  8
0
 10
-98.62638557
 20
201.66641993
  0
VERTEX
  8
0
 10
-99.62422943
 20
200.26977353
  0
VERTEX
  8
0
 10
-100.60279904
 20
198.86421957
  0
VERTEX
  8
0
 10
-101.56199839
 20
197.44957378
  0
VERTEX
  8
0
 10
-102.50173149
 20
196.02565190
  0
VERTEX
  8
0
 10
-103.42190236
 20
194.59226967
  0
VERTEX
  8
0
 10
-104.32241501
 20
193.14924282
  0
VERTEX
  8
0
 10
-105.20317344
 20
191.69638708
  0
VERTEX
  8
0
 10
-106.06408166
 20
190.23351819
  0
VERTEX
  8
0
 10
-106.90504369
 20
188.76045187
  0
VERTEX
  8
0
 10
-107.72596353
 20
187.27700388
  0
VERTEX
  8
0
 10
-108.52674520
 20
185.78298993
  0
VERTEX
  8
0
 10
-109.30729269
 20
184.27822577
  0
VERTEX
  8
0
 10
-110.06751003
 20
182.76252712
  0
VERTEX
  8
0
 10
-110.80730121
 20
181.23570973
  0
VERTEX
  8
0
 10
-111.52657026
 20
179.69758933
  0
VERTEX
  8
0
 10
-112.22522118
 20
178.14798164
  0
VERTEX
  8
0
 10
-112.90315797
 20
176.58670241
  0
VERTEX
  8
0
 10
-113.56028465
 20
175.01356737
  0
VERTEX
  8
0
 10
-114.19650524
 20
173.42839226
  0
VERTEX
  8
0
 10
-114.81172372
 20
171.83099280
  0
VERTEX
  8
0
 10
-115.40584413
 20
170.22118473
  0
VERTEX
  8
0
 10
-115.97877046
 20
168.59878379
  0
VERTEX
  8
0
 10
-116.53040673
 20
166.96360571
  0
VERTEX
  8
0
 10
-117.06065694
 20
165.31546623
  0
VERTEX
  8
0
 10
-117.56942511
 20
163.65418107
  0
VERTEX
  8
0
 10
-118.05661524
 20
161.97956598
  0
VERTEX
  8
0
 10
-118.52213134
 20
160.29143668
  0
VERTEX
  8
0
 10
-118.83841404
 20
159.03356343
  0
VERTEX
  8
0
 10
-119.11390013
 20
157.77183307
  0
VERTEX
  8
0
 10
-119.34900285
 20
156.50704685
  0
VERTEX
  8
0
 10
-119.54413544
 20
155.24000597
  0
VERTEX
  8
0
 10
-119.69971112
 20
153.97151166
  0
VERTEX
  8
0
 10
-119.81614313
 20
152.70236515
  0
VERTEX
  8
0
 10
-119.89384471
 20
151.43336766
  0
VERTEX
  8
0
 10
-119.93322908
 20
150.16532040
  0
VERTEX
  8
0
 10
-119.93470948
 20
148.89902460
  0
VERTEX
  8
0
 10
-119.89869915
 20
147.63528149
  0
VERTEX
  8
0
 10
-119.82561131
 20
146.37489228
  0
VERTEX
  8
0
 10
-119.71585920
 20
145.11865820
  0
VERTEX
  8
0
 10
-119.56985604
 20
143.86738047
  0
VERTEX
  8
0
 10
-119.38801509
 20
142.62186031
  0
VERTEX
  8
0
 10
-119.17074956
 20
141.38289895
  0
VERTEX
  8
0
 10
-118.91847269
 20
140.15129760
  0
VERTEX
  8
0
 10
-118.63159771
 20
138.92785750
  0
VERTEX
  8
0
 10
-118.31053786
 20
137.71337985
  0
VERTEX
  8
0
 10
-117.95570637
 20
136.50866590
  0
VERTEX
  8
0
 10
-117.56751647
 20
135.31451684
  0
VERTEX
  8
0
 10
-117.14638140
 20
134.13173392
  0
VERTEX
  8
0
 10
-116.69271439
 20
132.96111835
  0
VERTEX
  8
0
 10
-116.20692867
 20
131.80347135
  0
VERTEX
  8
0
 10
-115.68943747
 20
130.65959415
  0
VERTEX
  8
0
 10
-115.14065403
 20
129.53028797
  0
VERTEX
  8
0
 10
-114.56099158
 20
128.41635403
  0
VERTEX
  8
0
 10
-113.95086335
 20
127.31859355
  0
VERTEX
  8
0
 10
-113.31068259
 20
126.23780776
  0
VERTEX
  8
0
 10
-112.64086251
 20
125.17479788
  0
VERTEX
  8
0
 10
-111.94181635
 20
124.13036512
  0
VERTEX
  8
0
 10
-111.21395735
 20
123.10531072
  0
VERTEX
  8
0
 10
-110.45769874
 20
122.10043590
  0
VERTEX
  8
0
 10
-109.39318456
 20
120.75210271
  0
VERTEX
  8
0
 10
-108.28619997
 20
119.38308687
  0
VERTEX
  8
0
 10
-107.15728097
 20
117.99311934
  0
VERTEX
  8
0
 10
-106.02696358
 20
116.58193108
  0
VERTEX
  8
0
 10
-104.91578379
 20
115.14925307
  0
VERTEX
  8
0
 10
-103.84427761
 20
113.69481627
  0
VERTEX
  8
0
 10
-103.32981962
 20
112.95935425
  0
VERTEX
  8
0
 10
-102.83298105
 20
112.21835164
  0
VERTEX
  8
0
 10
-102.35632887
 20
111.47177481
  0
VERTEX
  8
0
 10
-101.90243010
 20
110.71959014
  0
VERTEX
  8
0
 10
-101.47385174
 20
109.96176400
  0
VERTEX
  8
0
 10
-101.07316079
 20
109.19826275
  0
VERTEX
  8
0
 10
-100.70292424
 20
108.42905277
  0
VERTEX
  8
0
 10
-100.36570910
 20
107.65410042
  0
VERTEX
  8
0
 10
-100.06408238
 20
106.87337208
  0
VERTEX
  8
0
 10
-99.80061106
 20
106.08683412
  0
VERTEX
  8
0
 10
-99.57786215
 20
105.29445291
  0
VERTEX
  8
0
 10
-99.39840265
 20
104.49619482
  0
VERTEX
  8
0
 10
-99.26479956
 20
103.69202622
  0
VERTEX
  8
0
 10
-99.17961989
 20
102.88191348
  0
VERTEX
  8
0
 10
-99.14543063
 20
102.06582298
  0
VERTEX
  8
0
 10
-99.16479878
 20
101.24372107
  0
VERTEX
  8
0
 10
-99.24029135
 20
100.41557414
  0
VERTEX
  8
0
 10
-99.37447533
 20
99.58134855
  0
VERTEX
  8
0
 10
-99.56991773
 20
98.74101067
  0
VERTEX
  8
0
 10
-99.69141302
 20
98.31853912
  0
VERTEX
  8
0
 10
-99.82918554
 20
97.89452688
  0
VERTEX
  8
0
 10
-99.98212100
 20
97.51383980
  0
VERTEX
  8
0
 10
-100.16432004
 20
97.17233432
  0
VERTEX
  8
0
 10
-100.37407296
 20
96.86879248
  0
VERTEX
  8
0
 10
-100.60967004
 20
96.60199635
  0
VERTEX
  8
0
 10
-100.86940155
 20
96.37072799
  0
VERTEX
  8
0
 10
-101.15155778
 20
96.17376943
  0
VERTEX
  8
0
 10
-101.45442902
 20
96.00990276
  0
VERTEX
  8
0
 10
-101.77630554
 20
95.87791001
  0
VERTEX
  8
0
 10
-102.11547762
 20
95.77657324
  0
VERTEX
  8
0
 10
-102.47023556
 20
95.70467452
  0
VERTEX
  8
0
 10
-102.83886962
 20
95.66099590
  0
VERTEX
  8
0
 10
-103.21967011
 20
95.64431942
  0
VERTEX
  8
0
 10
-103.61092728
 20
95.65342716
  0
VERTEX
  8
0
 10
-104.01093144
 20
95.68710116
  0
VERTEX
  8
0
 10
-104.41797286
 20
95.74412348
  0
VERTEX
  8
0
 10
-104.83034182
 20
95.82327618
  0
VERTEX
  8
0
 10
-105.24632861
 20
95.92334131
  0
VERTEX
  8
0
 10
-105.66422350
 20
96.04310093
  0
VERTEX
  8
0
 10
-106.08231679
 20
96.18133710
  0
VERTEX
  8
0
 10
-106.49889875
 20
96.33683187
  0
VERTEX
  8
0
 10
-106.91225967
 20
96.50836729
  0
VERTEX
  8
0
 10
-107.32068982
 20
96.69472543
  0
VERTEX
  8
0
 10
-108.11591898
 20
97.10703806
  0
VERTEX
  8
0
 10
-108.87090847
 20
97.56402622
  0
VERTEX
  8
0
 10
-109.57198056
 20
98.05594635
  0
VERTEX
  8
0
 10
-109.89802329
 20
98.31196104
  0
VERTEX
  8
0
 10
-110.20545751
 20
98.57305489
  0
VERTEX
  8
0
 10
-110.49257352
 20
98.83800996
  0
VERTEX
  8
0
 10
-110.75766158
 20
99.10560830
  0
VERTEX
  8
0
 10
-111.31440470
 20
99.68128890
  0
VERTEX
  8
0
 10
-111.88716348
 20
100.24660943
  0
VERTEX
  8
0
 10
-112.47522292
 20
100.80190721
  0
VERTEX
  8
0
 10
-113.07786798
 20
101.34751955
  0
VERTEX
  8
0
 10
-113.69438365
 20
101.88378375
  0
VERTEX
  8
0
 10
-114.32405490
 20
102.41103712
  0
VERTEX
  8
0
 10
-115.62000409
 20
103.43986063
  0
VERTEX
  8
0
 10
-116.95999539
 20
104.43668853
  0
VERTEX
  8
0
 10
-118.33830862
 20
105.40421930
  0
VERTEX
  8
0
 10
-119.74922362
 20
106.34515140
  0
VERTEX
  8
0
 10
-121.18702023
 20
107.26218332
  0
VERTEX
  8
0
 10
-122.64597829
 20
108.15801351
  0
VERTEX
  8
0
 10
-124.12037763
 20
109.03534044
  0
VERTEX
  8
0
 10
-125.60449808
 20
109.89686260
  0
VERTEX
  8
0
 10
-127.09261948
 20
110.74527844
  0
VERTEX
  8
0
 10
-130.05798448
 20
112.41358505
  0
VERTEX
  8
0
 10
-132.97071130
 20
114.06184805
  0
VERTEX
  8
0
 10
-134.72279170
 20
115.08132787
  0
VERTEX
  8
0
 10
-136.46227122
 20
116.12760795
  0
VERTEX
  8
0
 10
-138.18539155
 20
117.20344054
  0
VERTEX
  8
0
 10
-139.88839435
 20
118.31157787
  0
VERTEX
  8
0
 10
-141.56752129
 20
119.45477217
  0
VERTEX
  8
0
 10
-143.21901403
 20
120.63577570
  0
VERTEX
  8
0
 10
-144.83911426
 20
121.85734067
  0
VERTEX
  8
0
 10
-146.42406363
 20
123.12221934
  0
VERTEX
  8
0
 10
-147.20218227
 20
123.77176139
  0
VERTEX
  8
0
 10
-147.97010382
 20
124.43316394
  0
VERTEX
  8
0
 10
-148.72735849
 20
125.10677104
  0
VERTEX
  8
0
 10
-149.47347649
 20
125.79292670
  0
VERTEX
  8
0
 10
-150.20798804
 20
126.49197497
  0
VERTEX
  8
0
 10
-150.93042333
 20
127.20425987
  0
VERTEX
  8
0
 10
-151.64031257
 20
127.93012543
  0
VERTEX
  8
0
 10
-152.33718599
 20
128.66991568
  0
VERTEX
  8
0
 10
-153.02057377
 20
129.42397465
  0
VERTEX
  8
0
 10
-153.69000614
 20
130.19264637
  0
VERTEX
  8
0
 10
-154.34501330
 20
130.97627487
  0
VERTEX
  8
0
 10
-154.98512546
 20
131.77520418
  0
VERTEX
  8
0
 10
-155.60987283
 20
132.58977833
  0
VERTEX
  8
0
 10
-156.21878561
 20
133.42034134
  0
VERTEX
  8
0
 10
-156.81139403
 20
134.26723725
  0
VERTEX
  8
0
 10
-157.38722827
 20
135.13081009
  0
VERTEX
  8
0
 10
-158.11881109
 20
136.27394738
  0
VERTEX
  8
0
 10
-158.83123971
 20
137.42466611
  0
VERTEX
  8
0
 10
-159.52455524
 20
138.58287158
  0
VERTEX
  8
0
 10
-160.19879881
 20
139.74846909
  0
VERTEX
  8
0
 10
-160.85401151
 20
140.92136393
  0
VERTEX
  8
0
 10
-161.49023445
 20
142.10146140
  0
VERTEX
  8
0
 10
-162.10750876
 20
143.28866678
  0
VERTEX
  8
0
 10
-162.70587552
 20
144.48288537
  0
VERTEX
  8
0
 10
-163.28537587
 20
145.68402247
  0
VERTEX
  8
0
 10
-163.84605090
 20
146.89198336
  0
VERTEX
  8
0
 10
-164.38794172
 20
148.10667335
  0
VERTEX
  8
0
 10
-164.91108945
 20
149.32799772
  0
VERTEX
  8
0
 10
-165.41553520
 20
150.55586177
  0
VERTEX
  8
0
 10
-165.90132007
 20
151.79017079
  0
VERTEX
  8
0
 10
-166.36848517
 20
153.03083008
  0
VERTEX
  8
0
 10
-166.81707162
 20
154.27774493
  0
VERTEX
  8
0
 10
-167.24712052
 20
155.53082063
  0
VERTEX
  8
0
 10
-167.65867298
 20
156.78996248
  0
VERTEX
  8
0
 10
-168.05177012
 20
158.05507578
  0
VERTEX
  8
0
 10
-168.42645304
 20
159.32606580
  0
VERTEX
  8
0
 10
-168.78276285
 20
160.60283786
  0
VERTEX
  8
0
 10
-169.12074066
 20
161.88529723
  0
VERTEX
  8
0
 10
-169.44042759
 20
163.17334922
  0
VERTEX
  8
0
 10
-169.74186474
 20
164.46689912
  0
VERTEX
  8
0
 10
-170.02509322
 20
165.76585223
  0
VERTEX
  8
0
 10
-170.29015414
 20
167.07011383
  0
VERTEX
  8
0
 10
-170.53708862
 20
168.37958922
  0
VERTEX
  8
0
 10
-170.76593775
 20
169.69418369
  0
VERTEX
  8
0
 10
-170.97674266
 20
171.01380254
  0
VERTEX
  8
0
 10
-171.16954444
 20
172.33835107
  0
VERTEX
  8
0
 10
-171.34438422
 20
173.66773455
  0
VERTEX
  8
0
 10
-171.50130309
 20
175.00185830
  0
VERTEX
  8
0
 10
-171.66758846
 20
176.42732232
  0
VERTEX
  8
0
 10
-171.85085469
 20
177.85166173
  0
VERTEX
  8
0
 10
-172.05133327
 20
179.27442946
  0
VERTEX
  8
0
 10
-172.26925566
 20
180.69517847
  0
VERTEX
  8
0
 10
-172.50485335
 20
182.11346171
  0
VERTEX
  8
0
 10
-172.75835781
 20
183.52883211
  0
VERTEX
  8
0
 10
-173.03000053
 20
184.94084263
  0
VERTEX
  8
0
 10
-173.32001297
 20
186.34904622
  0
VERTEX
  8
0
 10
-173.62862662
 20
187.75299582
  0
VERTEX
  8
0
 10
-173.95607296
 20
189.15224437
  0
VERTEX
  8
0
 10
-174.30258345
 20
190.54634483
  0
VERTEX
  8
0
 10
-174.66838959
 20
191.93485014
  0
VERTEX
  8
0
 10
-175.05372284
 20
193.31731325
  0
VERTEX
  8
0
 10
-175.45881468
 20
194.69328711
  0
VERTEX
  8
0
 10
-175.88389660
 20
196.06232465
  0
VERTEX
  8
0
 10
-176.32920007
 20
197.42397884
  0
VERTEX
  8
0
 10
-176.79495656
 20
198.77780262
  0
VERTEX
  8
0
 10
-177.28139755
 20
200.12334892
  0
VERTEX
  8
0
 10
-177.78875453
 20
201.46017071
  0
VERTEX
  8
0
 10
-178.31725896
 20
202.78782093
  0
VERTEX
  8
0
 10
-178.86714233
 20
204.10585252
  0
VERTEX
  8
0
 10
-179.43863612
 20
205.41381843
  0
VERTEX
  8
0
 10
-180.03197179
 20
206.71127160
  0
VERTEX
  8
0
 10
-180.64738083
 20
207.99776500
  0
VERTEX
  8
0
 10
-181.28509472
 20
209.27285155
  0
VERTEX
  8
0
 10
-181.94534493
 20
210.53608421
  0
VERTEX
  8
0
 10
-182.62836294
 20
211.78701593
  0
VERTEX
  8
0
 10
-183.33438023
 20
213.02519966
  0
VERTEX
  8
0
 10
-184.06362828
 20
214.25018833
  0
VERTEX
  8
0
 10
-184.81633856
 20
215.46153489
  0
VERTEX
  8
0
 10
-185.59274254
 20
216.65879231
  0
VERTEX
  8
0
 10
-186.39307172
 20
217.84151351
  0
VERTEX
  8
0
 10
-187.03396204
 20
218.73792619
  0
VERTEX
  8
0
 10
-187.70309912
 20
219.61749309
  0
VERTEX
  8
0
 10
-188.39743002
 20
220.48163740
  0
VERTEX
  8
0
 10
-189.11390178
 20
221.33178233
  0
VERTEX
  8
0
 10
-189.84946148
 20
222.16935110
  0
VERTEX
  8
0
 10
-190.60105616
 20
222.99576690
  0
VERTEX
  8
0
 10
-192.14013873
 20
224.62083246
  0
VERTEX
  8
0
 10
-193.70672593
 20
226.21836466
  0
VERTEX
  8
0
 10
-195.27639424
 20
227.79974916
  0
VERTEX
  8
0
 10
-196.82472011
 20
229.37637163
  0
VERTEX
  8
0
 10
-198.32728002
 20
230.95961773
  0
VERTEX
  8
0
 10
-198.95110240
 20
231.60876097
  0
VERTEX
  8
0
 10
-199.60325369
 20
232.24641841
  0
VERTEX
  8
0
 10
-200.96244481
 20
233.50272216
  0
VERTEX
  8
0
 10
-202.34465707
 20
234.75942151
  0
VERTEX
  8
0
 10
-203.02558478
 20
235.39757345
  0
VERTEX
  8
0
 10
-203.68969417
 20
236.04740901
  0
VERTEX
  8
0
 10
-204.32946068
 20
236.71278973
  0
VERTEX
  8
0
 10
-204.93735979
 20
237.39757719
  0
VERTEX
  8
0
 10
-205.50586696
 20
238.10563297
  0
VERTEX
  8
0
 10
-206.02745764
 20
238.84081862
  0
VERTEX
  8
0
 10
-206.26830788
 20
239.21979189
  0
VERTEX
  8
0
 10
-206.49460730
 20
239.60699571
  0
VERTEX
  8
0
 10
-206.70541533
 20
240.00291279
  0
VERTEX
  8
0
 10
-206.89979140
 20
240.40802582
  0
VERTEX
  8
0
 10
-207.07679494
 20
240.82281749
  0
VERTEX
  8
0
 10
-207.23548540
 20
241.24777050
  0
VERTEX
  8
0
 10
-207.37492219
 20
241.68336755
  0
VERTEX
  8
0
 10
-207.49416476
 20
242.13009134
  0
VERTEX
  8
0
 10
-203.87402944
 20
241.98479590
  0
VERTEX
  8
0
 10
-200.32837947
 20
241.81093580
  0
VERTEX
  8
0
 10
-196.79689627
 20
241.62702020
  0
VERTEX
  8
0
 10
-193.21926130
 20
241.45155825
  0
VERTEX
  8
0
 10
-193.04235486
 20
241.45814323
  0
VERTEX
  8
0
 10
-192.87031256
 20
241.49656296
  0
VERTEX
  8
0
 10
-192.66640952
 20
241.58905383
  0
VERTEX
  8
0
 10
-192.48906433
 20
241.72494511
  0
VERTEX
  8
0
 10
-192.36539730
 20
241.87078251
  0
VERTEX
  8
0
 10
-192.27161681
 20
242.03777936
  0
VERTEX
  8
0
 10
-192.22799446
 20
242.15955578
  0
VERTEX
  8
0
 10
-192.20171707
 20
242.28573448
  0
VERTEX
  8
0
 10
-192.18244952
 20
242.54367269
  0
VERTEX
  8
0
 10
-192.16083614
 20
242.98083938
  0
VERTEX
  8
0
 10
-192.14293109
 20
243.41795612
  0
VERTEX
  8
0
 10
-192.16524676
 20
243.63034550
  0
VERTEX
  8
0
 10
-192.23907953
 20
243.83110563
  0
VERTEX
  8
0
 10
-192.36665298
 20
244.03776231
  0
VERTEX
  8
0
 10
-192.44838499
 20
244.12650093
  0
VERTEX
  8
0
 10
-192.55117172
 20
244.20134521
  0
VERTEX
  8
0
 10
-192.75956475
 20
244.32169500
  0
VERTEX
  8
0
 10
-192.86614518
 20
244.36064808
  0
VERTEX
  8
0
 10
-192.99909151
 20
244.37981734
  0
VERTEX
  8
0
 10
-208.41755137
 20
245.14918717
  0
VERTEX
  8
0
 10
-208.52928156
 20
245.46199915
  0
VERTEX
  8
0
 10
-208.62227662
 20
245.77729579
  0
VERTEX
  8
0
 10
-208.69692713
 20
246.09456502
  0
VERTEX
  8
0
 10
-208.75362365
 20
246.41329478
  0
VERTEX
  8
0
 10
-208.79275677
 20
246.73297298
  0
VERTEX
  8
0
 10
-208.81471704
 20
247.05308756
  0
VERTEX
  8
0
 10
-208.81989505
 20
247.37312643
  0
VERTEX
  8
0
 10
-208.80868136
 20
247.69257754
  0
VERTEX
  8
0
 10
-208.78146654
 20
248.01092880
  0
VERTEX
  8
0
 10
-208.73864116
 20
248.32766815
  0
VERTEX
  8
0
 10
-208.68059580
 20
248.64228350
  0
VERTEX
  8
0
 10
-208.60772103
 20
248.95426280
  0
VERTEX
  8
0
 10
-208.41904553
 20
249.56826491
  0
VERTEX
  8
0
 10
-208.17573923
 20
250.16557789
  0
VERTEX
  8
0
 10
-207.88092670
 20
250.74210517
  0
VERTEX
  8
0
 10
-207.53773250
 20
251.29375017
  0
VERTEX
  8
0
 10
-207.14928122
 20
251.81641629
  0
VERTEX
  8
0
 10
-206.71869741
 20
252.30600697
  0
VERTEX
  8
0
 10
-206.24910565
 20
252.75842561
  0
VERTEX
  8
0
 10
-205.74363050
 20
253.16957563
  0
VERTEX
  8
0
 10
-205.20539654
 20
253.53536046
  0
VERTEX
  8
0
 10
-204.63752833
 20
253.85168351
  0
VERTEX
  8
0
 10
-204.04818082
 20
254.17015772
  0
VERTEX
  8
0
 10
-203.48352564
 20
254.52433537
  0
VERTEX
  8
0
 10
-202.94474047
 20
254.91245448
  0
VERTEX
  8
0
 10
-202.43300303
 20
255.33275305
  0
VERTEX
  8
0
 10
-201.94949102
 20
255.78346910
  0
VERTEX
  8
0
 10
-201.49538214
 20
256.26284062
  0
VERTEX
  8
0
 10
-201.07185409
 20
256.76910562
  0
VERTEX
  8
0
 10
-200.68008458
 20
257.30050212
  0
VERTEX
  8
0
 10
-200.32125131
 20
257.85526812
  0
VERTEX
  8
0
 10
-199.99653199
 20
258.43164162
  0
VERTEX
  8
0
 10
-199.70710431
 20
259.02786064
  0
VERTEX
  8
0
 10
-199.45414598
 20
259.64216319
  0
VERTEX
  8
0
 10
-199.23883470
 20
260.27278727
  0
VERTEX
  8
0
 10
-199.06234818
 20
260.91797088
  0
VERTEX
  8
0
 10
-198.92586412
 20
261.57595204
  0
VERTEX
  8
0
 10
-198.83056022
 20
262.24496876
  0
VERTEX
  8
0
 10
-198.75129776
 20
262.81386085
  0
VERTEX
  8
0
 10
-198.64658123
 20
263.37295738
  0
VERTEX
  8
0
 10
-198.39843189
 20
264.47505328
  0
VERTEX
  8
0
 10
-198.27382201
 20
265.02469742
  0
VERTEX
  8
0
 10
-198.16140395
 20
265.57783552
  0
VERTEX
  8
0
 10
-198.07058919
 20
266.13778998
  0
VERTEX
  8
0
 10
-198.01078920
 20
266.70788316
  0
VERTEX
  8
0
 10
-99.62774359
 20
256.44737832
  0
VERTEX
  8
0
 10
-100.65105804
 20
250.98847536
  0
VERTEX
  8
0
 10
-101.17575118
 20
248.20343410
  0
VERTEX
  8
0
 10
-101.69000161
 20
245.41737453
  0
VERTEX
  8
0
 10
-101.69671774
 20
245.31076899
  0
VERTEX
  8
0
 10
-101.68386427
 20
245.20325219
  0
VERTEX
  8
0
 10
-101.62542794
 20
244.99609722
  0
VERTEX
  8
0
 10
-101.58133796
 20
244.89369684
  0
VERTEX
  8
0
 10
-101.52235805
 20
244.79603285
  0
VERTEX
  8
0
 10
-101.37303583
 20
244.62581826
  0
VERTEX
  8
0
 10
-101.20057377
 20
244.49844192
  0
VERTEX
  8
0
 10
-101.10416416
 20
244.44944097
  0
VERTEX
  8
0
 10
-101.00310535
 20
244.41428449
  0
VERTEX
  8
0
 10
-100.54798619
 20
244.31990894
  0
VERTEX
  8
0
 10
-100.09090038
 20
244.23449903
  0
VERTEX
  8
0
 10
-99.80392337
 20
244.19082126
  0
VERTEX
  8
0
 10
-99.65916919
 20
244.19200827
  0
VERTEX
  8
0
 10
-99.51714676
 20
244.21660710
  0
VERTEX
  8
0
 10
-99.39433199
 20
244.25628784
  0
VERTEX
  8
0
 10
-99.27644717
 20
244.30900896
  0
VERTEX
  8
0
 10
-99.16769677
 20
244.37718340
  0
VERTEX
  8
0
 10
-99.07228527
 20
244.46322408
  0
VERTEX
  8
0
 10
-98.91344453
 20
244.65220224
  0
VERTEX
  8
0
 10
-98.85280402
 20
244.75762312
  0
VERTEX
  8
0
 10
-98.81433292
 20
244.87791145
  0
VERTEX
  8
0
 10
-97.74881767
 20
250.51286659
  0
VERTEX
  8
0
 10
-96.69233361
 20
256.14605402
  0
VERTEX
  8
0
 10
-96.69231627
 20
256.13768074
  0
VERTEX
  8
0
 10
-96.68296989
 20
256.15146866
  0
VERTEX
  8
0
 10
-96.67487197
 20
256.16210667
  0
VERTEX
  8
0
 10
-96.67859999
 20
256.14428364
  0
SEQEND
  0
POLYLINE
  8
N�vel_Padr�o
 66
   1
 39
0.000000
 70
    1
  0
VERTEX
  8
0
 10
-167.45033324
 20
208.25650196
  0
VERTEX
  8
0
 10
-174.63306567
 20
222.53448993
  0
VERTEX
  8
0
 10
-174.64327452
 20
222.56674813
  0
VERTEX
  8
0
 10
-174.71761818
 20
222.83886750
  0
VERTEX
  8
0
 10
-174.76933097
 20
223.11125127
  0
VERTEX
  8
0
 10
-174.79889783
 20
223.38147417
  0
VERTEX
  8
0
 10
-174.80680368
 20
223.64711093
  0
VERTEX
  8
0
 10
-174.79353346
 20
223.90573627
  0
VERTEX
  8
0
 10
-174.75957212
 20
224.15492492
  0
VERTEX
  8
0
 10
-174.70540458
 20
224.39225161
  0
VERTEX
  8
0
 10
-174.63151578
 20
224.61529108
  0
VERTEX
  8
0
 10
-174.53839065
 20
224.82161804
  0
VERTEX
  8
0
 10
-174.42651414
 20
225.00880723
  0
VERTEX
  8
0
 10
-174.29637118
 20
225.17443338
  0
VERTEX
  8
0
 10
-174.14844670
 20
225.31607121
  0
VERTEX
  8
0
 10
-173.98322564
 20
225.43129545
  0
VERTEX
  8
0
 10
-173.80119294
 20
225.51768084
  0
VERTEX
  8
0
 10
-173.60283353
 20
225.57280209
  0
VERTEX
  8
0
 10
-173.38863234
 20
225.59423394
  0
VERTEX
  8
0
 10
-172.87666234
 20
225.60294989
  0
VERTEX
  8
0
 10
-103.55304201
 20
227.00122053
  0
VERTEX
  8
0
 10
-103.11200922
 20
226.99122353
  0
VERTEX
  8
0
 10
-102.68564477
 20
226.94487075
  0
VERTEX
  8
0
 10
-102.27704876
 20
226.86468787
  0
VERTEX
  8
0
 10
-101.88932128
 20
226.75320062
  0
VERTEX
  8
0
 10
-101.52556241
 20
226.61293468
  0
VERTEX
  8
0
 10
-101.18887226
 20
226.44641578
  0
VERTEX
  8
0
 10
-100.88235091
 20
226.25616960
  0
VERTEX
  8
0
 10
-100.60909846
 20
226.04472187
  0
VERTEX
  8
0
 10
-100.37221501
 20
225.81459828
  0
VERTEX
  8
0
 10
-100.17480064
 20
225.56832454
  0
VERTEX
  8
0
 10
-100.01995544
 20
225.30842635
  0
VERTEX
  8
0
 10
-99.91077952
 20
225.03742942
  0
VERTEX
  8
0
 10
-99.85037295
 20
224.75785946
  0
VERTEX
  8
0
 10
-99.84183585
 20
224.47224216
  0
VERTEX
  8
0
 10
-99.88826829
 20
224.18310324
  0
VERTEX
  8
0
 10
-99.99277037
 20
223.89296840
  0
VERTEX
  8
0
 10
-107.16251405
 20
208.45325428
  0
VERTEX
  8
0
 10
-107.30830865
 20
208.17014538
  0
VERTEX
  8
0
 10
-107.47726443
 20
207.90211694
  0
VERTEX
  8
0
 10
-107.66841227
 20
207.65613208
  0
VERTEX
  8
0
 10
-107.88078308
 20
207.43915394
  0
VERTEX
  8
0
 10
-108.11340776
 20
207.25814562
  0
VERTEX
  8
0
 10
-108.36531721
 20
207.12007024
  0
VERTEX
  8
0
 10
-108.63554232
 20
207.03189094
  0
VERTEX
  8
0
 10
-108.77722041
 20
207.00868829
  0
VERTEX
  8
0
 10
-108.92311400
 20
207.00057083
  0
VERTEX
  8
0
 10
-165.29653147
 20
206.89208468
  0
VERTEX
  8
0
 10
-165.63474036
 20
206.91643301
  0
VERTEX
  8
0
 10
-165.96074982
 20
206.98873724
  0
VERTEX
  8
0
 10
-166.27080476
 20
207.10590567
  0
VERTEX
  8
0
 10
-166.56115009
 20
207.26484663
  0
VERTEX
  8
0
 10
-166.82803069
 20
207.46246843
  0
VERTEX
  8
0
 10
-167.06769149
 20
207.69567938
  0
VERTEX
  8
0
 10
-167.27637737
 20
207.96138778
  0
VERTEX
  8
0
 10
-167.45033324
 20
208.25650196
  0
SEQEND
  0
POLYLINE
  8
N�vel_Padr�o
 66
   1
 39
0.000000
 70
    1
  0
VERTEX
  8
0
 10
125.36494309
 20
29.06128156
  0
VERTEX
  8
0
 10
125.58103966
 20
29.54592430
  0
VERTEX
  8
0
 10
125.81393813
 20
30.02266677
  0
VERTEX
  8
0
 10
126.31918410
 20
30.97456796
  0
VERTEX
  8
0
 10
126.84154572
 20
31.91737502
  0
VERTEX
  8
0
 10
127.21957451
 20
32.57390225
  0
VERTEX
  8
0
 10
127.62046218
 20
33.21635159
  0
VERTEX
  8
0
 10
128.04107175
 20
33.84658447
  0
VERTEX
  8
0
 10
128.47826628
 20
34.46646232
  0
VERTEX
  8
0
 10
129.38986238
 20
35.68259869
  0
VERTEX
  8
0
 10
130.33015481
 20
36.87965218
  0
VERTEX
  8
0
 10
131.27404793
 20
38.07251427
  0
VERTEX
  8
0
 10
132.19644607
 20
39.27607645
  0
VERTEX
  8
0
 10
132.64174213
 20
39.88652366
  0
VERTEX
  8
0
 10
133.07225358
 20
40.50523019
  0
VERTEX
  8
0
 10
133.48484346
 20
41.13405750
  0
VERTEX
  8
0
 10
133.87637482
 20
41.77486699
  0
VERTEX
  8
0
 10
135.09939941
 20
43.85786227
  0
VERTEX
  8
0
 10
135.70212980
 20
44.91326885
  0
VERTEX
  8
0
 10
136.28512386
 20
45.98059863
  0
VERTEX
  8
0
 10
136.83797034
 20
47.06183957
  0
VERTEX
  8
0
 10
137.35025796
 20
48.15897961
  0
VERTEX
  8
0
 10
137.58793867
 20
48.71413302
  0
VERTEX
  8
0
 10
137.81157544
 20
49.27400669
  0
VERTEX
  8
0
 10
138.01986685
 20
49.83884911
  0
VERTEX
  8
0
 10
138.21151150
 20
50.40890876
  0
VERTEX
  8
0
 10
138.47039595
 20
51.24775457
  0
VERTEX
  8
0
 10
138.71298741
 20
52.09021285
  0
VERTEX
  8
0
 10
138.93997954
 20
52.93613049
  0
VERTEX
  8
0
 10
139.15206603
 20
53.78535434
  0
VERTEX
  8
0
 10
139.53429680
 20
55.49310822
  0
VERTEX
  8
0
 10
139.86522915
 20
57.21224947
  0
VERTEX
  8
0
 10
140.15041250
 20
58.94155307
  0
VERTEX
  8
0
 10
140.39539628
 20
60.67979401
  0
VERTEX
  8
0
 10
140.60572993
 20
62.42574727
  0
VERTEX
  8
0
 10
140.78696287
 20
64.17818784
  0
VERTEX
  8
0
 10
140.94464454
 20
65.93589069
  0
VERTEX
  8
0
 10
141.08432437
 20
67.69763081
  0
VERTEX
  8
0
 10
141.33187621
 20
71.22832280
  0
VERTEX
  8
0
 10
141.57401383
 20
74.76046367
  0
VERTEX
  8
0
 10
141.70692589
 20
76.52401489
  0
VERTEX
  8
0
 10
141.85513268
 20
78.28425328
  0
VERTEX
  8
0
 10
142.18936024
 20
81.91131093
  0
VERTEX
  8
0
 10
142.53412315
 20
85.51498122
  0
VERTEX
  8
0
 10
143.22824281
 20
92.69518134
  0
VERTEX
  8
0
 10
143.56409343
 20
96.29322200
  0
VERTEX
  8
0
 10
143.88346716
 20
99.91089695
  0
VERTEX
  8
0
 10
144.17961095
 20
103.55896160
  0
VERTEX
  8
0
 10
144.44577173
 20
107.24817136
  0
VERTEX
  8
0
 10
144.51747048
 20
107.97256463
  0
VERTEX
  8
0
 10
144.63508021
 20
108.67985468
  0
VERTEX
  8
0
 10
144.79945545
 20
109.36541303
  0
VERTEX
  8
0
 10
145.01145072
 20
110.02461120
  0
VERTEX
  8
0
 10
145.27192055
 20
110.65282070
  0
VERTEX
  8
0
 10
145.42060046
 20
110.95385830
  0
VERTEX
  8
0
 10
145.58171946
 20
111.24541306
  0
VERTEX
  8
0
 10
145.75538436
 20
111.52690641
  0
VERTEX
  8
0
 10
145.94170198
 20
111.79775979
  0
VERTEX
  8
0
 10
146.14077914
 20
112.05739465
  0
VERTEX
  8
0
 10
146.35272264
 20
112.30523242
  0
VERTEX
  8
0
 10
146.57763930
 20
112.54069454
  0
VERTEX
  8
0
 10
146.81563595
 20
112.76320245
  0
VERTEX
  8
0
 10
147.06681939
 20
112.97217760
  0
VERTEX
  8
0
 10
147.33129644
 20
113.16704143
  0
VERTEX
  8
0
 10
147.60917392
 20
113.34721536
  0
VERTEX
  8
0
 10
147.90055864
 20
113.51212085
  0
VERTEX
  8
0
 10
148.20555742
 20
113.66117933
  0
VERTEX
  8
0
 10
148.52427707
 20
113.79381224
  0
VERTEX
  8
0
 10
148.85682441
 20
113.90944102
  0
VERTEX
  8
0
 10
149.20330626
 20
114.00748712
  0
VERTEX
  8
0
 10
149.56382942
 20
114.08737197
  0
VERTEX
  8
0
 10
149.93850072
 20
114.14851701
  0
VERTEX
  8
0
 10
150.32742698
 20
114.19034368
  0
VERTEX
  8
0
 10
150.73071500
 20
114.21227342
  0
VERTEX
  8
0
 10
151.14847160
 20
114.21372768
  0
VERTEX
  8
0
 10
151.58080360
 20
114.19412788
  0
VERTEX
  8
0
 10
151.78437870
 20
114.20709621
  0
VERTEX
  8
0
 10
151.97414528
 20
114.20328851
  0
VERTEX
  8
0
 10
151.97414528
 20
67.14621132
 42
0.41421356
  0
VERTEX
  8
0
 10
152.95414528
 20
66.16621132
  0
VERTEX
  8
0
 10
153.93414528
 20
66.16621132
 42
0.41421356
  0
VERTEX
  8
0
 10
154.91414528
 20
67.14621132
  0
VERTEX
  8
0
 10
154.91414528
 20
114.20331684
  0
VERTEX
  8
0
 10
155.10349611
 20
114.20709976
  0
VERTEX
  8
0
 10
155.30701182
 20
114.19412788
  0
VERTEX
  8
0
 10
155.73934382
 20
114.21372768
  0
VERTEX
  8
0
 10
156.15710042
 20
114.21227342
  0
VERTEX
  8
0
 10
156.56038844
 20
114.19034368
  0
VERTEX
  8
0
 10
156.94931469
 20
114.14851701
  0
VERTEX
  8
0
 10
157.32398599
 20
114.08737197
  0
VERTEX
  8
0
 10
157.68450916
 20
114.00748712
  0
VERTEX
  8
0
 10
158.03099101
 20
113.90944102
  0
VERTEX
  8
0
 10
158.36353835
 20
113.79381224
  0
VERTEX
  8
0
 10
158.68225800
 20
113.66117933
  0
VERTEX
  8
0
 10
158.98725678
 20
113.51212085
  0
VERTEX
  8
0
 10
159.27864150
 20
113.34721536
  0
VERTEX
  8
0
 10
159.55651898
 20
113.16704143
  0
VERTEX
  8
0
 10
159.82099603
 20
112.97217760
  0
VERTEX
  8
0
 10
160.07217947
 20
112.76320245
  0
VERTEX
  8
0
 10
160.31017611
 20
112.54069454
  0
VERTEX
  8
0
 10
160.53509278
 20
112.30523242
  0
VERTEX
  8
0
 10
160.74703628
 20
112.05739465
  0
VERTEX
  8
0
 10
160.94611343
 20
111.79775979
  0
VERTEX
  8
0
 10
161.13243105
 20
111.52690641
  0
VERTEX
  8
0
 10
161.30609595
 20
111.24541306
  0
VERTEX
  8
0
 10
161.46721495
 20
110.95385830
  0
VERTEX
  8
0
 10
161.61589487
 20
110.65282070
  0
VERTEX
  8
0
 10
161.87636470
 20
110.02461120
  0
VERTEX
  8
0
 10
162.08835997
 20
109.36541303
  0
VERTEX
  8
0
 10
162.25273521
 20
108.67985468
  0
VERTEX
  8
0
 10
162.37034494
 20
107.97256463
  0
VERTEX
  8
0
 10
162.44204368
 20
107.24817136
  0
VERTEX
  8
0
 10
162.70820447
 20
103.55896160
  0
VERTEX
  8
0
 10
163.00434826
 20
99.91089695
  0
VERTEX
  8
0
 10
163.32372199
 20
96.29322200
  0
VERTEX
  8
0
 10
163.65957261
 20
92.69518134
  0
VERTEX
  8
0
 10
164.35369226
 20
85.51498122
  0
VERTEX
  8
0
 10
164.69845518
 20
81.91131093
  0
VERTEX
  8
0
 10
165.03268274
 20
78.28425328
  0
VERTEX
  8
0
 10
165.18088953
 20
76.52401489
  0
VERTEX
  8
0
 10
165.31380159
 20
74.76046367
  0
VERTEX
  8
0
 10
165.55593921
 20
71.22832280
  0
VERTEX
  8
0
 10
165.80349105
 20
67.69763081
  0
VERTEX
  8
0
 10
165.94317087
 20
65.93589069
  0
VERTEX
  8
0
 10
166.10085254
 20
64.17818784
  0
VERTEX
  8
0
 10
166.28208549
 20
62.42574727
  0
VERTEX
  8
0
 10
166.49241914
 20
60.67979401
  0
VERTEX
  8
0
 10
166.73740292
 20
58.94155307
  0
VERTEX
  8
0
 10
167.02258627
 20
57.21224947
  0
VERTEX
  8
0
 10
167.35351861
 20
55.49310822
  0
VERTEX
  8
0
 10
167.73574938
 20
53.78535434
  0
VERTEX
  8
0
 10
167.94783588
 20
52.93613049
  0
VERTEX
  8
0
 10
168.17482801
 20
52.09021285
  0
VERTEX
  8
0
 10
168.41741946
 20
51.24775457
  0
VERTEX
  8
0
 10
168.67630392
 20
50.40890876
  0
VERTEX
  8
0
 10
168.86794857
 20
49.83884911
  0
VERTEX
  8
0
 10
169.07623998
 20
49.27400669
  0
VERTEX
  8
0
 10
169.29987675
 20
48.71413302
  0
VERTEX
  8
0
 10
169.53755746
 20
48.15897961
  0
VERTEX
  8
0
 10
170.04984507
 20
47.06183957
  0
VERTEX
  8
0
 10
170.60269155
 20
45.98059863
  0
VERTEX
  8
0
 10
171.18568562
 20
44.91326885
  0
VERTEX
  8
0
 10
171.78841600
 20
43.85786227
  0
VERTEX
  8
0
 10
173.01144060
 20
41.77486699
  0
VERTEX
  8
0
 10
173.40297195
 20
41.13405750
  0
VERTEX
  8
0
 10
173.81556183
 20
40.50523019
  0
VERTEX
  8
0
 10
174.24607328
 20
39.88652366
  0
VERTEX
  8
0
 10
174.69136935
 20
39.27607645
  0
VERTEX
  8
0
 10
175.61376749
 20
38.07251427
  0
VERTEX
  8
0
 10
176.55766061
 20
36.87965218
  0
VERTEX
  8
0
 10
177.49795304
 20
35.68259869
  0
VERTEX
  8
0
 10
178.40954914
 20
34.46646232
  0
VERTEX
  8
0
 10
178.84674367
 20
33.84658447
  0
VERTEX
  8
0
 10
179.26735324
 20
33.21635159
  0
VERTEX
  8
0
 10
179.66824090
 20
32.57390225
  0
VERTEX
  8
0
 10
180.04626970
 20
31.91737502
  0
VERTEX
  8
0
 10
180.82454777
 20
30.50165378
  0
VERTEX
  8
0
 10
181.19125274
 20
29.78633044
  0
VERTEX
  8
0
 10
181.52262632
 20
29.06128156
  0
VERTEX
  8
0
 10
181.69646737
 20
28.60122872
  0
VERTEX
  8
0
 10
181.83136569
 20
28.14092373
  0
VERTEX
  8
0
 10
181.92807807
 20
27.68449678
  0
VERTEX
  8
0
 10
181.98736128
 20
27.23607812
  0
VERTEX
  8
0
 10
182.00997209
 20
26.79979795
  0
VERTEX
  8
0
 10
181.99666728
 20
26.37978650
  0
VERTEX
  8
0
 10
181.94820361
 20
25.98017398
  0
VERTEX
  8
0
 10
181.86533787
 20
25.60509062
  0
VERTEX
  8
0
 10
181.74882682
 20
25.25866664
  0
VERTEX
  8
0
 10
181.59942723
 20
24.94503225
  0
VERTEX
  8
0
 10
181.41789589
 20
24.66831768
  0
VERTEX
  8
0
 10
181.20498955
 20
24.43265314
  0
VERTEX
  8
0
 10
180.96146501
 20
24.24216886
  0
VERTEX
  8
0
 10
180.68807902
 20
24.10099505
  0
VERTEX
  8
0
 10
180.54042448
 20
24.05019027
  0
VERTEX
  8
0
 10
180.38558837
 20
24.01326194
  0
VERTEX
  8
0
 10
180.22366528
 20
23.99072634
  0
VERTEX
  8
0
 10
180.05474981
 20
23.98309974
  0
VERTEX
  8
0
 10
126.83306560
 20
23.98309974
  0
VERTEX
  8
0
 10
126.66409052
 20
23.99072743
  0
VERTEX
  8
0
 10
126.50210715
 20
24.01326617
  0
VERTEX
  8
0
 10
126.34721050
 20
24.05019947
  0
VERTEX
  8
0
 10
126.19949556
 20
24.10101084
  0
VERTEX
  8
0
 10
125.92599081
 20
24.24220185
  0
VERTEX
  8
0
 10
125.68235288
 20
24.43270728
  0
VERTEX
  8
0
 10
125.46934176
 20
24.66839522
  0
VERTEX
  8
0
 10
125.28771742
 20
24.94513376
  0
VERTEX
  8
0
 10
125.13823985
 20
25.25879099
  0
VERTEX
  8
0
 10
125.02166903
 20
25.60523500
  0
VERTEX
  8
0
 10
124.93876493
 20
25.98033386
  0
VERTEX
  8
0
 10
124.89028755
 20
26.37995569
  0
VERTEX
  8
0
 10
124.87699685
 20
26.79996855
  0
VERTEX
  8
0
 10
124.89965283
 20
27.23624054
  0
VERTEX
  8
0
 10
124.95901546
 20
27.68463975
  0
VERTEX
  8
0
 10
125.05584473
 20
28.14103426
  0
VERTEX
  8
0
 10
125.19090061
 20
28.60129217
  0
VERTEX
  8
0
 10
125.36494309
 20
29.06128156
  0
SEQEND
  0
POLYLINE
  8
N�vel_Padr�o
 66
   1
 39
0.000000
 70
    1
  0
VERTEX
  8
0
 10
459.62310963
 20
228.58357878
  0
VERTEX
  8
0
 10
459.22185483
 20
225.52399122
  0
VERTEX
  8
0
 10
458.80465524
 20
223.90735084
  0
VERTEX
  8
0
 10
458.12671247
 20
222.76005635
  0
VERTEX
  8
0
 10
457.34446543
 20
222.29071047
  0
VERTEX
  8
0
 10
456.87511955
 20
221.97781516
  0
VERTEX
  8
0
 10
455.83212349
 20
221.82136458
  0
VERTEX
  8
0
 10
454.42408583
 20
221.61276771
  0
VERTEX
  8
0
 10
452.96389603
 20
221.45631713
  0
VERTEX
  8
0
 10
451.50370623
 20
221.40416499
  0
VERTEX
  8
0
 10
450.04351643
 20
221.40416499
  0
VERTEX
  8
0
 10
448.89622194
 20
221.50846927
  0
VERTEX
  8
0
 10
447.85323172
 20
221.71706614
  0
VERTEX
  8
0
 10
446.28874348
 20
222.02996145
  0
VERTEX
  8
0
 10
445.61079488
 20
222.34286261
  0
VERTEX
  8
0
 10
444.88069998
 20
222.55145948
  0
VERTEX
  8
0
 10
443.94200821
 20
223.07295751
  0
VERTEX
  8
0
 10
443.15976701
 20
223.69875397
  0
VERTEX
  8
0
 10
442.53397054
 20
224.27239830
  0
VERTEX
  8
0
 10
441.69957721
 20
225.21109007
  0
VERTEX
  8
0
 10
441.02162860
 20
226.09763555
  0
VERTEX
  8
0
 10
440.03078469
 20
227.55782535
  0
VERTEX
  8
0
 10
439.14424505
 20
228.91371671
  0
VERTEX
  8
0
 10
438.15340114
 20
230.37390652
  0
VERTEX
  8
0
 10
436.69321134
 20
232.51203908
  0
VERTEX
  8
0
 10
435.18086940
 20
234.59802534
  0
VERTEX
  8
0
 10
433.72067959
 20
236.52756103
  0
VERTEX
  8
0
 10
432.15619136
 20
238.50924886
  0
VERTEX
  8
0
 10
430.80029999
 20
240.12588924
  0
VERTEX
  8
0
 10
429.13151331
 20
241.95112649
  0
VERTEX
  8
0
 10
427.61917137
 20
243.56776103
  0
VERTEX
  8
0
 10
426.10683527
 20
245.02795083
  0
VERTEX
  8
0
 10
424.22944588
 20
246.85318808
  0
VERTEX
  8
0
 10
422.82140822
 20
248.15693315
  0
VERTEX
  8
0
 10
421.72626587
 20
249.04347278
  0
VERTEX
  8
0
 10
418.91018470
 20
251.28590963
  0
VERTEX
  8
0
 10
416.45915099
 20
253.05899474
  0
VERTEX
  8
0
 10
413.69522196
 20
254.77993355
  0
VERTEX
  8
0
 10
410.67054392
 20
256.39657393
  0
VERTEX
  8
0
 10
408.06305963
 20
257.64816686
  0
VERTEX
  8
0
 10
405.45557534
 20
258.74330921
  0
VERTEX
  8
0
 10
401.23145651
 20
260.04704844
  0
VERTEX
  8
0
 10
398.88472123
 20
260.51639432
  0
VERTEX
  8
0
 10
396.22509064
 20
260.88144177
  0
VERTEX
  8
0
 10
394.19125651
 20
261.09003865
  0
VERTEX
  8
0
 10
392.00097181
 20
261.19433709
  0
VERTEX
  8
0
 10
389.91498554
 20
261.24648922
  0
VERTEX
  8
0
 10
385.95161573
 20
261.03789235
  0
VERTEX
  8
0
 10
383.81347732
 20
260.72499120
  0
VERTEX
  8
0
 10
382.50973810
 20
260.41209589
  0
VERTEX
  8
0
 10
379.85010751
 20
259.78629942
  0
VERTEX
  8
0
 10
377.39907379
 20
258.84760765
  0
VERTEX
  8
0
 10
374.79159534
 20
257.90891003
  0
VERTEX
  8
0
 10
372.28840949
 20
256.76162138
  0
VERTEX
  8
0
 10
371.08896870
 20
256.18797706
  0
VERTEX
  8
0
 10
369.47232832
 20
255.35357788
  0
VERTEX
  8
0
 10
365.92615225
 20
253.21544532
  0
VERTEX
  8
0
 10
362.69287734
 20
251.02516061
  0
VERTEX
  8
0
 10
360.81548795
 20
249.46067237
  0
VERTEX
  8
0
 10
357.73866361
 20
246.74888964
  0
VERTEX
  8
0
 10
355.60052520
 20
244.76720182
  0
VERTEX
  8
0
 10
353.51453894
 20
242.57691711
  0
VERTEX
  8
0
 10
351.53285695
 20
240.38663241
  0
VERTEX
  8
0
 10
348.66462365
 20
236.94476062
  0
VERTEX
  8
0
 10
346.63078952
 20
234.23297789
  0
VERTEX
  8
0
 10
344.07545737
 20
230.42605281
  0
VERTEX
  8
0
 10
341.57227735
 20
226.25408612
  0
VERTEX
  8
0
 10
340.42498286
 20
224.01164928
  0
VERTEX
  8
0
 10
339.59695595
 20
222.39168551
  0
VERTEX
  8
0
 10
338.49069864
 20
220.25291631
  0
VERTEX
  8
0
 10
337.01568499
 20
217.30288901
  0
VERTEX
  8
0
 10
336.13067329
 20
215.23786523
  0
VERTEX
  8
0
 10
335.39316647
 20
212.95159349
  0
VERTEX
  8
0
 10
334.50815711
 20
210.59157048
  0
VERTEX
  8
0
 10
333.99189825
 20
209.55906443
  0
VERTEX
  8
0
 10
333.25439142
 20
208.67405508
  0
VERTEX
  8
0
 10
332.66438713
 20
208.30529874
  0
VERTEX
  8
0
 10
331.77937777
 20
207.86279699
  0
VERTEX
  8
0
 10
327.42808810
 20
205.94527574
  0
VERTEX
  8
0
 10
324.62555749
 20
205.06026638
  0
VERTEX
  8
0
 10
324.01808607
 20
204.92527154
  0
VERTEX
  8
0
 10
323.61934237
 20
204.77669614
  0
VERTEX
  8
0
 10
325.45722299
 20
220.38577171
 42
0.41421356
  0
VERTEX
  8
0
 10
324.59854422
 20
221.47364614
  0
VERTEX
  8
0
 10
323.62526762
 20
221.58824397
 42
0.41421356
  0
VERTEX
  8
0
 10
322.53739319
 20
220.72956521
  0
VERTEX
  8
0
 10
320.52319694
 20
203.62304517
  0
VERTEX
  8
0
 10
320.42177034
 20
203.58525273
  0
VERTEX
  8
0
 10
319.46300972
 20
203.14275097
  0
VERTEX
  8
0
 10
308.91665454
 20
199.38145975
  0
VERTEX
  8
0
 10
308.10539645
 20
199.23396305
  0
VERTEX
  8
0
 10
307.44164089
 20
199.30771432
  0
VERTEX
  8
0
 10
306.92538787
 20
200.04522114
  0
VERTEX
  8
0
 10
306.77788533
 20
200.70897670
  0
VERTEX
  8
0
 10
306.77788533
 20
202.11023908
  0
VERTEX
  8
0
 10
306.70413407
 20
210.96032682
  0
VERTEX
  8
0
 10
306.63038280
 20
217.52414281
  0
VERTEX
  8
0
 10
306.70371843
 20
226.47102023
  0
VERTEX
  8
0
 10
345.56254529
 20
249.75561778
 42
0.41421356
  0
VERTEX
  8
0
 10
345.89946376
 20
251.09997114
  0
VERTEX
  8
0
 10
345.39574632
 20
251.94060705
 42
0.41421356
  0
VERTEX
  8
0
 10
344.05139296
 20
252.27752552
  0
VERTEX
  8
0
 10
306.57986607
 20
229.82421198
  0
VERTEX
  8
0
 10
306.57986607
 20
255.56218059
  0
VERTEX
  8
0
 10
306.73631665
 20
262.39378371
  0
VERTEX
  8
0
 10
306.78846295
 20
263.85397352
  0
VERTEX
  8
0
 10
306.89276723
 20
264.89696373
  0
VERTEX
  8
0
 10
307.20566254
 20
265.73135707
  0
VERTEX
  8
0
 10
307.57070999
 20
266.09640452
  0
VERTEX
  8
0
 10
308.14435431
 20
266.35715353
  0
VERTEX
  8
0
 10
308.71800448
 20
266.30500139
  0
VERTEX
  8
0
 10
309.65669625
 20
266.04425822
  0
VERTEX
  8
0
 10
311.84698096
 20
265.00126217
  0
VERTEX
  8
0
 10
316.17539822
 20
262.44593001
  0
VERTEX
  8
0
 10
317.89633704
 20
261.45508610
  0
VERTEX
  8
0
 10
320.45166919
 20
259.78629942
  0
VERTEX
  8
0
 10
322.69410603
 20
258.69115707
  0
VERTEX
  8
0
 10
324.46719115
 20
258.11751275
  0
VERTEX
  8
0
 10
325.61448564
 20
258.01321431
  0
VERTEX
  8
0
 10
326.76177429
 20
258.01321431
  0
VERTEX
  8
0
 10
327.96121507
 20
258.27395748
  0
VERTEX
  8
0
 10
329.10850956
 20
258.63900493
  0
VERTEX
  8
0
 10
330.77729624
 20
259.31695354
  0
VERTEX
  8
0
 10
332.28963818
 20
260.09919473
  0
VERTEX
  8
0
 10
334.53206918
 20
261.61153667
  0
VERTEX
  8
0
 10
336.56591148
 20
262.96742804
  0
VERTEX
  8
0
 10
339.48629109
 20
265.05341430
  0
VERTEX
  8
0
 10
346.42219265
 20
269.12108256
  0
VERTEX
  8
0
 10
352.99304675
 20
272.51080805
  0
VERTEX
  8
0
 10
358.93810440
 20
275.01399390
  0
VERTEX
  8
0
 10
364.83100990
 20
276.89137745
  0
VERTEX
  8
0
 10
370.25457536
 20
278.14297038
  0
VERTEX
  8
0
 10
374.06150044
 20
278.87306528
  0
VERTEX
  8
0
 10
378.44206985
 20
279.29026487
  0
VERTEX
  8
0
 10
383.55272831
 20
279.44670961
  0
VERTEX
  8
0
 10
386.94245964
 20
279.29026487
  0
VERTEX
  8
0
 10
390.43648357
 20
278.97736372
  0
VERTEX
  8
0
 10
398.46752748
 20
277.41287548
  0
VERTEX
  8
0
 10
403.10884590
 20
275.90053938
  0
VERTEX
  8
0
 10
406.81146670
 20
274.44034958
  0
VERTEX
  8
0
 10
410.56623964
 20
272.56296019
  0
VERTEX
  8
0
 10
413.12157179
 20
271.25922096
  0
VERTEX
  8
0
 10
415.52045921
 20
269.85117746
  0
VERTEX
  8
0
 10
421.04831727
 20
265.99210608
  0
VERTEX
  8
0
 10
424.80309021
 20
263.01957434
  0
VERTEX
  8
0
 10
427.82777409
 20
260.35994375
  0
VERTEX
  8
0
 10
430.59170312
 20
257.70031316
  0
VERTEX
  8
0
 10
431.79114390
 20
256.44872023
  0
VERTEX
  8
0
 10
434.34647606
 20
253.73694334
  0
VERTEX
  8
0
 10
436.79750977
 20
250.86871004
  0
VERTEX
  8
0
 10
438.51844859
 20
248.88702805
  0
VERTEX
  8
0
 10
441.38667605
 20
245.02795083
  0
VERTEX
  8
0
 10
443.52481446
 20
242.10757123
  0
VERTEX
  8
0
 10
445.50649644
 20
239.70868965
  0
VERTEX
  8
0
 10
446.49734036
 20
238.82214417
  0
VERTEX
  8
0
 10
446.86238781
 20
238.66569944
  0
VERTEX
  8
0
 10
447.38388584
 20
238.45709672
  0
VERTEX
  8
0
 10
448.00968230
 20
238.50924886
  0
VERTEX
  8
0
 10
448.68762506
 20
238.82214417
  0
VERTEX
  8
0
 10
449.41771996
 20
239.08289319
  0
VERTEX
  8
0
 10
449.88706585
 20
239.39579434
  0
VERTEX
  8
0
 10
450.66931289
 20
239.86514023
  0
VERTEX
  8
0
 10
452.39025170
 20
240.80383200
  0
VERTEX
  8
0
 10
453.48539406
 20
241.16887945
  0
VERTEX
  8
0
 10
454.78913328
 20
241.42962846
  0
VERTEX
  8
0
 10
456.30147522
 20
241.32533003
  0
VERTEX
  8
0
 10
457.60521445
 20
240.96028258
  0
VERTEX
  8
0
 10
458.70035680
 20
240.38663241
  0
VERTEX
  8
0
 10
459.74334701
 20
239.50009278
  0
VERTEX
  8
0
 10
460.42129561
 20
238.19634771
  0
VERTEX
  8
0
 10
460.78634306
 20
237.10120536
  0
VERTEX
  8
0
 10
460.83848936
 20
235.43241868
  0
VERTEX
  8
0
 10
460.78634306
 20
233.86793044
  0
VERTEX
  8
0
 10
460.67953125
 20
232.90663612
  0
VERTEX
  8
0
 10
460.62958899
 20
232.47389127
  0
VERTEX
  8
0
 10
460.59700443
 20
232.26837996
  0
VERTEX
  8
0
 10
460.55399143
 20
232.08134242
  0
VERTEX
  8
0
 10
460.49653538
 20
231.92120343
  0
VERTEX
  8
0
 10
460.42062169
 20
231.79638777
  0
VERTEX
  8
0
 10
460.32223574
 20
231.71532020
  0
VERTEX
  8
0
 10
460.26336110
 20
231.69382469
  0
VERTEX
  8
0
 10
460.19736291
 20
231.68642550
  0
VERTEX
  8
0
 10
453.60983272
 20
231.68642550
 42
0.41421356
  0
VERTEX
  8
0
 10
452.62983272
 20
230.70642550
  0
VERTEX
  8
0
 10
452.62983272
 20
229.72642550
 42
0.41421356
  0
VERTEX
  8
0
 10
453.60983272
 20
228.74642550
  0
VERTEX
  8
0
 10
459.54493014
 20
228.74642550
  0
VERTEX
  8
0
 10
459.58455239
 20
228.73220828
  0
VERTEX
  8
0
 10
459.61099911
 20
228.69494235
  0
VERTEX
  8
0
 10
459.62310963
 20
228.58357878
  0
SEQEND
  0
POLYLINE
  8
N�vel_Padr�o
 66
   1
 39
0.000000
 70
    1
  0
VERTEX
  8
0
 10
91.70788110
 20
256.97847618
  0
VERTEX
  8
0
 10
92.43665254
 20
257.04333616
  0
VERTEX
  8
0
 10
93.21482227
 20
257.26546156
  0
VERTEX
  8
0
 10
93.72785959
 20
257.74363861
  0
VERTEX
  8
0
 10
94.29114902
 20
258.32696506
  0
VERTEX
  8
0
 10
94.69083171
 20
259.32452468
  0
VERTEX
  8
0
 10
94.62596760
 20
260.05329606
  0
VERTEX
  8
0
 10
94.45690438
 20
260.78024863
  0
VERTEX
  8
0
 10
94.08205641
 20
261.34719983
  0
VERTEX
  8
0
 10
93.39625680
 20
261.80445731
  0
VERTEX
  8
0
 10
92.81386460
 20
262.31564659
  0
VERTEX
  8
0
 10
91.77147018
 20
262.29745153
  0
VERTEX
  8
0
 10
90.94117298
 20
262.07441623
  0
VERTEX
  8
0
 10
90.32211705
 20
261.69865878
  0
VERTEX
  8
0
 10
89.76058919
 20
261.01109292
  0
VERTEX
  8
0
 10
89.36187424
 20
259.96141097
  0
VERTEX
  8
0
 10
89.32794190
 20
258.91810253
  0
VERTEX
  8
0
 10
89.76037595
 20
258.03933772
  0
VERTEX
  8
0
 10
90.50188403
 20
257.37451644
  0
VERTEX
  8
0
 10
91.13276687
 20
257.07270976
  0
VERTEX
  8
0
 10
91.70788110
 20
256.97847618
  0
SEQEND
  0
POLYLINE
  8
N�vel_Padr�o
 66
   1
 39
0.000000
 70
    1
  0
VERTEX
  8
0
 10
47.48571537
 20
256.97847618
  0
VERTEX
  8
0
 10
46.75694392
 20
257.04333616
  0
VERTEX
  8
0
 10
45.97877420
 20
257.26546156
  0
VERTEX
  8
0
 10
45.46573687
 20
257.74363861
  0
VERTEX
  8
0
 10
44.90244744
 20
258.32696506
  0
VERTEX
  8
0
 10
44.50276475
 20
259.32452468
  0
VERTEX
  8
0
 10
44.56762887
 20
260.05329606
  0
VERTEX
  8
0
 10
44.73669209
 20
260.78024863
  0
VERTEX
  8
0
 10
45.11154005
 20
261.34719983
  0
VERTEX
  8
0
 10
45.79733966
 20
261.80445731
  0
VERTEX
  8
0
 10
46.37973186
 20
262.31564659
  0
VERTEX
  8
0
 10
47.42212628
 20
262.29745153
  0
VERTEX
  8
0
 10
48.25242349
 20
262.07441623
  0
VERTEX
  8
0
 10
48.87147941
 20
261.69865878
  0
VERTEX
  8
0
 10
49.43300727
 20
261.01109292
  0
VERTEX
  8
0
 10
49.83172222
 20
259.96141097
  0
VERTEX
  8
0
 10
49.86565456
 20
258.91810253
  0
VERTEX
  8
0
 10
49.43322052
 20
258.03933772
  0
VERTEX
  8
0
 10
48.69171244
 20
257.37451644
  0
VERTEX
  8
0
 10
48.06082959
 20
257.07270976
  0
VERTEX
  8
0
 10
47.48571537
 20
256.97847618
  0
SEQEND
  0
POLYLINE
  8
N�vel_Padr�o
 66
   1
 39
0.000000
 70
    1
  0
VERTEX
  8
0
 10
71.06706714
 20
227.84943796
 42
0.41421356
  0
VERTEX
  8
0
 10
70.08706714
 20
228.82943796
  0
VERTEX
  8
0
 10
69.10706714
 20
228.82943796
 42
0.41421356
  0
VERTEX
  8
0
 10
68.12706714
 20
227.84943796
  0
VERTEX
  8
0
 10
68.12706714
 20
197.46943796
 42
0.41421356
  0
VERTEX
  8
0
 10
69.10706714
 20
196.48943796
  0
VERTEX
  8
0
 10
70.08706714
 20
196.48943796
 42
0.41421356
  0
VERTEX
  8
0
 10
71.06706714
 20
197.46943796
  0
VERTEX
  8
0
 10
71.06706714
 20
227.84943796
  0
SEQEND
  0
POLYLINE
  8
N�vel_Padr�o
 66
   1
 39
0.000000
 70
    1
  0
VERTEX
  8
0
 10
158.86787690
 20
188.01943319
  0
VERTEX
  8
0
 10
159.50159895
 20
188.04134607
  0
VERTEX
  8
0
 10
160.13393162
 20
188.04686660
  0
VERTEX
  8
0
 10
160.76473332
 20
188.03638281
  0
VERTEX
  8
0
 10
161.39386249
 20
188.01028273
  0
VERTEX
  8
0
 10
162.02117754
 20
187.96895440
  0
VERTEX
  8
0
 10
162.64653691
 20
187.91278586
  0
VERTEX
  8
0
 10
163.89082228
 20
187.75748024
  0
VERTEX
  8
0
 10
165.12558600
 20
187.54747015
  0
VERTEX
  8
0
 10
166.34969546
 20
187.28585985
  0
VERTEX
  8
0
 10
167.56201807
 20
186.97575360
  0
VERTEX
  8
0
 10
168.76142121
 20
186.62025568
  0
VERTEX
  8
0
 10
169.23557493
 20
186.48853306
  0
VERTEX
  8
0
 10
169.71840841
 20
186.39031836
  0
VERTEX
  8
0
 10
170.20676306
 20
186.32629250
  0
VERTEX
  8
0
 10
170.69748027
 20
186.29713641
  0
VERTEX
  8
0
 10
171.18740145
 20
186.30353101
  0
VERTEX
  8
0
 10
171.67336798
 20
186.34615721
  0
VERTEX
  8
0
 10
172.15222128
 20
186.42569595
  0
VERTEX
  8
0
 10
172.62080272
 20
186.54282815
  0
VERTEX
  8
0
 10
173.07595372
 20
186.69823472
  0
VERTEX
  8
0
 10
173.51451567
 20
186.89259659
  0
VERTEX
  8
0
 10
173.93332997
 20
187.12659468
  0
VERTEX
  8
0
 10
174.32923801
 20
187.40090992
  0
VERTEX
  8
0
 10
174.69908120
 20
187.71622322
  0
VERTEX
  8
0
 10
175.03970092
 20
188.07321551
  0
VERTEX
  8
0
 10
175.34793859
 20
188.47256771
  0
VERTEX
  8
0
 10
175.62063559
 20
188.91496075
  0
VERTEX
  8
0
 10
175.78770734
 20
189.23770408
  0
VERTEX
  8
0
 10
175.93708918
 20
189.56175536
  0
VERTEX
  8
0
 10
176.06953503
 20
189.88707500
  0
VERTEX
  8
0
 10
176.18579882
 20
190.21362340
  0
VERTEX
  8
0
 10
176.37279591
 20
190.87024810
  0
VERTEX
  8
0
 10
176.50411186
 20
191.53131266
  0
VERTEX
  8
0
 10
176.58577807
 20
192.19650033
  0
VERTEX
  8
0
 10
176.62382594
 20
192.86549433
  0
VERTEX
  8
0
 10
176.62428686
 20
193.53797787
  0
VERTEX
  8
0
 10
176.59319225
 20
194.21363420
  0
VERTEX
  8
0
 10
176.53657351
 20
194.89214652
  0
VERTEX
  8
0
 10
176.46046203
 20
195.57319806
  0
VERTEX
  8
0
 10
176.27388646
 20
196.94165172
  0
VERTEX
  8
0
 10
176.08171678
 20
198.31646097
  0
VERTEX
  8
0
 10
175.99861264
 20
199.00545700
  0
VERTEX
  8
0
 10
175.93220418
 20
199.69509160
  0
VERTEX
  8
0
 10
175.82865399
 20
201.15668336
  0
VERTEX
  8
0
 10
175.75476160
 20
202.61533367
  0
VERTEX
  8
0
 10
175.70901319
 20
204.07140861
  0
VERTEX
  8
0
 10
175.68989492
 20
205.52527424
  0
VERTEX
  8
0
 10
175.69589298
 20
206.97729661
  0
VERTEX
  8
0
 10
175.72549353
 20
208.42784180
  0
VERTEX
  8
0
 10
175.77718274
 20
209.87727587
  0
VERTEX
  8
0
 10
175.84944680
 20
211.32596489
  0
VERTEX
  8
0
 10
175.94077186
 20
212.77427490
  0
VERTEX
  8
0
 10
176.04964411
 20
214.22257200
  0
VERTEX
  8
0
 10
176.31397486
 20
217.12059164
  0
VERTEX
  8
0
 10
176.63032841
 20
220.02295234
  0
VERTEX
  8
0
 10
176.98659414
 20
222.93258261
  0
VERTEX
  8
0
 10
177.22946638
 20
224.71241606
  0
VERTEX
  8
0
 10
177.47521035
 20
226.46837758
  0
VERTEX
  8
0
 10
177.68735145
 20
228.21096437
  0
VERTEX
  8
0
 10
177.76942261
 20
229.08052261
  0
VERTEX
  8
0
 10
177.82941508
 20
229.95067362
  0
VERTEX
  8
0
 10
177.86276954
 20
230.82272953
  0
VERTEX
  8
0
 10
177.86492665
 20
231.69800251
  0
VERTEX
  8
0
 10
177.83132711
 20
232.57780469
  0
VERTEX
  8
0
 10
177.75741158
 20
233.46344823
  0
VERTEX
  8
0
 10
177.63862074
 20
234.35624527
  0
VERTEX
  8
0
 10
177.47039526
 20
235.25750797
  0
VERTEX
  8
0
 10
177.24817582
 20
236.16854847
  0
VERTEX
  8
0
 10
176.96740310
 20
237.09067893
  0
VERTEX
  8
0
 10
176.45877065
 20
238.53252495
  0
VERTEX
  8
0
 10
175.93100316
 20
239.88949618
  0
VERTEX
  8
0
 10
175.38258314
 20
241.17315767
  0
VERTEX
  8
0
 10
174.81199314
 20
242.39507451
  0
VERTEX
  8
0
 10
174.21771567
 20
243.56681173
  0
VERTEX
  8
0
 10
173.59823326
 20
244.69993440
  0
VERTEX
  8
0
 10
172.95202845
 20
245.80600758
  0
VERTEX
  8
0
 10
172.27758375
 20
246.89659633
  0
VERTEX
  8
0
 10
171.57338170
 20
247.98326571
  0
VERTEX
  8
0
 10
170.83790483
 20
249.07758079
  0
VERTEX
  8
0
 10
169.26705670
 20
251.33540824
  0
VERTEX
  8
0
 10
167.55289960
 20
253.76259918
  0
VERTEX
  8
0
 10
165.68329374
 20
256.45167407
  0
VERTEX
  8
0
 10
165.19104727
 20
257.12677823
  0
VERTEX
  8
0
 10
164.68269139
 20
257.73949287
  0
VERTEX
  8
0
 10
164.15951955
 20
258.29116636
  0
VERTEX
  8
0
 10
163.62282519
 20
258.78314701
  0
VERTEX
  8
0
 10
163.07390177
 20
259.21678317
  0
VERTEX
  8
0
 10
162.51404273
 20
259.59342317
  0
VERTEX
  8
0
 10
161.94454153
 20
259.91441536
  0
VERTEX
  8
0
 10
161.36669160
 20
260.18110807
  0
VERTEX
  8
0
 10
160.78178640
 20
260.39484963
  0
VERTEX
  8
0
 10
160.19111939
 20
260.55698838
  0
VERTEX
  8
0
 10
159.59598399
 20
260.66887266
  0
VERTEX
  8
0
 10
158.99767367
 20
260.73185081
  0
VERTEX
  8
0
 10
158.39748188
 20
260.74727117
  0
VERTEX
  8
0
 10
157.79670205
 20
260.71648206
  0
VERTEX
  8
0
 10
157.19662764
 20
260.64083184
  0
VERTEX
  8
0
 10
156.59855211
 20
260.52166882
  0
VERTEX
  8
0
 10
156.00376888
 20
260.36034136
  0
VERTEX
  8
0
 10
155.41357143
 20
260.15819779
  0
VERTEX
  8
0
 10
154.82925318
 20
259.91658645
  0
VERTEX
  8
0
 10
154.25210760
 20
259.63685567
  0
VERTEX
  8
0
 10
153.68342813
 20
259.32035378
  0
VERTEX
  8
0
 10
153.12450821
 20
258.96842914
  0
VERTEX
  8
0
 10
152.57664131
 20
258.58243007
  0
VERTEX
  8
0
 10
152.04112086
 20
258.16370491
  0
VERTEX
  8
0
 10
151.51924031
 20
257.71360200
  0
VERTEX
  8
0
 10
151.01229311
 20
257.23346967
  0
VERTEX
  8
0
 10
150.52157272
 20
256.72465627
  0
VERTEX
  8
0
 10
150.04837257
 20
256.18851013
  0
VERTEX
  8
0
 10
149.59398612
 20
255.62637958
  0
VERTEX
  8
0
 10
149.15970682
 20
255.03961297
  0
VERTEX
  8
0
 10
148.74682811
 20
254.42955862
  0
VERTEX
  8
0
 10
148.35664345
 20
253.79756489
  0
VERTEX
  8
0
 10
146.19744649
 20
250.15381192
  0
VERTEX
  8
0
 10
145.14073939
 20
248.34987378
  0
VERTEX
  8
0
 10
144.11561794
 20
246.55204333
  0
VERTEX
  8
0
 10
143.13432569
 20
244.75593213
  0
VERTEX
  8
0
 10
142.20910620
 20
242.95715178
  0
VERTEX
  8
0
 10
141.77134984
 20
242.05538929
  0
VERTEX
  8
0
 10
141.35220300
 20
241.15131385
  0
VERTEX
  8
0
 10
140.95319612
 20
240.24437692
  0
VERTEX
  8
0
 10
140.57585965
 20
239.33402994
  0
VERTEX
  8
0
 10
140.22172403
 20
238.41972436
  0
VERTEX
  8
0
 10
139.89231970
 20
237.50091162
  0
VERTEX
  8
0
 10
139.58917711
 20
236.57704318
  0
VERTEX
  8
0
 10
139.31382671
 20
235.64757048
  0
VERTEX
  8
0
 10
139.06779892
 20
234.71194498
  0
VERTEX
  8
0
 10
138.85262421
 20
233.76961811
  0
VERTEX
  8
0
 10
138.66983300
 20
232.82004133
  0
VERTEX
  8
0
 10
138.52095576
 20
231.86266608
  0
VERTEX
  8
0
 10
138.40752291
 20
230.89694381
  0
VERTEX
  8
0
 10
138.33106490
 20
229.92232598
  0
VERTEX
  8
0
 10
138.29311219
 20
228.93826402
  0
VERTEX
  8
0
 10
138.29519520
 20
227.94420939
  0
VERTEX
  8
0
 10
138.33884439
 20
226.93961353
  0
VERTEX
  8
0
 10
138.42559020
 20
225.92392790
  0
VERTEX
  8
0
 10
138.55696306
 20
224.89660393
  0
VERTEX
  8
0
 10
138.73449344
 20
223.85709309
  0
VERTEX
  8
0
 10
139.05723585
 20
222.11596091
  0
VERTEX
  8
0
 10
139.35172220
 20
220.39208593
  0
VERTEX
  8
0
 10
139.61729448
 20
218.68315926
  0
VERTEX
  8
0
 10
139.85329468
 20
216.98687199
  0
VERTEX
  8
0
 10
140.05906481
 20
215.30091521
  0
VERTEX
  8
0
 10
140.23394686
 20
213.62298002
  0
VERTEX
  8
0
 10
140.37728282
 20
211.95075752
  0
VERTEX
  8
0
 10
140.48841471
 20
210.28193881
  0
VERTEX
  8
0
 10
140.56668450
 20
208.61421498
  0
VERTEX
  8
0
 10
140.61143421
 20
206.94527712
  0
VERTEX
  8
0
 10
140.62200583
 20
205.27281633
  0
VERTEX
  8
0
 10
140.59774135
 20
203.59452372
  0
VERTEX
  8
0
 10
140.53798278
 20
201.90809037
  0
VERTEX
  8
0
 10
140.44207210
 20
200.21120738
  0
VERTEX
  8
0
 10
140.30935133
 20
198.50156585
  0
VERTEX
  8
0
 10
140.13916245
 20
196.77685687
  0
VERTEX
  8
0
 10
140.00017369
 20
195.53506484
  0
VERTEX
  8
0
 10
139.87908407
 20
194.28532000
  0
VERTEX
  8
0
 10
139.83788911
 20
193.66294540
  0
VERTEX
  8
0
 10
139.81633414
 20
193.04515874
  0
VERTEX
  8
0
 10
139.81947422
 20
192.43415207
  0
VERTEX
  8
0
 10
139.85236443
 20
191.83211743
  0
VERTEX
  8
0
 10
139.92005983
 20
191.24124688
  0
VERTEX
  8
0
 10
140.02761549
 20
190.66373247
  0
VERTEX
  8
0
 10
140.18008648
 20
190.10176623
  0
VERTEX
  8
0
 10
140.38252787
 20
189.55754022
  0
VERTEX
  8
0
 10
140.50406717
 20
189.29276482
  0
VERTEX
  8
0
 10
140.63999471
 20
189.03324649
  0
VERTEX
  8
0
 10
140.79094240
 20
188.77925924
  0
VERTEX
  8
0
 10
140.95754210
 20
188.53107707
  0
VERTEX
  8
0
 10
141.14042570
 20
188.28897400
  0
VERTEX
  8
0
 10
141.34022508
 20
188.05322403
  0
VERTEX
  8
0
 10
141.55757213
 20
187.82410116
  0
VERTEX
  8
0
 10
141.79309873
 20
187.60187941
  0
VERTEX
  8
0
 10
142.15286204
 20
187.30094082
  0
VERTEX
  8
0
 10
142.52685858
 20
187.02761882
  0
VERTEX
  8
0
 10
142.91364439
 20
186.78249002
  0
VERTEX
  8
0
 10
143.31177554
 20
186.56613102
  0
VERTEX
  8
0
 10
143.71980808
 20
186.37911843
  0
VERTEX
  8
0
 10
144.13629807
 20
186.22202885
  0
VERTEX
  8
0
 10
144.55980156
 20
186.09543888
  0
VERTEX
  8
0
 10
144.98887461
 20
185.99992513
  0
VERTEX
  8
0
 10
145.42207328
 20
185.93606421
  0
VERTEX
  8
0
 10
145.85795363
 20
185.90443273
  0
VERTEX
  8
0
 10
146.29507171
 20
185.90560727
  0
VERTEX
  8
0
 10
146.73198358
 20
185.94016446
  0
VERTEX
  8
0
 10
147.16724529
 20
186.00868089
  0
VERTEX
  8
0
 10
147.59941290
 20
186.11173318
  0
VERTEX
  8
0
 10
148.02704247
 20
186.24989792
  0
VERTEX
  8
0
 10
148.44869006
 20
186.42375172
  0
VERTEX
  8
0
 10
149.07658144
 20
186.69327046
  0
VERTEX
  8
0
 10
149.70813341
 20
186.92890139
  0
VERTEX
  8
0
 10
150.34322750
 20
187.13305506
  0
VERTEX
  8
0
 10
150.98174523
 20
187.30814205
  0
VERTEX
  8
0
 10
151.62356813
 20
187.45657294
  0
VERTEX
  8
0
 10
152.26857772
 20
187.58075829
  0
VERTEX
  8
0
 10
152.91665552
 20
187.68310868
  0
VERTEX
  8
0
 10
153.56768306
 20
187.76603467
  0
VERTEX
  8
0
 10
154.22154186
 20
187.83194685
  0
VERTEX
  8
0
 10
154.87811345
 20
187.88325578
  0
VERTEX
  8
0
 10
156.19892109
 20
187.95170618
  0
VERTEX
  8
0
 10
157.52915818
 20
187.99067046
  0
VERTEX
  8
0
 10
158.86787690
 20
188.01943319
  0
SEQEND
  0
POLYLINE
  8
N�vel_Padr�o
 66
   1
 39
0.000000
 70
    1
  0
VERTEX
  8
0
 10
156.61022734
 20
194.93216800
 42
0.41421356
  0
VERTEX
  8
0
 10
157.59022734
 20
193.95216800
  0
VERTEX
  8
0
 10
158.57022734
 20
193.95216800
 42
0.41421356
  0
VERTEX
  8
0
 10
159.55022734
 20
194.93216800
  0
VERTEX
  8
0
 10
159.55022734
 20
225.31216800
 42
0.41421356
  0
VERTEX
  8
0
 10
158.57022734
 20
226.29216800
  0
VERTEX
  8
0
 10
157.59022734
 20
226.29216800
 42
0.41421356
  0
VERTEX
  8
0
 10
156.61022734
 20
225.31216800
  0
VERTEX
  8
0
 10
156.61022734
 20
194.93216800
  0
SEQEND
  0
POLYLINE
  8
N�vel_Padr�o
 66
   1
 39
0.000000
 70
    1
  0
VERTEX
  8
0
 10
424.04632460
 20
51.01834049
 42
0.41421356
  0
VERTEX
  8
0
 10
425.02632460
 20
50.03834049
  0
VERTEX
  8
0
 10
426.00632460
 20
50.03834049
 42
0.41421356
  0
VERTEX
  8
0
 10
426.98632460
 20
51.01834049
  0
VERTEX
  8
0
 10
426.98632460
 20
81.39834049
 42
0.41421356
  0
VERTEX
  8
0
 10
426.00632460
 20
82.37834049
  0
VERTEX
  8
0
 10
425.02632460
 20
82.37834049
 42
0.41421356
  0
VERTEX
  8
0
 10
424.04632460
 20
81.39834049
  0
VERTEX
  8
0
 10
424.04632460
 20
51.01834049
  0
SEQEND
  0
POLYLINE
  8
N�vel_Padr�o
 66
   1
 39
0.000000
 70
    1
  0
VERTEX
  8
0
 10
428.74078023
 20
133.14938894
  0
VERTEX
  8
0
 10
429.93610448
 20
132.35922468
  0
VERTEX
  8
0
 10
430.52565082
 20
131.95004733
  0
VERTEX
  8
0
 10
431.09671899
 20
131.52020229
  0
VERTEX
  8
0
 10
432.76989786
 20
130.15707270
  0
VERTEX
  8
0
 10
434.40817710
 20
128.74917140
  0
VERTEX
  8
0
 10
436.00977999
 20
127.29761742
  0
VERTEX
  8
0
 10
437.57292984
 20
125.80352976
  0
VERTEX
  8
0
 10
439.09584994
 20
124.26802744
  0
VERTEX
  8
0
 10
440.57676359
 20
122.69222948
  0
VERTEX
  8
0
 10
442.01389409
 20
121.07725489
  0
VERTEX
  8
0
 10
443.40546473
 20
119.42422270
  0
VERTEX
  8
0
 10
444.17465870
 20
118.45951239
  0
VERTEX
  8
0
 10
444.91864372
 20
117.47687684
  0
VERTEX
  8
0
 10
445.63826849
 20
116.47687855
  0
VERTEX
  8
0
 10
446.33438170
 20
115.46008004
  0
VERTEX
  8
0
 10
447.00783203
 20
114.42704381
  0
VERTEX
  8
0
 10
447.65946817
 20
113.37833239
  0
VERTEX
  8
0
 10
448.29013882
 20
112.31450827
  0
VERTEX
  8
0
 10
448.90069266
 20
111.23613397
  0
VERTEX
  8
0
 10
449.46682927
 20
110.16721504
  0
VERTEX
  8
0
 10
449.99259229
 20
109.08023829
  0
VERTEX
  8
0
 10
450.47817873
 20
107.97648186
  0
VERTEX
  8
0
 10
450.92378558
 20
106.85722390
  0
VERTEX
  8
0
 10
451.32960988
 20
105.72374255
  0
VERTEX
  8
0
 10
451.69584862
 20
104.57731596
  0
VERTEX
  8
0
 10
452.02269881
 20
103.41922228
  0
VERTEX
  8
0
 10
452.31035748
 20
102.25073964
  0
VERTEX
  8
0
 10
452.55902162
 20
101.07314620
  0
VERTEX
  8
0
 10
452.76888825
 20
99.88772009
  0
VERTEX
  8
0
 10
452.94015438
 20
98.69573947
  0
VERTEX
  8
0
 10
453.07301703
 20
97.49848247
  0
VERTEX
  8
0
 10
453.16767319
 20
96.29722725
  0
VERTEX
  8
0
 10
453.22431989
 20
95.09325194
  0
VERTEX
  8
0
 10
453.24315412
 20
93.88783469
  0
VERTEX
  8
0
 10
453.22437292
 20
92.68225366
  0
VERTEX
  8
0
 10
453.17435353
 20
90.46510384
  0
VERTEX
  8
0
 10
453.12586501
 20
88.24909843
  0
VERTEX
  8
0
 10
453.08509268
 20
87.14207822
  0
VERTEX
  8
0
 10
453.02418050
 20
86.03600812
  0
VERTEX
  8
0
 10
452.93628760
 20
84.93110948
  0
VERTEX
  8
0
 10
452.81457314
 20
83.82760364
  0
VERTEX
  8
0
 10
452.62667101
 20
82.18300593
  0
VERTEX
  8
0
 10
452.48502356
 20
80.53363768
  0
VERTEX
  8
0
 10
452.39344661
 20
78.88140864
  0
VERTEX
  8
0
 10
452.35575595
 20
77.22822860
  0
VERTEX
  8
0
 10
452.35831042
 20
76.40187876
  0
VERTEX
  8
0
 10
452.37576738
 20
75.57600734
  0
VERTEX
  8
0
 10
452.40860382
 20
74.75085306
  0
VERTEX
  8
0
 10
452.45729671
 20
73.92665463
  0
VERTEX
  8
0
 10
452.52232302
 20
73.10365079
  0
VERTEX
  8
0
 10
452.60415974
 20
72.28208025
  0
VERTEX
  8
0
 10
452.70328382
 20
71.46218174
  0
VERTEX
  8
0
 10
452.82017226
 20
70.64419398
  0
VERTEX
  8
0
 10
452.94960424
 20
69.87845501
  0
VERTEX
  8
0
 10
453.10005001
 20
69.11641485
  0
VERTEX
  8
0
 10
453.26971858
 20
68.35792158
  0
VERTEX
  8
0
 10
453.45681897
 20
67.60282330
  0
VERTEX
  8
0
 10
453.87615136
 20
66.10220410
  0
VERTEX
  8
0
 10
454.34371937
 20
64.61334197
  0
VERTEX
  8
0
 10
454.84519520
 20
63.13502168
  0
VERTEX
  8
0
 10
455.36625105
 20
61.66602796
  0
VERTEX
  8
0
 10
456.40979160
 20
58.75115926
  0
VERTEX
  8
0
 10
457.01839466
 20
57.03073843
  0
VERTEX
  8
0
 10
457.30835659
 20
56.15479758
  0
VERTEX
  8
0
 10
457.56612190
 20
55.27054652
  0
VERTEX
  8
0
 10
457.67762530
 20
54.82581484
  0
VERTEX
  8
0
 10
457.77471292
 20
54.37961782
  0
VERTEX
  8
0
 10
457.85526256
 20
53.93215953
  0
VERTEX
  8
0
 10
457.91715200
 20
53.48364403
  0
VERTEX
  8
0
 10
457.95825903
 20
53.03427541
  0
VERTEX
  8
0
 10
457.97646146
 20
52.58425772
  0
VERTEX
  8
0
 10
457.96963706
 20
52.13379504
  0
VERTEX
  8
0
 10
457.93566364
 20
51.68309144
  0
VERTEX
  8
0
 10
457.88598719
 20
51.37804160
  0
VERTEX
  8
0
 10
457.80535132
 20
51.08358387
  0
VERTEX
  8
0
 10
457.69660404
 20
50.79905798
  0
VERTEX
  8
0
 10
457.56259336
 20
50.52380365
  0
VERTEX
  8
0
 10
457.40616729
 20
50.25716060
  0
VERTEX
  8
0
 10
457.23017384
 20
49.99846856
  0
VERTEX
  8
0
 10
457.03746102
 20
49.74706724
  0
VERTEX
  8
0
 10
456.83087685
 20
49.50229637
  0
VERTEX
  8
0
 10
456.38748646
 20
49.03000488
  0
VERTEX
  8
0
 10
455.92278676
 20
48.57631186
  0
VERTEX
  8
0
 10
455.45956183
 20
48.13593510
  0
VERTEX
  8
0
 10
455.02059575
 20
47.70359238
  0
VERTEX
  8
0
 10
454.19435997
 20
46.82191976
  0
VERTEX
  8
0
 10
453.38465325
 20
45.89136619
  0
VERTEX
  8
0
 10
452.59641159
 20
44.92043306
  0
VERTEX
  8
0
 10
451.83457098
 20
43.91762177
  0
VERTEX
  8
0
 10
451.10406741
 20
42.89143372
  0
VERTEX
  8
0
 10
450.40983688
 20
41.85037030
  0
VERTEX
  8
0
 10
449.75681538
 20
40.80293291
  0
VERTEX
  8
0
 10
449.14993891
 20
39.75762294
  0
VERTEX
  8
0
 10
448.76914351
 20
39.08042035
  0
VERTEX
  8
0
 10
448.35644757
 20
38.38753954
  0
VERTEX
  8
0
 10
448.13526104
 20
38.04573057
  0
VERTEX
  8
0
 10
447.90264836
 20
37.71261493
  0
VERTEX
  8
0
 10
447.65745918
 20
37.39239695
  0
VERTEX
  8
0
 10
447.39854317
 20
37.08928092
  0
VERTEX
  8
0
 10
447.12474997
 20
36.80747113
  0
VERTEX
  8
0
 10
446.83492925
 20
36.55117189
  0
VERTEX
  8
0
 10
446.52793067
 20
36.32458750
  0
VERTEX
  8
0
 10
446.20260389
 20
36.13192226
  0
VERTEX
  8
0
 10
445.85779856
 20
35.97738046
  0
VERTEX
  8
0
 10
445.49236435
 20
35.86516642
  0
VERTEX
  8
0
 10
445.10515092
 20
35.79948442
  0
VERTEX
  8
0
 10
444.69500792
 20
35.78453877
  0
VERTEX
  8
0
 10
443.46925977
 20
35.84438953
  0
VERTEX
  8
0
 10
442.87768566
 20
35.89561183
  0
VERTEX
  8
0
 10
442.29550624
 20
35.96362382
  0
VERTEX
  8
0
 10
441.71911756
 20
36.05036932
  0
VERTEX
  8
0
 10
441.14491565
 20
36.15779212
  0
VERTEX
  8
0
 10
440.56929656
 20
36.28783604
  0
VERTEX
  8
0
 10
439.98865633
 20
36.44244488
  0
VERTEX
  8
0
 10
439.09793881
 20
36.68641098
  0
VERTEX
  8
0
 10
438.20519425
 20
36.90865528
  0
VERTEX
  8
0
 10
437.31046138
 20
37.10994513
  0
VERTEX
  8
0
 10
436.41377890
 20
37.29104792
  0
VERTEX
  8
0
 10
435.51518553
 20
37.45273102
  0
VERTEX
  8
0
 10
434.61471998
 20
37.59576179
  0
VERTEX
  8
0
 10
433.71242097
 20
37.72090761
  0
VERTEX
  8
0
 10
432.80832721
 20
37.82893586
  0
VERTEX
  8
0
 10
431.90247741
 20
37.92061390
  0
VERTEX
  8
0
 10
430.99491030
 20
37.99670911
  0
VERTEX
  8
0
 10
429.17477896
 20
38.10522052
  0
VERTEX
  8
0
 10
427.34824292
 20
38.16060905
  0
VERTEX
  8
0
 10
425.51561187
 20
38.16901370
  0
VERTEX
  8
0
 10
423.68298082
 20
38.16060905
  0
VERTEX
  8
0
 10
421.85644477
 20
38.10522052
  0
VERTEX
  8
0
 10
420.03631344
 20
37.99670911
  0
VERTEX
  8
0
 10
419.12874632
 20
37.92061390
  0
VERTEX
  8
0
 10
418.22289653
 20
37.82893586
  0
VERTEX
  8
0
 10
417.31880277
 20
37.72090761
  0
VERTEX
  8
0
 10
416.41650376
 20
37.59576179
  0
VERTEX
  8
0
 10
415.51603821
 20
37.45273102
  0
VERTEX
  8
0
 10
414.61744484
 20
37.29104792
  0
VERTEX
  8
0
 10
413.72076236
 20
37.10994513
  0
VERTEX
  8
0
 10
412.82602948
 20
36.90865528
  0
VERTEX
  8
0
 10
411.93328493
 20
36.68641098
  0
VERTEX
  8
0
 10
411.04256741
 20
36.44244488
  0
VERTEX
  8
0
 10
410.46192717
 20
36.28783604
  0
VERTEX
  8
0
 10
409.88630809
 20
36.15779212
  0
VERTEX
  8
0
 10
409.31210618
 20
36.05036932
  0
VERTEX
  8
0
 10
408.73571750
 20
35.96362382
  0
VERTEX
  8
0
 10
408.15353808
 20
35.89561183
  0
VERTEX
  8
0
 10
407.56196397
 20
35.84438953
  0
VERTEX
  8
0
 10
406.33621582
 20
35.78453877
  0
VERTEX
  8
0
 10
405.92607282
 20
35.79948442
  0
VERTEX
  8
0
 10
405.53885938
 20
35.86516642
  0
VERTEX
  8
0
 10
405.17342517
 20
35.97738046
  0
VERTEX
  8
0
 10
404.82861985
 20
36.13192226
  0
VERTEX
  8
0
 10
404.50329306
 20
36.32458750
  0
VERTEX
  8
0
 10
404.19629448
 20
36.55117189
  0
VERTEX
  8
0
 10
403.90647377
 20
36.80747113
  0
VERTEX
  8
0
 10
403.63268057
 20
37.08928092
  0
VERTEX
  8
0
 10
403.37376455
 20
37.39239695
  0
VERTEX
  8
0
 10
403.12857537
 20
37.71261493
  0
VERTEX
  8
0
 10
402.89596269
 20
38.04573057
  0
VERTEX
  8
0
 10
402.67477617
 20
38.38753954
  0
VERTEX
  8
0
 10
402.26208023
 20
39.08042035
  0
VERTEX
  8
0
 10
401.88128482
 20
39.75762294
  0
VERTEX
  8
0
 10
401.27440835
 20
40.80293291
  0
VERTEX
  8
0
 10
400.62138685
 20
41.85037030
  0
VERTEX
  8
0
 10
399.92715632
 20
42.89143372
  0
VERTEX
  8
0
 10
399.19665276
 20
43.91762177
  0
VERTEX
  8
0
 10
398.43481215
 20
44.92043306
  0
VERTEX
  8
0
 10
397.64657049
 20
45.89136619
  0
VERTEX
  8
0
 10
396.83686377
 20
46.82191976
  0
VERTEX
  8
0
 10
396.01062799
 20
47.70359238
  0
VERTEX
  8
0
 10
395.57166191
 20
48.13593510
  0
VERTEX
  8
0
 10
395.10843698
 20
48.57631186
  0
VERTEX
  8
0
 10
394.64373728
 20
49.03000488
  0
VERTEX
  8
0
 10
394.20034689
 20
49.50229637
  0
VERTEX
  8
0
 10
393.99376271
 20
49.74706724
  0
VERTEX
  8
0
 10
393.80104990
 20
49.99846856
  0
VERTEX
  8
0
 10
393.62505645
 20
50.25716060
  0
VERTEX
  8
0
 10
393.46863038
 20
50.52380365
  0
VERTEX
  8
0
 10
393.33461970
 20
50.79905798
  0
VERTEX
  8
0
 10
393.22587242
 20
51.08358387
  0
VERTEX
  8
0
 10
393.14523655
 20
51.37804160
  0
VERTEX
  8
0
 10
393.09556010
 20
51.68309144
  0
VERTEX
  8
0
 10
393.06158668
 20
52.13379504
  0
VERTEX
  8
0
 10
393.05476228
 20
52.58425772
  0
VERTEX
  8
0
 10
393.07296470
 20
53.03427541
  0
VERTEX
  8
0
 10
393.11407174
 20
53.48364403
  0
VERTEX
  8
0
 10
393.17596118
 20
53.93215953
  0
VERTEX
  8
0
 10
393.25651081
 20
54.37961782
  0
VERTEX
  8
0
 10
393.35359844
 20
54.82581484
  0
VERTEX
  8
0
 10
393.46510184
 20
55.27054652
  0
VERTEX
  8
0
 10
393.72286715
 20
56.15479758
  0
VERTEX
  8
0
 10
394.01282908
 20
57.03073843
  0
VERTEX
  8
0
 10
394.62143213
 20
58.75115926
  0
VERTEX
  8
0
 10
395.66497269
 20
61.66602796
  0
VERTEX
  8
0
 10
396.18602853
 20
63.13502168
  0
VERTEX
  8
0
 10
396.68750436
 20
64.61334197
  0
VERTEX
  8
0
 10
397.15507237
 20
66.10220410
  0
VERTEX
  8
0
 10
397.57440476
 20
67.60282330
  0
VERTEX
  8
0
 10
397.76150516
 20
68.35792158
  0
VERTEX
  8
0
 10
397.93117373
 20
69.11641485
  0
VERTEX
  8
0
 10
398.08161949
 20
69.87845501
  0
VERTEX
  8
0
 10
398.21105148
 20
70.64419398
  0
VERTEX
  8
0
 10
398.32793991
 20
71.46218174
  0
VERTEX
  8
0
 10
398.42706400
 20
72.28208025
  0
VERTEX
  8
0
 10
398.50890071
 20
73.10365079
  0
VERTEX
  8
0
 10
398.57392703
 20
73.92665463
  0
VERTEX
  8
0
 10
398.62261991
 20
74.75085306
  0
VERTEX
  8
0
 10
398.65545635
 20
75.57600734
  0
VERTEX
  8
0
 10
398.67291332
 20
76.40187876
  0
VERTEX
  8
0
 10
398.67546779
 20
77.22822860
  0
VERTEX
  8
0
 10
398.63777712
 20
78.88140864
  0
VERTEX
  8
0
 10
398.54620017
 20
80.53363768
  0
VERTEX
  8
0
 10
398.40455273
 20
82.18300593
  0
VERTEX
  8
0
 10
398.21665060
 20
83.82760364
  0
VERTEX
  8
0
 10
398.09493613
 20
84.93110948
  0
VERTEX
  8
0
 10
398.00704324
 20
86.03600812
  0
VERTEX
  8
0
 10
397.94613105
 20
87.14207822
  0
VERTEX
  8
0
 10
397.90535873
 20
88.24909843
  0
VERTEX
  8
0
 10
397.85687021
 20
90.46510384
  0
VERTEX
  8
0
 10
397.80685082
 20
92.68225366
  0
VERTEX
  8
0
 10
397.78806961
 20
93.88783469
  0
VERTEX
  8
0
 10
397.80690385
 20
95.09325194
  0
VERTEX
  8
0
 10
397.86355055
 20
96.29722725
  0
VERTEX
  8
0
 10
397.95820671
 20
97.49848247
  0
VERTEX
  8
0
 10
398.09106935
 20
98.69573947
  0
VERTEX
  8
0
 10
398.26233548
 20
99.88772009
  0
VERTEX
  8
0
 10
398.47220212
 20
101.07314620
  0
VERTEX
  8
0
 10
398.72086626
 20
102.25073964
  0
VERTEX
  8
0
 10
399.00852492
 20
103.41922228
  0
VERTEX
  8
0
 10
399.33537512
 20
104.57731596
  0
VERTEX
  8
0
 10
399.70161386
 20
105.72374255
  0
VERTEX
  8
0
 10
400.10743815
 20
106.85722390
  0
VERTEX
  8
0
 10
400.55304501
 20
107.97648186
  0
VERTEX
  8
0
 10
401.03863144
 20
109.08023829
  0
VERTEX
  8
0
 10
401.56439446
 20
110.16721504
  0
VERTEX
  8
0
 10
402.13053108
 20
111.23613397
  0
VERTEX
  8
0
 10
402.74108492
 20
112.31450827
  0
VERTEX
  8
0
 10
403.37175556
 20
113.37833239
  0
VERTEX
  8
0
 10
404.02339171
 20
114.42704381
  0
VERTEX
  8
0
 10
404.69684204
 20
115.46008004
  0
VERTEX
  8
0
 10
405.39295524
 20
116.47687855
  0
VERTEX
  8
0
 10
406.11258001
 20
117.47687684
  0
VERTEX
  8
0
 10
406.85656504
 20
118.45951239
  0
VERTEX
  8
0
 10
407.62575901
 20
119.42422270
  0
VERTEX
  8
0
 10
409.01732965
 20
121.07725489
  0
VERTEX
  8
0
 10
410.45446014
 20
122.69222948
  0
VERTEX
  8
0
 10
411.93537379
 20
124.26802744
  0
VERTEX
  8
0
 10
413.45829390
 20
125.80352976
  0
VERTEX
  8
0
 10
415.02144375
 20
127.29761742
  0
VERTEX
  8
0
 10
416.62304664
 20
128.74917140
  0
VERTEX
  8
0
 10
418.26132587
 20
130.15707270
  0
VERTEX
  8
0
 10
419.93450474
 20
131.52020229
  0
VERTEX
  8
0
 10
420.50528752
 20
131.94984123
  0
VERTEX
  8
0
 10
421.09465077
 20
132.35890712
  0
VERTEX
  8
0
 10
422.29044351
 20
133.14938894
  0
VERTEX
  8
0
 10
422.66345461
 20
133.37758402
  0
VERTEX
  8
0
 10
423.04852097
 20
133.57535403
  0
VERTEX
  8
0
 10
423.44392034
 20
133.74269877
  0
VERTEX
  8
0
 10
423.84793043
 20
133.87961802
  0
VERTEX
  8
0
 10
424.25882897
 20
133.98611160
  0
VERTEX
  8
0
 10
424.67489369
 20
134.06217931
  0
VERTEX
  8
0
 10
425.09440231
 20
134.10782093
  0
VERTEX
  8
0
 10
425.51563255
 20
134.12303628
  0
VERTEX
  8
0
 10
425.93686215
 20
134.10782514
  0
VERTEX
  8
0
 10
426.35636883
 20
134.06218733
  0
VERTEX
  8
0
 10
426.77243032
 20
133.98612264
  0
VERTEX
  8
0
 10
427.18332433
 20
133.87963086
  0
VERTEX
  8
0
 10
427.58732861
 20
133.74271180
  0
VERTEX
  8
0
 10
427.98272086
 20
133.57536527
  0
VERTEX
  8
0
 10
428.36777883
 20
133.37759104
  0
VERTEX
  8
0
 10
428.74078023
 20
133.14938894
  0
SEQEND
  0
POLYLINE
  8
N�vel_Padr�o
 66
   1
 39
0.000000
 70
    1
  0
VERTEX
  8
0
 10
335.73747106
 20
48.06693963
 42
0.41421356
  0
VERTEX
  8
0
 10
336.71747106
 20
47.08693963
  0
VERTEX
  8
0
 10
337.69747106
 20
47.08693963
 42
0.41421356
  0
VERTEX
  8
0
 10
338.67747106
 20
48.06693963
  0
VERTEX
  8
0
 10
338.67747106
 20
78.44693963
 42
0.41421356
  0
VERTEX
  8
0
 10
337.69747106
 20
79.42693963
  0
VERTEX
  8
0
 10
336.71747106
 20
79.42693963
 42
0.41421356
  0
VERTEX
  8
0
 10
335.73747106
 20
78.44693963
  0
VERTEX
  8
0
 10
335.73747106
 20
48.06693963
  0
SEQEND
  0
POLYLINE
  8
N�vel_Padr�o
 66
   1
 39
0.000000
 70
    0
  0
VERTEX
  8
0
 10
338.68748417
 20
147.86426739
  0
VERTEX
  8
0
 10
338.67747106
 20
147.86426739
  0
SEQEND
  0
POLYLINE
  8
N�vel_Padr�o
 66
   1
 39
0.000000
 70
    0
  0
VERTEX
  8
0
 10
335.73747106
 20
147.86426739
  0
VERTEX
  8
0
 10
335.72752405
 20
147.86426739
  0
SEQEND
  0
POLYLINE
  8
N�vel_Padr�o
 66
   1
 39
0.000000
 70
    1
  0
VERTEX
  8
0
 10
338.68748417
 20
147.86426739
  0
VERTEX
  8
0
 10
339.08035004
 20
147.90716639
  0
VERTEX
  8
0
 10
339.46762518
 20
147.92623864
  0
VERTEX
  8
0
 10
339.84927777
 20
147.92231317
  0
VERTEX
  8
0
 10
340.22527598
 20
147.89621903
  0
VERTEX
  8
0
 10
340.59558798
 20
147.84878526
  0
VERTEX
  8
0
 10
340.96018195
 20
147.78084090
  0
VERTEX
  8
0
 10
341.31902606
 20
147.69321499
  0
VERTEX
  8
0
 10
341.67208848
 20
147.58673658
  0
VERTEX
  8
0
 10
342.01933739
 20
147.46223471
  0
VERTEX
  8
0
 10
342.36074095
 20
147.32053843
  0
VERTEX
  8
0
 10
342.69626735
 20
147.16247677
  0
VERTEX
  8
0
 10
343.02588475
 20
146.98887877
  0
VERTEX
  8
0
 10
343.34956134
 20
146.80057349
  0
VERTEX
  8
0
 10
343.66726527
 20
146.59838996
  0
VERTEX
  8
0
 10
344.28462788
 20
146.15570433
  0
VERTEX
  8
0
 10
344.87771797
 20
145.66745422
  0
VERTEX
  8
0
 10
345.44628093
 20
145.14027199
  0
VERTEX
  8
0
 10
345.99006214
 20
144.58078995
  0
VERTEX
  8
0
 10
346.50880698
 20
143.99564047
  0
VERTEX
  8
0
 10
347.00226085
 20
143.39145588
  0
VERTEX
  8
0
 10
347.47016912
 20
142.77486853
  0
VERTEX
  8
0
 10
347.91227717
 20
142.15251074
  0
VERTEX
  8
0
 10
348.32833041
 20
141.53101487
  0
VERTEX
  8
0
 10
349.25678500
 20
140.14006001
  0
VERTEX
  8
0
 10
350.21853193
 20
138.76038567
  0
VERTEX
  8
0
 10
351.20775233
 20
137.38952971
  0
VERTEX
  8
0
 10
352.21862733
 20
136.02502997
  0
VERTEX
  8
0
 10
354.28206565
 20
133.30525056
  0
VERTEX
  8
0
 10
356.36229590
 20
130.58135024
  0
VERTEX
  8
0
 10
357.39416082
 20
129.21169935
  0
VERTEX
  8
0
 10
358.41276711
 20
127.83363178
  0
VERTEX
  8
0
 10
359.41229590
 20
126.44468538
  0
VERTEX
  8
0
 10
360.38692832
 20
125.04239798
  0
VERTEX
  8
0
 10
361.33084549
 20
123.62430745
  0
VERTEX
  8
0
 10
362.23822855
 20
122.18795163
  0
VERTEX
  8
0
 10
363.10325861
 20
120.73086836
  0
VERTEX
  8
0
 10
363.92011682
 20
119.25059550
  0
VERTEX
  8
0
 10
364.51415064
 20
118.10334975
  0
VERTEX
  8
0
 10
365.08817982
 20
116.94216757
  0
VERTEX
  8
0
 10
365.64196259
 20
115.76800213
  0
VERTEX
  8
0
 10
366.17525720
 20
114.58180660
  0
VERTEX
  8
0
 10
366.68782191
 20
113.38453413
  0
VERTEX
  8
0
 10
367.17941495
 20
112.17713789
  0
VERTEX
  8
0
 10
367.64979457
 20
110.96057104
  0
VERTEX
  8
0
 10
368.09871903
 20
109.73578675
  0
VERTEX
  8
0
 10
368.52594655
 20
108.50373817
  0
VERTEX
  8
0
 10
368.93123540
 20
107.26537848
  0
VERTEX
  8
0
 10
369.31434381
 20
106.02166083
  0
VERTEX
  8
0
 10
369.67503004
 20
104.77353839
  0
VERTEX
  8
0
 10
370.01305233
 20
103.52196432
  0
VERTEX
  8
0
 10
370.32816892
 20
102.26789179
  0
VERTEX
  8
0
 10
370.62013806
 20
101.01227395
  0
VERTEX
  8
0
 10
370.88871800
 20
99.75606397
  0
VERTEX
  8
0
 10
371.13679423
 20
98.42188391
  0
VERTEX
  8
0
 10
371.33990688
 20
97.07571104
  0
VERTEX
  8
0
 10
371.50061646
 20
95.71917950
  0
VERTEX
  8
0
 10
371.62148350
 20
94.35392339
  0
VERTEX
  8
0
 10
371.70506853
 20
92.98157686
  0
VERTEX
  8
0
 10
371.75393207
 20
91.60377401
  0
VERTEX
  8
0
 10
371.77063466
 20
90.22214898
  0
VERTEX
  8
0
 10
371.75773680
 20
88.83833588
  0
VERTEX
  8
0
 10
371.71779904
 20
87.45396884
  0
VERTEX
  8
0
 10
371.65338188
 20
86.07068198
  0
VERTEX
  8
0
 10
371.56704587
 20
84.69010942
  0
VERTEX
  8
0
 10
371.46135152
 20
83.31388530
  0
VERTEX
  8
0
 10
371.33885935
 20
81.94364372
  0
VERTEX
  8
0
 10
371.20212991
 20
80.58101882
  0
VERTEX
  8
0
 10
370.89620125
 20
77.88515553
  0
VERTEX
  8
0
 10
370.69143087
 20
76.17049185
  0
VERTEX
  8
0
 10
370.50235689
 20
74.43093389
  0
VERTEX
  8
0
 10
370.35196118
 20
72.67609498
  0
VERTEX
  8
0
 10
370.29844951
 20
71.79594932
  0
VERTEX
  8
0
 10
370.26322561
 20
70.91558843
  0
VERTEX
  8
0
 10
370.24916221
 20
70.03621395
  0
VERTEX
  8
0
 10
370.25913205
 20
69.15902756
  0
VERTEX
  8
0
 10
370.29600785
 20
68.28523092
  0
VERTEX
  8
0
 10
370.36266236
 20
67.41602570
  0
VERTEX
  8
0
 10
370.46196831
 20
66.55261355
  0
VERTEX
  8
0
 10
370.59679842
 20
65.69619616
  0
VERTEX
  8
0
 10
370.77002544
 20
64.84797517
  0
VERTEX
  8
0
 10
370.98452210
 20
64.00915226
  0
VERTEX
  8
0
 10
371.33814545
 20
62.82723205
  0
VERTEX
  8
0
 10
371.72977857
 20
61.64021074
  0
VERTEX
  8
0
 10
372.15537272
 20
60.45548700
  0
VERTEX
  8
0
 10
372.61087912
 20
59.28045945
  0
VERTEX
  8
0
 10
373.09224903
 20
58.12252676
  0
VERTEX
  8
0
 10
373.59543368
 20
56.98908757
  0
VERTEX
  8
0
 10
374.11638432
 20
55.88754051
  0
VERTEX
  8
0
 10
374.65105217
 20
54.82528425
  0
VERTEX
  8
0
 10
374.89947961
 20
54.37502482
  0
VERTEX
  8
0
 10
375.17696038
 20
53.91421235
  0
VERTEX
  8
0
 10
375.78289581
 20
52.96571358
  0
VERTEX
  8
0
 10
376.39648629
 20
51.98935849
  0
VERTEX
  8
0
 10
376.68353587
 20
51.49372562
  0
VERTEX
  8
0
 10
376.94535964
 20
50.99471763
  0
VERTEX
  8
0
 10
377.17291108
 20
50.49353084
  0
VERTEX
  8
0
 10
377.35714368
 20
49.99136157
  0
VERTEX
  8
0
 10
377.48901090
 20
49.48940613
  0
VERTEX
  8
0
 10
377.53248046
 20
49.23888245
  0
VERTEX
  8
0
 10
377.55946623
 20
48.98886085
  0
VERTEX
  8
0
 10
377.56883740
 20
48.73949087
  0
VERTEX
  8
0
 10
377.55946315
 20
48.49092205
  0
VERTEX
  8
0
 10
377.53021266
 20
48.24330392
  0
VERTEX
  8
0
 10
377.47995512
 20
47.99678604
  0
VERTEX
  8
0
 10
377.40755972
 20
47.75151793
  0
VERTEX
  8
0
 10
377.31189563
 20
47.50764914
  0
VERTEX
  8
0
 10
377.19183205
 20
47.26532922
  0
VERTEX
  8
0
 10
377.04623816
 20
47.02470769
  0
VERTEX
  8
0
 10
374.88384121
 20
43.77302436
  0
VERTEX
  8
0
 10
372.78326448
 20
40.63954788
  0
VERTEX
  8
0
 10
368.52019174
 20
34.33517550
  0
VERTEX
  8
0
 10
367.81673590
 20
33.25222791
  0
VERTEX
  8
0
 10
367.15028707
 20
32.17412399
  0
VERTEX
  8
0
 10
366.48854065
 20
31.11764283
  0
VERTEX
  8
0
 10
366.14933565
 20
30.60275426
  0
VERTEX
  8
0
 10
365.79919202
 20
30.09956354
  0
VERTEX
  8
0
 10
365.43407168
 20
29.61016806
  0
VERTEX
  8
0
 10
365.04993656
 20
29.13666521
  0
VERTEX
  8
0
 10
364.64274857
 20
28.68115238
  0
VERTEX
  8
0
 10
364.20846965
 20
28.24572695
  0
VERTEX
  8
0
 10
363.74306171
 20
27.83248631
  0
VERTEX
  8
0
 10
363.24248668
 20
27.44352785
  0
VERTEX
  8
0
 10
362.70270648
 20
27.08094895
  0
VERTEX
  8
0
 10
362.11968303
 20
26.74684701
  0
VERTEX
  8
0
 10
361.53976100
 20
26.71587622
  0
VERTEX
  8
0
 10
360.96053454
 20
26.70075627
  0
VERTEX
  8
0
 10
359.80390686
 20
26.71380939
  0
VERTEX
  8
0
 10
358.64927700
 20
26.77748743
  0
VERTEX
  8
0
 10
357.49612198
 20
26.88327143
  0
VERTEX
  8
0
 10
356.34391881
 20
27.02264247
  0
VERTEX
  8
0
 10
355.19214452
 20
27.18708157
  0
VERTEX
  8
0
 10
352.88779064
 20
27.55708823
  0
VERTEX
  8
0
 10
350.57887647
 20
27.92513982
  0
VERTEX
  8
0
 10
349.42140181
 20
28.08713510
  0
VERTEX
  8
0
 10
348.26121814
 20
28.22308477
  0
VERTEX
  8
0
 10
347.09780246
 20
28.32446989
  0
VERTEX
  8
0
 10
345.93063180
 20
28.38277151
  0
VERTEX
  8
0
 10
344.75918316
 20
28.38947068
  0
VERTEX
  8
0
 10
344.17169117
 20
28.37080718
  0
VERTEX
  8
0
 10
343.58293358
 20
28.33604846
  0
VERTEX
  8
0
 10
340.38561678
 20
28.11684946
  0
VERTEX
  8
0
 10
337.20750411
 20
27.93595147
  0
VERTEX
  8
0
 10
334.02939145
 20
28.11684946
  0
VERTEX
  8
0
 10
330.83207465
 20
28.33604846
  0
VERTEX
  8
0
 10
330.24331705
 20
28.37080718
  0
VERTEX
  8
0
 10
329.65582506
 20
28.38947068
  0
VERTEX
  8
0
 10
328.48437643
 20
28.38277151
  0
VERTEX
  8
0
 10
327.31720576
 20
28.32446989
  0
VERTEX
  8
0
 10
326.15379008
 20
28.22308477
  0
VERTEX
  8
0
 10
324.99360641
 20
28.08713510
  0
VERTEX
  8
0
 10
323.83613176
 20
27.92513982
  0
VERTEX
  8
0
 10
321.52721758
 20
27.55708823
  0
VERTEX
  8
0
 10
319.22286370
 20
27.18708157
  0
VERTEX
  8
0
 10
318.07108941
 20
27.02264247
  0
VERTEX
  8
0
 10
316.91888625
 20
26.88327143
  0
VERTEX
  8
0
 10
315.76573123
 20
26.77748743
  0
VERTEX
  8
0
 10
314.61110137
 20
26.71380939
  0
VERTEX
  8
0
 10
313.45447368
 20
26.70075627
  0
VERTEX
  8
0
 10
312.87524722
 20
26.71587622
  0
VERTEX
  8
0
 10
312.29532519
 20
26.74684701
  0
VERTEX
  8
0
 10
311.71230174
 20
27.08094895
  0
VERTEX
  8
0
 10
311.17252154
 20
27.44352785
  0
VERTEX
  8
0
 10
310.67194651
 20
27.83248631
  0
VERTEX
  8
0
 10
310.20653857
 20
28.24572695
  0
VERTEX
  8
0
 10
309.77225965
 20
28.68115238
  0
VERTEX
  8
0
 10
309.36507167
 20
29.13666521
  0
VERTEX
  8
0
 10
308.98093654
 20
29.61016806
  0
VERTEX
  8
0
 10
308.61581621
 20
30.09956354
  0
VERTEX
  8
0
 10
308.26567258
 20
30.60275426
  0
VERTEX
  8
0
 10
307.92646757
 20
31.11764283
  0
VERTEX
  8
0
 10
307.26472115
 20
32.17412399
  0
VERTEX
  8
0
 10
306.59827233
 20
33.25222791
  0
VERTEX
  8
0
 10
305.89481648
 20
34.33517550
  0
VERTEX
  8
0
 10
301.63174374
 20
40.63954788
  0
VERTEX
  8
0
 10
299.53116702
 20
43.77302436
  0
VERTEX
  8
0
 10
297.36877006
 20
47.02470769
  0
VERTEX
  8
0
 10
297.22317617
 20
47.26532922
  0
VERTEX
  8
0
 10
297.10311259
 20
47.50764914
  0
VERTEX
  8
0
 10
297.00744851
 20
47.75151793
  0
VERTEX
  8
0
 10
296.93505311
 20
47.99678604
  0
VERTEX
  8
0
 10
296.88479557
 20
48.24330392
  0
VERTEX
  8
0
 10
296.85554508
 20
48.49092205
  0
VERTEX
  8
0
 10
296.84617083
 20
48.73949087
  0
VERTEX
  8
0
 10
296.85554199
 20
48.98886085
  0
VERTEX
  8
0
 10
296.88252776
 20
49.23888245
  0
VERTEX
  8
0
 10
296.92599732
 20
49.48940613
  0
VERTEX
  8
0
 10
297.05786454
 20
49.99136157
  0
VERTEX
  8
0
 10
297.24209714
 20
50.49353084
  0
VERTEX
  8
0
 10
297.46964858
 20
50.99471763
  0
VERTEX
  8
0
 10
297.73147236
 20
51.49372562
  0
VERTEX
  8
0
 10
298.01852193
 20
51.98935849
  0
VERTEX
  8
0
 10
298.63211241
 20
52.96571358
  0
VERTEX
  8
0
 10
299.23804785
 20
53.91421235
  0
VERTEX
  8
0
 10
299.51552861
 20
54.37502482
  0
VERTEX
  8
0
 10
299.76395605
 20
54.82528425
  0
VERTEX
  8
0
 10
300.29862391
 20
55.88754051
  0
VERTEX
  8
0
 10
300.81957454
 20
56.98908757
  0
VERTEX
  8
0
 10
301.32275919
 20
58.12252676
  0
VERTEX
  8
0
 10
301.80412910
 20
59.28045945
  0
VERTEX
  8
0
 10
302.25963551
 20
60.45548700
  0
VERTEX
  8
0
 10
302.68522965
 20
61.64021074
  0
VERTEX
  8
0
 10
303.07686278
 20
62.82723205
  0
VERTEX
  8
0
 10
303.43048612
 20
64.00915226
  0
VERTEX
  8
0
 10
303.64498278
 20
64.84797517
  0
VERTEX
  8
0
 10
303.81820980
 20
65.69619616
  0
VERTEX
  8
0
 10
303.95303992
 20
66.55261355
  0
VERTEX
  8
0
 10
304.05234586
 20
67.41602570
  0
VERTEX
  8
0
 10
304.11900037
 20
68.28523092
  0
VERTEX
  8
0
 10
304.15587618
 20
69.15902756
  0
VERTEX
  8
0
 10
304.16584601
 20
70.03621395
  0
VERTEX
  8
0
 10
304.15178261
 20
70.91558843
  0
VERTEX
  8
0
 10
304.11655871
 20
71.79594932
  0
VERTEX
  8
0
 10
304.06304704
 20
72.67609498
  0
VERTEX
  8
0
 10
303.91265133
 20
74.43093389
  0
VERTEX
  8
0
 10
303.72357735
 20
76.17049185
  0
VERTEX
  8
0
 10
303.51880697
 20
77.88515553
  0
VERTEX
  8
0
 10
303.21287832
 20
80.58101882
  0
VERTEX
  8
0
 10
303.07614887
 20
81.94364372
  0
VERTEX
  8
0
 10
302.95365671
 20
83.31388530
  0
VERTEX
  8
0
 10
302.84796236
 20
84.69010942
  0
VERTEX
  8
0
 10
302.76162634
 20
86.07068198
  0
VERTEX
  8
0
 10
302.69720919
 20
87.45396884
  0
VERTEX
  8
0
 10
302.65727142
 20
88.83833588
  0
VERTEX
  8
0
 10
302.64437357
 20
90.22214898
  0
VERTEX
  8
0
 10
302.66107615
 20
91.60377401
  0
VERTEX
  8
0
 10
302.70993969
 20
92.98157686
  0
VERTEX
  8
0
 10
302.79352473
 20
94.35392339
  0
VERTEX
  8
0
 10
302.91439177
 20
95.71917950
  0
VERTEX
  8
0
 10
303.07510135
 20
97.07571104
  0
VERTEX
  8
0
 10
303.27821399
 20
98.42188391
  0
VERTEX
  8
0
 10
303.52629022
 20
99.75606397
  0
VERTEX
  8
0
 10
303.79487016
 20
101.01227395
  0
VERTEX
  8
0
 10
304.08683931
 20
102.26789179
  0
VERTEX
  8
0
 10
304.40195590
 20
103.52196432
  0
VERTEX
  8
0
 10
304.73997818
 20
104.77353839
  0
VERTEX
  8
0
 10
305.10066441
 20
106.02166083
  0
VERTEX
  8
0
 10
305.48377282
 20
107.26537848
  0
VERTEX
  8
0
 10
305.88906167
 20
108.50373817
  0
VERTEX
  8
0
 10
306.31628920
 20
109.73578675
  0
VERTEX
  8
0
 10
306.76521365
 20
110.96057104
  0
VERTEX
  8
0
 10
307.23559327
 20
112.17713789
  0
VERTEX
  8
0
 10
307.72718631
 20
113.38453413
  0
VERTEX
  8
0
 10
308.23975102
 20
114.58180660
  0
VERTEX
  8
0
 10
308.77304564
 20
115.76800213
  0
VERTEX
  8
0
 10
309.32682841
 20
116.94216757
  0
VERTEX
  8
0
 10
309.90085758
 20
118.10334975
  0
VERTEX
  8
0
 10
310.49489141
 20
119.25059550
  0
VERTEX
  8
0
 10
311.31174961
 20
120.73086836
  0
VERTEX
  8
0
 10
312.17677968
 20
122.18795163
  0
VERTEX
  8
0
 10
313.08416273
 20
123.62430745
  0
VERTEX
  8
0
 10
314.02807990
 20
125.04239798
  0
VERTEX
  8
0
 10
315.00271232
 20
126.44468538
  0
VERTEX
  8
0
 10
316.00224111
 20
127.83363178
  0
VERTEX
  8
0
 10
317.02084740
 20
129.21169935
  0
VERTEX
  8
0
 10
318.05271233
 20
130.58135024
  0
VERTEX
  8
0
 10
320.13294258
 20
133.30525056
  0
VERTEX
  8
0
 10
322.19638089
 20
136.02502997
  0
VERTEX
  8
0
 10
323.20725589
 20
137.38952971
  0
VERTEX
  8
0
 10
324.19647630
 20
138.76038567
  0
VERTEX
  8
0
 10
325.15822323
 20
140.14006001
  0
VERTEX
  8
0
 10
326.08667782
 20
141.53101487
  0
VERTEX
  8
0
 10
326.50273105
 20
142.15251074
  0
VERTEX
  8
0
 10
326.94483911
 20
142.77486853
  0
VERTEX
  8
0
 10
327.41274738
 20
143.39145588
  0
VERTEX
  8
0
 10
327.90620124
 20
143.99564047
  0
VERTEX
  8
0
 10
328.42494608
 20
144.58078995
  0
VERTEX
  8
0
 10
328.96872729
 20
145.14027199
  0
VERTEX
  8
0
 10
329.53729025
 20
145.66745422
  0
VERTEX
  8
0
 10
330.13038034
 20
146.15570433
  0
VERTEX
  8
0
 10
330.74774296
 20
146.59838996
  0
VERTEX
  8
0
 10
331.06544689
 20
146.80057349
  0
VERTEX
  8
0
 10
331.38912347
 20
146.98887877
  0
VERTEX
  8
0
 10
331.71874087
 20
147.16247677
  0
VERTEX
  8
0
 10
332.05426727
 20
147.32053843
  0
VERTEX
  8
0
 10
332.39567084
 20
147.46223471
  0
VERTEX
  8
0
 10
332.74291975
 20
147.58673658
  0
VERTEX
  8
0
 10
333.09598217
 20
147.69321499
  0
VERTEX
  8
0
 10
333.45482628
 20
147.78084090
  0
VERTEX
  8
0
 10
333.81942024
 20
147.84878526
  0
VERTEX
  8
0
 10
334.18973225
 20
147.89621903
  0
VERTEX
  8
0
 10
334.56573046
 20
147.92231317
  0
VERTEX
  8
0
 10
334.94738304
 20
147.92623864
  0
VERTEX
  8
0
 10
335.33465819
 20
147.90716639
  0
VERTEX
  8
0
 10
335.72752405
 20
147.86426739
  0
VERTEX
  8
0
 10
335.73747106
 20
147.86426739
  0
VERTEX
  8
0
 10
335.73747106
 20
125.82659872
 42
0.23315605
  0
VERTEX
  8
0
 10
336.12085169
 20
125.04913790
 42
0.16511162
  0
VERTEX
  8
0
 10
336.71747106
 20
124.84659872
  0
VERTEX
  8
0
 10
337.69747106
 20
124.84659872
 42
0.16510050
  0
VERTEX
  8
0
 10
338.29405674
 20
125.04911205
 42
0.23316747
  0
VERTEX
  8
0
 10
338.67747106
 20
125.82659872
  0
VERTEX
  8
0
 10
338.67747106
 20
147.86426739
  0
VERTEX
  8
0
 10
338.68748417
 20
147.86426739
  0
SEQEND
  0
POLYLINE
  8
N�vel_Padr�o
 66
   1
 39
0.000000
 70
    1
  0
VERTEX
  8
0
 10
64.60075833
 20
18.34533981
  0
VERTEX
  8
0
 10
63.32272457
 20
18.30744208
  0
VERTEX
  8
0
 10
62.03237619
 20
18.25657401
  0
VERTEX
  8
0
 10
60.73967467
 20
18.21533703
  0
VERTEX
  8
0
 10
59.45458146
 20
18.20633261
  0
VERTEX
  8
0
 10
58.81800094
 20
18.22098055
  0
VERTEX
  8
0
 10
58.18705805
 20
18.25216218
  0
VERTEX
  8
0
 10
57.56299798
 20
18.30270268
  0
VERTEX
  8
0
 10
56.94706590
 20
18.37542722
  0
VERTEX
  8
0
 10
56.34050700
 20
18.47316098
  0
VERTEX
  8
0
 10
55.74456647
 20
18.59872915
  0
VERTEX
  8
0
 10
55.16048949
 20
18.75495691
  0
VERTEX
  8
0
 10
54.58952124
 20
18.94466944
  0
VERTEX
  8
0
 10
54.05579261
 20
19.14915776
  0
VERTEX
  8
0
 10
53.52989659
 20
19.36698509
  0
VERTEX
  8
0
 10
52.50108552
 20
19.84148876
  0
VERTEX
  8
0
 10
51.50205432
 20
20.36584441
  0
VERTEX
  8
0
 10
50.53176929
 20
20.93771601
  0
VERTEX
  8
0
 10
49.58919673
 20
21.55476751
  0
VERTEX
  8
0
 10
48.67330294
 20
22.21466290
  0
VERTEX
  8
0
 10
47.78305421
 20
22.91506612
  0
VERTEX
  8
0
 10
46.91741684
 20
23.65364115
  0
VERTEX
  8
0
 10
46.07535712
 20
24.42805196
  0
VERTEX
  8
0
 10
45.25584136
 20
25.23596250
  0
VERTEX
  8
0
 10
44.45783585
 20
26.07503675
  0
VERTEX
  8
0
 10
43.68030689
 20
26.94293867
  0
VERTEX
  8
0
 10
42.92222077
 20
27.83733222
  0
VERTEX
  8
0
 10
42.18254379
 20
28.75588138
  0
VERTEX
  8
0
 10
41.46024226
 20
29.69625010
  0
VERTEX
  8
0
 10
40.75428245
 20
30.65610235
  0
VERTEX
  8
0
 10
40.06363068
 20
31.63310210
  0
VERTEX
  8
0
 10
39.38725324
 20
32.62491332
  0
VERTEX
  8
0
 10
38.72411643
 20
33.62919996
  0
VERTEX
  8
0
 10
38.07318654
 20
34.64362600
  0
VERTEX
  8
0
 10
36.80381272
 20
36.69355212
  0
VERTEX
  8
0
 10
35.57086216
 20
38.75600340
  0
VERTEX
  8
0
 10
33.18115233
 20
42.84372836
  0
VERTEX
  8
0
 10
32.00785381
 20
44.83162548
  0
VERTEX
  8
0
 10
30.83790005
 20
46.75729467
  0
VERTEX
  8
0
 10
29.43754451
 20
49.07112901
  0
VERTEX
  8
0
 10
28.07185587
 20
51.43827570
  0
VERTEX
  8
0
 10
26.74165703
 20
53.85404237
  0
VERTEX
  8
0
 10
25.44777092
 20
56.31373665
  0
VERTEX
  8
0
 10
24.19102044
 20
58.81266617
  0
VERTEX
  8
0
 10
22.97222851
 20
61.34613857
  0
VERTEX
  8
0
 10
21.79221804
 20
63.90946147
  0
VERTEX
  8
0
 10
20.65181194
 20
66.49794252
  0
VERTEX
  8
0
 10
19.55183313
 20
69.10688934
  0
VERTEX
  8
0
 10
18.49310451
 20
71.73160956
  0
VERTEX
  8
0
 10
17.47644901
 20
74.36741082
  0
VERTEX
  8
0
 10
16.50268952
 20
77.00960075
  0
VERTEX
  8
0
 10
15.57264898
 20
79.65348698
  0
VERTEX
  8
0
 10
14.68715028
 20
82.29437715
  0
VERTEX
  8
0
 10
13.84701634
 20
84.92757888
  0
VERTEX
  8
0
 10
13.05307008
 20
87.54839981
  0
VERTEX
  8
0
 10
12.22049468
 20
90.41784996
  0
VERTEX
  8
0
 10
11.40106155
 20
93.34521026
  0
VERTEX
  8
0
 10
10.60450885
 20
96.31272818
  0
VERTEX
  8
0
 10
9.84057473
 20
99.30265117
  0
VERTEX
  8
0
 10
9.11899735
 20
102.29722669
  0
VERTEX
  8
0
 10
8.44951487
 20
105.27870218
  0
VERTEX
  8
0
 10
7.84186546
 20
108.22932511
  0
VERTEX
  8
0
 10
7.56427132
 20
109.68751919
  0
VERTEX
  8
0
 10
7.30578726
 20
111.13134293
  0
VERTEX
  8
0
 10
6.96777009
 20
113.14414855
  0
VERTEX
  8
0
 10
6.64412548
 20
115.20002721
  0
VERTEX
  8
0
 10
6.33769200
 20
117.29224208
  0
VERTEX
  8
0
 10
6.05130820
 20
119.41405635
  0
VERTEX
  8
0
 10
5.78781263
 20
121.55873319
  0
VERTEX
  8
0
 10
5.55004386
 20
123.71953579
  0
VERTEX
  8
0
 10
5.34084045
 20
125.88972733
  0
VERTEX
  8
0
 10
5.16304094
 20
128.06257099
  0
VERTEX
  8
0
 10
5.01948391
 20
130.23132995
  0
VERTEX
  8
0
 10
4.91300790
 20
132.38926740
  0
VERTEX
  8
0
 10
4.84645148
 20
134.52964651
  0
VERTEX
  8
0
 10
4.82265321
 20
136.64573047
  0
VERTEX
  8
0
 10
4.84445164
 20
138.73078246
  0
VERTEX
  8
0
 10
4.91468532
 20
140.77806566
  0
VERTEX
  8
0
 10
5.03619283
 20
142.78084324
  0
VERTEX
  8
0
 10
5.11706131
 20
143.76343718
  0
VERTEX
  8
0
 10
5.21181271
 20
144.73237841
  0
VERTEX
  8
0
 10
5.27134525
 20
145.55575409
  0
VERTEX
  8
0
 10
5.29213229
 20
146.44888438
  0
VERTEX
  8
0
 10
5.28625566
 20
147.39672596
  0
VERTEX
  8
0
 10
5.26579722
 20
148.38423552
  0
VERTEX
  8
0
 10
5.22946229
 20
150.41808536
  0
VERTEX
  8
0
 10
5.23774949
 20
151.43433902
  0
VERTEX
  8
0
 10
5.27978227
 20
152.43008743
  0
VERTEX
  8
0
 10
5.36764246
 20
153.39028728
  0
VERTEX
  8
0
 10
5.43253342
 20
153.85235546
  0
VERTEX
  8
0
 10
5.51341193
 20
154.29989525
  0
VERTEX
  8
0
 10
5.61178821
 20
154.73102625
  0
VERTEX
  8
0
 10
5.72917250
 20
155.14386805
  0
VERTEX
  8
0
 10
5.86707503
 20
155.53654022
  0
VERTEX
  8
0
 10
6.02700603
 20
155.90716235
  0
VERTEX
  8
0
 10
6.21047574
 20
156.25385404
  0
VERTEX
  8
0
 10
6.41899437
 20
156.57473486
  0
VERTEX
  8
0
 10
6.65407217
 20
156.86792440
  0
VERTEX
  8
0
 10
6.91721937
 20
157.13154226
  0
VERTEX
  8
0
 10
7.20994619
 20
157.36370801
  0
VERTEX
  8
0
 10
7.53376286
 20
157.56254124
  0
VERTEX
  8
0
 10
7.89017962
 20
157.72616154
  0
VERTEX
  8
0
 10
8.28070670
 20
157.85268850
  0
VERTEX
  8
0
 10
8.66367645
 20
157.92908000
  0
VERTEX
  8
0
 10
9.02346030
 20
157.95224523
  0
VERTEX
  8
0
 10
9.36092267
 20
157.92478581
  0
VERTEX
  8
0
 10
9.67692796
 20
157.84930335
  0
VERTEX
  8
0
 10
9.97234057
 20
157.72839947
  0
VERTEX
  8
0
 10
10.24802490
 20
157.56467580
  0
VERTEX
  8
0
 10
10.50484535
 20
157.36073395
  0
VERTEX
  8
0
 10
10.74366633
 20
157.11917554
  0
VERTEX
  8
0
 10
10.96535224
 20
156.84260219
  0
VERTEX
  8
0
 10
11.17076749
 20
156.53361551
  0
VERTEX
  8
0
 10
11.36077647
 20
156.19481713
  0
VERTEX
  8
0
 10
11.53624359
 20
155.82880867
  0
VERTEX
  8
0
 10
11.69803325
 20
155.43819174
  0
VERTEX
  8
0
 10
11.84700985
 20
155.02556796
  0
VERTEX
  8
0
 10
11.98403780
 20
154.59353896
  0
VERTEX
  8
0
 10
12.10998150
 20
154.14470635
  0
VERTEX
  8
0
 10
12.33207376
 20
153.20703677
  0
VERTEX
  8
0
 10
12.52020186
 20
152.23337218
  0
VERTEX
  8
0
 10
12.68128101
 20
151.24452553
  0
VERTEX
  8
0
 10
12.82222643
 20
150.26130978
  0
VERTEX
  8
0
 10
13.07137700
 20
148.39502274
  0
VERTEX
  8
0
 10
13.19341258
 20
147.55357735
  0
VERTEX
  8
0
 10
13.32297534
 20
146.80101467
  0
VERTEX
  8
0
 10
14.11277306
 20
142.67360037
  0
VERTEX
  8
0
 10
14.95259513
 20
138.31605081
  0
VERTEX
  8
0
 10
15.39728852
 20
136.07475387
  0
VERTEX
  8
0
 10
15.86171587
 20
133.80445740
  0
VERTEX
  8
0
 10
16.34828648
 20
131.51467283
  0
VERTEX
  8
0
 10
16.85940963
 20
129.21491158
  0
VERTEX
  8
0
 10
17.39749462
 20
126.91468508
  0
VERTEX
  8
0
 10
17.96495073
 20
124.62350477
  0
VERTEX
  8
0
 10
18.56418727
 20
122.35088206
  0
VERTEX
  8
0
 10
19.19761352
 20
120.10632840
  0
VERTEX
  8
0
 10
19.86763876
 20
117.89935520
  0
VERTEX
  8
0
 10
20.57667231
 20
115.73947390
  0
VERTEX
  8
0
 10
20.94657009
 20
114.68016503
  0
VERTEX
  8
0
 10
21.32712344
 20
113.63619592
  0
VERTEX
  8
0
 10
21.71863350
 20
112.60875550
  0
VERTEX
  8
0
 10
22.12140144
 20
111.59903269
  0
VERTEX
  8
0
 10
22.62127990
 20
110.33374968
  0
VERTEX
  8
0
 10
23.10977925
 20
109.02987832
  0
VERTEX
  8
0
 10
24.07170798
 20
106.35304581
  0
VERTEX
  8
0
 10
25.04532238
 20
103.66188559
  0
VERTEX
  8
0
 10
25.54842881
 20
102.34010459
  0
VERTEX
  8
0
 10
26.06875719
 20
101.04974809
  0
VERTEX
  8
0
 10
26.95573328
 20
98.99707806
  0
VERTEX
  8
0
 10
27.89593836
 20
96.94900738
  0
VERTEX
  8
0
 10
28.88116918
 20
94.90771795
  0
VERTEX
  8
0
 10
29.90322249
 20
92.87539169
  0
VERTEX
  8
0
 10
30.95389505
 20
90.85421049
  0
VERTEX
  8
0
 10
32.02498360
 20
88.84635628
  0
VERTEX
  8
0
 10
34.19559567
 20
84.87935644
  0
VERTEX
  8
0
 10
35.63002667
 20
82.32295218
  0
VERTEX
  8
0
 10
37.10482450
 20
79.77758131
  0
VERTEX
  8
0
 10
38.62318992
 20
77.25021842
  0
VERTEX
  8
0
 10
40.18832369
 20
74.74783808
  0
VERTEX
  8
0
 10
40.98942894
 20
73.50819593
  0
VERTEX
  8
0
 10
41.80342655
 20
72.27741488
  0
VERTEX
  8
0
 10
42.63071662
 20
71.05636677
  0
VERTEX
  8
0
 10
43.47169925
 20
69.84592342
  0
VERTEX
  8
0
 10
44.32677453
 20
68.64695664
  0
VERTEX
  8
0
 10
45.19634254
 20
67.46033826
  0
VERTEX
  8
0
 10
46.08080340
 20
66.28694011
  0
VERTEX
  8
0
 10
46.98055718
 20
65.12763401
  0
VERTEX
  8
0
 10
48.03129023
 20
63.83371141
  0
VERTEX
  8
0
 10
48.57327350
 20
63.19809175
  0
VERTEX
  8
0
 10
49.12686302
 20
62.57164878
  0
VERTEX
  8
0
 10
49.69245510
 20
61.95559419
  0
VERTEX
  8
0
 10
50.27044606
 20
61.35113968
  0
VERTEX
  8
0
 10
50.86123222
 20
60.75949694
  0
VERTEX
  8
0
 10
51.46520989
 20
60.18187766
  0
VERTEX
  8
0
 10
52.08277540
 20
59.61949355
  0
VERTEX
  8
0
 10
52.71432504
 20
59.07355629
  0
VERTEX
  8
0
 10
53.36025515
 20
58.54527758
  0
VERTEX
  8
0
 10
54.02096203
 20
58.03586911
  0
VERTEX
  8
0
 10
54.69684200
 20
57.54654258
  0
VERTEX
  8
0
 10
55.38829138
 20
57.07850968
  0
VERTEX
  8
0
 10
56.09570649
 20
56.63298210
  0
VERTEX
  8
0
 10
56.81948363
 20
56.21117155
  0
VERTEX
  8
0
 10
57.57827215
 20
55.79910285
  0
VERTEX
  8
0
 10
58.34646278
 20
55.40704333
  0
VERTEX
  8
0
 10
59.12372539
 20
55.03583586
  0
VERTEX
  8
0
 10
59.90972990
 20
54.68632332
  0
VERTEX
  8
0
 10
60.70414619
 20
54.35934859
  0
VERTEX
  8
0
 10
61.50664416
 20
54.05575456
  0
VERTEX
  8
0
 10
62.31689370
 20
53.77638409
  0
VERTEX
  8
0
 10
63.13456471
 20
53.52208007
  0
VERTEX
  8
0
 10
63.95932708
 20
53.29368537
  0
VERTEX
  8
0
 10
64.79085070
 20
53.09204288
  0
VERTEX
  8
0
 10
65.62880548
 20
52.91799546
  0
VERTEX
  8
0
 10
66.47286129
 20
52.77238601
  0
VERTEX
  8
0
 10
67.32268805
 20
52.65605740
  0
VERTEX
  8
0
 10
68.17795563
 20
52.56985250
  0
VERTEX
  8
0
 10
69.03833395
 20
52.51461420
  0
VERTEX
  8
0
 10
69.90349288
 20
52.49118537
  0
VERTEX
  8
0
 10
70.76865182
 20
52.51461420
  0
VERTEX
  8
0
 10
71.62903013
 20
52.56985250
  0
VERTEX
  8
0
 10
72.48429772
 20
52.65605740
  0
VERTEX
  8
0
 10
73.33412447
 20
52.77238601
  0
VERTEX
  8
0
 10
74.17818029
 20
52.91799546
  0
VERTEX
  8
0
 10
75.01613506
 20
53.09204288
  0
VERTEX
  8
0
 10
75.84765869
 20
53.29368537
  0
VERTEX
  8
0
 10
76.67242105
 20
53.52208007
  0
VERTEX
  8
0
 10
77.49009206
 20
53.77638409
  0
VERTEX
  8
0
 10
78.30034160
 20
54.05575456
  0
VERTEX
  8
0
 10
79.10283957
 20
54.35934859
  0
VERTEX
  8
0
 10
79.89725586
 20
54.68632332
  0
VERTEX
  8
0
 10
80.68326037
 20
55.03583586
  0
VERTEX
  8
0
 10
81.46052299
 20
55.40704333
  0
VERTEX
  8
0
 10
82.22871361
 20
55.79910285
  0
VERTEX
  8
0
 10
82.98750213
 20
56.21117155
  0
VERTEX
  8
0
 10
83.71127928
 20
56.63298210
  0
VERTEX
  8
0
 10
84.41869438
 20
57.07850968
  0
VERTEX
  8
0
 10
85.11014376
 20
57.54654258
  0
VERTEX
  8
0
 10
85.78602374
 20
58.03586911
  0
VERTEX
  8
0
 10
86.44673062
 20
58.54527758
  0
VERTEX
  8
0
 10
87.09266072
 20
59.07355629
  0
VERTEX
  8
0
 10
87.72421037
 20
59.61949355
  0
VERTEX
  8
0
 10
88.34177587
 20
60.18187766
  0
VERTEX
  8
0
 10
88.94575354
 20
60.75949694
  0
VERTEX
  8
0
 10
89.53653970
 20
61.35113968
  0
VERTEX
  8
0
 10
90.11453066
 20
61.95559419
  0
VERTEX
  8
0
 10
90.68012275
 20
62.57164878
  0
VERTEX
  8
0
 10
91.23371226
 20
63.19809175
  0
VERTEX
  8
0
 10
91.77569553
 20
63.83371141
  0
VERTEX
  8
0
 10
92.82642858
 20
65.12763401
  0
VERTEX
  8
0
 10
93.72618237
 20
66.28694011
  0
VERTEX
  8
0
 10
94.61064322
 20
67.46033826
  0
VERTEX
  8
0
 10
95.48021124
 20
68.64695664
  0
VERTEX
  8
0
 10
96.33528651
 20
69.84592342
  0
VERTEX
  8
0
 10
97.17626914
 20
71.05636677
  0
VERTEX
  8
0
 10
98.00355922
 20
72.27741488
  0
VERTEX
  8
0
 10
98.81755683
 20
73.50819593
  0
VERTEX
  8
0
 10
99.61866207
 20
74.74783808
  0
VERTEX
  8
0
 10
101.18379584
 20
77.25021842
  0
VERTEX
  8
0
 10
102.70216126
 20
79.77758131
  0
VERTEX
  8
0
 10
104.17695910
 20
82.32295218
  0
VERTEX
  8
0
 10
105.61139009
 20
84.87935644
  0
VERTEX
  8
0
 10
107.78200217
 20
88.84635628
  0
VERTEX
  8
0
 10
108.85309072
 20
90.85421049
  0
VERTEX
  8
0
 10
109.90376327
 20
92.87539169
  0
VERTEX
  8
0
 10
110.92581659
 20
94.90771795
  0
VERTEX
  8
0
 10
111.91104741
 20
96.94900738
  0
VERTEX
  8
0
 10
112.85125249
 20
98.99707806
  0
VERTEX
  8
0
 10
113.73822857
 20
101.04974809
  0
VERTEX
  8
0
 10
114.25855695
 20
102.34010459
  0
VERTEX
  8
0
 10
114.76166339
 20
103.66188559
  0
VERTEX
  8
0
 10
115.73527779
 20
106.35304581
  0
VERTEX
  8
0
 10
116.69720652
 20
109.02987832
  0
VERTEX
  8
0
 10
117.18570586
 20
110.33374968
  0
VERTEX
  8
0
 10
117.68558432
 20
111.59903269
  0
VERTEX
  8
0
 10
118.08835226
 20
112.60875550
  0
VERTEX
  8
0
 10
118.47986233
 20
113.63619592
  0
VERTEX
  8
0
 10
118.86041567
 20
114.68016503
  0
VERTEX
  8
0
 10
119.23031346
 20
115.73947390
  0
VERTEX
  8
0
 10
119.93934700
 20
117.89935520
  0
VERTEX
  8
0
 10
120.60937225
 20
120.10632840
  0
VERTEX
  8
0
 10
121.24279849
 20
122.35088206
  0
VERTEX
  8
0
 10
121.84203503
 20
124.62350477
  0
VERTEX
  8
0
 10
122.40949115
 20
126.91468508
  0
VERTEX
  8
0
 10
122.94757613
 20
129.21491158
  0
VERTEX
  8
0
 10
123.45869928
 20
131.51467283
  0
VERTEX
  8
0
 10
123.94526989
 20
133.80445740
  0
VERTEX
  8
0
 10
124.40969725
 20
136.07475387
  0
VERTEX
  8
0
 10
124.85439064
 20
138.31605081
  0
VERTEX
  8
0
 10
125.69421271
 20
142.67360037
  0
VERTEX
  8
0
 10
126.48401043
 20
146.80101467
  0
VERTEX
  8
0
 10
126.61357318
 20
147.55357735
  0
VERTEX
  8
0
 10
126.73560877
 20
148.39502274
  0
VERTEX
  8
0
 10
126.98475933
 20
150.26130978
  0
VERTEX
  8
0
 10
127.12570476
 20
151.24452553
  0
VERTEX
  8
0
 10
127.28678391
 20
152.23337218
  0
VERTEX
  8
0
 10
127.47491200
 20
153.20703677
  0
VERTEX
  8
0
 10
127.69700426
 20
154.14470635
  0
VERTEX
  8
0
 10
127.82294796
 20
154.59353896
  0
VERTEX
  8
0
 10
127.95997591
 20
155.02556796
  0
VERTEX
  8
0
 10
128.10895252
 20
155.43819174
  0
VERTEX
  8
0
 10
128.27074218
 20
155.82880867
  0
VERTEX
  8
0
 10
128.44620930
 20
156.19481713
  0
VERTEX
  8
0
 10
128.63621828
 20
156.53361551
  0
VERTEX
  8
0
 10
128.84163352
 20
156.84260219
  0
VERTEX
  8
0
 10
129.06331943
 20
157.11917554
  0
VERTEX
  8
0
 10
129.30214041
 20
157.36073395
  0
VERTEX
  8
0
 10
129.55896087
 20
157.56467580
  0
VERTEX
  8
0
 10
129.83464519
 20
157.72839947
  0
VERTEX
  8
0
 10
130.13005780
 20
157.84930335
  0
VERTEX
  8
0
 10
130.44606309
 20
157.92478581
  0
VERTEX
  8
0
 10
130.78352546
 20
157.95224523
  0
VERTEX
  8
0
 10
131.14330932
 20
157.92908000
  0
VERTEX
  8
0
 10
131.52627907
 20
157.85268850
  0
VERTEX
  8
0
 10
131.91680614
 20
157.72616154
  0
VERTEX
  8
0
 10
132.27322290
 20
157.56254124
  0
VERTEX
  8
0
 10
132.59703958
 20
157.36370801
  0
VERTEX
  8
0
 10
132.88976640
 20
157.13154226
  0
VERTEX
  8
0
 10
133.15291359
 20
156.86792440
  0
VERTEX
  8
0
 10
133.38799139
 20
156.57473486
  0
VERTEX
  8
0
 10
133.59651003
 20
156.25385404
  0
VERTEX
  8
0
 10
133.77997973
 20
155.90716235
  0
VERTEX
  8
0
 10
133.93991073
 20
155.53654022
  0
VERTEX
  8
0
 10
134.07781326
 20
155.14386805
  0
VERTEX
  8
0
 10
134.19519756
 20
154.73102625
  0
VERTEX
  8
0
 10
134.29357384
 20
154.29989525
  0
VERTEX
  8
0
 10
134.37445234
 20
153.85235546
  0
VERTEX
  8
0
 10
134.43934330
 20
153.39028728
  0
VERTEX
  8
0
 10
134.52720349
 20
152.43008743
  0
VERTEX
  8
0
 10
134.56923627
 20
151.43433902
  0
VERTEX
  8
0
 10
134.57752347
 20
150.41808536
  0
VERTEX
  8
0
 10
134.54118854
 20
148.38423552
  0
VERTEX
  8
0
 10
134.52073010
 20
147.39672596
  0
VERTEX
  8
0
 10
134.51485348
 20
146.44888438
  0
VERTEX
  8
0
 10
134.53564051
 20
145.55575409
  0
VERTEX
  8
0
 10
134.59517305
 20
144.73237841
  0
VERTEX
  8
0
 10
134.68992445
 20
143.76343718
  0
VERTEX
  8
0
 10
134.77079293
 20
142.78084324
  0
VERTEX
  8
0
 10
134.89230044
 20
140.77806566
  0
VERTEX
  8
0
 10
134.96253413
 20
138.73078246
  0
VERTEX
  8
0
 10
134.98433256
 20
136.64573047
  0
VERTEX
  8
0
 10
134.96053428
 20
134.52964651
  0
VERTEX
  8
0
 10
134.89397786
 20
132.38926740
  0
VERTEX
  8
0
 10
134.78750186
 20
130.23132995
  0
VERTEX
  8
0
 10
134.64394482
 20
128.06257099
  0
VERTEX
  8
0
 10
134.46614532
 20
125.88972733
  0
VERTEX
  8
0
 10
134.25694190
 20
123.71953579
  0
VERTEX
  8
0
 10
134.01917313
 20
121.55873319
  0
VERTEX
  8
0
 10
133.75567757
 20
119.41405635
  0
VERTEX
  8
0
 10
133.46929376
 20
117.29224208
  0
VERTEX
  8
0
 10
133.16286028
 20
115.20002721
  0
VERTEX
  8
0
 10
132.83921567
 20
113.14414855
  0
VERTEX
  8
0
 10
132.50119850
 20
111.13134293
  0
VERTEX
  8
0
 10
132.24271444
 20
109.68751919
  0
VERTEX
  8
0
 10
131.96512031
 20
108.22932511
  0
VERTEX
  8
0
 10
131.35747089
 20
105.27870218
  0
VERTEX
  8
0
 10
130.68798842
 20
102.29722669
  0
VERTEX
  8
0
 10
129.96641104
 20
99.30265117
  0
VERTEX
  8
0
 10
129.20247692
 20
96.31272818
  0
VERTEX
  8
0
 10
128.40592421
 20
93.34521026
  0
VERTEX
  8
0
 10
127.58649108
 20
90.41784996
  0
VERTEX
  8
0
 10
126.75391569
 20
87.54839981
  0
VERTEX
  8
0
 10
125.95996942
 20
84.92757888
  0
VERTEX
  8
0
 10
125.11983548
 20
82.29437715
  0
VERTEX
  8
0
 10
124.23433679
 20
79.65348698
  0
VERTEX
  8
0
 10
123.30429624
 20
77.00960075
  0
VERTEX
  8
0
 10
122.33053676
 20
74.36741082
  0
VERTEX
  8
0
 10
121.31388125
 20
71.73160956
  0
VERTEX
  8
0
 10
120.25515264
 20
69.10688934
  0
VERTEX
  8
0
 10
119.15517382
 20
66.49794252
  0
VERTEX
  8
0
 10
118.01476772
 20
63.90946147
  0
VERTEX
  8
0
 10
116.83475725
 20
61.34613857
  0
VERTEX
  8
0
 10
115.61596532
 20
58.81266617
  0
VERTEX
  8
0
 10
114.35921485
 20
56.31373665
  0
VERTEX
  8
0
 10
113.06532873
 20
53.85404237
  0
VERTEX
  8
0
 10
111.73512990
 20
51.43827570
  0
VERTEX
  8
0
 10
110.36944125
 20
49.07112901
  0
VERTEX
  8
0
 10
108.96908571
 20
46.75729467
  0
VERTEX
  8
0
 10
107.79913196
 20
44.83162548
  0
VERTEX
  8
0
 10
106.62583344
 20
42.84372836
  0
VERTEX
  8
0
 10
104.23612360
 20
38.75600340
  0
VERTEX
  8
0
 10
103.00317304
 20
36.69355212
  0
VERTEX
  8
0
 10
101.73379922
 20
34.64362600
  0
VERTEX
  8
0
 10
101.08286933
 20
33.62919996
  0
VERTEX
  8
0
 10
100.41973252
 20
32.62491332
  0
VERTEX
  8
0
 10
99.74335508
 20
31.63310210
  0
VERTEX
  8
0
 10
99.05270331
 20
30.65610235
  0
VERTEX
  8
0
 10
98.34674351
 20
29.69625010
  0
VERTEX
  8
0
 10
97.62444197
 20
28.75588138
  0
VERTEX
  8
0
 10
96.88476499
 20
27.83733222
  0
VERTEX
  8
0
 10
96.12667887
 20
26.94293867
  0
VERTEX
  8
0
 10
95.34914991
 20
26.07503675
  0
VERTEX
  8
0
 10
94.55114440
 20
25.23596250
  0
VERTEX
  8
0
 10
93.73162864
 20
24.42805196
  0
VERTEX
  8
0
 10
92.88956892
 20
23.65364115
  0
VERTEX
  8
0
 10
92.02393155
 20
22.91506612
  0
VERTEX
  8
0
 10
91.13368282
 20
22.21466290
  0
VERTEX
  8
0
 10
90.21778903
 20
21.55476751
  0
VERTEX
  8
0
 10
89.27521647
 20
20.93771601
  0
VERTEX
  8
0
 10
88.30493145
 20
20.36584441
  0
VERTEX
  8
0
 10
87.30590025
 20
19.84148876
  0
VERTEX
  8
0
 10
86.27708918
 20
19.36698509
  0
VERTEX
  8
0
 10
85.75119316
 20
19.14915776
  0
VERTEX
  8
0
 10
85.21746453
 20
18.94466944
  0
VERTEX
  8
0
 10
84.69559233
 20
18.76975163
  0
VERTEX
  8
0
 10
84.16265915
 20
18.62306540
  0
VERTEX
  8
0
 10
83.61961983
 20
18.50244691
  0
VERTEX
  8
0
 10
83.06742917
 20
18.40573232
  0
VERTEX
  8
0
 10
82.50704202
 20
18.33075778
  0
VERTEX
  8
0
 10
81.93941318
 20
18.27535946
  0
VERTEX
  8
0
 10
81.36549750
 20
18.23737352
  0
VERTEX
  8
0
 10
80.78624980
 20
18.21463612
  0
VERTEX
  8
0
 10
79.61557762
 20
18.20625157
  0
VERTEX
  8
0
 10
78.43503526
 20
18.23289509
  0
VERTEX
  8
0
 10
76.07489440
 20
18.32202346
  0
VERTEX
  8
0
 10
75.82803834
 20
18.35305717
  0
VERTEX
  8
0
 10
71.46693182
 20
18.35305717
  0
VERTEX
  8
0
 10
71.33827228
 20
18.35305717
  0
VERTEX
  8
0
 10
71.33827228
 20
32.61956812
 42
0.12596476
  0
VERTEX
  8
0
 10
71.21772972
 20
33.09045335
 42
0.27395485
  0
VERTEX
  8
0
 10
70.35827228
 20
33.59956812
  0
VERTEX
  8
0
 10
69.37827228
 20
33.59956812
 42
0.29425120
  0
VERTEX
  8
0
 10
68.48589889
 20
33.02462334
 42
0.10692949
  0
VERTEX
  8
0
 10
68.39827228
 20
32.61956812
  0
VERTEX
  8
0
 10
68.39827228
 20
18.35305717
  0
VERTEX
  8
0
 10
65.05416742
 20
18.35305717
  0
VERTEX
  8
0
 10
64.60075833
 20
18.34533981
  0
SEQEND
  0
POLYLINE
  8
N�vel_Padr�o
 66
   1
 39
0.000000
 70
    1
  0
VERTEX
  8
0
 10
69.63452660
 20
256.01894655
  0
VERTEX
  8
0
 10
70.16241421
 20
256.01971797
  0
VERTEX
  8
0
 10
71.02471840
 20
256.05321027
  0
VERTEX
  8
0
 10
71.74987593
 20
256.11032979
  0
VERTEX
  8
0
 10
71.96390586
 20
256.13249107
  0
VERTEX
  8
0
 10
72.65504352
 20
256.21918947
  0
VERTEX
  8
0
 10
73.56871788
 20
256.37223803
  0
VERTEX
  8
0
 10
74.12264473
 20
256.48736424
  0
VERTEX
  8
0
 10
74.67333964
 20
256.61687796
  0
VERTEX
  8
0
 10
75.30360172
 20
256.78517584
  0
VERTEX
  8
0
 10
76.32748996
 20
257.10404634
  0
VERTEX
  8
0
 10
76.83684652
 20
257.28420890
  0
VERTEX
  8
0
 10
77.41340223
 20
257.50561476
  0
VERTEX
  8
0
 10
78.21921623
 20
257.84738266
  0
VERTEX
  8
0
 10
79.14677143
 20
258.28867361
  0
VERTEX
  8
0
 10
79.77635807
 20
258.61786026
  0
VERTEX
  8
0
 10
80.38658371
 20
258.96099173
  0
VERTEX
  8
0
 10
80.65893002
 20
259.12201262
  0
VERTEX
  8
0
 10
81.53810869
 20
259.67561568
  0
VERTEX
  8
0
 10
82.02510316
 20
260.00642645
  0
VERTEX
  8
0
 10
82.50450589
 20
260.34815284
  0
VERTEX
  8
0
 10
82.77888762
 20
260.55189046
  0
VERTEX
  8
0
 10
83.54063464
 20
261.14801935
  0
VERTEX
  8
0
 10
83.94260862
 20
261.48272712
  0
VERTEX
  8
0
 10
84.38497086
 20
261.86643902
  0
VERTEX
  8
0
 10
84.89633476
 20
262.33590654
  0
VERTEX
  8
0
 10
85.39777657
 20
262.81605608
  0
VERTEX
  8
0
 10
86.08993460
 20
263.52753595
  0
VERTEX
  8
0
 10
86.77812824
 20
264.26076293
  0
VERTEX
  8
0
 10
87.47594087
 20
264.98501627
  0
VERTEX
  8
0
 10
87.83269910
 20
265.33417758
  0
VERTEX
  8
0
 10
88.19695585
 20
265.66957520
  0
VERTEX
  8
0
 10
88.57040902
 20
265.98736902
  0
VERTEX
  8
0
 10
88.95475654
 20
266.28371895
  0
VERTEX
  8
0
 10
89.35169634
 20
266.55478491
  0
VERTEX
  8
0
 10
89.76292633
 20
266.79672678
  0
VERTEX
  8
0
 10
90.19014442
 20
267.00570448
  0
VERTEX
  8
0
 10
90.63504856
 20
267.17787791
  0
VERTEX
  8
0
 10
91.09933664
 20
267.30940698
  0
VERTEX
  8
0
 10
91.58470660
 20
267.39645159
  0
VERTEX
  8
0
 10
91.91054051
 20
267.42759809
  0
VERTEX
  8
0
 10
92.23745096
 20
267.43846319
  0
VERTEX
  8
0
 10
92.56466649
 20
267.42994763
  0
VERTEX
  8
0
 10
92.89141563
 20
267.40295212
  0
VERTEX
  8
0
 10
93.21692691
 20
267.35837740
  0
VERTEX
  8
0
 10
93.54042888
 20
267.29712421
  0
VERTEX
  8
0
 10
93.86115005
 20
267.22009326
  0
VERTEX
  8
0
 10
94.17831896
 20
267.12818530
  0
VERTEX
  8
0
 10
94.79891414
 20
266.90334124
  0
VERTEX
  8
0
 10
95.39604267
 20
266.62979787
  0
VERTEX
  8
0
 10
95.96353282
 20
266.31476104
  0
VERTEX
  8
0
 10
96.49521284
 20
265.96543658
  0
VERTEX
  8
0
 10
96.97877558
 20
265.59394119
  0
VERTEX
  8
0
 10
97.44416347
 20
265.18042551
  0
VERTEX
  8
0
 10
97.88527016
 20
264.72918810
  0
VERTEX
  8
0
 10
98.29598932
 20
264.24452751
  0
VERTEX
  8
0
 10
98.67021461
 20
263.73074230
  0
VERTEX
  8
0
 10
99.00183969
 20
263.19213103
  0
VERTEX
  8
0
 10
99.28475823
 20
262.63299223
  0
VERTEX
  8
0
 10
99.51286388
 20
262.05762448
  0
VERTEX
  8
0
 10
99.58651642
 20
261.80102179
  0
VERTEX
  8
0
 10
99.63530762
 20
261.54047374
  0
VERTEX
  8
0
 10
99.66152318
 20
261.27654839
  0
VERTEX
  8
0
 10
99.66744876
 20
261.00981382
  0
VERTEX
  8
0
 10
99.65537007
 20
260.74083810
  0
VERTEX
  8
0
 10
99.62757276
 20
260.47018930
  0
VERTEX
  8
0
 10
99.53396507
 20
259.92614478
  0
VERTEX
  8
0
 10
99.40491115
 20
259.38222484
  0
VERTEX
  8
0
 10
99.25869645
 20
258.84297407
  0
VERTEX
  8
0
 10
99.11360642
 20
258.31293706
  0
VERTEX
  8
0
 10
98.98792653
 20
257.79665840
  0
VERTEX
  8
0
 10
98.82476591
 20
256.98161323
  0
VERTEX
  8
0
 10
98.69035389
 20
256.14421643
  0
VERTEX
  8
0
 10
98.59730502
 20
255.29258322
  0
VERTEX
  8
0
 10
98.57023382
 20
254.86396399
  0
VERTEX
  8
0
 10
98.55823387
 20
254.43482886
  0
VERTEX
  8
0
 10
98.56288199
 20
254.00619226
  0
VERTEX
  8
0
 10
98.58575500
 20
253.57906859
  0
VERTEX
  8
0
 10
98.62842973
 20
253.15447224
  0
VERTEX
  8
0
 10
98.69248299
 20
252.73341764
  0
VERTEX
  8
0
 10
98.77949160
 20
252.31691917
  0
VERTEX
  8
0
 10
98.89103239
 20
251.90599125
  0
VERTEX
  8
0
 10
99.02868217
 20
251.50164828
  0
VERTEX
  8
0
 10
99.19401777
 20
251.10490466
  0
VERTEX
  8
0
 10
99.54012281
 20
250.41095809
  0
VERTEX
  8
0
 10
99.92665485
 20
249.74667081
  0
VERTEX
  8
0
 10
100.35018942
 20
249.10989332
  0
VERTEX
  8
0
 10
100.80730207
 20
248.49847609
  0
VERTEX
  8
0
 10
101.29456836
 20
247.91026962
  0
VERTEX
  8
0
 10
101.80856382
 20
247.34312439
  0
VERTEX
  8
0
 10
102.34586401
 20
246.79489089
  0
VERTEX
  8
0
 10
102.90304447
 20
246.26341961
  0
VERTEX
  8
0
 10
103.47668075
 20
245.74656103
  0
VERTEX
  8
0
 10
104.06334839
 20
245.24216564
  0
VERTEX
  8
0
 10
105.26207997
 20
244.26216638
  0
VERTEX
  8
0
 10
107.66524360
 20
242.35714755
  0
VERTEX
  8
0
 10
108.32428768
 20
241.84622149
  0
VERTEX
  8
0
 10
108.65317062
 20
241.58499114
  0
VERTEX
  8
0
 10
108.96779037
 20
241.31072416
  0
VERTEX
  8
0
 10
109.25776908
 20
241.01652671
  0
VERTEX
  8
0
 10
109.51272890
 20
240.69550496
  0
VERTEX
  8
0
 10
109.62383365
 20
240.52278066
  0
VERTEX
  8
0
 10
109.72229199
 20
240.34076509
  0
VERTEX
  8
0
 10
109.80680668
 20
240.14859654
  0
VERTEX
  8
0
 10
109.87608050
 20
239.94541328
  0
VERTEX
  8
0
 10
109.96247369
 20
239.56159016
  0
VERTEX
  8
0
 10
110.00341712
 20
239.17474520
  0
VERTEX
  8
0
 10
110.00695160
 20
238.78694357
  0
VERTEX
  8
0
 10
109.98111796
 20
238.40025041
  0
VERTEX
  8
0
 10
109.93395702
 20
238.01673088
  0
VERTEX
  8
0
 10
109.87350960
 20
237.63845014
  0
VERTEX
  8
0
 10
109.74491859
 20
236.90586568
  0
VERTEX
  8
0
 10
109.59223940
 20
236.16993942
  0
VERTEX
  8
0
 10
109.51201786
 20
235.77623893
  0
VERTEX
  8
0
 10
109.45265058
 20
235.37954047
  0
VERTEX
  8
0
 10
109.43171925
 20
234.99046426
  0
VERTEX
  8
0
 10
109.44116134
 20
234.80210330
  0
VERTEX
  8
0
 10
109.46680554
 20
234.61963049
  0
VERTEX
  8
0
 10
109.51084957
 20
234.44437333
  0
VERTEX
  8
0
 10
109.57549113
 20
234.27765937
  0
VERTEX
  8
0
 10
109.66292793
 20
234.12081612
  0
VERTEX
  8
0
 10
109.77535769
 20
233.97517111
  0
VERTEX
  8
0
 10
110.07463164
 20
233.66038414
  0
VERTEX
  8
0
 10
110.38846717
 20
233.36309027
  0
VERTEX
  8
0
 10
110.71568714
 20
233.08200946
  0
VERTEX
  8
0
 10
111.05511441
 20
232.81586163
  0
VERTEX
  8
0
 10
111.40557183
 20
232.56336671
  0
VERTEX
  8
0
 10
111.76588227
 20
232.32324464
  0
VERTEX
  8
0
 10
112.51135364
 20
231.87499875
  0
VERTEX
  8
0
 10
113.28211138
 20
231.46088343
  0
VERTEX
  8
0
 10
114.06873838
 20
231.07065814
  0
VERTEX
  8
0
 10
115.65193163
 20
230.32091545
  0
VERTEX
  8
0
 10
117.29076136
 20
229.52013328
  0
VERTEX
  8
0
 10
118.09442146
 20
229.10136273
  0
VERTEX
  8
0
 10
118.88455410
 20
228.66119610
  0
VERTEX
  8
0
 10
119.65889107
 20
228.19277606
  0
VERTEX
  8
0
 10
120.41516414
 20
227.68924527
  0
VERTEX
  8
0
 10
121.15110511
 20
227.14374642
  0
VERTEX
  8
0
 10
121.86444575
 20
226.54942217
  0
VERTEX
  8
0
 10
122.18243698
 20
226.24917488
  0
VERTEX
  8
0
 10
122.47710218
 20
225.93322355
  0
VERTEX
  8
0
 10
122.74888890
 20
225.60258127
  0
VERTEX
  8
0
 10
122.99824469
 20
225.25826113
  0
VERTEX
  8
0
 10
123.22561710
 20
224.90127623
  0
VERTEX
  8
0
 10
123.43145368
 20
224.53263967
  0
VERTEX
  8
0
 10
123.61620198
 20
224.15336453
  0
VERTEX
  8
0
 10
123.78030954
 20
223.76446390
  0
VERTEX
  8
0
 10
123.92422392
 20
223.36695089
  0
VERTEX
  8
0
 10
124.04839266
 20
222.96183857
  0
VERTEX
  8
0
 10
124.15326331
 20
222.55014006
  0
VERTEX
  8
0
 10
124.23928343
 20
222.13286844
  0
VERTEX
  8
0
 10
124.30690056
 20
221.71103680
  0
VERTEX
  8
0
 10
124.35656224
 20
221.28565823
  0
VERTEX
  8
0
 10
124.38871604
 20
220.85774584
  0
VERTEX
  8
0
 10
124.40380949
 20
220.42831271
  0
VERTEX
  8
0
 10
124.40801711
 20
219.06493401
  0
VERTEX
  8
0
 10
124.37674644
 20
217.70843098
  0
VERTEX
  8
0
 10
124.30824447
 20
216.35520853
  0
VERTEX
  8
0
 10
124.20075816
 20
215.00167152
  0
VERTEX
  8
0
 10
123.99148661
 20
212.56202730
  0
VERTEX
  8
0
 10
123.81784226
 20
210.11747478
  0
VERTEX
  8
0
 10
123.67284178
 20
207.66954128
  0
VERTEX
  8
0
 10
123.54950181
 20
205.21975412
  0
VERTEX
  8
0
 10
123.33987004
 20
200.32072809
  0
VERTEX
  8
0
 10
123.13308019
 20
195.43261524
  0
VERTEX
  8
0
 10
122.90099903
 20
190.33045347
  0
VERTEX
  8
0
 10
122.65747075
 20
185.20633837
  0
VERTEX
  8
0
 10
122.38190273
 20
180.09493440
  0
VERTEX
  8
0
 10
122.22566861
 20
177.55483173
  0
VERTEX
  8
0
 10
122.05370232
 20
175.03090601
  0
VERTEX
  8
0
 10
122.00462601
 20
174.32241132
  0
VERTEX
  8
0
 10
121.94308944
 20
173.59483163
  0
VERTEX
  8
0
 10
121.84843338
 20
172.86886616
  0
VERTEX
  8
0
 10
121.78222953
 20
172.51295727
  0
VERTEX
  8
0
 10
121.69999860
 20
172.16521414
  0
VERTEX
  8
0
 10
121.59915819
 20
171.82822418
  0
VERTEX
  8
0
 10
121.47712589
 20
171.50457479
  0
VERTEX
  8
0
 10
121.33131930
 20
171.19685338
  0
VERTEX
  8
0
 10
121.15915601
 20
170.90764734
  0
VERTEX
  8
0
 10
120.95805363
 20
170.63954407
  0
VERTEX
  8
0
 10
120.72542975
 20
170.39513099
  0
VERTEX
  8
0
 10
120.45870197
 20
170.17699550
  0
VERTEX
  8
0
 10
120.15528789
 20
169.98772499
  0
VERTEX
  8
0
 10
119.54822663
 20
169.67029572
  0
VERTEX
  8
0
 10
118.93709422
 20
169.36963790
  0
VERTEX
  8
0
 10
117.70349413
 20
168.81368418
  0
VERTEX
  8
0
 10
116.45624409
 20
168.30995902
  0
VERTEX
  8
0
 10
115.19710054
 20
167.84855758
  0
VERTEX
  8
0
 10
113.92781993
 20
167.41957504
  0
VERTEX
  8
0
 10
112.65015873
 20
167.01310657
  0
VERTEX
  8
0
 10
110.07672034
 20
166.22809254
  0
VERTEX
  8
0
 10
108.25164657
 20
165.68191972
  0
VERTEX
  8
0
 10
107.34079618
 20
165.39686432
  0
VERTEX
  8
0
 10
106.43952895
 20
165.08894035
  0
VERTEX
  8
0
 10
105.55418903
 20
164.74698087
  0
VERTEX
  8
0
 10
104.69112054
 20
164.35981892
  0
VERTEX
  8
0
 10
104.26992063
 20
164.14579736
  0
VERTEX
  8
0
 10
103.85666762
 20
163.91628758
  0
VERTEX
  8
0
 10
103.45215455
 20
163.66989372
  0
VERTEX
  8
0
 10
103.05717441
 20
163.40521991
  0
VERTEX
  8
0
 10
102.42563243
 20
162.31859921
  0
VERTEX
  8
0
 10
101.83884744
 20
161.21576342
  0
VERTEX
  8
0
 10
101.29084316
 20
160.09823977
  0
VERTEX
  8
0
 10
100.77564330
 20
158.96755550
  0
VERTEX
  8
0
 10
100.28727157
 20
157.82523783
  0
VERTEX
  8
0
 10
99.81975170
 20
156.67281401
  0
VERTEX
  8
0
 10
98.92336235
 20
154.34375685
  0
VERTEX
  8
0
 10
98.25292253
 20
152.61860108
  0
VERTEX
  8
0
 10
97.54766761
 20
150.91012721
  0
VERTEX
  8
0
 10
96.80714027
 20
149.21863868
  0
VERTEX
  8
0
 10
96.03088321
 20
147.54443891
  0
VERTEX
  8
0
 10
95.21843910
 20
145.88783133
  0
VERTEX
  8
0
 10
94.36935064
 20
144.24911937
  0
VERTEX
  8
0
 10
93.48316050
 20
142.62860645
  0
VERTEX
  8
0
 10
92.55941137
 20
141.02659600
  0
VERTEX
  8
0
 10
91.69180046
 20
139.57823474
  0
VERTEX
  8
0
 10
90.80727586
 20
138.14129054
  0
VERTEX
  8
0
 10
89.90273898
 20
136.71811985
  0
VERTEX
  8
0
 10
88.97509129
 20
135.31107911
  0
VERTEX
  8
0
 10
88.02123423
 20
133.92252474
  0
VERTEX
  8
0
 10
87.03806923
 20
132.55481320
  0
VERTEX
  8
0
 10
86.02249774
 20
131.21030092
  0
VERTEX
  8
0
 10
84.97142121
 20
129.89134434
  0
VERTEX
  8
0
 10
84.48588950
 20
129.26812776
  0
VERTEX
  8
0
 10
84.03094526
 20
128.62401799
  0
VERTEX
  8
0
 10
83.60410363
 20
127.96104476
  0
VERTEX
  8
0
 10
83.20287973
 20
127.28123782
  0
VERTEX
  8
0
 10
82.82478870
 20
126.58662690
  0
VERTEX
  8
0
 10
82.46734566
 20
125.87924175
  0
VERTEX
  8
0
 10
82.12806574
 20
125.16111209
  0
VERTEX
  8
0
 10
81.80446407
 20
124.43426767
  0
VERTEX
  8
0
 10
81.19435598
 20
122.96255349
  0
VERTEX
  8
0
 10
80.61714242
 20
121.48033712
  0
VERTEX
  8
0
 10
80.05294441
 20
120.00385645
  0
VERTEX
  8
0
 10
79.48188298
 20
118.54934939
  0
VERTEX
  8
0
 10
79.14320087
 20
117.71076332
  0
VERTEX
  8
0
 10
78.78585531
 20
116.86071896
  0
VERTEX
  8
0
 10
78.39607963
 20
116.01856904
  0
VERTEX
  8
0
 10
78.18472840
 20
115.60650223
  0
VERTEX
  8
0
 10
77.96010713
 20
115.20366631
  0
VERTEX
  8
0
 10
77.72049498
 20
114.81248038
  0
VERTEX
  8
0
 10
77.46417113
 20
114.43536352
  0
VERTEX
  8
0
 10
77.18941472
 20
114.07473483
  0
VERTEX
  8
0
 10
76.89450494
 20
113.73301340
  0
VERTEX
  8
0
 10
76.57772093
 20
113.41261832
  0
VERTEX
  8
0
 10
76.23734187
 20
113.11596869
  0
VERTEX
  8
0
 10
75.87164693
 20
112.84548360
  0
VERTEX
  8
0
 10
75.47891525
 20
112.60358215
  0
VERTEX
  8
0
 10
75.20524224
 20
112.46838865
  0
VERTEX
  8
0
 10
74.92743253
 20
112.36431021
  0
VERTEX
  8
0
 10
74.64728163
 20
112.29034392
  0
VERTEX
  8
0
 10
74.36658508
 20
112.24548688
  0
VERTEX
  8
0
 10
74.08713839
 20
112.22873617
  0
VERTEX
  8
0
 10
73.81073709
 20
112.23908889
  0
VERTEX
  8
0
 10
73.53917670
 20
112.27554214
  0
VERTEX
  8
0
 10
73.27425275
 20
112.33709300
  0
VERTEX
  8
0
 10
73.01776076
 20
112.42273858
  0
VERTEX
  8
0
 10
72.77149626
 20
112.53147597
  0
VERTEX
  8
0
 10
72.53725476
 20
112.66230226
  0
VERTEX
  8
0
 10
72.31683179
 20
112.81421454
  0
VERTEX
  8
0
 10
72.11202287
 20
112.98620991
  0
VERTEX
  8
0
 10
71.92462354
 20
113.17728546
  0
VERTEX
  8
0
 10
71.75642930
 20
113.38643829
  0
VERTEX
  8
0
 10
71.60923569
 20
113.61266549
 42
-0.02272405
  0
VERTEX
  8
0
 10
71.43087035
 20
113.98313088
 42
-0.08490467
  0
VERTEX
  8
0
 10
71.07722455
 20
115.46764115
  0
VERTEX
  8
0
 10
71.06679823
 20
115.74207678
  0
VERTEX
  8
0
 10
71.06679823
 20
133.80427037
 42
0.41421356
  0
VERTEX
  8
0
 10
70.08679823
 20
134.78427037
  0
VERTEX
  8
0
 10
69.59679823
 20
134.78427037
  0
VERTEX
  8
0
 10
69.10679823
 20
134.78427037
 42
0.41421356
  0
VERTEX
  8
0
 10
68.12679823
 20
133.80427037
  0
VERTEX
  8
0
 10
68.12679823
 20
115.71783768
  0
VERTEX
  8
0
 10
68.11625573
 20
115.46584682
 42
-0.08480464
  0
VERTEX
  8
0
 10
67.76272611
 20
113.98313088
 42
-0.02272405
  0
VERTEX
  8
0
 10
67.58436077
 20
113.61266549
  0
VERTEX
  8
0
 10
67.43716716
 20
113.38643829
  0
VERTEX
  8
0
 10
67.26897292
 20
113.17728546
  0
VERTEX
  8
0
 10
67.08157359
 20
112.98620991
  0
VERTEX
  8
0
 10
66.87676467
 20
112.81421454
  0
VERTEX
  8
0
 10
66.65634171
 20
112.66230226
  0
VERTEX
  8
0
 10
66.42210021
 20
112.53147597
  0
VERTEX
  8
0
 10
66.17583570
 20
112.42273858
  0
VERTEX
  8
0
 10
65.91934371
 20
112.33709300
  0
VERTEX
  8
0
 10
65.65441976
 20
112.27554214
  0
VERTEX
  8
0
 10
65.38285937
 20
112.23908889
  0
VERTEX
  8
0
 10
65.10645807
 20
112.22873617
  0
VERTEX
  8
0
 10
64.82701139
 20
112.24548688
  0
VERTEX
  8
0
 10
64.54631483
 20
112.29034392
  0
VERTEX
  8
0
 10
64.26616393
 20
112.36431021
  0
VERTEX
  8
0
 10
63.98835422
 20
112.46838865
  0
VERTEX
  8
0
 10
63.71468121
 20
112.60358215
  0
VERTEX
  8
0
 10
63.32194954
 20
112.84548360
  0
VERTEX
  8
0
 10
62.95625459
 20
113.11596869
  0
VERTEX
  8
0
 10
62.61587553
 20
113.41261832
  0
VERTEX
  8
0
 10
62.29909153
 20
113.73301340
  0
VERTEX
  8
0
 10
62.00418174
 20
114.07473483
  0
VERTEX
  8
0
 10
61.72942534
 20
114.43536352
  0
VERTEX
  8
0
 10
61.47310148
 20
114.81248038
  0
VERTEX
  8
0
 10
61.23348933
 20
115.20366631
  0
VERTEX
  8
0
 10
61.00886806
 20
115.60650223
  0
VERTEX
  8
0
 10
60.79751683
 20
116.01856904
  0
VERTEX
  8
0
 10
60.40774115
 20
116.86071896
  0
VERTEX
  8
0
 10
60.05039559
 20
117.71076332
  0
VERTEX
  8
0
 10
59.71171349
 20
118.54934939
  0
VERTEX
  8
0
 10
59.14065205
 20
120.00385645
  0
VERTEX
  8
0
 10
58.57645404
 20
121.48033712
  0
VERTEX
  8
0
 10
57.99924048
 20
122.96255349
  0
VERTEX
  8
0
 10
57.38913239
 20
124.43426767
  0
VERTEX
  8
0
 10
57.06553072
 20
125.16111209
  0
VERTEX
  8
0
 10
56.72625080
 20
125.87924175
  0
VERTEX
  8
0
 10
56.36880776
 20
126.58662690
  0
VERTEX
  8
0
 10
55.99071673
 20
127.28123782
  0
VERTEX
  8
0
 10
55.58949283
 20
127.96104476
  0
VERTEX
  8
0
 10
55.16265120
 20
128.62401799
  0
VERTEX
  8
0
 10
54.70770697
 20
129.26812776
  0
VERTEX
  8
0
 10
54.22217525
 20
129.89134434
  0
VERTEX
  8
0
 10
53.17109872
 20
131.21030092
  0
VERTEX
  8
0
 10
52.15552723
 20
132.55481320
  0
VERTEX
  8
0
 10
51.17236224
 20
133.92252474
  0
VERTEX
  8
0
 10
50.21850517
 20
135.31107911
  0
VERTEX
  8
0
 10
49.29085748
 20
136.71811985
  0
VERTEX
  8
0
 10
48.38632061
 20
138.14129054
  0
VERTEX
  8
0
 10
47.50179600
 20
139.57823474
  0
VERTEX
  8
0
 10
46.63418510
 20
141.02659600
  0
VERTEX
  8
0
 10
45.71043597
 20
142.62860645
  0
VERTEX
  8
0
 10
44.82424582
 20
144.24911937
  0
VERTEX
  8
0
 10
43.97515736
 20
145.88783133
  0
VERTEX
  8
0
 10
43.16271325
 20
147.54443891
  0
VERTEX
  8
0
 10
42.38645619
 20
149.21863868
  0
VERTEX
  8
0
 10
41.64592886
 20
150.91012721
  0
VERTEX
  8
0
 10
40.94067394
 20
152.61860108
  0
VERTEX
  8
0
 10
40.27023411
 20
154.34375685
  0
VERTEX
  8
0
 10
39.37384477
 20
156.67281401
  0
VERTEX
  8
0
 10
38.90632489
 20
157.82523783
  0
VERTEX
  8
0
 10
38.41795317
 20
158.96755550
  0
VERTEX
  8
0
 10
37.90275331
 20
160.09823977
  0
VERTEX
  8
0
 10
37.35474902
 20
161.21576342
  0
VERTEX
  8
0
 10
36.76796404
 20
162.31859921
  0
VERTEX
  8
0
 10
36.13642205
 20
163.40521991
  0
VERTEX
  8
0
 10
35.74144192
 20
163.66989372
  0
VERTEX
  8
0
 10
35.33692884
 20
163.91628758
  0
VERTEX
  8
0
 10
34.92367583
 20
164.14579736
  0
VERTEX
  8
0
 10
34.50247592
 20
164.35981892
  0
VERTEX
  8
0
 10
33.63940743
 20
164.74698087
  0
VERTEX
  8
0
 10
32.75406751
 20
165.08894035
  0
VERTEX
  8
0
 10
31.85280029
 20
165.39686432
  0
VERTEX
  8
0
 10
30.94194989
 20
165.68191972
  0
VERTEX
  8
0
 10
29.11687612
 20
166.22809254
  0
VERTEX
  8
0
 10
26.54343773
 20
167.01310657
  0
VERTEX
  8
0
 10
25.26577653
 20
167.41957504
  0
VERTEX
  8
0
 10
23.99649593
 20
167.84855758
  0
VERTEX
  8
0
 10
22.73735237
 20
168.30995902
  0
VERTEX
  8
0
 10
21.49010233
 20
168.81368418
  0
VERTEX
  8
0
 10
20.25650225
 20
169.36963790
  0
VERTEX
  8
0
 10
19.64536983
 20
169.67029572
  0
VERTEX
  8
0
 10
19.03830858
 20
169.98772499
  0
VERTEX
  8
0
 10
18.73489449
 20
170.17699550
  0
VERTEX
  8
0
 10
18.46816671
 20
170.39513099
  0
VERTEX
  8
0
 10
18.23554283
 20
170.63954407
  0
VERTEX
  8
0
 10
18.03444045
 20
170.90764734
  0
VERTEX
  8
0
 10
17.86227716
 20
171.19685338
  0
VERTEX
  8
0
 10
17.71647057
 20
171.50457479
  0
VERTEX
  8
0
 10
17.59443827
 20
171.82822418
  0
VERTEX
  8
0
 10
17.49359786
 20
172.16521414
  0
VERTEX
  8
0
 10
17.41136693
 20
172.51295727
  0
VERTEX
  8
0
 10
17.34516308
 20
172.86886616
  0
VERTEX
  8
0
 10
17.25050702
 20
173.59483163
  0
VERTEX
  8
0
 10
17.18897045
 20
174.32241132
  0
VERTEX
  8
0
 10
17.13989415
 20
175.03090601
  0
VERTEX
  8
0
 10
16.96792785
 20
177.55483173
  0
VERTEX
  8
0
 10
16.81169373
 20
180.09493440
  0
VERTEX
  8
0
 10
16.53612571
 20
185.20633837
  0
VERTEX
  8
0
 10
16.29259744
 20
190.33045347
  0
VERTEX
  8
0
 10
16.06051627
 20
195.43261524
  0
VERTEX
  8
0
 10
15.85372643
 20
200.32072809
  0
VERTEX
  8
0
 10
15.64409465
 20
205.21975412
  0
VERTEX
  8
0
 10
15.52075468
 20
207.66954128
  0
VERTEX
  8
0
 10
15.37575420
 20
210.11747478
  0
VERTEX
  8
0
 10
15.20210985
 20
212.56202730
  0
VERTEX
  8
0
 10
14.99283831
 20
215.00167152
  0
VERTEX
  8
0
 10
14.88535200
 20
216.35520853
  0
VERTEX
  8
0
 10
14.81685002
 20
217.70843098
  0
VERTEX
  8
0
 10
14.78557936
 20
219.06493401
  0
VERTEX
  8
0
 10
14.78978697
 20
220.42831271
  0
VERTEX
  8
0
 10
14.80488042
 20
220.85774584
  0
VERTEX
  8
0
 10
14.83703422
 20
221.28565823
  0
VERTEX
  8
0
 10
14.88669591
 20
221.71103680
  0
VERTEX
  8
0
 10
14.95431303
 20
222.13286844
  0
VERTEX
  8
0
 10
15.04033315
 20
222.55014006
  0
VERTEX
  8
0
 10
15.14520381
 20
222.96183857
  0
VERTEX
  8
0
 10
15.26937255
 20
223.36695089
  0
VERTEX
  8
0
 10
15.41328692
 20
223.76446390
  0
VERTEX
  8
0
 10
15.57739449
 20
224.15336453
  0
VERTEX
  8
0
 10
15.76214278
 20
224.53263967
  0
VERTEX
  8
0
 10
15.96797936
 20
224.90127623
  0
VERTEX
  8
0
 10
16.19535177
 20
225.25826113
  0
VERTEX
  8
0
 10
16.44470756
 20
225.60258127
  0
VERTEX
  8
0
 10
16.71649428
 20
225.93322355
  0
VERTEX
  8
0
 10
17.01115948
 20
226.24917488
  0
VERTEX
  8
0
 10
17.32915071
 20
226.54942217
  0
VERTEX
  8
0
 10
18.04249136
 20
227.14374642
  0
VERTEX
  8
0
 10
18.77843232
 20
227.68924527
  0
VERTEX
  8
0
 10
19.53470540
 20
228.19277606
  0
VERTEX
  8
0
 10
20.30904236
 20
228.66119610
  0
VERTEX
  8
0
 10
21.09917500
 20
229.10136273
  0
VERTEX
  8
0
 10
21.90283510
 20
229.52013328
  0
VERTEX
  8
0
 10
23.54166483
 20
230.32091545
  0
VERTEX
  8
0
 10
25.12485808
 20
231.07065814
  0
VERTEX
  8
0
 10
25.91148508
 20
231.46088343
  0
VERTEX
  8
0
 10
26.68224283
 20
231.87499875
  0
VERTEX
  8
0
 10
27.42771419
 20
232.32324464
  0
VERTEX
  8
0
 10
27.78802463
 20
232.56336671
  0
VERTEX
  8
0
 10
28.13848206
 20
232.81586163
  0
VERTEX
  8
0
 10
28.47790932
 20
233.08200946
  0
VERTEX
  8
0
 10
28.80512929
 20
233.36309027
  0
VERTEX
  8
0
 10
29.11896482
 20
233.66038414
  0
VERTEX
  8
0
 10
29.41823877
 20
233.97517111
  0
VERTEX
  8
0
 10
29.53066853
 20
234.12081612
  0
VERTEX
  8
0
 10
29.61810533
 20
234.27765937
  0
VERTEX
  8
0
 10
29.68274689
 20
234.44437333
  0
VERTEX
  8
0
 10
29.72679092
 20
234.61963049
  0
VERTEX
  8
0
 10
29.75243512
 20
234.80210330
  0
VERTEX
  8
0
 10
29.76187721
 20
234.99046426
  0
VERTEX
  8
0
 10
29.74094588
 20
235.37954047
  0
VERTEX
  8
0
 10
29.68157860
 20
235.77623893
  0
VERTEX
  8
0
 10
29.60135706
 20
236.16993942
  0
VERTEX
  8
0
 10
29.44867787
 20
236.90586568
  0
VERTEX
  8
0
 10
29.32008687
 20
237.63845014
  0
VERTEX
  8
0
 10
29.25963944
 20
238.01673088
  0
VERTEX
  8
0
 10
29.21247850
 20
238.40025041
  0
VERTEX
  8
0
 10
29.18664486
 20
238.78694357
  0
VERTEX
  8
0
 10
29.19017935
 20
239.17474520
  0
VERTEX
  8
0
 10
29.23112277
 20
239.56159016
  0
VERTEX
  8
0
 10
29.31751596
 20
239.94541328
  0
VERTEX
  8
0
 10
29.38678978
 20
240.14859654
  0
VERTEX
  8
0
 10
29.47130447
 20
240.34076509
  0
VERTEX
  8
0
 10
29.56976281
 20
240.52278066
  0
VERTEX
  8
0
 10
29.68086756
 20
240.69550496
  0
VERTEX
  8
0
 10
29.93582738
 20
241.01652671
  0
VERTEX
  8
0
 10
30.22580609
 20
241.31072416
  0
VERTEX
  8
0
 10
30.54042584
 20
241.58499114
  0
VERTEX
  8
0
 10
30.86930878
 20
241.84622149
  0
VERTEX
  8
0
 10
31.52835286
 20
242.35714755
  0
VERTEX
  8
0
 10
33.93151649
 20
244.26216638
  0
VERTEX
  8
0
 10
35.13024807
 20
245.24216564
  0
VERTEX
  8
0
 10
35.71691571
 20
245.74656103
  0
VERTEX
  8
0
 10
36.29055199
 20
246.26341961
  0
VERTEX
  8
0
 10
36.84773245
 20
246.79489089
  0
VERTEX
  8
0
 10
37.38503264
 20
247.34312439
  0
VERTEX
  8
0
 10
37.89902810
 20
247.91026962
  0
VERTEX
  8
0
 10
38.38629439
 20
248.49847609
  0
VERTEX
  8
0
 10
38.84340704
 20
249.10989332
  0
VERTEX
  8
0
 10
39.26694162
 20
249.74667081
  0
VERTEX
  8
0
 10
39.65347365
 20
250.41095809
  0
VERTEX
  8
0
 10
39.99957869
 20
251.10490466
  0
VERTEX
  8
0
 10
40.16491429
 20
251.50164828
  0
VERTEX
  8
0
 10
40.30256407
 20
251.90599125
  0
VERTEX
  8
0
 10
40.41410486
 20
252.31691917
  0
VERTEX
  8
0
 10
40.50111347
 20
252.73341764
  0
VERTEX
  8
0
 10
40.56516673
 20
253.15447224
  0
VERTEX
  8
0
 10
40.60784146
 20
253.57906859
  0
VERTEX
  8
0
 10
40.63071447
 20
254.00619226
  0
VERTEX
  8
0
 10
40.63536259
 20
254.43482886
  0
VERTEX
  8
0
 10
40.62336264
 20
254.86396399
  0
VERTEX
  8
0
 10
40.59629144
 20
255.29258322
  0
VERTEX
  8
0
 10
40.50324257
 20
256.14421643
  0
VERTEX
  8
0
 10
40.36883055
 20
256.98161323
  0
VERTEX
  8
0
 10
40.20566994
 20
257.79665840
  0
VERTEX
  8
0
 10
40.07999004
 20
258.31293706
  0
VERTEX
  8
0
 10
39.93490002
 20
258.84297407
  0
VERTEX
  8
0
 10
39.78868531
 20
259.38222484
  0
VERTEX
  8
0
 10
39.65963139
 20
259.92614478
  0
VERTEX
  8
0
 10
39.56602370
 20
260.47018930
  0
VERTEX
  8
0
 10
39.53822640
 20
260.74083810
  0
VERTEX
  8
0
 10
39.52614770
 20
261.00981382
  0
VERTEX
  8
0
 10
39.53207329
 20
261.27654839
  0
VERTEX
  8
0
 10
39.55828884
 20
261.54047374
  0
VERTEX
  8
0
 10
39.60708005
 20
261.80102179
  0
VERTEX
  8
0
 10
39.68073258
 20
262.05762448
  0
VERTEX
  8
0
 10
39.90883823
 20
262.63299223
  0
VERTEX
  8
0
 10
40.19175677
 20
263.19213103
  0
VERTEX
  8
0
 10
40.52338185
 20
263.73074230
  0
VERTEX
  8
0
 10
40.89760714
 20
264.24452751
  0
VERTEX
  8
0
 10
41.30832630
 20
264.72918810
  0
VERTEX
  8
0
 10
41.74943300
 20
265.18042551
  0
VERTEX
  8
0
 10
42.21482088
 20
265.59394119
  0
VERTEX
  8
0
 10
42.69838362
 20
265.96543658
  0
VERTEX
  8
0
 10
43.23006365
 20
266.31476104
  0
VERTEX
  8
0
 10
43.79755379
 20
266.62979787
  0
VERTEX
  8
0
 10
44.39468233
 20
266.90334124
  0
VERTEX
  8
0
 10
45.01527750
 20
267.12818530
  0
VERTEX
  8
0
 10
45.33244641
 20
267.22009326
  0
VERTEX
  8
0
 10
45.65316759
 20
267.29712421
  0
VERTEX
  8
0
 10
45.97666955
 20
267.35837740
  0
VERTEX
  8
0
 10
46.30218083
 20
267.40295212
  0
VERTEX
  8
0
 10
46.62892997
 20
267.42994763
  0
VERTEX
  8
0
 10
46.95614551
 20
267.43846319
  0
VERTEX
  8
0
 10
47.28305596
 20
267.42759809
  0
VERTEX
  8
0
 10
47.60888986
 20
267.39645159
  0
VERTEX
  8
0
 10
48.09425982
 20
267.30940698
  0
VERTEX
  8
0
 10
48.55854791
 20
267.17787791
  0
VERTEX
  8
0
 10
49.00345204
 20
267.00570448
  0
VERTEX
  8
0
 10
49.43067014
 20
266.79672678
  0
VERTEX
  8
0
 10
49.84190012
 20
266.55478491
  0
VERTEX
  8
0
 10
50.23883992
 20
266.28371895
  0
VERTEX
  8
0
 10
50.62318744
 20
265.98736902
  0
VERTEX
  8
0
 10
50.99664061
 20
265.66957520
  0
VERTEX
  8
0
 10
51.36089736
 20
265.33417758
  0
VERTEX
  8
0
 10
51.71765560
 20
264.98501627
  0
VERTEX
  8
0
 10
52.41546822
 20
264.26076293
  0
VERTEX
  8
0
 10
53.10366187
 20
263.52753595
  0
VERTEX
  8
0
 10
53.79581989
 20
262.81605608
  0
VERTEX
  8
0
 10
54.59904876
 20
262.05500762
  0
VERTEX
  8
0
 10
55.43241590
 20
261.32985688
  0
VERTEX
  8
0
 10
56.29460060
 20
260.64251761
  0
VERTEX
  8
0
 10
57.18428216
 20
259.99490357
  0
VERTEX
  8
0
 10
58.10013987
 20
259.38892851
  0
VERTEX
  8
0
 10
59.04085301
 20
258.82650619
  0
VERTEX
  8
0
 10
60.00510088
 20
258.30955036
  0
VERTEX
  8
0
 10
60.99156277
 20
257.83997479
  0
VERTEX
  8
0
 10
61.99891798
 20
257.41969323
  0
VERTEX
  8
0
 10
63.02584579
 20
257.05061944
  0
VERTEX
  8
0
 10
64.07102550
 20
256.73466717
  0
VERTEX
  8
0
 10
65.13313640
 20
256.47375018
  0
VERTEX
  8
0
 10
66.21085778
 20
256.26978222
  0
VERTEX
  8
0
 10
66.75515967
 20
256.18975218
  0
VERTEX
  8
0
 10
67.30286893
 20
256.12467705
  0
VERTEX
  8
0
 10
67.85382044
 20
256.07479607
  0
VERTEX
  8
0
 10
68.40784914
 20
256.04034844
  0
VERTEX
  8
0
 10
68.96478993
 20
256.02157339
  0
VERTEX
  8
0
 10
69.52447771
 20
256.01871013
  0
VERTEX
  8
0
 10
69.63452660
 20
256.01894655
  0
SEQEND
  0
ENDSEC
  0
EOF
