  0
SECTION
  2
ENTITIES
  0
LINE
  8
0
 10
88.000000
 20
-1.000000
 30
0
 11
89.000000
 21
-1.000000
 31
0
  0
LINE
  8
0
 10
89.000000
 20
-1.000000
 30
0
 11
88.000000
 21
-1.000000
 31
0
  0
LINE
  8
0
 10
88.000000
 20
-1.000000
 30
0
 11
89.000000
 21
-1.000000
 31
0
  0
LINE
  8
0
 10
89.000000
 20
-1.000000
 30
0
 11
89.000000
 21
0.000000
 31
0
  0
LINE
  8
0
 10
89.000000
 20
0.000000
 30
0
 11
89.000000
 21
-1.000000
 31
0
  0
LINE
  8
0
 10
89.000000
 20
-1.000000
 30
0
 11
89.000000
 21
0.000000
 31
0
  0
LINE
  8
0
 10
89.000000
 20
0.000000
 30
0
 11
98.463177
 21
0.498278
 31
0
  0
LINE
  8
0
 10
98.463177
 20
0.498278
 30
0
 11
103.215139
 21
1.104911
 31
0
  0
LINE
  8
0
 10
103.215139
 20
1.104911
 30
0
 11
112.500000
 21
3.000000
 31
0
  0
LINE
  8
0
 10
112.500000
 20
3.000000
 30
0
 11
119.235990
 21
4.194335
 31
0
  0
LINE
  8
0
 10
119.235990
 20
4.194335
 30
0
 11
122.590331
 21
5.109155
 31
0
  0
LINE
  8
0
 10
122.590331
 20
5.109155
 30
0
 11
129.000000
 21
7.500000
 31
0
  0
LINE
  8
0
 10
129.000000
 20
7.500000
 30
0
 11
134.600000
 21
10.300000
 31
0
  0
LINE
  8
0
 10
134.600000
 20
10.300000
 30
0
 11
137.400000
 21
11.700000
 31
0
  0
LINE
  8
0
 10
137.400000
 20
11.700000
 30
0
 11
143.000000
 21
14.500000
 31
0
  0
LINE
  8
0
 10
143.000000
 20
14.500000
 30
0
 11
150.822680
 21
19.143885
 31
0
  0
LINE
  8
0
 10
150.822680
 20
19.143885
 30
0
 11
154.638880
 21
21.654543
 31
0
  0
LINE
  8
0
 10
154.638880
 20
21.654543
 30
0
 11
162.000000
 21
27.000000
 31
0
  0
LINE
  8
0
 10
162.000000
 20
27.000000
 30
0
 11
163.321872
 21
26.770536
 31
0
  0
LINE
  8
0
 10
163.321872
 20
26.770536
 30
0
 11
164.390448
 21
27.304824
 31
0
  0
LINE
  8
0
 10
164.390448
 20
27.304824
 30
0
 11
165.000000
 21
28.500000
 31
0
  0
LINE
  8
0
 10
165.000000
 20
28.500000
 30
0
 11
167.572275
 21
29.805143
 31
0
  0
LINE
  8
0
 10
167.572275
 20
29.805143
 30
0
 11
168.805916
 21
30.627570
 31
0
  0
LINE
  8
0
 10
168.805916
 20
30.627570
 30
0
 11
171.000000
 21
32.500000
 31
0
  0
LINE
  8
0
 10
171.000000
 20
32.500000
 30
0
 11
174.613049
 21
34.880310
 31
0
  0
LINE
  8
0
 10
174.613049
 20
34.880310
 30
0
 11
176.413157
 21
36.080381
 31
0
  0
LINE
  8
0
 10
176.413157
 20
36.080381
 30
0
 11
180.000000
 21
38.500000
 31
0
  0
LINE
  8
0
 10
180.000000
 20
38.500000
 30
0
 11
184.800000
 21
40.900000
 31
0
  0
LINE
  8
0
 10
184.800000
 20
40.900000
 30
0
 11
187.200000
 21
42.100000
 31
0
  0
LINE
  8
0
 10
187.200000
 20
42.100000
 30
0
 11
192.000000
 21
44.500000
 31
0
  0
LINE
  8
0
 10
192.000000
 20
44.500000
 30
0
 11
194.235142
 21
44.564343
 31
0
  0
LINE
  8
0
 10
194.235142
 20
44.564343
 30
0
 11
195.607441
 21
45.250492
 31
0
  0
LINE
  8
0
 10
195.607441
 20
45.250492
 30
0
 11
197.000000
 21
47.000000
 31
0
  0
LINE
  8
0
 10
197.000000
 20
47.000000
 30
0
 11
201.077437
 21
46.879568
 31
0
  0
LINE
  8
0
 10
201.077437
 20
46.879568
 30
0
 11
203.282531
 21
47.320587
 31
0
  0
LINE
  8
0
 10
203.282531
 20
47.320587
 30
0
 11
207.000000
 21
49.000000
 31
0
  0
LINE
  8
0
 10
207.000000
 20
49.000000
 30
0
 11
212.200000
 21
49.000000
 31
0
  0
LINE
  8
0
 10
212.200000
 20
49.000000
 30
0
 11
214.800000
 21
49.000000
 31
0
  0
LINE
  8
0
 10
214.800000
 20
49.000000
 30
0
 11
220.000000
 21
49.000000
 31
0
  0
LINE
  8
0
 10
220.000000
 20
49.000000
 30
0
 11
228.930909
 21
46.415651
 31
0
  0
LINE
  8
0
 10
228.930909
 20
46.415651
 30
0
 11
233.350242
 21
44.909060
 31
0
  0
LINE
  8
0
 10
233.350242
 20
44.909060
 30
0
 11
242.000000
 21
41.500000
 31
0
  0
LINE
  8
0
 10
242.000000
 20
41.500000
 30
0
 11
246.000000
 21
39.500000
 31
0
  0
LINE
  8
0
 10
246.000000
 20
39.500000
 30
0
 11
248.000000
 21
38.500000
 31
0
  0
LINE
  8
0
 10
248.000000
 20
38.500000
 30
0
 11
252.000000
 21
36.500000
 31
0
  0
LINE
  8
0
 10
252.000000
 20
36.500000
 30
0
 11
254.235142
 21
36.435657
 31
0
  0
LINE
  8
0
 10
254.235142
 20
36.435657
 30
0
 11
255.607441
 21
35.749508
 31
0
  0
LINE
  8
0
 10
255.607441
 20
35.749508
 30
0
 11
257.000000
 21
34.000000
 31
0
  0
LINE
  8
0
 10
257.000000
 20
34.000000
 30
0
 11
262.061598
 21
32.791601
 31
0
  0
LINE
  8
0
 10
262.061598
 20
32.791601
 30
0
 11
264.860539
 21
32.683949
 31
0
  0
LINE
  8
0
 10
264.860539
 20
32.683949
 30
0
 11
270.000000
 21
33.500000
 31
0
  0
LINE
  8
0
 10
270.000000
 20
33.500000
 30
0
 11
272.888437
 21
34.113949
 31
0
  0
LINE
  8
0
 10
272.888437
 20
34.113949
 30
0
 11
274.397472
 21
34.926507
 31
0
  0
LINE
  8
0
 10
274.397472
 20
34.926507
 30
0
 11
276.500000
 21
37.000000
 31
0
  0
LINE
  8
0
 10
276.500000
 20
37.000000
 30
0
 11
279.884476
 21
39.874947
 31
0
  0
LINE
  8
0
 10
279.884476
 20
39.874947
 30
0
 11
281.334926
 21
41.883262
 31
0
  0
LINE
  8
0
 10
281.334926
 20
41.883262
 30
0
 11
283.000000
 21
46.000000
 31
0
  0
LINE
  8
0
 10
283.000000
 20
46.000000
 30
0
 11
283.133954
 21
50.416113
 31
0
  0
LINE
  8
0
 10
283.133954
 20
50.416113
 30
0
 11
282.928106
 21
52.680438
 31
0
  0
LINE
  8
0
 10
282.928106
 20
52.680438
 30
0
 11
282.000000
 21
57.000000
 31
0
  0
LINE
  8
0
 10
282.000000
 20
57.000000
 30
0
 11
281.200000
 21
57.400000
 31
0
  0
LINE
  8
0
 10
281.200000
 20
57.400000
 30
0
 11
280.800000
 21
57.600000
 31
0
  0
LINE
  8
0
 10
280.800000
 20
57.600000
 30
0
 11
280.000000
 21
58.000000
 31
0
  0
LINE
  8
0
 10
280.000000
 20
58.000000
 30
0
 11
279.839173
 21
60.033257
 31
0
  0
LINE
  8
0
 10
279.839173
 20
60.033257
 30
0
 11
279.633566
 21
61.061291
 31
0
  0
LINE
  8
0
 10
279.633566
 20
61.061291
 30
0
 11
279.000000
 21
63.000000
 31
0
  0
LINE
  8
0
 10
279.000000
 20
63.000000
 30
0
 11
276.092019
 21
63.153766
 31
0
  0
LINE
  8
0
 10
276.092019
 20
63.153766
 30
0
 11
274.550276
 21
63.594264
 31
0
  0
LINE
  8
0
 10
274.550276
 20
63.594264
 30
0
 11
272.000000
 21
65.000000
 31
0
  0
LINE
  8
0
 10
272.000000
 20
65.000000
 30
0
 11
266.000000
 21
65.000000
 31
0
  0
LINE
  8
0
 10
266.000000
 20
65.000000
 30
0
 11
272.000000
 21
65.000000
 31
0
  0
LINE
  8
0
 10
272.000000
 20
65.000000
 30
0
 11
266.000000
 21
65.000000
 31
0
  0
LINE
  8
0
 10
266.000000
 20
65.000000
 30
0
 11
265.567399
 21
66.188636
 31
0
  0
LINE
  8
0
 10
265.567399
 20
66.188636
 30
0
 11
264.059263
 21
66.691348
 31
0
  0
LINE
  8
0
 10
264.059263
 20
66.691348
 30
0
 11
263.000000
 21
66.000000
 31
0
  0
LINE
  8
0
 10
263.000000
 20
66.000000
 30
0
 11
260.797500
 21
67.997247
 31
0
  0
LINE
  8
0
 10
260.797500
 20
67.997247
 30
0
 11
259.697497
 21
68.997250
 31
0
  0
LINE
  8
0
 10
259.697497
 20
68.997250
 30
0
 11
257.500000
 21
71.000000
 31
0
  0
LINE
  8
0
 10
257.500000
 20
71.000000
 30
0
 11
253.482052
 21
76.371787
 31
0
  0
LINE
  8
0
 10
253.482052
 20
76.371787
 30
0
 11
251.886661
 21
79.562570
 31
0
  0
LINE
  8
0
 10
251.886661
 20
79.562570
 30
0
 11
250.000000
 21
86.000000
 31
0
  0
LINE
  8
0
 10
250.000000
 20
86.000000
 30
0
 11
249.604400
 21
90.386741
 31
0
  0
LINE
  8
0
 10
249.604400
 20
90.386741
 30
0
 11
249.708059
 21
92.667238
 31
0
  0
LINE
  8
0
 10
249.708059
 20
92.667238
 30
0
 11
250.500000
 21
97.000000
 31
0
  0
LINE
  8
0
 10
250.500000
 20
97.000000
 30
0
 11
251.695176
 21
97.609552
 31
0
  0
LINE
  8
0
 10
251.695176
 20
97.609552
 30
0
 11
252.229464
 21
98.678128
 31
0
  0
LINE
  8
0
 10
252.229464
 20
98.678128
 30
0
 11
252.000000
 21
100.000000
 31
0
  0
LINE
  8
0
 10
252.000000
 20
100.000000
 30
0
 11
253.000000
 21
100.000000
 31
0
  0
LINE
  8
0
 10
253.000000
 20
100.000000
 30
0
 11
252.000000
 21
100.000000
 31
0
  0
LINE
  8
0
 10
252.000000
 20
100.000000
 30
0
 11
253.000000
 21
100.000000
 31
0
  0
LINE
  8
0
 10
253.000000
 20
100.000000
 30
0
 11
253.000000
 21
103.000000
 31
0
  0
LINE
  8
0
 10
253.000000
 20
103.000000
 30
0
 11
253.000000
 21
100.000000
 31
0
  0
LINE
  8
0
 10
253.000000
 20
100.000000
 30
0
 11
253.000000
 21
103.000000
 31
0
  0
LINE
  8
0
 10
253.000000
 20
103.000000
 30
0
 11
253.768830
 21
102.542944
 31
0
  0
LINE
  8
0
 10
253.768830
 20
102.542944
 30
0
 11
254.904347
 21
103.110702
 31
0
  0
LINE
  8
0
 10
254.904347
 20
103.110702
 30
0
 11
255.000000
 21
104.000000
 31
0
  0
LINE
  8
0
 10
255.000000
 20
104.000000
 30
0
 11
265.000000
 21
104.000000
 31
0
  0
LINE
  8
0
 10
265.000000
 20
104.000000
 30
0
 11
270.000000
 21
104.000000
 31
0
  0
LINE
  8
0
 10
270.000000
 20
104.000000
 30
0
 11
280.000000
 21
104.000000
 31
0
  0
LINE
  8
0
 10
280.000000
 20
104.000000
 30
0
 11
280.000000
 21
104.400000
 31
0
  0
LINE
  8
0
 10
280.000000
 20
104.400000
 30
0
 11
280.000000
 21
104.600000
 31
0
  0
LINE
  8
0
 10
280.000000
 20
104.600000
 30
0
 11
280.000000
 21
105.000000
 31
0
  0
LINE
  8
0
 10
280.000000
 20
105.000000
 30
0
 11
302.800000
 21
105.000000
 31
0
  0
LINE
  8
0
 10
302.800000
 20
105.000000
 30
0
 11
314.200000
 21
105.000000
 31
0
  0
LINE
  8
0
 10
314.200000
 20
105.000000
 30
0
 11
337.000000
 21
105.000000
 31
0
  0
LINE
  8
0
 10
337.000000
 20
105.000000
 30
0
 11
337.000000
 21
105.400000
 31
0
  0
LINE
  8
0
 10
337.000000
 20
105.400000
 30
0
 11
337.000000
 21
105.600000
 31
0
  0
LINE
  8
0
 10
337.000000
 20
105.600000
 30
0
 11
337.000000
 21
106.000000
 31
0
  0
LINE
  8
0
 10
337.000000
 20
106.000000
 30
0
 11
355.800000
 21
106.000000
 31
0
  0
LINE
  8
0
 10
355.800000
 20
106.000000
 30
0
 11
365.200000
 21
106.000000
 31
0
  0
LINE
  8
0
 10
365.200000
 20
106.000000
 30
0
 11
384.000000
 21
106.000000
 31
0
  0
LINE
  8
0
 10
384.000000
 20
106.000000
 30
0
 11
384.000000
 21
106.400000
 31
0
  0
LINE
  8
0
 10
384.000000
 20
106.400000
 30
0
 11
384.000000
 21
106.600000
 31
0
  0
LINE
  8
0
 10
384.000000
 20
106.600000
 30
0
 11
384.000000
 21
107.000000
 31
0
  0
LINE
  8
0
 10
384.000000
 20
107.000000
 30
0
 11
404.400000
 21
107.000000
 31
0
  0
LINE
  8
0
 10
404.400000
 20
107.000000
 30
0
 11
414.600000
 21
107.000000
 31
0
  0
LINE
  8
0
 10
414.600000
 20
107.000000
 30
0
 11
435.000000
 21
107.000000
 31
0
  0
LINE
  8
0
 10
435.000000
 20
107.000000
 30
0
 11
435.000000
 21
107.400000
 31
0
  0
LINE
  8
0
 10
435.000000
 20
107.400000
 30
0
 11
435.000000
 21
107.600000
 31
0
  0
LINE
  8
0
 10
435.000000
 20
107.600000
 30
0
 11
435.000000
 21
108.000000
 31
0
  0
LINE
  8
0
 10
435.000000
 20
108.000000
 30
0
 11
453.800000
 21
108.000000
 31
0
  0
LINE
  8
0
 10
453.800000
 20
108.000000
 30
0
 11
463.200000
 21
108.000000
 31
0
  0
LINE
  8
0
 10
463.200000
 20
108.000000
 30
0
 11
482.000000
 21
108.000000
 31
0
  0
LINE
  8
0
 10
482.000000
 20
108.000000
 30
0
 11
482.000000
 21
108.400000
 31
0
  0
LINE
  8
0
 10
482.000000
 20
108.400000
 30
0
 11
482.000000
 21
108.600000
 31
0
  0
LINE
  8
0
 10
482.000000
 20
108.600000
 30
0
 11
482.000000
 21
109.000000
 31
0
  0
LINE
  8
0
 10
482.000000
 20
109.000000
 30
0
 11
499.600000
 21
109.000000
 31
0
  0
LINE
  8
0
 10
499.600000
 20
109.000000
 30
0
 11
508.400000
 21
109.000000
 31
0
  0
LINE
  8
0
 10
508.400000
 20
109.000000
 30
0
 11
526.000000
 21
109.000000
 31
0
  0
LINE
  8
0
 10
526.000000
 20
109.000000
 30
0
 11
526.000000
 21
109.400000
 31
0
  0
LINE
  8
0
 10
526.000000
 20
109.400000
 30
0
 11
526.000000
 21
109.600000
 31
0
  0
LINE
  8
0
 10
526.000000
 20
109.600000
 30
0
 11
526.000000
 21
110.000000
 31
0
  0
LINE
  8
0
 10
526.000000
 20
110.000000
 30
0
 11
541.600000
 21
110.000000
 31
0
  0
LINE
  8
0
 10
541.600000
 20
110.000000
 30
0
 11
549.400000
 21
110.000000
 31
0
  0
LINE
  8
0
 10
549.400000
 20
110.000000
 30
0
 11
565.000000
 21
110.000000
 31
0
  0
LINE
  8
0
 10
565.000000
 20
110.000000
 30
0
 11
565.000000
 21
110.400000
 31
0
  0
LINE
  8
0
 10
565.000000
 20
110.400000
 30
0
 11
565.000000
 21
110.600000
 31
0
  0
LINE
  8
0
 10
565.000000
 20
110.600000
 30
0
 11
565.000000
 21
111.000000
 31
0
  0
LINE
  8
0
 10
565.000000
 20
111.000000
 30
0
 11
589.000000
 21
111.000000
 31
0
  0
LINE
  8
0
 10
589.000000
 20
111.000000
 30
0
 11
601.000000
 21
111.000000
 31
0
  0
LINE
  8
0
 10
601.000000
 20
111.000000
 30
0
 11
625.000000
 21
111.000000
 31
0
  0
LINE
  8
0
 10
625.000000
 20
111.000000
 30
0
 11
625.000000
 21
111.400000
 31
0
  0
LINE
  8
0
 10
625.000000
 20
111.400000
 30
0
 11
625.000000
 21
111.600000
 31
0
  0
LINE
  8
0
 10
625.000000
 20
111.600000
 30
0
 11
625.000000
 21
112.000000
 31
0
  0
LINE
  8
0
 10
625.000000
 20
112.000000
 30
0
 11
635.800000
 21
112.000000
 31
0
  0
LINE
  8
0
 10
635.800000
 20
112.000000
 30
0
 11
641.200000
 21
112.000000
 31
0
  0
LINE
  8
0
 10
641.200000
 20
112.000000
 30
0
 11
652.000000
 21
112.000000
 31
0
  0
LINE
  8
0
 10
652.000000
 20
112.000000
 30
0
 11
651.879533
 21
112.552709
 31
0
  0
LINE
  8
0
 10
651.879533
 20
112.552709
 30
0
 11
652.447291
 21
113.120467
 31
0
  0
LINE
  8
0
 10
652.447291
 20
113.120467
 30
0
 11
653.000000
 21
113.000000
 31
0
  0
LINE
  8
0
 10
653.000000
 20
113.000000
 30
0
 11
653.000000
 21
129.000000
 31
0
  0
LINE
  8
0
 10
653.000000
 20
129.000000
 30
0
 11
653.000000
 21
113.000000
 31
0
  0
LINE
  8
0
 10
653.000000
 20
113.000000
 30
0
 11
653.000000
 21
129.000000
 31
0
  0
LINE
  8
0
 10
653.000000
 20
129.000000
 30
0
 11
652.000000
 21
129.000000
 31
0
  0
LINE
  8
0
 10
652.000000
 20
129.000000
 30
0
 11
653.000000
 21
129.000000
 31
0
  0
LINE
  8
0
 10
653.000000
 20
129.000000
 30
0
 11
652.000000
 21
129.000000
 31
0
  0
LINE
  8
0
 10
652.000000
 20
129.000000
 30
0
 11
652.160827
 21
131.033257
 31
0
  0
LINE
  8
0
 10
652.160827
 20
131.033257
 30
0
 11
652.366434
 21
132.061291
 31
0
  0
LINE
  8
0
 10
652.366434
 20
132.061291
 30
0
 11
653.000000
 21
134.000000
 31
0
  0
LINE
  8
0
 10
653.000000
 20
134.000000
 30
0
 11
650.151219
 21
135.079095
 31
0
  0
LINE
  8
0
 10
650.151219
 20
135.079095
 30
0
 11
648.746090
 21
135.681293
 31
0
  0
LINE
  8
0
 10
648.746090
 20
135.681293
 30
0
 11
646.000000
 21
137.000000
 31
0
  0
LINE
  8
0
 10
646.000000
 20
137.000000
 30
0
 11
646.000000
 21
138.000000
 31
0
  0
LINE
  8
0
 10
646.000000
 20
138.000000
 30
0
 11
646.000000
 21
137.000000
 31
0
  0
LINE
  8
0
 10
646.000000
 20
137.000000
 30
0
 11
646.000000
 21
138.000000
 31
0
  0
LINE
  8
0
 10
646.000000
 20
138.000000
 30
0
 11
633.000000
 21
138.000000
 31
0
  0
LINE
  8
0
 10
633.000000
 20
138.000000
 30
0
 11
646.000000
 21
138.000000
 31
0
  0
LINE
  8
0
 10
646.000000
 20
138.000000
 30
0
 11
633.000000
 21
138.000000
 31
0
  0
LINE
  8
0
 10
633.000000
 20
138.000000
 30
0
 11
633.000000
 21
137.600000
 31
0
  0
LINE
  8
0
 10
633.000000
 20
137.600000
 30
0
 11
633.000000
 21
137.400000
 31
0
  0
LINE
  8
0
 10
633.000000
 20
137.400000
 30
0
 11
633.000000
 21
137.000000
 31
0
  0
LINE
  8
0
 10
633.000000
 20
137.000000
 30
0
 11
632.442293
 21
136.905325
 31
0
  0
LINE
  8
0
 10
632.442293
 20
136.905325
 30
0
 11
631.905325
 21
137.442293
 31
0
  0
LINE
  8
0
 10
631.905325
 20
137.442293
 30
0
 11
632.000000
 21
138.000000
 31
0
  0
LINE
  8
0
 10
632.000000
 20
138.000000
 30
0
 11
617.205308
 21
137.556050
 31
0
  0
LINE
  8
0
 10
617.205308
 20
137.556050
 30
0
 11
609.777293
 21
137.656429
 31
0
  0
LINE
  8
0
 10
609.777293
 20
137.656429
 30
0
 11
595.000000
 21
138.500000
 31
0
  0
LINE
  8
0
 10
595.000000
 20
138.500000
 30
0
 11
593.420672
 21
139.743271
 31
0
  0
LINE
  8
0
 10
593.420672
 20
139.743271
 30
0
 11
591.301862
 21
139.531390
 31
0
  0
LINE
  8
0
 10
591.301862
 20
139.531390
 30
0
 11
590.000000
 21
138.000000
 31
0
  0
LINE
  8
0
 10
590.000000
 20
138.000000
 30
0
 11
585.600000
 21
138.000000
 31
0
  0
LINE
  8
0
 10
585.600000
 20
138.000000
 30
0
 11
583.400000
 21
138.000000
 31
0
  0
LINE
  8
0
 10
583.400000
 20
138.000000
 30
0
 11
579.000000
 21
138.000000
 31
0
  0
LINE
  8
0
 10
579.000000
 20
138.000000
 30
0
 11
579.000000
 21
138.400000
 31
0
  0
LINE
  8
0
 10
579.000000
 20
138.400000
 30
0
 11
579.000000
 21
138.600000
 31
0
  0
LINE
  8
0
 10
579.000000
 20
138.600000
 30
0
 11
579.000000
 21
139.000000
 31
0
  0
LINE
  8
0
 10
579.000000
 20
139.000000
 30
0
 11
571.000000
 21
139.000000
 31
0
  0
LINE
  8
0
 10
571.000000
 20
139.000000
 30
0
 11
567.000000
 21
139.000000
 31
0
  0
LINE
  8
0
 10
567.000000
 20
139.000000
 30
0
 11
559.000000
 21
139.000000
 31
0
  0
LINE
  8
0
 10
559.000000
 20
139.000000
 30
0
 11
559.000000
 21
138.600000
 31
0
  0
LINE
  8
0
 10
559.000000
 20
138.600000
 30
0
 11
559.000000
 21
138.400000
 31
0
  0
LINE
  8
0
 10
559.000000
 20
138.400000
 30
0
 11
559.000000
 21
138.000000
 31
0
  0
LINE
  8
0
 10
559.000000
 20
138.000000
 30
0
 11
555.000000
 21
138.000000
 31
0
  0
LINE
  8
0
 10
555.000000
 20
138.000000
 30
0
 11
553.000000
 21
138.000000
 31
0
  0
LINE
  8
0
 10
553.000000
 20
138.000000
 30
0
 11
549.000000
 21
138.000000
 31
0
  0
LINE
  8
0
 10
549.000000
 20
138.000000
 30
0
 11
542.631983
 21
138.669597
 31
0
  0
LINE
  8
0
 10
542.631983
 20
138.669597
 30
0
 11
539.397401
 21
138.770677
 31
0
  0
LINE
  8
0
 10
539.397401
 20
138.770677
 30
0
 11
533.000000
 21
138.500000
 31
0
  0
LINE
  8
0
 10
533.000000
 20
138.500000
 30
0
 11
530.571158
 21
137.092617
 31
0
  0
LINE
  8
0
 10
530.571158
 20
137.092617
 30
0
 11
528.204150
 21
137.261689
 31
0
  0
LINE
  8
0
 10
528.204150
 20
137.261689
 30
0
 11
526.000000
 21
139.000000
 31
0
  0
LINE
  8
0
 10
526.000000
 20
139.000000
 30
0
 11
518.810178
 21
139.431805
 31
0
  0
LINE
  8
0
 10
518.810178
 20
139.431805
 30
0
 11
515.154765
 21
139.330265
 31
0
  0
LINE
  8
0
 10
515.154765
 20
139.330265
 30
0
 11
508.000000
 21
138.500000
 31
0
  0
LINE
  8
0
 10
508.000000
 20
138.500000
 30
0
 11
506.420672
 21
137.256729
 31
0
  0
LINE
  8
0
 10
506.420672
 20
137.256729
 30
0
 11
504.301862
 21
137.468610
 31
0
  0
LINE
  8
0
 10
504.301862
 20
137.468610
 30
0
 11
503.000000
 21
139.000000
 31
0
  0
LINE
  8
0
 10
503.000000
 20
139.000000
 30
0
 11
495.007497
 21
139.399875
 31
0
  0
LINE
  8
0
 10
495.007497
 20
139.399875
 30
0
 11
490.962537
 21
139.298751
 31
0
  0
LINE
  8
0
 10
490.962537
 20
139.298751
 30
0
 11
483.000000
 21
138.500000
 31
0
  0
LINE
  8
0
 10
483.000000
 20
138.500000
 30
0
 11
482.109253
 21
137.671404
 31
0
  0
LINE
  8
0
 10
482.109253
 20
137.671404
 30
0
 11
480.573864
 21
137.927303
 31
0
  0
LINE
  8
0
 10
480.573864
 20
137.927303
 30
0
 11
480.000000
 21
139.000000
 31
0
  0
LINE
  8
0
 10
480.000000
 20
139.000000
 30
0
 11
460.800000
 21
139.000000
 31
0
  0
LINE
  8
0
 10
460.800000
 20
139.000000
 30
0
 11
451.200000
 21
139.000000
 31
0
  0
LINE
  8
0
 10
451.200000
 20
139.000000
 30
0
 11
432.000000
 21
139.000000
 31
0
  0
LINE
  8
0
 10
432.000000
 20
139.000000
 30
0
 11
432.000000
 21
139.400000
 31
0
  0
LINE
  8
0
 10
432.000000
 20
139.400000
 30
0
 11
432.000000
 21
139.600000
 31
0
  0
LINE
  8
0
 10
432.000000
 20
139.600000
 30
0
 11
432.000000
 21
140.000000
 31
0
  0
LINE
  8
0
 10
432.000000
 20
140.000000
 30
0
 11
425.608390
 21
140.383827
 31
0
  0
LINE
  8
0
 10
425.608390
 20
140.383827
 30
0
 11
422.355173
 21
140.282164
 31
0
  0
LINE
  8
0
 10
422.355173
 20
140.282164
 30
0
 11
416.000000
 21
139.500000
 31
0
  0
LINE
  8
0
 10
416.000000
 20
139.500000
 30
0
 11
415.383565
 21
138.952270
 31
0
  0
LINE
  8
0
 10
415.383565
 20
138.952270
 30
0
 11
414.286158
 21
139.226622
 31
0
  0
LINE
  8
0
 10
414.286158
 20
139.226622
 30
0
 11
414.000000
 21
140.000000
 31
0
  0
LINE
  8
0
 10
414.000000
 20
140.000000
 30
0
 11
404.000000
 21
140.000000
 31
0
  0
LINE
  8
0
 10
404.000000
 20
140.000000
 30
0
 11
399.000000
 21
140.000000
 31
0
  0
LINE
  8
0
 10
399.000000
 20
140.000000
 30
0
 11
389.000000
 21
140.000000
 31
0
  0
LINE
  8
0
 10
389.000000
 20
140.000000
 30
0
 11
389.000000
 21
140.400000
 31
0
  0
LINE
  8
0
 10
389.000000
 20
140.400000
 30
0
 11
389.000000
 21
140.600000
 31
0
  0
LINE
  8
0
 10
389.000000
 20
140.600000
 30
0
 11
389.000000
 21
141.000000
 31
0
  0
LINE
  8
0
 10
389.000000
 20
141.000000
 30
0
 11
385.014978
 21
141.399501
 31
0
  0
LINE
  8
0
 10
385.014978
 20
141.399501
 30
0
 11
382.925296
 21
141.295017
 31
0
  0
LINE
  8
0
 10
382.925296
 20
141.295017
 30
0
 11
379.000000
 21
140.500000
 31
0
  0
LINE
  8
0
 10
379.000000
 20
140.500000
 30
0
 11
377.876734
 21
139.343163
 31
0
  0
LINE
  8
0
 10
377.876734
 20
139.343163
 30
0
 11
375.803944
 21
139.602261
 31
0
  0
LINE
  8
0
 10
375.803944
 20
139.602261
 30
0
 11
375.000000
 21
141.000000
 31
0
  0
LINE
  8
0
 10
375.000000
 20
141.000000
 30
0
 11
369.812783
 21
141.415667
 31
0
  0
LINE
  8
0
 10
369.812783
 20
141.415667
 30
0
 11
367.139966
 21
141.312867
 31
0
  0
LINE
  8
0
 10
367.139966
 20
141.312867
 30
0
 11
362.000000
 21
140.500000
 31
0
  0
LINE
  8
0
 10
362.000000
 20
140.500000
 30
0
 11
360.876734
 21
139.343163
 31
0
  0
LINE
  8
0
 10
360.876734
 20
139.343163
 30
0
 11
358.803944
 21
139.602261
 31
0
  0
LINE
  8
0
 10
358.803944
 20
139.602261
 30
0
 11
358.000000
 21
141.000000
 31
0
  0
LINE
  8
0
 10
358.000000
 20
141.000000
 30
0
 11
322.000000
 21
141.000000
 31
0
  0
LINE
  8
0
 10
322.000000
 20
141.000000
 30
0
 11
304.000000
 21
141.000000
 31
0
  0
LINE
  8
0
 10
304.000000
 20
141.000000
 30
0
 11
268.000000
 21
141.000000
 31
0
  0
LINE
  8
0
 10
268.000000
 20
141.000000
 30
0
 11
265.637071
 21
142.554531
 31
0
  0
LINE
  8
0
 10
265.637071
 20
142.554531
 30
0
 11
263.703680
 21
142.830730
 31
0
  0
LINE
  8
0
 10
263.703680
 20
142.830730
 30
0
 11
261.000000
 21
142.000000
 31
0
  0
LINE
  8
0
 10
261.000000
 20
142.000000
 30
0
 11
261.313752
 21
142.762601
 31
0
  0
LINE
  8
0
 10
261.313752
 20
142.762601
 30
0
 11
261.135711
 21
143.474765
 31
0
  0
LINE
  8
0
 10
261.135711
 20
143.474765
 30
0
 11
260.500000
 21
144.000000
 31
0
  0
LINE
  8
0
 10
260.500000
 20
144.000000
 30
0
 11
261.232154
 21
148.946105
 31
0
  0
LINE
  8
0
 10
261.232154
 20
148.946105
 30
0
 11
261.958326
 21
151.435839
 31
0
  0
LINE
  8
0
 10
261.958326
 20
151.435839
 30
0
 11
264.000000
 21
156.000000
 31
0
  0
LINE
  8
0
 10
264.000000
 20
156.000000
 30
0
 11
268.134064
 21
164.479948
 31
0
  0
LINE
  8
0
 10
268.134064
 20
164.479948
 30
0
 11
270.689131
 21
168.568055
 31
0
  0
LINE
  8
0
 10
270.689131
 20
168.568055
 30
0
 11
276.500000
 21
176.000000
 31
0
  0
LINE
  8
0
 10
276.500000
 20
176.000000
 30
0
 11
277.695176
 21
176.609552
 31
0
  0
LINE
  8
0
 10
277.695176
 20
176.609552
 30
0
 11
278.229464
 21
177.678128
 31
0
  0
LINE
  8
0
 10
278.229464
 20
177.678128
 30
0
 11
278.000000
 21
179.000000
 31
0
  0
LINE
  8
0
 10
278.000000
 20
179.000000
 30
0
 11
286.037265
 21
185.554569
 31
0
  0
LINE
  8
0
 10
286.037265
 20
185.554569
 30
0
 11
290.037522
 21
188.854781
 31
0
  0
LINE
  8
0
 10
290.037522
 20
188.854781
 30
0
 11
298.000000
 21
195.500000
 31
0
  0
LINE
  8
0
 10
298.000000
 20
195.500000
 30
0
 11
299.992189
 21
197.297549
 31
0
  0
LINE
  8
0
 10
299.992189
 20
197.297549
 30
0
 11
301.366647
 21
197.984778
 31
0
  0
LINE
  8
0
 10
301.366647
 20
197.984778
 30
0
 11
304.000000
 21
198.500000
 31
0
  0
LINE
  8
0
 10
304.000000
 20
198.500000
 30
0
 11
307.607455
 21
199.880677
 31
0
  0
LINE
  8
0
 10
307.607455
 20
199.880677
 30
0
 11
309.407558
 21
200.580717
 31
0
  0
LINE
  8
0
 10
309.407558
 20
200.580717
 30
0
 11
313.000000
 21
202.000000
 31
0
  0
LINE
  8
0
 10
313.000000
 20
202.000000
 30
0
 11
318.600000
 21
202.000000
 31
0
  0
LINE
  8
0
 10
318.600000
 20
202.000000
 30
0
 11
321.400000
 21
202.000000
 31
0
  0
LINE
  8
0
 10
321.400000
 20
202.000000
 30
0
 11
327.000000
 21
202.000000
 31
0
  0
LINE
  8
0
 10
327.000000
 20
202.000000
 30
0
 11
328.341134
 21
200.941057
 31
0
  0
LINE
  8
0
 10
328.341134
 20
200.941057
 30
0
 11
329.293265
 21
200.584008
 31
0
  0
LINE
  8
0
 10
329.293265
 20
200.584008
 30
0
 11
331.000000
 21
200.500000
 31
0
  0
LINE
  8
0
 10
331.000000
 20
200.500000
 30
0
 11
334.284169
 21
199.597650
 31
0
  0
LINE
  8
0
 10
334.284169
 20
199.597650
 30
0
 11
336.344273
 21
199.718833
 31
0
  0
LINE
  8
0
 10
336.344273
 20
199.718833
 30
0
 11
339.500000
 21
201.000000
 31
0
  0
LINE
  8
0
 10
339.500000
 20
201.000000
 30
0
 11
345.584504
 21
206.069400
 31
0
  0
LINE
  8
0
 10
345.584504
 20
206.069400
 30
0
 11
348.430600
 21
208.915496
 31
0
  0
LINE
  8
0
 10
348.430600
 20
208.915496
 30
0
 11
353.500000
 21
215.000000
 31
0
  0
LINE
  8
0
 10
353.500000
 20
215.000000
 30
0
 11
355.324390
 21
215.521155
 31
0
  0
LINE
  8
0
 10
355.324390
 20
215.521155
 30
0
 11
356.853181
 21
215.011558
 31
0
  0
LINE
  8
0
 10
356.853181
 20
215.011558
 30
0
 11
358.000000
 21
213.500000
 31
0
  0
LINE
  8
0
 10
358.000000
 20
213.500000
 30
0
 11
358.492476
 21
213.103178
 31
0
  0
LINE
  8
0
 10
358.492476
 20
213.103178
 30
0
 11
359.344113
 21
213.387057
 31
0
  0
LINE
  8
0
 10
359.344113
 20
213.387057
 30
0
 11
359.500000
 21
214.000000
 31
0
  0
LINE
  8
0
 10
359.500000
 20
214.000000
 30
0
 11
358.860485
 21
216.605959
 31
0
  0
LINE
  8
0
 10
358.860485
 20
216.605959
 30
0
 11
358.201058
 21
217.924813
 31
0
  0
LINE
  8
0
 10
358.201058
 20
217.924813
 30
0
 11
356.500000
 21
220.000000
 31
0
  0
LINE
  8
0
 10
356.500000
 20
220.000000
 30
0
 11
354.274201
 21
222.333628
 31
0
  0
LINE
  8
0
 10
354.274201
 20
222.333628
 30
0
 11
353.380489
 21
223.897624
 31
0
  0
LINE
  8
0
 10
353.380489
 20
223.897624
 30
0
 11
352.500000
 21
227.000000
 31
0
  0
LINE
  8
0
 10
352.500000
 20
227.000000
 30
0
 11
349.959834
 21
231.576850
 31
0
  0
LINE
  8
0
 10
349.959834
 20
231.576850
 30
0
 11
347.707374
 21
233.710759
 31
0
  0
LINE
  8
0
 10
347.707374
 20
233.710759
 30
0
 11
343.000000
 21
236.000000
 31
0
  0
LINE
  8
0
 10
343.000000
 20
236.000000
 30
0
 11
337.307834
 21
238.357806
 31
0
  0
LINE
  8
0
 10
337.307834
 20
238.357806
 30
0
 11
334.147852
 21
239.095136
 31
0
  0
LINE
  8
0
 10
334.147852
 20
239.095136
 30
0
 11
328.000000
 21
239.500000
 31
0
  0
LINE
  8
0
 10
328.000000
 20
239.500000
 30
0
 11
322.401010
 21
239.726525
 31
0
  0
LINE
  8
0
 10
322.401010
 20
239.726525
 30
0
 11
319.568565
 21
239.625366
 31
0
  0
LINE
  8
0
 10
319.568565
 20
239.625366
 30
0
 11
314.000000
 21
239.000000
 31
0
  0
LINE
  8
0
 10
314.000000
 20
239.000000
 30
0
 11
311.397465
 21
237.306835
 31
0
  0
LINE
  8
0
 10
311.397465
 20
237.306835
 30
0
 11
309.600041
 21
236.827522
 31
0
  0
LINE
  8
0
 10
309.600041
 20
236.827522
 30
0
 11
306.500000
 21
237.000000
 31
0
  0
LINE
  8
0
 10
306.500000
 20
237.000000
 30
0
 11
292.088272
 21
232.647747
 31
0
  0
LINE
  8
0
 10
292.088272
 20
232.647747
 30
0
 11
284.959175
 21
230.137501
 31
0
  0
LINE
  8
0
 10
284.959175
 20
230.137501
 30
0
 11
271.000000
 21
224.500000
 31
0
  0
LINE
  8
0
 10
271.000000
 20
224.500000
 30
0
 11
269.430042
 21
223.123326
 31
0
  0
LINE
  8
0
 10
269.430042
 20
223.123326
 30
0
 11
268.068501
 21
222.714864
 31
0
  0
LINE
  8
0
 10
268.068501
 20
222.714864
 30
0
 11
266.000000
 21
223.000000
 31
0
  0
LINE
  8
0
 10
266.000000
 20
223.000000
 30
0
 11
261.496150
 21
220.244036
 31
0
  0
LINE
  8
0
 10
261.496150
 20
220.244036
 30
0
 11
259.027834
 21
219.112725
 31
0
  0
LINE
  8
0
 10
259.027834
 20
219.112725
 30
0
 11
254.000000
 21
217.500000
 31
0
  0
LINE
  8
0
 10
254.000000
 20
217.500000
 30
0
 11
246.800000
 21
215.100000
 31
0
  0
LINE
  8
0
 10
246.800000
 20
215.100000
 30
0
 11
243.200000
 21
213.900000
 31
0
  0
LINE
  8
0
 10
243.200000
 20
213.900000
 30
0
 11
236.000000
 21
211.500000
 31
0
  0
LINE
  8
0
 10
236.000000
 20
211.500000
 30
0
 11
231.604017
 21
210.285365
 31
0
  0
LINE
  8
0
 10
231.604017
 20
210.285365
 30
0
 11
229.403969
 21
209.685352
 31
0
  0
LINE
  8
0
 10
229.403969
 20
209.685352
 30
0
 11
225.000000
 21
208.500000
 31
0
  0
LINE
  8
0
 10
225.000000
 20
208.500000
 30
0
 11
219.000000
 21
207.300000
 31
0
  0
LINE
  8
0
 10
219.000000
 20
207.300000
 30
0
 11
216.000000
 21
206.700000
 31
0
  0
LINE
  8
0
 10
216.000000
 20
206.700000
 30
0
 11
210.000000
 21
205.500000
 31
0
  0
LINE
  8
0
 10
210.000000
 20
205.500000
 30
0
 11
206.751767
 21
205.721319
 31
0
  0
LINE
  8
0
 10
206.751767
 20
205.721319
 30
0
 11
204.947422
 21
205.383004
 31
0
  0
LINE
  8
0
 10
204.947422
 20
205.383004
 30
0
 11
202.000000
 21
204.000000
 31
0
  0
LINE
  8
0
 10
202.000000
 20
204.000000
 30
0
 11
197.600000
 21
204.000000
 31
0
  0
LINE
  8
0
 10
197.600000
 20
204.000000
 30
0
 11
195.400000
 21
204.000000
 31
0
  0
LINE
  8
0
 10
195.400000
 20
204.000000
 30
0
 11
191.000000
 21
204.000000
 31
0
  0
LINE
  8
0
 10
191.000000
 20
204.000000
 30
0
 11
191.000000
 21
203.600000
 31
0
  0
LINE
  8
0
 10
191.000000
 20
203.600000
 30
0
 11
191.000000
 21
203.400000
 31
0
  0
LINE
  8
0
 10
191.000000
 20
203.400000
 30
0
 11
191.000000
 21
203.000000
 31
0
  0
LINE
  8
0
 10
191.000000
 20
203.000000
 30
0
 11
180.200000
 21
203.000000
 31
0
  0
LINE
  8
0
 10
180.200000
 20
203.000000
 30
0
 11
174.800000
 21
203.000000
 31
0
  0
LINE
  8
0
 10
174.800000
 20
203.000000
 30
0
 11
164.000000
 21
203.000000
 31
0
  0
LINE
  8
0
 10
164.000000
 20
203.000000
 30
0
 11
158.091324
 21
204.444834
 31
0
  0
LINE
  8
0
 10
158.091324
 20
204.444834
 30
0
 11
155.057883
 21
204.950407
 31
0
  0
LINE
  8
0
 10
155.057883
 20
204.950407
 30
0
 11
149.000000
 21
205.500000
 31
0
  0
LINE
  8
0
 10
149.000000
 20
205.500000
 30
0
 11
144.200000
 21
206.700000
 31
0
  0
LINE
  8
0
 10
144.200000
 20
206.700000
 30
0
 11
141.800000
 21
207.300000
 31
0
  0
LINE
  8
0
 10
141.800000
 20
207.300000
 30
0
 11
137.000000
 21
208.500000
 31
0
  0
LINE
  8
0
 10
137.000000
 20
208.500000
 30
0
 11
132.943071
 21
209.725286
 31
0
  0
LINE
  8
0
 10
132.943071
 20
209.725286
 30
0
 11
130.935551
 21
210.427918
 31
0
  0
LINE
  8
0
 10
130.935551
 20
210.427918
 30
0
 11
127.000000
 21
212.000000
 31
0
  0
LINE
  8
0
 10
127.000000
 20
212.000000
 30
0
 11
115.205843
 21
216.977737
 31
0
  0
LINE
  8
0
 10
115.205843
 20
216.977737
 30
0
 11
109.479618
 21
220.147612
 31
0
  0
LINE
  8
0
 10
109.479618
 20
220.147612
 30
0
 11
99.000000
 21
227.500000
 31
0
  0
LINE
  8
0
 10
99.000000
 20
227.500000
 30
0
 11
94.200000
 21
229.900000
 31
0
  0
LINE
  8
0
 10
94.200000
 20
229.900000
 30
0
 11
91.800000
 21
231.100000
 31
0
  0
LINE
  8
0
 10
91.800000
 20
231.100000
 30
0
 11
87.000000
 21
233.500000
 31
0
  0
LINE
  8
0
 10
87.000000
 20
233.500000
 30
0
 11
84.072557
 21
234.019688
 31
0
  0
LINE
  8
0
 10
84.072557
 20
234.019688
 30
0
 11
82.594340
 21
234.547622
 31
0
  0
LINE
  8
0
 10
82.594340
 20
234.547622
 30
0
 11
80.000000
 21
236.000000
 31
0
  0
LINE
  8
0
 10
80.000000
 20
236.000000
 30
0
 11
75.200000
 21
236.000000
 31
0
  0
LINE
  8
0
 10
75.200000
 20
236.000000
 30
0
 11
72.800000
 21
236.000000
 31
0
  0
LINE
  8
0
 10
72.800000
 20
236.000000
 30
0
 11
68.000000
 21
236.000000
 31
0
  0
LINE
  8
0
 10
68.000000
 20
236.000000
 30
0
 11
67.266012
 21
234.742518
 31
0
  0
LINE
  8
0
 10
67.266012
 20
234.742518
 30
0
 11
65.787528
 21
234.320094
 31
0
  0
LINE
  8
0
 10
65.787528
 20
234.320094
 30
0
 11
64.500000
 21
235.000000
 31
0
  0
LINE
  8
0
 10
64.500000
 20
235.000000
 30
0
 11
55.613237
 21
232.181234
 31
0
  0
LINE
  8
0
 10
55.613237
 20
232.181234
 30
0
 11
51.244714
 21
230.352550
 31
0
  0
LINE
  8
0
 10
51.244714
 20
230.352550
 30
0
 11
43.000000
 21
226.000000
 31
0
  0
LINE
  8
0
 10
43.000000
 20
226.000000
 30
0
 11
40.760347
 21
223.231615
 31
0
  0
LINE
  8
0
 10
40.760347
 20
223.231615
 30
0
 11
39.219674
 21
222.021086
 31
0
  0
LINE
  8
0
 10
39.219674
 20
222.021086
 30
0
 11
36.000000
 21
220.500000
 31
0
  0
LINE
  8
0
 10
36.000000
 20
220.500000
 30
0
 11
32.200000
 21
216.700000
 31
0
  0
LINE
  8
0
 10
32.200000
 20
216.700000
 30
0
 11
30.300000
 21
214.800000
 31
0
  0
LINE
  8
0
 10
30.300000
 20
214.800000
 30
0
 11
26.500000
 21
211.000000
 31
0
  0
LINE
  8
0
 10
26.500000
 20
211.000000
 30
0
 11
24.916251
 21
208.589245
 31
0
  0
LINE
  8
0
 10
24.916251
 20
208.589245
 30
0
 11
24.116178
 21
207.389136
 31
0
  0
LINE
  8
0
 10
24.116178
 20
207.389136
 30
0
 11
22.500000
 21
205.000000
 31
0
  0
LINE
  8
0
 10
22.500000
 20
205.000000
 30
0
 11
17.985797
 21
199.208457
 31
0
  0
LINE
  8
0
 10
17.985797
 20
199.208457
 30
0
 11
16.105279
 21
195.865313
 31
0
  0
LINE
  8
0
 10
16.105279
 20
195.865313
 30
0
 11
13.500000
 21
189.000000
 31
0
  0
LINE
  8
0
 10
13.500000
 20
189.000000
 30
0
 11
10.104142
 21
181.720704
 31
0
  0
LINE
  8
0
 10
10.104142
 20
181.720704
 30
0
 11
8.774473
 21
177.833980
 31
0
  0
LINE
  8
0
 10
8.774473
 20
177.833980
 30
0
 11
7.000000
 21
170.000000
 31
0
  0
LINE
  8
0
 10
7.000000
 20
170.000000
 30
0
 11
4.626861
 21
158.470550
 31
0
  0
LINE
  8
0
 10
4.626861
 20
158.470550
 30
0
 11
3.624780
 21
152.658477
 31
0
  0
LINE
  8
0
 10
3.624780
 20
152.658477
 30
0
 11
2.000000
 21
141.000000
 31
0
  0
LINE
  8
0
 10
2.000000
 20
141.000000
 30
0
 11
1.000000
 21
141.000000
 31
0
  0
LINE
  8
0
 10
1.000000
 20
141.000000
 30
0
 11
2.000000
 21
141.000000
 31
0
  0
LINE
  8
0
 10
2.000000
 20
141.000000
 30
0
 11
1.000000
 21
141.000000
 31
0
  0
LINE
  8
0
 10
1.000000
 20
141.000000
 30
0
 11
1.000000
 21
102.000000
 31
0
  0
LINE
  8
0
 10
1.000000
 20
102.000000
 30
0
 11
1.000000
 21
141.000000
 31
0
  0
LINE
  8
0
 10
1.000000
 20
141.000000
 30
0
 11
1.000000
 21
102.000000
 31
0
  0
LINE
  8
0
 10
1.000000
 20
102.000000
 30
0
 11
2.000000
 21
102.000000
 31
0
  0
LINE
  8
0
 10
2.000000
 20
102.000000
 30
0
 11
1.000000
 21
102.000000
 31
0
  0
LINE
  8
0
 10
1.000000
 20
102.000000
 30
0
 11
2.000000
 21
102.000000
 31
0
  0
LINE
  8
0
 10
2.000000
 20
102.000000
 30
0
 11
4.445654
 21
86.222206
 31
0
  0
LINE
  8
0
 10
4.445654
 20
86.222206
 30
0
 11
6.158223
 21
78.364536
 31
0
  0
LINE
  8
0
 10
6.158223
 20
78.364536
 30
0
 11
10.500000
 21
63.000000
 31
0
  0
LINE
  8
0
 10
10.500000
 20
63.000000
 30
0
 11
14.513898
 21
51.322302
 31
0
  0
LINE
  8
0
 10
14.513898
 20
51.322302
 30
0
 11
17.169657
 21
45.602206
 31
0
  0
LINE
  8
0
 10
17.169657
 20
45.602206
 30
0
 11
23.500000
 21
35.000000
 31
0
  0
LINE
  8
0
 10
23.500000
 20
35.000000
 30
0
 11
25.036608
 21
33.245339
 31
0
  0
LINE
  8
0
 10
25.036608
 20
33.245339
 30
0
 11
25.674880
 21
32.181554
 31
0
  0
LINE
  8
0
 10
25.674880
 20
32.181554
 30
0
 11
26.500000
 21
30.000000
 31
0
  0
LINE
  8
0
 10
26.500000
 20
30.000000
 30
0
 11
31.500000
 21
25.000000
 31
0
  0
LINE
  8
0
 10
31.500000
 20
25.000000
 30
0
 11
34.000000
 21
22.500000
 31
0
  0
LINE
  8
0
 10
34.000000
 20
22.500000
 30
0
 11
39.000000
 21
17.500000
 31
0
  0
LINE
  8
0
 10
39.000000
 20
17.500000
 30
0
 11
41.990157
 21
15.797367
 31
0
  0
LINE
  8
0
 10
41.990157
 20
15.797367
 30
0
 11
43.419621
 21
14.776322
 31
0
  0
LINE
  8
0
 10
43.419621
 20
14.776322
 30
0
 11
46.000000
 21
12.500000
 31
0
  0
LINE
  8
0
 10
46.000000
 20
12.500000
 30
0
 11
51.600000
 21
9.700000
 31
0
  0
LINE
  8
0
 10
51.600000
 20
9.700000
 30
0
 11
54.400000
 21
8.300000
 31
0
  0
LINE
  8
0
 10
54.400000
 20
8.300000
 30
0
 11
60.000000
 21
5.500000
 31
0
  0
LINE
  8
0
 10
60.000000
 20
5.500000
 30
0
 11
60.622562
 21
5.136110
 31
0
  0
LINE
  8
0
 10
60.622562
 20
5.136110
 30
0
 11
60.903548
 21
4.714631
 31
0
  0
LINE
  8
0
 10
60.903548
 20
4.714631
 30
0
 11
61.000000
 21
4.000000
 31
0
  0
LINE
  8
0
 10
61.000000
 20
4.000000
 30
0
 11
65.428751
 21
4.325824
 31
0
  0
LINE
  8
0
 10
65.428751
 20
4.325824
 30
0
 11
67.820186
 21
3.999719
 31
0
  0
LINE
  8
0
 10
67.820186
 20
3.999719
 30
0
 11
72.000000
 21
2.500000
 31
0
  0
LINE
  8
0
 10
72.000000
 20
2.500000
 30
0
 11
78.348211
 21
1.211506
 31
0
  0
LINE
  8
0
 10
78.348211
 20
1.211506
 30
0
 11
81.561315
 21
0.709458
 31
0
  0
LINE
  8
0
 10
81.561315
 20
0.709458
 30
0
 11
88.000000
 21
0.000000
 31
0
  0
LINE
  8
0
 10
88.000000
 20
0.000000
 30
0
 11
88.000000
 21
-1.000000
 31
0
  0
LINE
  8
0
 10
88.000000
 20
-1.000000
 30
0
 11
88.000000
 21
0.000000
 31
0
  0
LINE
  8
0
 10
88.000000
 20
0.000000
 30
0
 11
88.000000
 21
-1.000000
 31
0
  0
LINE
  8
0
 10
122.000000
 20
68.000000
 30
0
 11
123.000000
 21
68.000000
 31
0
  0
LINE
  8
0
 10
123.000000
 20
68.000000
 30
0
 11
122.000000
 21
68.000000
 31
0
  0
LINE
  8
0
 10
122.000000
 20
68.000000
 30
0
 11
123.000000
 21
68.000000
 31
0
  0
LINE
  8
0
 10
123.000000
 20
68.000000
 30
0
 11
123.000000
 21
69.000000
 31
0
  0
LINE
  8
0
 10
123.000000
 20
69.000000
 30
0
 11
123.000000
 21
68.000000
 31
0
  0
LINE
  8
0
 10
123.000000
 20
68.000000
 30
0
 11
123.000000
 21
69.000000
 31
0
  0
LINE
  8
0
 10
123.000000
 20
69.000000
 30
0
 11
125.042624
 21
71.036587
 31
0
  0
LINE
  8
0
 10
125.042624
 20
71.036587
 30
0
 11
126.334449
 21
71.897804
 31
0
  0
LINE
  8
0
 10
126.334449
 20
71.897804
 30
0
 11
129.000000
 21
73.000000
 31
0
  0
LINE
  8
0
 10
129.000000
 20
73.000000
 30
0
 11
130.827400
 21
71.431367
 31
0
  0
LINE
  8
0
 10
130.827400
 20
71.431367
 30
0
 11
132.938170
 21
71.255470
 31
0
  0
LINE
  8
0
 10
132.938170
 20
71.255470
 30
0
 11
135.000000
 21
72.500000
 31
0
  0
LINE
  8
0
 10
135.000000
 20
72.500000
 30
0
 11
137.965466
 21
73.719021
 31
0
  0
LINE
  8
0
 10
137.965466
 20
73.719021
 30
0
 11
140.209396
 21
73.578775
 31
0
  0
LINE
  8
0
 10
140.209396
 20
73.578775
 30
0
 11
143.000000
 21
72.000000
 31
0
  0
LINE
  8
0
 10
143.000000
 20
72.000000
 30
0
 11
143.000000
 21
71.200000
 31
0
  0
LINE
  8
0
 10
143.000000
 20
71.200000
 30
0
 11
143.000000
 21
70.800000
 31
0
  0
LINE
  8
0
 10
143.000000
 20
70.800000
 30
0
 11
143.000000
 21
70.000000
 31
0
  0
LINE
  8
0
 10
143.000000
 20
70.000000
 30
0
 11
143.800000
 21
70.000000
 31
0
  0
LINE
  8
0
 10
143.800000
 20
70.000000
 30
0
 11
144.200000
 21
70.000000
 31
0
  0
LINE
  8
0
 10
144.200000
 20
70.000000
 30
0
 11
145.000000
 21
70.000000
 31
0
  0
LINE
  8
0
 10
145.000000
 20
70.000000
 30
0
 11
145.000000
 21
69.000000
 31
0
  0
LINE
  8
0
 10
145.000000
 20
69.000000
 30
0
 11
145.000000
 21
70.000000
 31
0
  0
LINE
  8
0
 10
145.000000
 20
70.000000
 30
0
 11
145.000000
 21
69.000000
 31
0
  0
LINE
  8
0
 10
145.000000
 20
69.000000
 30
0
 11
166.000000
 21
69.000000
 31
0
  0
LINE
  8
0
 10
166.000000
 20
69.000000
 30
0
 11
145.000000
 21
69.000000
 31
0
  0
LINE
  8
0
 10
145.000000
 20
69.000000
 30
0
 11
166.000000
 21
69.000000
 31
0
  0
LINE
  8
0
 10
166.000000
 20
69.000000
 30
0
 11
167.993510
 21
70.807185
 31
0
  0
LINE
  8
0
 10
167.993510
 20
70.807185
 30
0
 11
168.993536
 21
71.707208
 31
0
  0
LINE
  8
0
 10
168.993536
 20
71.707208
 30
0
 11
171.000000
 21
73.500000
 31
0
  0
LINE
  8
0
 10
171.000000
 20
73.500000
 30
0
 11
170.293691
 21
75.203270
 31
0
  0
LINE
  8
0
 10
170.293691
 20
75.203270
 30
0
 11
170.638782
 21
76.756181
 31
0
  0
LINE
  8
0
 10
170.638782
 20
76.756181
 30
0
 11
172.000000
 21
78.000000
 31
0
  0
LINE
  8
0
 10
172.000000
 20
78.000000
 30
0
 11
172.000000
 21
85.200000
 31
0
  0
LINE
  8
0
 10
172.000000
 20
85.200000
 30
0
 11
172.000000
 21
88.800000
 31
0
  0
LINE
  8
0
 10
172.000000
 20
88.800000
 30
0
 11
172.000000
 21
96.000000
 31
0
  0
LINE
  8
0
 10
172.000000
 20
96.000000
 30
0
 11
171.600000
 21
96.000000
 31
0
  0
LINE
  8
0
 10
171.600000
 20
96.000000
 30
0
 11
171.400000
 21
96.000000
 31
0
  0
LINE
  8
0
 10
171.400000
 20
96.000000
 30
0
 11
171.000000
 21
96.000000
 31
0
  0
LINE
  8
0
 10
171.000000
 20
96.000000
 30
0
 11
171.000000
 21
159.000000
 31
0
  0
LINE
  8
0
 10
171.000000
 20
159.000000
 30
0
 11
171.000000
 21
96.000000
 31
0
  0
LINE
  8
0
 10
171.000000
 20
96.000000
 30
0
 11
171.000000
 21
159.000000
 31
0
  0
LINE
  8
0
 10
171.000000
 20
159.000000
 30
0
 11
172.496043
 21
160.510581
 31
0
  0
LINE
  8
0
 10
172.496043
 20
160.510581
 30
0
 11
173.201377
 21
161.316676
 31
0
  0
LINE
  8
0
 10
173.201377
 20
161.316676
 30
0
 11
174.500000
 21
163.000000
 31
0
  0
LINE
  8
0
 10
174.500000
 20
163.000000
 30
0
 11
179.100000
 21
163.000000
 31
0
  0
LINE
  8
0
 10
179.100000
 20
163.000000
 30
0
 11
181.400000
 21
163.000000
 31
0
  0
LINE
  8
0
 10
181.400000
 20
163.000000
 30
0
 11
186.000000
 21
163.000000
 31
0
  0
LINE
  8
0
 10
186.000000
 20
163.000000
 30
0
 11
186.000000
 21
162.600000
 31
0
  0
LINE
  8
0
 10
186.000000
 20
162.600000
 30
0
 11
186.000000
 21
162.400000
 31
0
  0
LINE
  8
0
 10
186.000000
 20
162.400000
 30
0
 11
186.000000
 21
162.000000
 31
0
  0
LINE
  8
0
 10
186.000000
 20
162.000000
 30
0
 11
190.400000
 21
162.000000
 31
0
  0
LINE
  8
0
 10
190.400000
 20
162.000000
 30
0
 11
192.600000
 21
162.000000
 31
0
  0
LINE
  8
0
 10
192.600000
 20
162.000000
 30
0
 11
197.000000
 21
162.000000
 31
0
  0
LINE
  8
0
 10
197.000000
 20
162.000000
 30
0
 11
197.000000
 21
161.600000
 31
0
  0
LINE
  8
0
 10
197.000000
 20
161.600000
 30
0
 11
197.000000
 21
161.400000
 31
0
  0
LINE
  8
0
 10
197.000000
 20
161.400000
 30
0
 11
197.000000
 21
161.000000
 31
0
  0
LINE
  8
0
 10
197.000000
 20
161.000000
 30
0
 11
202.600000
 21
161.000000
 31
0
  0
LINE
  8
0
 10
202.600000
 20
161.000000
 30
0
 11
205.400000
 21
161.000000
 31
0
  0
LINE
  8
0
 10
205.400000
 20
161.000000
 30
0
 11
211.000000
 21
161.000000
 31
0
  0
LINE
  8
0
 10
211.000000
 20
161.000000
 30
0
 11
213.494806
 21
162.405682
 31
0
  0
LINE
  8
0
 10
213.494806
 20
162.405682
 30
0
 11
215.148263
 21
162.759994
 31
0
  0
LINE
  8
0
 10
215.148263
 20
162.759994
 30
0
 11
218.000000
 21
162.500000
 31
0
  0
LINE
  8
0
 10
218.000000
 20
162.500000
 30
0
 11
222.800000
 21
163.300000
 31
0
  0
LINE
  8
0
 10
222.800000
 20
163.300000
 30
0
 11
225.200000
 21
163.700000
 31
0
  0
LINE
  8
0
 10
225.200000
 20
163.700000
 30
0
 11
230.000000
 21
164.500000
 31
0
  0
LINE
  8
0
 10
230.000000
 20
164.500000
 30
0
 11
234.294684
 21
165.477594
 31
0
  0
LINE
  8
0
 10
234.294684
 20
165.477594
 30
0
 11
236.811715
 21
165.363183
 31
0
  0
LINE
  8
0
 10
236.811715
 20
165.363183
 30
0
 11
241.000000
 21
164.000000
 31
0
  0
LINE
  8
0
 10
241.000000
 20
164.000000
 30
0
 11
242.388474
 21
162.440468
 31
0
  0
LINE
  8
0
 10
242.388474
 20
162.440468
 30
0
 11
242.800727
 21
161.066292
 31
0
  0
LINE
  8
0
 10
242.800727
 20
161.066292
 30
0
 11
242.500000
 21
159.000000
 31
0
  0
LINE
  8
0
 10
242.500000
 20
159.000000
 30
0
 11
240.766883
 21
151.872847
 31
0
  0
LINE
  8
0
 10
240.766883
 20
151.872847
 30
0
 11
240.063857
 21
148.257287
 31
0
  0
LINE
  8
0
 10
240.063857
 20
148.257287
 30
0
 11
239.000000
 21
141.000000
 31
0
  0
LINE
  8
0
 10
239.000000
 20
141.000000
 30
0
 11
238.442293
 21
141.094675
 31
0
  0
LINE
  8
0
 10
238.442293
 20
141.094675
 30
0
 11
237.905325
 21
140.557707
 31
0
  0
LINE
  8
0
 10
237.905325
 20
140.557707
 30
0
 11
238.000000
 21
140.000000
 31
0
  0
LINE
  8
0
 10
238.000000
 20
140.000000
 30
0
 11
232.000000
 21
140.000000
 31
0
  0
LINE
  8
0
 10
232.000000
 20
140.000000
 30
0
 11
229.000000
 21
140.000000
 31
0
  0
LINE
  8
0
 10
229.000000
 20
140.000000
 30
0
 11
223.000000
 21
140.000000
 31
0
  0
LINE
  8
0
 10
223.000000
 20
140.000000
 30
0
 11
221.958183
 21
141.278521
 31
0
  0
LINE
  8
0
 10
221.958183
 20
141.278521
 30
0
 11
221.682407
 21
142.381626
 31
0
  0
LINE
  8
0
 10
221.682407
 20
142.381626
 30
0
 11
222.000000
 21
144.000000
 31
0
  0
LINE
  8
0
 10
222.000000
 20
144.000000
 30
0
 11
220.625940
 21
143.518379
 31
0
  0
LINE
  8
0
 10
220.625940
 20
143.518379
 30
0
 11
219.412213
 21
143.865158
 31
0
  0
LINE
  8
0
 10
219.412213
 20
143.865158
 30
0
 11
218.500000
 21
145.000000
 31
0
  0
LINE
  8
0
 10
218.500000
 20
145.000000
 30
0
 11
217.338520
 21
145.539411
 31
0
  0
LINE
  8
0
 10
217.338520
 20
145.539411
 30
0
 11
216.781214
 21
145.985256
 31
0
  0
LINE
  8
0
 10
216.781214
 20
145.985256
 30
0
 11
216.000000
 21
147.000000
 31
0
  0
LINE
  8
0
 10
216.000000
 20
147.000000
 30
0
 11
212.000000
 21
147.000000
 31
0
  0
LINE
  8
0
 10
212.000000
 20
147.000000
 30
0
 11
210.000000
 21
147.000000
 31
0
  0
LINE
  8
0
 10
210.000000
 20
147.000000
 30
0
 11
206.000000
 21
147.000000
 31
0
  0
LINE
  8
0
 10
206.000000
 20
147.000000
 30
0
 11
205.249884
 21
145.768202
 31
0
  0
LINE
  8
0
 10
205.249884
 20
145.768202
 30
0
 11
204.425550
 21
145.218646
 31
0
  0
LINE
  8
0
 10
204.425550
 20
145.218646
 30
0
 11
203.000000
 21
145.000000
 31
0
  0
LINE
  8
0
 10
203.000000
 20
145.000000
 30
0
 11
203.457056
 21
144.231170
 31
0
  0
LINE
  8
0
 10
203.457056
 20
144.231170
 30
0
 11
202.889298
 21
143.095653
 31
0
  0
LINE
  8
0
 10
202.889298
 20
143.095653
 30
0
 11
202.000000
 21
143.000000
 31
0
  0
LINE
  8
0
 10
202.000000
 20
143.000000
 30
0
 11
202.000000
 21
140.000000
 31
0
  0
LINE
  8
0
 10
202.000000
 20
140.000000
 30
0
 11
202.000000
 21
143.000000
 31
0
  0
LINE
  8
0
 10
202.000000
 20
143.000000
 30
0
 11
202.000000
 21
140.000000
 31
0
  0
LINE
  8
0
 10
202.000000
 20
140.000000
 30
0
 11
202.384415
 21
139.771472
 31
0
  0
LINE
  8
0
 10
202.384415
 20
139.771472
 30
0
 11
202.952173
 21
140.055351
 31
0
  0
LINE
  8
0
 10
202.952173
 20
140.055351
 30
0
 11
203.000000
 21
140.500000
 31
0
  0
LINE
  8
0
 10
203.000000
 20
140.500000
 30
0
 11
203.385435
 21
140.726803
 31
0
  0
LINE
  8
0
 10
203.385435
 20
140.726803
 30
0
 11
203.950181
 21
140.444430
 31
0
  0
LINE
  8
0
 10
203.950181
 20
140.444430
 30
0
 11
204.000000
 21
140.000000
 31
0
  0
LINE
  8
0
 10
204.000000
 20
140.000000
 30
0
 11
210.000000
 21
140.000000
 31
0
  0
LINE
  8
0
 10
210.000000
 20
140.000000
 30
0
 11
213.000000
 21
140.000000
 31
0
  0
LINE
  8
0
 10
213.000000
 20
140.000000
 30
0
 11
219.000000
 21
140.000000
 31
0
  0
LINE
  8
0
 10
219.000000
 20
140.000000
 30
0
 11
220.440487
 21
139.929313
 31
0
  0
LINE
  8
0
 10
220.440487
 20
139.929313
 30
0
 11
221.488784
 21
138.356868
 31
0
  0
LINE
  8
0
 10
221.488784
 20
138.356868
 30
0
 11
221.000000
 21
137.000000
 31
0
  0
LINE
  8
0
 10
221.000000
 20
137.000000
 30
0
 11
213.000000
 21
137.000000
 31
0
  0
LINE
  8
0
 10
213.000000
 20
137.000000
 30
0
 11
209.000000
 21
137.000000
 31
0
  0
LINE
  8
0
 10
209.000000
 20
137.000000
 30
0
 11
201.000000
 21
137.000000
 31
0
  0
LINE
  8
0
 10
201.000000
 20
137.000000
 30
0
 11
201.000000
 21
132.000000
 31
0
  0
LINE
  8
0
 10
201.000000
 20
132.000000
 30
0
 11
201.000000
 21
137.000000
 31
0
  0
LINE
  8
0
 10
201.000000
 20
137.000000
 30
0
 11
201.000000
 21
132.000000
 31
0
  0
LINE
  8
0
 10
201.000000
 20
132.000000
 30
0
 11
202.000000
 21
132.000000
 31
0
  0
LINE
  8
0
 10
202.000000
 20
132.000000
 30
0
 11
201.000000
 21
132.000000
 31
0
  0
LINE
  8
0
 10
201.000000
 20
132.000000
 30
0
 11
202.000000
 21
132.000000
 31
0
  0
LINE
  8
0
 10
202.000000
 20
132.000000
 30
0
 11
202.000000
 21
119.000000
 31
0
  0
LINE
  8
0
 10
202.000000
 20
119.000000
 30
0
 11
202.000000
 21
132.000000
 31
0
  0
LINE
  8
0
 10
202.000000
 20
132.000000
 30
0
 11
202.000000
 21
119.000000
 31
0
  0
LINE
  8
0
 10
202.000000
 20
119.000000
 30
0
 11
204.874587
 21
118.534438
 31
0
  0
LINE
  8
0
 10
204.874587
 20
118.534438
 30
0
 11
206.313355
 21
118.123361
 31
0
  0
LINE
  8
0
 10
206.313355
 20
118.123361
 30
0
 11
209.000000
 21
117.000000
 31
0
  0
LINE
  8
0
 10
209.000000
 20
117.000000
 30
0
 11
213.000000
 21
117.000000
 31
0
  0
LINE
  8
0
 10
213.000000
 20
117.000000
 30
0
 11
215.000000
 21
117.000000
 31
0
  0
LINE
  8
0
 10
215.000000
 20
117.000000
 30
0
 11
219.000000
 21
117.000000
 31
0
  0
LINE
  8
0
 10
219.000000
 20
117.000000
 30
0
 11
219.432601
 21
118.188636
 31
0
  0
LINE
  8
0
 10
219.432601
 20
118.188636
 30
0
 11
220.940737
 21
118.691348
 31
0
  0
LINE
  8
0
 10
220.940737
 20
118.691348
 30
0
 11
222.000000
 21
118.000000
 31
0
  0
LINE
  8
0
 10
222.000000
 20
118.000000
 30
0
 11
222.142789
 21
116.743174
 31
0
  0
LINE
  8
0
 10
222.142789
 20
116.743174
 30
0
 11
221.868327
 21
115.919788
 31
0
  0
LINE
  8
0
 10
221.868327
 20
115.919788
 30
0
 11
221.000000
 21
115.000000
 31
0
  0
LINE
  8
0
 10
221.000000
 20
115.000000
 30
0
 11
216.332293
 21
116.136888
 31
0
  0
LINE
  8
0
 10
216.332293
 20
116.136888
 30
0
 11
213.746104
 21
116.244646
 31
0
  0
LINE
  8
0
 10
213.746104
 20
116.244646
 30
0
 11
209.000000
 21
115.500000
 31
0
  0
LINE
  8
0
 10
209.000000
 20
115.500000
 30
0
 11
206.526190
 21
115.483803
 31
0
  0
LINE
  8
0
 10
206.526190
 20
115.483803
 30
0
 11
205.190396
 21
115.149855
 31
0
  0
LINE
  8
0
 10
205.190396
 20
115.149855
 30
0
 11
203.000000
 21
114.000000
 31
0
  0
LINE
  8
0
 10
203.000000
 20
114.000000
 30
0
 11
202.000000
 21
114.000000
 31
0
  0
LINE
  8
0
 10
202.000000
 20
114.000000
 30
0
 11
203.000000
 21
114.000000
 31
0
  0
LINE
  8
0
 10
203.000000
 20
114.000000
 30
0
 11
202.000000
 21
114.000000
 31
0
  0
LINE
  8
0
 10
202.000000
 20
114.000000
 30
0
 11
202.000000
 21
101.000000
 31
0
  0
LINE
  8
0
 10
202.000000
 20
101.000000
 30
0
 11
202.000000
 21
114.000000
 31
0
  0
LINE
  8
0
 10
202.000000
 20
114.000000
 30
0
 11
202.000000
 21
101.000000
 31
0
  0
LINE
  8
0
 10
202.000000
 20
101.000000
 30
0
 11
202.953734
 21
100.699347
 31
0
  0
LINE
  8
0
 10
202.953734
 20
100.699347
 30
0
 11
203.478419
 21
99.999767
 31
0
  0
LINE
  8
0
 10
203.478419
 20
99.999767
 30
0
 11
203.500000
 21
99.000000
 31
0
  0
LINE
  8
0
 10
203.500000
 20
99.000000
 30
0
 11
205.579822
 21
97.031666
 31
0
  0
LINE
  8
0
 10
205.579822
 20
97.031666
 30
0
 11
207.152798
 21
96.305677
 31
0
  0
LINE
  8
0
 10
207.152798
 20
96.305677
 30
0
 11
210.000000
 21
96.000000
 31
0
  0
LINE
  8
0
 10
210.000000
 20
96.000000
 30
0
 11
211.041817
 21
94.721479
 31
0
  0
LINE
  8
0
 10
211.041817
 20
94.721479
 30
0
 11
211.317593
 21
93.618374
 31
0
  0
LINE
  8
0
 10
211.317593
 20
93.618374
 30
0
 11
211.000000
 21
92.000000
 31
0
  0
LINE
  8
0
 10
211.000000
 20
92.000000
 30
0
 11
211.800000
 21
92.000000
 31
0
  0
LINE
  8
0
 10
211.800000
 20
92.000000
 30
0
 11
212.200000
 21
92.000000
 31
0
  0
LINE
  8
0
 10
212.200000
 20
92.000000
 30
0
 11
213.000000
 21
92.000000
 31
0
  0
LINE
  8
0
 10
213.000000
 20
92.000000
 30
0
 11
213.868327
 21
92.919788
 31
0
  0
LINE
  8
0
 10
213.868327
 20
92.919788
 30
0
 11
214.142789
 21
93.743174
 31
0
  0
LINE
  8
0
 10
214.142789
 20
93.743174
 30
0
 11
214.000000
 21
95.000000
 31
0
  0
LINE
  8
0
 10
214.000000
 20
95.000000
 30
0
 11
217.957814
 21
96.461406
 31
0
  0
LINE
  8
0
 10
217.957814
 20
96.461406
 30
0
 11
219.894038
 21
97.644654
 31
0
  0
LINE
  8
0
 10
219.894038
 20
97.644654
 30
0
 11
223.000000
 21
100.500000
 31
0
  0
LINE
  8
0
 10
223.000000
 20
100.500000
 30
0
 11
223.000000
 21
110.700000
 31
0
  0
LINE
  8
0
 10
223.000000
 20
110.700000
 30
0
 11
223.000000
 21
115.800000
 31
0
  0
LINE
  8
0
 10
223.000000
 20
115.800000
 30
0
 11
223.000000
 21
126.000000
 31
0
  0
LINE
  8
0
 10
223.000000
 20
126.000000
 30
0
 11
223.443063
 21
126.060790
 31
0
  0
LINE
  8
0
 10
223.443063
 20
126.060790
 30
0
 11
223.782794
 21
125.890924
 31
0
  0
LINE
  8
0
 10
223.782794
 20
125.890924
 30
0
 11
224.000000
 21
125.500000
 31
0
  0
LINE
  8
0
 10
224.000000
 20
125.500000
 30
0
 11
224.385435
 21
125.273197
 31
0
  0
LINE
  8
0
 10
224.385435
 20
125.273197
 30
0
 11
224.950181
 21
125.555570
 31
0
  0
LINE
  8
0
 10
224.950181
 20
125.555570
 30
0
 11
225.000000
 21
126.000000
 31
0
  0
LINE
  8
0
 10
225.000000
 20
126.000000
 30
0
 11
229.788818
 21
126.383693
 31
0
  0
LINE
  8
0
 10
229.788818
 20
126.383693
 30
0
 11
232.259700
 21
126.280740
 31
0
  0
LINE
  8
0
 10
232.259700
 20
126.280740
 30
0
 11
237.000000
 21
125.500000
 31
0
  0
LINE
  8
0
 10
237.000000
 20
125.500000
 30
0
 11
237.492476
 21
125.103178
 31
0
  0
LINE
  8
0
 10
237.492476
 20
125.103178
 30
0
 11
238.344113
 21
125.387057
 31
0
  0
LINE
  8
0
 10
238.344113
 20
125.387057
 30
0
 11
238.500000
 21
126.000000
 31
0
  0
LINE
  8
0
 10
238.500000
 20
126.000000
 30
0
 11
239.679183
 21
121.329933
 31
0
  0
LINE
  8
0
 10
239.679183
 20
121.329933
 30
0
 11
239.889942
 21
118.800828
 31
0
  0
LINE
  8
0
 10
239.889942
 20
118.800828
 30
0
 11
239.500000
 21
114.000000
 31
0
  0
LINE
  8
0
 10
239.500000
 20
114.000000
 30
0
 11
238.343163
 21
112.876734
 31
0
  0
LINE
  8
0
 10
238.343163
 20
112.876734
 30
0
 11
238.602261
 21
110.803944
 31
0
  0
LINE
  8
0
 10
238.602261
 20
110.803944
 30
0
 11
240.000000
 21
110.000000
 31
0
  0
LINE
  8
0
 10
240.000000
 20
110.000000
 30
0
 11
240.000000
 21
93.600000
 31
0
  0
LINE
  8
0
 10
240.000000
 20
93.600000
 30
0
 11
240.000000
 21
85.400000
 31
0
  0
LINE
  8
0
 10
240.000000
 20
85.400000
 30
0
 11
240.000000
 21
69.000000
 31
0
  0
LINE
  8
0
 10
240.000000
 20
69.000000
 30
0
 11
238.345354
 21
67.250101
 31
0
  0
LINE
  8
0
 10
238.345354
 20
67.250101
 30
0
 11
237.543838
 21
66.348395
 31
0
  0
LINE
  8
0
 10
237.543838
 20
66.348395
 30
0
 11
236.000000
 21
64.500000
 31
0
  0
LINE
  8
0
 10
236.000000
 20
64.500000
 30
0
 11
231.670079
 21
62.896322
 31
0
  0
LINE
  8
0
 10
231.670079
 20
62.896322
 30
0
 11
229.460504
 21
62.193276
 31
0
  0
LINE
  8
0
 10
229.460504
 20
62.193276
 30
0
 11
225.000000
 21
61.000000
 31
0
  0
LINE
  8
0
 10
225.000000
 20
61.000000
 30
0
 11
215.800000
 21
61.000000
 31
0
  0
LINE
  8
0
 10
215.800000
 20
61.000000
 30
0
 11
211.200000
 21
61.000000
 31
0
  0
LINE
  8
0
 10
211.200000
 20
61.000000
 30
0
 11
202.000000
 21
61.000000
 31
0
  0
LINE
  8
0
 10
202.000000
 20
61.000000
 30
0
 11
200.564002
 21
59.551584
 31
0
  0
LINE
  8
0
 10
200.564002
 20
59.551584
 30
0
 11
198.882620
 21
59.215308
 31
0
  0
LINE
  8
0
 10
198.882620
 20
59.215308
 30
0
 11
197.000000
 21
60.000000
 31
0
  0
LINE
  8
0
 10
197.000000
 20
60.000000
 30
0
 11
190.928533
 21
57.787019
 31
0
  0
LINE
  8
0
 10
190.928533
 20
57.787019
 30
0
 11
187.922774
 21
56.584715
 31
0
  0
LINE
  8
0
 10
187.922774
 20
56.584715
 30
0
 11
182.000000
 21
54.000000
 31
0
  0
LINE
  8
0
 10
182.000000
 20
54.000000
 30
0
 11
171.519769
 21
49.120989
 31
0
  0
LINE
  8
0
 10
171.519769
 20
49.120989
 30
0
 11
166.439041
 21
46.174167
 31
0
  0
LINE
  8
0
 10
166.439041
 20
46.174167
 30
0
 11
157.000000
 21
39.500000
 31
0
  0
LINE
  8
0
 10
157.000000
 20
39.500000
 30
0
 11
154.805916
 21
37.627570
 31
0
  0
LINE
  8
0
 10
154.805916
 20
37.627570
 30
0
 11
153.572275
 21
36.805143
 31
0
  0
LINE
  8
0
 10
153.572275
 20
36.805143
 30
0
 11
151.000000
 21
35.500000
 31
0
  0
LINE
  8
0
 10
151.000000
 20
35.500000
 30
0
 11
148.805916
 21
33.627570
 31
0
  0
LINE
  8
0
 10
148.805916
 20
33.627570
 30
0
 11
147.572275
 21
32.805143
 31
0
  0
LINE
  8
0
 10
147.572275
 20
32.805143
 30
0
 11
145.000000
 21
31.500000
 31
0
  0
LINE
  8
0
 10
145.000000
 20
31.500000
 30
0
 11
144.390448
 21
30.304824
 31
0
  0
LINE
  8
0
 10
144.390448
 20
30.304824
 30
0
 11
143.321872
 21
29.770536
 31
0
  0
LINE
  8
0
 10
143.321872
 20
29.770536
 30
0
 11
142.000000
 21
30.000000
 31
0
  0
LINE
  8
0
 10
142.000000
 20
30.000000
 30
0
 11
140.728351
 21
28.296208
 31
0
  0
LINE
  8
0
 10
140.728351
 20
28.296208
 30
0
 11
139.857518
 21
27.534228
 31
0
  0
LINE
  8
0
 10
139.857518
 20
27.534228
 30
0
 11
138.000000
 21
26.500000
 31
0
  0
LINE
  8
0
 10
138.000000
 20
26.500000
 30
0
 11
127.345726
 21
19.920756
 31
0
  0
LINE
  8
0
 10
127.345726
 20
19.920756
 30
0
 11
121.655960
 21
17.075872
 31
0
  0
LINE
  8
0
 10
121.655960
 20
17.075872
 30
0
 11
110.000000
 21
12.500000
 31
0
  0
LINE
  8
0
 10
110.000000
 20
12.500000
 30
0
 11
107.746500
 21
11.350332
 31
0
  0
LINE
  8
0
 10
107.746500
 20
11.350332
 30
0
 11
106.492601
 21
10.932365
 31
0
  0
LINE
  8
0
 10
106.492601
 20
10.932365
 30
0
 11
104.000000
 21
10.500000
 31
0
  0
LINE
  8
0
 10
104.000000
 20
10.500000
 30
0
 11
98.481286
 21
8.969053
 31
0
  0
LINE
  8
0
 10
98.481286
 20
8.969053
 30
0
 11
95.661459
 21
8.364804
 31
0
  0
LINE
  8
0
 10
95.661459
 20
8.364804
 30
0
 11
90.000000
 21
7.500000
 31
0
  0
LINE
  8
0
 10
90.000000
 20
7.500000
 30
0
 11
89.109253
 21
6.671404
 31
0
  0
LINE
  8
0
 10
89.109253
 20
6.671404
 30
0
 11
87.573864
 21
6.927303
 31
0
  0
LINE
  8
0
 10
87.573864
 20
6.927303
 30
0
 11
87.000000
 21
8.000000
 31
0
  0
LINE
  8
0
 10
87.000000
 20
8.000000
 30
0
 11
81.400000
 21
8.000000
 31
0
  0
LINE
  8
0
 10
81.400000
 20
8.000000
 30
0
 11
78.600000
 21
8.000000
 31
0
  0
LINE
  8
0
 10
78.600000
 20
8.000000
 30
0
 11
73.000000
 21
8.000000
 31
0
  0
LINE
  8
0
 10
73.000000
 20
8.000000
 30
0
 11
71.564002
 21
9.448416
 31
0
  0
LINE
  8
0
 10
71.564002
 20
9.448416
 30
0
 11
69.882620
 21
9.784692
 31
0
  0
LINE
  8
0
 10
69.882620
 20
9.784692
 30
0
 11
68.000000
 21
9.000000
 31
0
  0
LINE
  8
0
 10
68.000000
 20
9.000000
 30
0
 11
61.357128
 21
11.805754
 31
0
  0
LINE
  8
0
 10
61.357128
 20
11.805754
 30
0
 11
57.932370
 21
13.014492
 31
0
  0
LINE
  8
0
 10
57.932370
 20
13.014492
 30
0
 11
51.000000
 21
15.000000
 31
0
  0
LINE
  8
0
 10
51.000000
 20
15.000000
 30
0
 11
45.906425
 21
18.838684
 31
0
  0
LINE
  8
0
 10
45.906425
 20
18.838684
 30
0
 11
43.480851
 21
20.961061
 31
0
  0
LINE
  8
0
 10
43.480851
 20
20.961061
 30
0
 11
39.000000
 21
25.500000
 31
0
  0
LINE
  8
0
 10
39.000000
 20
25.500000
 30
0
 11
35.111120
 21
30.427131
 31
0
  0
LINE
  8
0
 10
35.111120
 20
30.427131
 30
0
 11
33.454417
 21
33.222818
 31
0
  0
LINE
  8
0
 10
33.454417
 20
33.222818
 30
0
 11
31.000000
 21
39.000000
 31
0
  0
LINE
  8
0
 10
31.000000
 20
39.000000
 30
0
 11
31.000000
 21
43.800000
 31
0
  0
LINE
  8
0
 10
31.000000
 20
43.800000
 30
0
 11
31.000000
 21
46.200000
 31
0
  0
LINE
  8
0
 10
31.000000
 20
46.200000
 30
0
 11
31.000000
 21
51.000000
 31
0
  0
LINE
  8
0
 10
31.000000
 20
51.000000
 30
0
 11
32.188636
 21
51.432601
 31
0
  0
LINE
  8
0
 10
32.188636
 20
51.432601
 30
0
 11
32.691348
 21
52.940737
 31
0
  0
LINE
  8
0
 10
32.691348
 20
52.940737
 30
0
 11
32.000000
 21
54.000000
 31
0
  0
LINE
  8
0
 10
32.000000
 20
54.000000
 30
0
 11
34.901050
 21
57.289971
 31
0
  0
LINE
  8
0
 10
34.901050
 20
57.289971
 30
0
 11
36.403839
 21
58.892946
 31
0
  0
LINE
  8
0
 10
36.403839
 20
58.892946
 30
0
 11
39.500000
 21
62.000000
 31
0
  0
LINE
  8
0
 10
39.500000
 20
62.000000
 30
0
 11
44.260604
 21
64.517270
 31
0
  0
LINE
  8
0
 10
44.260604
 20
64.517270
 30
0
 11
46.816618
 21
65.539676
 31
0
  0
LINE
  8
0
 10
46.816618
 20
65.539676
 30
0
 11
52.000000
 21
67.000000
 31
0
  0
LINE
  8
0
 10
52.000000
 20
67.000000
 30
0
 11
56.000000
 21
67.000000
 31
0
  0
LINE
  8
0
 10
56.000000
 20
67.000000
 30
0
 11
58.000000
 21
67.000000
 31
0
  0
LINE
  8
0
 10
58.000000
 20
67.000000
 30
0
 11
62.000000
 21
67.000000
 31
0
  0
LINE
  8
0
 10
62.000000
 20
67.000000
 30
0
 11
62.000000
 21
67.400000
 31
0
  0
LINE
  8
0
 10
62.000000
 20
67.400000
 30
0
 11
62.000000
 21
67.600000
 31
0
  0
LINE
  8
0
 10
62.000000
 20
67.600000
 30
0
 11
62.000000
 21
68.000000
 31
0
  0
LINE
  8
0
 10
62.000000
 20
68.000000
 30
0
 11
83.600926
 21
68.000011
 31
0
  0
LINE
  8
0
 10
83.600926
 20
68.000011
 30
0
 11
94.402777
 21
68.100029
 31
0
  0
LINE
  8
0
 10
94.402777
 20
68.100029
 30
0
 11
116.000000
 21
68.500000
 31
0
  0
LINE
  8
0
 10
116.000000
 20
68.500000
 30
0
 11
118.061830
 21
69.744530
 31
0
  0
LINE
  8
0
 10
118.061830
 20
69.744530
 30
0
 11
120.172600
 21
69.568633
 31
0
  0
LINE
  8
0
 10
120.172600
 20
69.568633
 30
0
 11
122.000000
 21
68.000000
 31
0
  0
LINE
  8
0
 10
32.500000
 20
93.000000
 30
0
 11
33.890227
 21
93.887282
 31
0
  0
LINE
  8
0
 10
33.890227
 20
93.887282
 30
0
 11
34.309127
 21
95.562880
 31
0
  0
LINE
  8
0
 10
34.309127
 20
95.562880
 30
0
 11
33.500000
 21
97.000000
 31
0
  0
LINE
  8
0
 10
33.500000
 20
97.000000
 30
0
 11
33.726676
 21
98.705467
 31
0
  0
LINE
  8
0
 10
33.726676
 20
98.705467
 30
0
 11
32.686796
 21
100.161299
 31
0
  0
LINE
  8
0
 10
32.686796
 20
100.161299
 30
0
 11
31.000000
 21
100.500000
 31
0
  0
LINE
  8
0
 10
31.000000
 20
100.500000
 30
0
 11
29.602632
 21
99.347888
 31
0
  0
LINE
  8
0
 10
29.602632
 20
99.347888
 30
0
 11
29.389617
 21
97.430751
 31
0
  0
LINE
  8
0
 10
29.389617
 20
97.430751
 30
0
 11
30.500000
 21
96.000000
 31
0
  0
LINE
  8
0
 10
30.500000
 20
96.000000
 30
0
 11
31.009514
 21
94.650780
 31
0
  0
LINE
  8
0
 10
31.009514
 20
94.650780
 30
0
 11
31.450533
 21
93.989251
 31
0
  0
LINE
  8
0
 10
31.450533
 20
93.989251
 30
0
 11
32.500000
 21
93.000000
 31
0
  0
LINE
  8
0
 10
54.500000
 20
123.000000
 30
0
 11
56.300000
 21
123.000000
 31
0
  0
LINE
  8
0
 10
56.300000
 20
123.000000
 30
0
 11
57.200000
 21
123.000000
 31
0
  0
LINE
  8
0
 10
57.200000
 20
123.000000
 30
0
 11
59.000000
 21
123.000000
 31
0
  0
LINE
  8
0
 10
59.000000
 20
123.000000
 30
0
 11
59.697630
 21
124.453724
 31
0
  0
LINE
  8
0
 10
59.697630
 20
124.453724
 30
0
 11
59.818325
 21
125.419282
 31
0
  0
LINE
  8
0
 10
59.818325
 20
125.419282
 30
0
 11
59.500000
 21
127.000000
 31
0
  0
LINE
  8
0
 10
59.500000
 20
127.000000
 30
0
 11
59.078890
 21
129.045157
 31
0
  0
LINE
  8
0
 10
59.078890
 20
129.045157
 30
0
 11
58.774205
 21
130.060772
 31
0
  0
LINE
  8
0
 10
58.774205
 20
130.060772
 30
0
 11
58.000000
 21
132.000000
 31
0
  0
LINE
  8
0
 10
58.000000
 20
132.000000
 30
0
 11
56.810460
 21
132.254940
 31
0
  0
LINE
  8
0
 10
56.810460
 20
132.254940
 30
0
 11
56.207924
 21
132.355363
 31
0
  0
LINE
  8
0
 10
56.207924
 20
132.355363
 30
0
 11
55.000000
 21
132.500000
 31
0
  0
LINE
  8
0
 10
55.000000
 20
132.500000
 30
0
 11
53.560230
 21
131.774009
 31
0
  0
LINE
  8
0
 10
53.560230
 20
131.774009
 30
0
 11
52.894509
 21
130.608997
 31
0
  0
LINE
  8
0
 10
52.894509
 20
130.608997
 30
0
 11
53.000000
 21
129.000000
 31
0
  0
LINE
  8
0
 10
53.000000
 20
129.000000
 30
0
 11
51.076949
 21
128.415298
 31
0
  0
LINE
  8
0
 10
51.076949
 20
128.415298
 30
0
 11
50.000753
 21
128.307678
 31
0
  0
LINE
  8
0
 10
50.000753
 20
128.307678
 30
0
 11
48.000000
 21
128.500000
 31
0
  0
LINE
  8
0
 10
48.000000
 20
128.500000
 30
0
 11
41.644827
 21
129.282164
 31
0
  0
LINE
  8
0
 10
41.644827
 20
129.282164
 30
0
 11
38.391610
 21
129.383827
 31
0
  0
LINE
  8
0
 10
38.391610
 20
129.383827
 30
0
 11
32.000000
 21
129.000000
 31
0
  0
LINE
  8
0
 10
32.000000
 20
129.000000
 30
0
 11
31.385930
 21
128.449620
 31
0
  0
LINE
  8
0
 10
31.385930
 20
128.449620
 30
0
 11
31.217176
 21
127.774603
 31
0
  0
LINE
  8
0
 10
31.217176
 20
127.774603
 30
0
 11
31.500000
 21
127.000000
 31
0
  0
LINE
  8
0
 10
31.500000
 20
127.000000
 30
0
 11
31.655887
 21
126.387057
 31
0
  0
LINE
  8
0
 10
31.655887
 20
126.387057
 30
0
 11
32.507524
 21
126.103178
 31
0
  0
LINE
  8
0
 10
32.507524
 20
126.103178
 30
0
 11
33.000000
 21
126.500000
 31
0
  0
LINE
  8
0
 10
33.000000
 20
126.500000
 30
0
 11
35.061830
 21
127.744530
 31
0
  0
LINE
  8
0
 10
35.061830
 20
127.744530
 30
0
 11
37.172600
 21
127.568633
 31
0
  0
LINE
  8
0
 10
37.172600
 20
127.568633
 30
0
 11
39.000000
 21
126.000000
 31
0
  0
LINE
  8
0
 10
39.000000
 20
126.000000
 30
0
 11
44.000000
 21
126.000000
 31
0
  0
LINE
  8
0
 10
44.000000
 20
126.000000
 30
0
 11
46.500000
 21
126.000000
 31
0
  0
LINE
  8
0
 10
46.500000
 20
126.000000
 30
0
 11
51.500000
 21
126.000000
 31
0
  0
LINE
  8
0
 10
51.500000
 20
126.000000
 30
0
 11
52.700000
 21
124.800000
 31
0
  0
LINE
  8
0
 10
52.700000
 20
124.800000
 30
0
 11
53.300000
 21
124.200000
 31
0
  0
LINE
  8
0
 10
53.300000
 20
124.200000
 30
0
 11
54.500000
 21
123.000000
 31
0
  0
LINE
  8
0
 10
223.000000
 20
129.000000
 30
0
 11
229.400000
 21
129.000000
 31
0
  0
LINE
  8
0
 10
229.400000
 20
129.000000
 30
0
 11
232.600000
 21
129.000000
 31
0
  0
LINE
  8
0
 10
232.600000
 20
129.000000
 30
0
 11
239.000000
 21
129.000000
 31
0
  0
LINE
  8
0
 10
239.000000
 20
129.000000
 30
0
 11
239.000000
 21
132.200000
 31
0
  0
LINE
  8
0
 10
239.000000
 20
132.200000
 30
0
 11
239.000000
 21
133.800000
 31
0
  0
LINE
  8
0
 10
239.000000
 20
133.800000
 30
0
 11
239.000000
 21
137.000000
 31
0
  0
LINE
  8
0
 10
239.000000
 20
137.000000
 30
0
 11
233.600000
 21
137.000000
 31
0
  0
LINE
  8
0
 10
233.600000
 20
137.000000
 30
0
 11
230.900000
 21
137.000000
 31
0
  0
LINE
  8
0
 10
230.900000
 20
137.000000
 30
0
 11
225.500000
 21
137.000000
 31
0
  0
LINE
  8
0
 10
225.500000
 20
137.000000
 30
0
 11
224.500000
 21
136.000000
 31
0
  0
LINE
  8
0
 10
224.500000
 20
136.000000
 30
0
 11
224.000000
 21
135.500000
 31
0
  0
LINE
  8
0
 10
224.000000
 20
135.500000
 30
0
 11
223.000000
 21
134.500000
 31
0
  0
LINE
  8
0
 10
223.000000
 20
134.500000
 30
0
 11
223.000000
 21
132.300000
 31
0
  0
LINE
  8
0
 10
223.000000
 20
132.300000
 30
0
 11
223.000000
 21
131.200000
 31
0
  0
LINE
  8
0
 10
223.000000
 20
131.200000
 30
0
 11
223.000000
 21
129.000000
 31
0
  0
LINE
  8
0
 10
97.000000
 20
138.000000
 30
0
 11
103.400000
 21
138.000000
 31
0
  0
LINE
  8
0
 10
103.400000
 20
138.000000
 30
0
 11
106.600000
 21
138.000000
 31
0
  0
LINE
  8
0
 10
106.600000
 20
138.000000
 30
0
 11
113.000000
 21
138.000000
 31
0
  0
LINE
  8
0
 10
113.000000
 20
138.000000
 30
0
 11
113.432601
 21
139.188636
 31
0
  0
LINE
  8
0
 10
113.432601
 20
139.188636
 30
0
 11
114.940737
 21
139.691348
 31
0
  0
LINE
  8
0
 10
114.940737
 20
139.691348
 30
0
 11
116.000000
 21
139.000000
 31
0
  0
LINE
  8
0
 10
116.000000
 20
139.000000
 30
0
 11
116.000000
 21
139.800000
 31
0
  0
LINE
  8
0
 10
116.000000
 20
139.800000
 30
0
 11
116.000000
 21
140.200000
 31
0
  0
LINE
  8
0
 10
116.000000
 20
140.200000
 30
0
 11
116.000000
 21
141.000000
 31
0
  0
LINE
  8
0
 10
116.000000
 20
141.000000
 30
0
 11
111.790520
 21
139.703746
 31
0
  0
LINE
  8
0
 10
111.790520
 20
139.703746
 30
0
 11
109.309720
 21
139.590983
 31
0
  0
LINE
  8
0
 10
109.309720
 20
139.590983
 30
0
 11
105.000000
 21
140.500000
 31
0
  0
LINE
  8
0
 10
105.000000
 20
140.500000
 30
0
 11
100.600664
 21
140.714111
 31
0
  0
LINE
  8
0
 10
100.600664
 20
140.714111
 30
0
 11
98.400619
 21
140.814113
 31
0
  0
LINE
  8
0
 10
98.400619
 20
140.814113
 30
0
 11
94.000000
 21
141.000000
 31
0
  0
LINE
  8
0
 10
94.000000
 20
141.000000
 30
0
 11
94.000000
 21
140.200000
 31
0
  0
LINE
  8
0
 10
94.000000
 20
140.200000
 30
0
 11
94.000000
 21
139.800000
 31
0
  0
LINE
  8
0
 10
94.000000
 20
139.800000
 30
0
 11
94.000000
 21
139.000000
 31
0
  0
LINE
  8
0
 10
94.000000
 20
139.000000
 30
0
 11
95.059263
 21
139.691348
 31
0
  0
LINE
  8
0
 10
95.059263
 20
139.691348
 30
0
 11
96.567399
 21
139.188636
 31
0
  0
LINE
  8
0
 10
96.567399
 20
139.188636
 30
0
 11
97.000000
 21
138.000000
 31
0
  0
LINE
  8
0
 10
30.000000
 20
139.000000
 30
0
 11
35.600000
 21
139.000000
 31
0
  0
LINE
  8
0
 10
35.600000
 20
139.000000
 30
0
 11
38.400000
 21
139.000000
 31
0
  0
LINE
  8
0
 10
38.400000
 20
139.000000
 30
0
 11
44.000000
 21
139.000000
 31
0
  0
LINE
  8
0
 10
44.000000
 20
139.000000
 30
0
 11
44.142789
 21
140.256826
 31
0
  0
LINE
  8
0
 10
44.142789
 20
140.256826
 30
0
 11
43.868327
 21
141.080212
 31
0
  0
LINE
  8
0
 10
43.868327
 20
141.080212
 30
0
 11
43.000000
 21
142.000000
 31
0
  0
LINE
  8
0
 10
43.000000
 20
142.000000
 30
0
 11
37.800000
 21
142.000000
 31
0
  0
LINE
  8
0
 10
37.800000
 20
142.000000
 30
0
 11
35.200000
 21
142.000000
 31
0
  0
LINE
  8
0
 10
35.200000
 20
142.000000
 30
0
 11
30.000000
 21
142.000000
 31
0
  0
LINE
  8
0
 10
30.000000
 20
142.000000
 30
0
 11
30.000000
 21
140.800000
 31
0
  0
LINE
  8
0
 10
30.000000
 20
140.800000
 30
0
 11
30.000000
 21
140.200000
 31
0
  0
LINE
  8
0
 10
30.000000
 20
140.200000
 30
0
 11
30.000000
 21
139.000000
 31
0
  0
LINE
  8
0
 10
77.500000
 20
14.000000
 30
0
 11
82.978428
 21
15.321675
 31
0
  0
LINE
  8
0
 10
82.978428
 20
15.321675
 30
0
 11
85.771723
 21
16.774188
 31
0
  0
LINE
  8
0
 10
85.771723
 20
16.774188
 30
0
 11
90.000000
 21
20.500000
 31
0
  0
LINE
  8
0
 10
90.000000
 20
20.500000
 30
0
 11
92.494971
 21
22.442967
 31
0
  0
LINE
  8
0
 10
92.494971
 20
22.442967
 30
0
 11
93.330197
 21
24.948644
 31
0
  0
LINE
  8
0
 10
93.330197
 20
24.948644
 30
0
 11
92.500000
 21
28.000000
 31
0
  0
LINE
  8
0
 10
92.500000
 20
28.000000
 30
0
 11
90.928385
 21
30.700005
 31
0
  0
LINE
  8
0
 10
90.928385
 20
30.700005
 30
0
 11
89.872336
 21
31.967263
 31
0
  0
LINE
  8
0
 10
89.872336
 20
31.967263
 30
0
 11
87.500000
 21
34.000000
 31
0
  0
LINE
  8
0
 10
87.500000
 20
34.000000
 30
0
 11
84.692950
 21
35.077252
 31
0
  0
LINE
  8
0
 10
84.692950
 20
35.077252
 30
0
 11
82.925207
 21
35.195101
 31
0
  0
LINE
  8
0
 10
82.925207
 20
35.195101
 30
0
 11
80.000000
 21
34.500000
 31
0
  0
LINE
  8
0
 10
80.000000
 20
34.500000
 30
0
 11
78.400000
 21
33.700000
 31
0
  0
LINE
  8
0
 10
78.400000
 20
33.700000
 30
0
 11
77.600000
 21
33.300000
 31
0
  0
LINE
  8
0
 10
77.600000
 20
33.300000
 30
0
 11
76.000000
 21
32.500000
 31
0
  0
LINE
  8
0
 10
76.000000
 20
32.500000
 30
0
 11
75.429446
 21
30.413264
 31
0
  0
LINE
  8
0
 10
75.429446
 20
30.413264
 30
0
 11
74.706774
 21
29.329256
 31
0
  0
LINE
  8
0
 10
74.706774
 20
29.329256
 30
0
 11
73.000000
 21
28.000000
 31
0
  0
LINE
  8
0
 10
73.000000
 20
28.000000
 30
0
 11
72.434713
 21
24.035098
 31
0
  0
LINE
  8
0
 10
72.434713
 20
24.035098
 30
0
 11
72.333034
 21
22.001515
 31
0
  0
LINE
  8
0
 10
72.333034
 20
22.001515
 30
0
 11
72.500000
 21
18.000000
 31
0
  0
LINE
  8
0
 10
72.500000
 20
18.000000
 30
0
 11
73.169864
 21
16.837553
 31
0
  0
LINE
  8
0
 10
73.169864
 20
16.837553
 30
0
 11
73.471961
 21
16.233359
 31
0
  0
LINE
  8
0
 10
73.471961
 20
16.233359
 30
0
 11
74.000000
 21
15.000000
 31
0
  0
LINE
  8
0
 10
74.000000
 20
15.000000
 30
0
 11
75.455610
 21
15.034629
 31
0
  0
LINE
  8
0
 10
75.455610
 20
15.034629
 30
0
 11
76.282399
 21
14.798404
 31
0
  0
LINE
  8
0
 10
76.282399
 20
14.798404
 30
0
 11
77.500000
 21
14.000000
 31
0
  0
LINE
  8
0
 10
107.500000
 20
25.000000
 30
0
 11
110.538141
 21
24.639860
 31
0
  0
LINE
  8
0
 10
110.538141
 20
24.639860
 30
0
 11
112.334078
 21
24.999047
 31
0
  0
LINE
  8
0
 10
112.334078
 20
24.999047
 30
0
 11
115.000000
 21
26.500000
 31
0
  0
LINE
  8
0
 10
115.000000
 20
26.500000
 30
0
 11
118.552962
 21
28.337516
 31
0
  0
LINE
  8
0
 10
118.552962
 20
28.337516
 30
0
 11
120.241156
 21
29.603661
 31
0
  0
LINE
  8
0
 10
120.241156
 20
29.603661
 30
0
 11
123.000000
 21
32.500000
 31
0
  0
LINE
  8
0
 10
123.000000
 20
32.500000
 30
0
 11
124.293574
 21
34.764214
 31
0
  0
LINE
  8
0
 10
124.293574
 20
34.764214
 30
0
 11
124.432064
 21
36.564583
 31
0
  0
LINE
  8
0
 10
124.432064
 20
36.564583
 30
0
 11
123.500000
 21
39.000000
 31
0
  0
LINE
  8
0
 10
123.500000
 20
39.000000
 30
0
 11
122.483033
 21
40.991426
 31
0
  0
LINE
  8
0
 10
122.483033
 20
40.991426
 30
0
 11
121.982960
 21
41.991570
 31
0
  0
LINE
  8
0
 10
121.982960
 20
41.991570
 30
0
 11
121.000000
 21
44.000000
 31
0
  0
LINE
  8
0
 10
121.000000
 20
44.000000
 30
0
 11
116.853353
 21
45.485031
 31
0
  0
LINE
  8
0
 10
116.853353
 20
45.485031
 30
0
 11
114.264272
 21
45.602717
 31
0
  0
LINE
  8
0
 10
114.264272
 20
45.602717
 30
0
 11
110.000000
 21
44.500000
 31
0
  0
LINE
  8
0
 10
110.000000
 20
44.500000
 30
0
 11
108.837553
 21
43.830136
 31
0
  0
LINE
  8
0
 10
108.837553
 20
43.830136
 30
0
 11
108.233359
 21
43.528039
 31
0
  0
LINE
  8
0
 10
108.233359
 20
43.528039
 30
0
 11
107.000000
 21
43.000000
 31
0
  0
LINE
  8
0
 10
107.000000
 20
43.000000
 30
0
 11
107.229464
 21
41.678128
 31
0
  0
LINE
  8
0
 10
107.229464
 20
41.678128
 30
0
 11
106.695176
 21
40.609552
 31
0
  0
LINE
  8
0
 10
106.695176
 20
40.609552
 30
0
 11
105.500000
 21
40.000000
 31
0
  0
LINE
  8
0
 10
105.500000
 20
40.000000
 30
0
 11
104.157457
 21
35.559552
 31
0
  0
LINE
  8
0
 10
104.157457
 20
35.559552
 30
0
 11
103.841375
 21
33.136253
 31
0
  0
LINE
  8
0
 10
103.841375
 20
33.136253
 30
0
 11
104.000000
 21
28.500000
 31
0
  0
LINE
  8
0
 10
104.000000
 20
28.500000
 30
0
 11
105.400000
 21
27.100000
 31
0
  0
LINE
  8
0
 10
105.400000
 20
27.100000
 30
0
 11
106.100000
 21
26.400000
 31
0
  0
LINE
  8
0
 10
106.100000
 20
26.400000
 30
0
 11
107.500000
 21
25.000000
 31
0
  0
LINE
  8
0
 10
52.000000
 20
33.000000
 30
0
 11
55.297396
 21
32.915273
 31
0
  0
LINE
  8
0
 10
55.297396
 20
32.915273
 30
0
 11
57.130404
 21
33.373525
 31
0
  0
LINE
  8
0
 10
57.130404
 20
33.373525
 30
0
 11
60.000000
 21
35.000000
 31
0
  0
LINE
  8
0
 10
60.000000
 20
35.000000
 30
0
 11
63.630643
 21
36.377836
 31
0
  0
LINE
  8
0
 10
63.630643
 20
36.377836
 30
0
 11
65.413435
 21
37.603506
 31
0
  0
LINE
  8
0
 10
65.413435
 20
37.603506
 30
0
 11
68.000000
 21
40.500000
 31
0
  0
LINE
  8
0
 10
68.000000
 20
40.500000
 30
0
 11
69.093618
 21
43.300714
 31
0
  0
LINE
  8
0
 10
69.093618
 20
43.300714
 30
0
 11
69.212164
 21
45.078900
 31
0
  0
LINE
  8
0
 10
69.212164
 20
45.078900
 30
0
 11
68.500000
 21
48.000000
 31
0
  0
LINE
  8
0
 10
68.500000
 20
48.000000
 30
0
 11
67.287690
 21
50.256170
 31
0
  0
LINE
  8
0
 10
67.287690
 20
50.256170
 30
0
 11
66.435025
 21
51.322002
 31
0
  0
LINE
  8
0
 10
66.435025
 20
51.322002
 30
0
 11
64.500000
 21
53.000000
 31
0
  0
LINE
  8
0
 10
64.500000
 20
53.000000
 30
0
 11
61.699286
 21
54.093618
 31
0
  0
LINE
  8
0
 10
61.699286
 20
54.093618
 30
0
 11
59.921100
 21
54.212164
 31
0
  0
LINE
  8
0
 10
59.921100
 20
54.212164
 30
0
 11
57.000000
 21
53.500000
 31
0
  0
LINE
  8
0
 10
57.000000
 20
53.500000
 30
0
 11
54.230800
 21
52.692824
 31
0
  0
LINE
  8
0
 10
54.230800
 20
52.692824
 30
0
 11
52.810162
 21
51.745732
 31
0
  0
LINE
  8
0
 10
52.810162
 20
51.745732
 30
0
 11
51.000000
 21
49.500000
 31
0
  0
LINE
  8
0
 10
51.000000
 20
49.500000
 30
0
 11
48.835260
 21
44.883302
 31
0
  0
LINE
  8
0
 10
48.835260
 20
44.883302
 30
0
 11
48.277432
 21
42.094160
 31
0
  0
LINE
  8
0
 10
48.277432
 20
42.094160
 30
0
 11
48.500000
 21
37.000000
 31
0
  0
LINE
  8
0
 10
48.500000
 20
37.000000
 30
0
 11
49.169864
 21
35.837553
 31
0
  0
LINE
  8
0
 10
49.169864
 20
35.837553
 30
0
 11
49.471961
 21
35.233359
 31
0
  0
LINE
  8
0
 10
49.471961
 20
35.233359
 30
0
 11
50.000000
 21
34.000000
 31
0
  0
LINE
  8
0
 10
50.000000
 20
34.000000
 30
0
 11
50.768830
 21
34.457056
 31
0
  0
LINE
  8
0
 10
50.768830
 20
34.457056
 30
0
 11
51.904347
 21
33.889298
 31
0
  0
LINE
  8
0
 10
51.904347
 20
33.889298
 30
0
 11
52.000000
 21
33.000000
 31
0
  0
LINE
  8
0
 10
83.000000
 20
38.000000
 30
0
 11
87.019151
 21
37.919866
 31
0
  0
LINE
  8
0
 10
87.019151
 20
37.919866
 30
0
 11
89.076304
 21
38.125582
 31
0
  0
LINE
  8
0
 10
89.076304
 20
38.125582
 30
0
 11
93.000000
 21
39.000000
 31
0
  0
LINE
  8
0
 10
93.000000
 20
39.000000
 30
0
 11
95.957605
 21
41.632978
 31
0
  0
LINE
  8
0
 10
95.957605
 20
41.632978
 30
0
 11
97.367022
 21
43.042395
 31
0
  0
LINE
  8
0
 10
97.367022
 20
43.042395
 30
0
 11
100.000000
 21
46.000000
 31
0
  0
LINE
  8
0
 10
100.000000
 20
46.000000
 30
0
 11
100.320368
 21
49.009546
 31
0
  0
LINE
  8
0
 10
100.320368
 20
49.009546
 30
0
 11
100.097703
 21
50.679530
 31
0
  0
LINE
  8
0
 10
100.097703
 20
50.679530
 30
0
 11
99.000000
 21
53.500000
 31
0
  0
LINE
  8
0
 10
99.000000
 20
53.500000
 30
0
 11
97.600000
 21
54.900000
 31
0
  0
LINE
  8
0
 10
97.600000
 20
54.900000
 30
0
 11
96.900000
 21
55.600000
 31
0
  0
LINE
  8
0
 10
96.900000
 20
55.600000
 30
0
 11
95.500000
 21
57.000000
 31
0
  0
LINE
  8
0
 10
95.500000
 20
57.000000
 30
0
 11
93.082349
 21
57.977223
 31
0
  0
LINE
  8
0
 10
93.082349
 20
57.977223
 30
0
 11
91.538665
 21
58.095968
 31
0
  0
LINE
  8
0
 10
91.538665
 20
58.095968
 30
0
 11
89.000000
 21
57.500000
 31
0
  0
LINE
  8
0
 10
89.000000
 20
57.500000
 30
0
 11
86.518842
 21
56.722919
 31
0
  0
LINE
  8
0
 10
86.518842
 20
56.722919
 30
0
 11
85.298861
 21
56.214594
 31
0
  0
LINE
  8
0
 10
85.298861
 20
56.214594
 30
0
 11
83.000000
 21
55.000000
 31
0
  0
LINE
  8
0
 10
83.000000
 20
55.000000
 30
0
 11
83.229464
 21
53.678128
 31
0
  0
LINE
  8
0
 10
83.229464
 20
53.678128
 30
0
 11
82.695176
 21
52.609552
 31
0
  0
LINE
  8
0
 10
82.695176
 20
52.609552
 30
0
 11
81.500000
 21
52.000000
 31
0
  0
LINE
  8
0
 10
81.500000
 20
52.000000
 30
0
 11
80.000281
 21
47.820186
 31
0
  0
LINE
  8
0
 10
80.000281
 20
47.820186
 30
0
 11
79.674176
 21
45.428751
 31
0
  0
LINE
  8
0
 10
79.674176
 20
45.428751
 30
0
 11
80.000000
 21
41.000000
 31
0
  0
LINE
  8
0
 10
80.000000
 20
41.000000
 30
0
 11
80.889298
 21
40.904347
 31
0
  0
LINE
  8
0
 10
80.889298
 20
40.904347
 30
0
 11
81.457056
 21
39.768830
 31
0
  0
LINE
  8
0
 10
81.457056
 20
39.768830
 30
0
 11
81.000000
 21
39.000000
 31
0
  0
LINE
  8
0
 10
81.000000
 20
39.000000
 30
0
 11
81.768830
 21
39.457056
 31
0
  0
LINE
  8
0
 10
81.768830
 20
39.457056
 30
0
 11
82.904347
 21
38.889298
 31
0
  0
LINE
  8
0
 10
82.904347
 20
38.889298
 30
0
 11
83.000000
 21
38.000000
 31
0
  0
LINE
  8
0
 10
134.000000
 20
42.000000
 30
0
 11
135.600000
 21
42.400000
 31
0
  0
LINE
  8
0
 10
135.600000
 20
42.400000
 30
0
 11
136.400000
 21
42.600000
 31
0
  0
LINE
  8
0
 10
136.400000
 20
42.600000
 30
0
 11
138.000000
 21
43.000000
 31
0
  0
LINE
  8
0
 10
138.000000
 20
43.000000
 30
0
 11
138.000000
 21
43.800000
 31
0
  0
LINE
  8
0
 10
138.000000
 20
43.800000
 30
0
 11
138.000000
 21
44.200000
 31
0
  0
LINE
  8
0
 10
138.000000
 20
44.200000
 30
0
 11
138.000000
 21
45.000000
 31
0
  0
LINE
  8
0
 10
138.000000
 20
45.000000
 30
0
 11
139.788380
 21
44.550894
 31
0
  0
LINE
  8
0
 10
139.788380
 20
44.550894
 30
0
 11
141.070148
 21
44.835731
 31
0
  0
LINE
  8
0
 10
141.070148
 20
44.835731
 30
0
 11
142.500000
 21
46.000000
 31
0
  0
LINE
  8
0
 10
142.500000
 20
46.000000
 30
0
 11
144.291579
 21
47.195929
 31
0
  0
LINE
  8
0
 10
144.291579
 20
47.195929
 30
0
 11
144.972572
 21
48.898411
 31
0
  0
LINE
  8
0
 10
144.972572
 20
48.898411
 30
0
 11
144.500000
 21
51.000000
 31
0
  0
LINE
  8
0
 10
144.500000
 20
51.000000
 30
0
 11
143.714719
 21
52.839384
 31
0
  0
LINE
  8
0
 10
143.714719
 20
52.839384
 30
0
 11
143.045930
 21
53.731102
 31
0
  0
LINE
  8
0
 10
143.045930
 20
53.731102
 30
0
 11
141.500000
 21
55.000000
 31
0
  0
LINE
  8
0
 10
141.500000
 20
55.000000
 30
0
 11
139.155035
 21
55.648954
 31
0
  0
LINE
  8
0
 10
139.155035
 20
55.648954
 30
0
 11
137.507738
 21
55.374404
 31
0
  0
LINE
  8
0
 10
137.507738
 20
55.374404
 30
0
 11
135.500000
 21
54.000000
 31
0
  0
LINE
  8
0
 10
135.500000
 20
54.000000
 30
0
 11
134.900000
 21
53.400000
 31
0
  0
LINE
  8
0
 10
134.900000
 20
53.400000
 30
0
 11
134.600000
 21
53.100000
 31
0
  0
LINE
  8
0
 10
134.600000
 20
53.100000
 30
0
 11
134.000000
 21
52.500000
 31
0
  0
LINE
  8
0
 10
134.000000
 20
52.500000
 30
0
 11
133.393747
 21
48.743345
 31
0
  0
LINE
  8
0
 10
133.393747
 20
48.743345
 30
0
 11
133.291442
 21
46.799540
 31
0
  0
LINE
  8
0
 10
133.291442
 20
46.799540
 30
0
 11
133.500000
 21
43.000000
 31
0
  0
LINE
  8
0
 10
133.500000
 20
43.000000
 30
0
 11
133.890924
 21
42.782794
 31
0
  0
LINE
  8
0
 10
133.890924
 20
42.782794
 30
0
 11
134.060790
 21
42.443063
 31
0
  0
LINE
  8
0
 10
134.060790
 20
42.443063
 30
0
 11
134.000000
 21
42.000000
 31
0
  0
LINE
  8
0
 10
716.000000
 20
95.000000
 30
0
 11
717.000000
 21
95.000000
 31
0
  0
LINE
  8
0
 10
717.000000
 20
95.000000
 30
0
 11
716.000000
 21
95.000000
 31
0
  0
LINE
  8
0
 10
716.000000
 20
95.000000
 30
0
 11
717.000000
 21
95.000000
 31
0
  0
LINE
  8
0
 10
717.000000
 20
95.000000
 30
0
 11
717.000000
 21
96.000000
 31
0
  0
LINE
  8
0
 10
717.000000
 20
96.000000
 30
0
 11
717.000000
 21
95.000000
 31
0
  0
LINE
  8
0
 10
717.000000
 20
95.000000
 30
0
 11
717.000000
 21
96.000000
 31
0
  0
LINE
  8
0
 10
717.000000
 20
96.000000
 30
0
 11
721.454889
 21
96.392388
 31
0
  0
LINE
  8
0
 10
721.454889
 20
96.392388
 30
0
 11
723.692104
 21
96.799154
 31
0
  0
LINE
  8
0
 10
723.692104
 20
96.799154
 30
0
 11
728.000000
 21
98.000000
 31
0
  0
LINE
  8
0
 10
728.000000
 20
98.000000
 30
0
 11
734.400000
 21
98.000000
 31
0
  0
LINE
  8
0
 10
734.400000
 20
98.000000
 30
0
 11
737.600000
 21
98.000000
 31
0
  0
LINE
  8
0
 10
737.600000
 20
98.000000
 30
0
 11
744.000000
 21
98.000000
 31
0
  0
LINE
  8
0
 10
744.000000
 20
98.000000
 30
0
 11
745.329337
 21
96.802978
 31
0
  0
LINE
  8
0
 10
745.329337
 20
96.802978
 30
0
 11
746.244780
 21
96.345257
 31
0
  0
LINE
  8
0
 10
746.244780
 20
96.345257
 30
0
 11
748.000000
 21
96.000000
 31
0
  0
LINE
  8
0
 10
748.000000
 20
96.000000
 30
0
 11
748.457056
 21
95.231170
 31
0
  0
LINE
  8
0
 10
748.457056
 20
95.231170
 30
0
 11
747.889298
 21
94.095653
 31
0
  0
LINE
  8
0
 10
747.889298
 20
94.095653
 30
0
 11
747.000000
 21
94.000000
 31
0
  0
LINE
  8
0
 10
747.000000
 20
94.000000
 30
0
 11
747.000000
 21
93.000000
 31
0
  0
LINE
  8
0
 10
747.000000
 20
93.000000
 30
0
 11
747.000000
 21
94.000000
 31
0
  0
LINE
  8
0
 10
747.000000
 20
94.000000
 30
0
 11
747.000000
 21
93.000000
 31
0
  0
LINE
  8
0
 10
747.000000
 20
93.000000
 30
0
 11
749.000000
 21
93.000000
 31
0
  0
LINE
  8
0
 10
749.000000
 20
93.000000
 30
0
 11
747.000000
 21
93.000000
 31
0
  0
LINE
  8
0
 10
747.000000
 20
93.000000
 30
0
 11
749.000000
 21
93.000000
 31
0
  0
LINE
  8
0
 10
749.000000
 20
93.000000
 30
0
 11
749.025005
 21
92.000313
 31
0
  0
LINE
  8
0
 10
749.025005
 20
92.000313
 30
0
 11
750.033299
 21
91.244092
 31
0
  0
LINE
  8
0
 10
750.033299
 20
91.244092
 30
0
 11
751.000000
 21
91.500000
 31
0
  0
LINE
  8
0
 10
751.000000
 20
91.500000
 30
0
 11
752.683324
 21
92.798623
 31
0
  0
LINE
  8
0
 10
752.683324
 20
92.798623
 30
0
 11
753.489419
 21
93.503957
 31
0
  0
LINE
  8
0
 10
753.489419
 20
93.503957
 30
0
 11
755.000000
 21
95.000000
 31
0
  0
LINE
  8
0
 10
755.000000
 20
95.000000
 30
0
 11
756.000000
 21
95.000000
 31
0
  0
LINE
  8
0
 10
756.000000
 20
95.000000
 30
0
 11
755.000000
 21
95.000000
 31
0
  0
LINE
  8
0
 10
755.000000
 20
95.000000
 30
0
 11
756.000000
 21
95.000000
 31
0
  0
LINE
  8
0
 10
756.000000
 20
95.000000
 30
0
 11
756.000000
 21
96.000000
 31
0
  0
LINE
  8
0
 10
756.000000
 20
96.000000
 30
0
 11
756.000000
 21
95.000000
 31
0
  0
LINE
  8
0
 10
756.000000
 20
95.000000
 30
0
 11
756.000000
 21
96.000000
 31
0
  0
LINE
  8
0
 10
756.000000
 20
96.000000
 30
0
 11
759.646267
 21
95.842724
 31
0
  0
LINE
  8
0
 10
759.646267
 20
95.842724
 30
0
 11
761.499820
 21
95.533799
 31
0
  0
LINE
  8
0
 10
761.499820
 20
95.533799
 30
0
 11
765.000000
 21
94.500000
 31
0
  0
LINE
  8
0
 10
765.000000
 20
94.500000
 30
0
 11
767.264421
 21
93.680002
 31
0
  0
LINE
  8
0
 10
767.264421
 20
93.680002
 30
0
 11
768.902536
 21
93.816511
 31
0
  0
LINE
  8
0
 10
768.902536
 20
93.816511
 30
0
 11
771.000000
 21
95.000000
 31
0
  0
LINE
  8
0
 10
771.000000
 20
95.000000
 30
0
 11
770.998668
 21
96.216552
 31
0
  0
LINE
  8
0
 10
770.998668
 20
96.216552
 30
0
 11
770.893298
 21
96.848776
 31
0
  0
LINE
  8
0
 10
770.893298
 20
96.848776
 30
0
 11
770.500000
 21
98.000000
 31
0
  0
LINE
  8
0
 10
770.500000
 20
98.000000
 30
0
 11
768.900000
 21
104.400000
 31
0
  0
LINE
  8
0
 10
768.900000
 20
104.400000
 30
0
 11
768.100000
 21
107.600000
 31
0
  0
LINE
  8
0
 10
768.100000
 20
107.600000
 30
0
 11
766.500000
 21
114.000000
 31
0
  0
LINE
  8
0
 10
766.500000
 20
114.000000
 30
0
 11
766.368769
 21
116.035382
 31
0
  0
LINE
  8
0
 10
766.368769
 20
116.035382
 30
0
 11
766.161703
 21
117.070713
 31
0
  0
LINE
  8
0
 10
766.161703
 20
117.070713
 30
0
 11
765.500000
 21
119.000000
 31
0
  0
LINE
  8
0
 10
765.500000
 20
119.000000
 30
0
 11
764.559620
 21
123.098254
 31
0
  0
LINE
  8
0
 10
764.559620
 20
123.098254
 30
0
 11
764.674449
 21
125.509647
 31
0
  0
LINE
  8
0
 10
764.674449
 20
125.509647
 30
0
 11
766.000000
 21
129.500000
 31
0
  0
LINE
  8
0
 10
766.000000
 20
129.500000
 30
0
 11
767.800000
 21
131.300000
 31
0
  0
LINE
  8
0
 10
767.800000
 20
131.300000
 30
0
 11
768.700000
 21
132.200000
 31
0
  0
LINE
  8
0
 10
768.700000
 20
132.200000
 30
0
 11
770.500000
 21
134.000000
 31
0
  0
LINE
  8
0
 10
770.500000
 20
134.000000
 30
0
 11
775.510686
 21
132.845435
 31
0
  0
LINE
  8
0
 10
775.510686
 20
132.845435
 30
0
 11
778.011098
 21
132.245336
 31
0
  0
LINE
  8
0
 10
778.011098
 20
132.245336
 30
0
 11
783.000000
 21
131.000000
 31
0
  0
LINE
  8
0
 10
783.000000
 20
131.000000
 30
0
 11
784.587735
 21
134.111125
 31
0
  0
LINE
  8
0
 10
784.587735
 20
134.111125
 30
0
 11
785.292686
 21
135.722441
 31
0
  0
LINE
  8
0
 10
785.292686
 20
135.722441
 30
0
 11
786.500000
 21
139.000000
 31
0
  0
LINE
  8
0
 10
786.500000
 20
139.000000
 30
0
 11
787.497356
 21
142.672231
 31
0
  0
LINE
  8
0
 10
787.497356
 20
142.672231
 30
0
 11
787.377329
 21
144.952752
 31
0
  0
LINE
  8
0
 10
787.377329
 20
144.952752
 30
0
 11
786.000000
 21
148.500000
 31
0
  0
LINE
  8
0
 10
786.000000
 20
148.500000
 30
0
 11
783.125053
 21
151.884476
 31
0
  0
LINE
  8
0
 10
783.125053
 20
151.884476
 30
0
 11
781.116738
 21
153.334926
 31
0
  0
LINE
  8
0
 10
781.116738
 20
153.334926
 30
0
 11
777.000000
 21
155.000000
 31
0
  0
LINE
  8
0
 10
777.000000
 20
155.000000
 30
0
 11
773.000000
 21
155.000000
 31
0
  0
LINE
  8
0
 10
773.000000
 20
155.000000
 30
0
 11
771.000000
 21
155.000000
 31
0
  0
LINE
  8
0
 10
771.000000
 20
155.000000
 30
0
 11
767.000000
 21
155.000000
 31
0
  0
LINE
  8
0
 10
767.000000
 20
155.000000
 30
0
 11
763.693262
 21
156.478338
 31
0
  0
LINE
  8
0
 10
763.693262
 20
156.478338
 30
0
 11
761.550599
 21
156.716412
 31
0
  0
LINE
  8
0
 10
761.550599
 20
156.716412
 30
0
 11
758.000000
 21
156.000000
 31
0
  0
LINE
  8
0
 10
758.000000
 20
156.000000
 30
0
 11
758.000000
 21
157.000000
 31
0
  0
LINE
  8
0
 10
758.000000
 20
157.000000
 30
0
 11
758.000000
 21
157.500000
 31
0
  0
LINE
  8
0
 10
758.000000
 20
157.500000
 30
0
 11
758.000000
 21
158.500000
 31
0
  0
LINE
  8
0
 10
758.000000
 20
158.500000
 30
0
 11
760.597794
 21
160.702604
 31
0
  0
LINE
  8
0
 10
760.597794
 20
160.702604
 30
0
 11
761.757756
 21
162.073468
 31
0
  0
LINE
  8
0
 10
761.757756
 20
162.073468
 30
0
 11
763.500000
 21
165.000000
 31
0
  0
LINE
  8
0
 10
763.500000
 20
165.000000
 30
0
 11
764.298344
 21
167.059769
 31
0
  0
LINE
  8
0
 10
764.298344
 20
167.059769
 30
0
 11
764.156690
 21
168.617962
 31
0
  0
LINE
  8
0
 10
764.156690
 20
168.617962
 30
0
 11
763.000000
 21
170.500000
 31
0
  0
LINE
  8
0
 10
763.000000
 20
170.500000
 30
0
 11
760.254426
 21
173.088788
 31
0
  0
LINE
  8
0
 10
760.254426
 20
173.088788
 30
0
 11
758.530117
 21
174.166481
 31
0
  0
LINE
  8
0
 10
758.530117
 20
174.166481
 30
0
 11
755.000000
 21
175.500000
 31
0
  0
LINE
  8
0
 10
755.000000
 20
175.500000
 30
0
 11
750.529939
 21
175.363776
 31
0
  0
LINE
  8
0
 10
750.529939
 20
175.363776
 30
0
 11
747.791016
 21
173.994314
 31
0
  0
LINE
  8
0
 10
747.791016
 20
173.994314
 30
0
 11
745.000000
 21
170.500000
 31
0
  0
LINE
  8
0
 10
745.000000
 20
170.500000
 30
0
 11
743.625596
 21
168.492262
 31
0
  0
LINE
  8
0
 10
743.625596
 20
168.492262
 30
0
 11
743.351046
 21
166.844965
 31
0
  0
LINE
  8
0
 10
743.351046
 20
166.844965
 30
0
 11
744.000000
 21
164.500000
 31
0
  0
LINE
  8
0
 10
744.000000
 20
164.500000
 30
0
 11
746.200000
 21
162.300000
 31
0
  0
LINE
  8
0
 10
746.200000
 20
162.300000
 30
0
 11
747.300000
 21
161.200000
 31
0
  0
LINE
  8
0
 10
747.300000
 20
161.200000
 30
0
 11
749.500000
 21
159.000000
 31
0
  0
LINE
  8
0
 10
749.500000
 20
159.000000
 30
0
 11
750.432147
 21
157.684286
 31
0
  0
LINE
  8
0
 10
750.432147
 20
157.684286
 30
0
 11
750.227333
 21
156.045779
 31
0
  0
LINE
  8
0
 10
750.227333
 20
156.045779
 30
0
 11
749.000000
 21
155.000000
 31
0
  0
LINE
  8
0
 10
749.000000
 20
155.000000
 30
0
 11
741.000000
 21
155.000000
 31
0
  0
LINE
  8
0
 10
741.000000
 20
155.000000
 30
0
 11
737.000000
 21
155.000000
 31
0
  0
LINE
  8
0
 10
737.000000
 20
155.000000
 30
0
 11
729.000000
 21
155.000000
 31
0
  0
LINE
  8
0
 10
729.000000
 20
155.000000
 30
0
 11
728.309001
 21
155.826148
 31
0
  0
LINE
  8
0
 10
728.309001
 20
155.826148
 30
0
 11
728.069379
 21
156.425204
 31
0
  0
LINE
  8
0
 10
728.069379
 20
156.425204
 30
0
 11
728.000000
 21
157.500000
 31
0
  0
LINE
  8
0
 10
728.000000
 20
157.500000
 30
0
 11
730.242503
 21
160.266077
 31
0
  0
LINE
  8
0
 10
730.242503
 20
160.266077
 30
0
 11
731.781895
 21
161.475599
 31
0
  0
LINE
  8
0
 10
731.781895
 20
161.475599
 30
0
 11
735.000000
 21
163.000000
 31
0
  0
LINE
  8
0
 10
735.000000
 20
163.000000
 30
0
 11
735.933895
 21
165.878861
 31
0
  0
LINE
  8
0
 10
735.933895
 20
165.878861
 30
0
 11
736.146984
 21
167.477022
 31
0
  0
LINE
  8
0
 10
736.146984
 20
167.477022
 30
0
 11
736.000000
 21
170.500000
 31
0
  0
LINE
  8
0
 10
736.000000
 20
170.500000
 30
0
 11
732.819156
 21
173.249951
 31
0
  0
LINE
  8
0
 10
732.819156
 20
173.249951
 30
0
 11
730.642804
 21
174.280854
 31
0
  0
LINE
  8
0
 10
730.642804
 20
174.280854
 30
0
 11
726.500000
 21
175.000000
 31
0
  0
LINE
  8
0
 10
726.500000
 20
175.000000
 30
0
 11
724.685133
 21
176.306237
 31
0
  0
LINE
  8
0
 10
724.685133
 20
176.306237
 30
0
 11
723.158512
 21
176.583805
 31
0
  0
LINE
  8
0
 10
723.158512
 20
176.583805
 30
0
 11
721.000000
 21
176.000000
 31
0
  0
LINE
  8
0
 10
721.000000
 20
176.000000
 30
0
 11
717.411580
 21
173.781162
 31
0
  0
LINE
  8
0
 10
717.411580
 20
173.781162
 30
0
 11
715.611481
 21
172.681101
 31
0
  0
LINE
  8
0
 10
715.611481
 20
172.681101
 30
0
 11
712.000000
 21
170.500000
 31
0
  0
LINE
  8
0
 10
712.000000
 20
170.500000
 30
0
 11
710.763642
 21
168.877835
 31
0
  0
LINE
  8
0
 10
710.763642
 20
168.877835
 30
0
 11
710.482656
 21
167.472905
 31
0
  0
LINE
  8
0
 10
710.482656
 20
167.472905
 30
0
 11
711.000000
 21
165.500000
 31
0
  0
LINE
  8
0
 10
711.000000
 20
165.500000
 30
0
 11
713.461778
 21
163.146354
 31
0
  0
LINE
  8
0
 10
713.461778
 20
163.146354
 30
0
 11
714.771351
 21
162.038253
 31
0
  0
LINE
  8
0
 10
714.771351
 20
162.038253
 30
0
 11
717.500000
 21
160.000000
 31
0
  0
LINE
  8
0
 10
717.500000
 20
160.000000
 30
0
 11
718.903988
 21
159.025927
 31
0
  0
LINE
  8
0
 10
718.903988
 20
159.025927
 30
0
 11
719.417313
 21
157.657061
 31
0
  0
LINE
  8
0
 10
719.417313
 20
157.657061
 30
0
 11
719.000000
 21
156.000000
 31
0
  0
LINE
  8
0
 10
719.000000
 20
156.000000
 30
0
 11
718.237399
 21
156.313752
 31
0
  0
LINE
  8
0
 10
718.237399
 20
156.313752
 30
0
 11
717.525235
 21
156.135711
 31
0
  0
LINE
  8
0
 10
717.525235
 20
156.135711
 30
0
 11
717.000000
 21
155.500000
 31
0
  0
LINE
  8
0
 10
717.000000
 20
155.500000
 30
0
 11
713.158216
 21
155.701732
 31
0
  0
LINE
  8
0
 10
713.158216
 20
155.701732
 30
0
 11
711.217042
 21
156.008233
 31
0
  0
LINE
  8
0
 10
711.217042
 20
156.008233
 30
0
 11
707.500000
 21
157.000000
 31
0
  0
LINE
  8
0
 10
707.500000
 20
157.000000
 30
0
 11
703.223381
 21
158.873642
 31
0
  0
LINE
  8
0
 10
703.223381
 20
158.873642
 30
0
 11
700.658083
 21
159.319781
 31
0
  0
LINE
  8
0
 10
700.658083
 20
159.319781
 30
0
 11
696.000000
 21
159.000000
 31
0
  0
LINE
  8
0
 10
696.000000
 20
159.000000
 30
0
 11
695.309001
 21
158.173852
 31
0
  0
LINE
  8
0
 10
695.309001
 20
158.173852
 30
0
 11
695.069379
 21
157.574796
 31
0
  0
LINE
  8
0
 10
695.069379
 20
157.574796
 30
0
 11
695.000000
 21
156.500000
 31
0
  0
LINE
  8
0
 10
695.000000
 20
156.500000
 30
0
 11
691.862527
 21
152.845378
 31
0
  0
LINE
  8
0
 10
691.862527
 20
152.845378
 30
0
 11
689.997260
 21
151.187362
 31
0
  0
LINE
  8
0
 10
689.997260
 20
151.187362
 30
0
 11
686.000000
 21
148.500000
 31
0
  0
LINE
  8
0
 10
686.000000
 20
148.500000
 30
0
 11
679.603938
 21
144.714449
 31
0
  0
LINE
  8
0
 10
679.603938
 20
144.714449
 30
0
 11
676.107889
 21
143.172075
 31
0
  0
LINE
  8
0
 10
676.107889
 20
143.172075
 30
0
 11
669.000000
 21
141.000000
 31
0
  0
LINE
  8
0
 10
669.000000
 20
141.000000
 30
0
 11
666.000000
 21
141.000000
 31
0
  0
LINE
  8
0
 10
666.000000
 20
141.000000
 30
0
 11
669.000000
 21
141.000000
 31
0
  0
LINE
  8
0
 10
669.000000
 20
141.000000
 30
0
 11
666.000000
 21
141.000000
 31
0
  0
LINE
  8
0
 10
666.000000
 20
141.000000
 30
0
 11
666.000000
 21
140.000000
 31
0
  0
LINE
  8
0
 10
666.000000
 20
140.000000
 30
0
 11
666.000000
 21
141.000000
 31
0
  0
LINE
  8
0
 10
666.000000
 20
141.000000
 30
0
 11
666.000000
 21
140.000000
 31
0
  0
LINE
  8
0
 10
666.000000
 20
140.000000
 30
0
 11
665.556874
 21
139.939677
 31
0
  0
LINE
  8
0
 10
665.556874
 20
139.939677
 30
0
 11
665.282383
 21
139.390695
 31
0
  0
LINE
  8
0
 10
665.282383
 20
139.390695
 30
0
 11
665.500000
 21
139.000000
 31
0
  0
LINE
  8
0
 10
665.500000
 20
139.000000
 30
0
 11
665.890924
 21
138.782794
 31
0
  0
LINE
  8
0
 10
665.890924
 20
138.782794
 30
0
 11
666.060790
 21
138.443063
 31
0
  0
LINE
  8
0
 10
666.060790
 20
138.443063
 30
0
 11
666.000000
 21
138.000000
 31
0
  0
LINE
  8
0
 10
666.000000
 20
138.000000
 30
0
 11
670.000000
 21
138.000000
 31
0
  0
LINE
  8
0
 10
670.000000
 20
138.000000
 30
0
 11
672.000000
 21
138.000000
 31
0
  0
LINE
  8
0
 10
672.000000
 20
138.000000
 30
0
 11
676.000000
 21
138.000000
 31
0
  0
LINE
  8
0
 10
676.000000
 20
138.000000
 30
0
 11
677.435998
 21
136.551584
 31
0
  0
LINE
  8
0
 10
677.435998
 20
136.551584
 30
0
 11
679.117380
 21
136.215308
 31
0
  0
LINE
  8
0
 10
679.117380
 20
136.215308
 30
0
 11
681.000000
 21
137.000000
 31
0
  0
LINE
  8
0
 10
681.000000
 20
137.000000
 30
0
 11
681.000000
 21
135.000000
 31
0
  0
LINE
  8
0
 10
681.000000
 20
135.000000
 30
0
 11
681.000000
 21
137.000000
 31
0
  0
LINE
  8
0
 10
681.000000
 20
137.000000
 30
0
 11
681.000000
 21
135.000000
 31
0
  0
LINE
  8
0
 10
681.000000
 20
135.000000
 30
0
 11
695.000000
 21
135.000000
 31
0
  0
LINE
  8
0
 10
695.000000
 20
135.000000
 30
0
 11
681.000000
 21
135.000000
 31
0
  0
LINE
  8
0
 10
681.000000
 20
135.000000
 30
0
 11
695.000000
 21
135.000000
 31
0
  0
LINE
  8
0
 10
695.000000
 20
135.000000
 30
0
 11
695.000000
 21
135.400000
 31
0
  0
LINE
  8
0
 10
695.000000
 20
135.400000
 30
0
 11
695.000000
 21
135.600000
 31
0
  0
LINE
  8
0
 10
695.000000
 20
135.600000
 30
0
 11
695.000000
 21
136.000000
 31
0
  0
LINE
  8
0
 10
695.000000
 20
136.000000
 30
0
 11
705.000000
 21
136.000000
 31
0
  0
LINE
  8
0
 10
705.000000
 20
136.000000
 30
0
 11
695.000000
 21
136.000000
 31
0
  0
LINE
  8
0
 10
695.000000
 20
136.000000
 30
0
 11
705.000000
 21
136.000000
 31
0
  0
LINE
  8
0
 10
705.000000
 20
136.000000
 30
0
 11
706.247673
 21
134.436891
 31
0
  0
LINE
  8
0
 10
706.247673
 20
134.436891
 30
0
 11
707.150066
 21
133.760096
 31
0
  0
LINE
  8
0
 10
707.150066
 20
133.760096
 30
0
 11
709.000000
 21
133.000000
 31
0
  0
LINE
  8
0
 10
709.000000
 20
133.000000
 30
0
 11
709.000000
 21
132.000000
 31
0
  0
LINE
  8
0
 10
709.000000
 20
132.000000
 30
0
 11
709.000000
 21
133.000000
 31
0
  0
LINE
  8
0
 10
709.000000
 20
133.000000
 30
0
 11
709.000000
 21
132.000000
 31
0
  0
LINE
  8
0
 10
709.000000
 20
132.000000
 30
0
 11
723.000000
 21
132.000000
 31
0
  0
LINE
  8
0
 10
723.000000
 20
132.000000
 30
0
 11
709.000000
 21
132.000000
 31
0
  0
LINE
  8
0
 10
709.000000
 20
132.000000
 30
0
 11
723.000000
 21
132.000000
 31
0
  0
LINE
  8
0
 10
723.000000
 20
132.000000
 30
0
 11
728.608264
 21
130.225915
 31
0
  0
LINE
  8
0
 10
728.608264
 20
130.225915
 30
0
 11
731.408384
 21
129.325877
 31
0
  0
LINE
  8
0
 10
731.408384
 20
129.325877
 30
0
 11
737.000000
 21
127.500000
 31
0
  0
LINE
  8
0
 10
737.000000
 20
127.500000
 30
0
 11
742.304471
 21
125.843924
 31
0
  0
LINE
  8
0
 10
742.304471
 20
125.843924
 30
0
 11
744.947432
 21
124.302196
 31
0
  0
LINE
  8
0
 10
744.947432
 20
124.302196
 30
0
 11
749.000000
 21
120.500000
 31
0
  0
LINE
  8
0
 10
749.000000
 20
120.500000
 30
0
 11
749.612943
 21
120.344113
 31
0
  0
LINE
  8
0
 10
749.612943
 20
120.344113
 30
0
 11
749.896822
 21
119.492476
 31
0
  0
LINE
  8
0
 10
749.896822
 20
119.492476
 30
0
 11
749.500000
 21
119.000000
 31
0
  0
LINE
  8
0
 10
749.500000
 20
119.000000
 30
0
 11
749.055351
 21
118.952173
 31
0
  0
LINE
  8
0
 10
749.055351
 20
118.952173
 30
0
 11
748.771472
 21
118.384415
 31
0
  0
LINE
  8
0
 10
748.771472
 20
118.384415
 30
0
 11
749.000000
 21
118.000000
 31
0
  0
LINE
  8
0
 10
749.000000
 20
118.000000
 30
0
 11
733.000000
 21
118.000000
 31
0
  0
LINE
  8
0
 10
733.000000
 20
118.000000
 30
0
 11
749.000000
 21
118.000000
 31
0
  0
LINE
  8
0
 10
749.000000
 20
118.000000
 30
0
 11
733.000000
 21
118.000000
 31
0
  0
LINE
  8
0
 10
733.000000
 20
118.000000
 30
0
 11
733.000000
 21
117.600000
 31
0
  0
LINE
  8
0
 10
733.000000
 20
117.600000
 30
0
 11
733.000000
 21
117.400000
 31
0
  0
LINE
  8
0
 10
733.000000
 20
117.400000
 30
0
 11
733.000000
 21
117.000000
 31
0
  0
LINE
  8
0
 10
733.000000
 20
117.000000
 30
0
 11
731.940737
 21
116.308652
 31
0
  0
LINE
  8
0
 10
731.940737
 20
116.308652
 30
0
 11
730.432601
 21
116.811364
 31
0
  0
LINE
  8
0
 10
730.432601
 20
116.811364
 30
0
 11
730.000000
 21
118.000000
 31
0
  0
LINE
  8
0
 10
730.000000
 20
118.000000
 30
0
 11
700.000000
 21
118.000000
 31
0
  0
LINE
  8
0
 10
700.000000
 20
118.000000
 30
0
 11
730.000000
 21
118.000000
 31
0
  0
LINE
  8
0
 10
730.000000
 20
118.000000
 30
0
 11
700.000000
 21
118.000000
 31
0
  0
LINE
  8
0
 10
700.000000
 20
118.000000
 30
0
 11
700.000000
 21
118.400000
 31
0
  0
LINE
  8
0
 10
700.000000
 20
118.400000
 30
0
 11
700.000000
 21
118.600000
 31
0
  0
LINE
  8
0
 10
700.000000
 20
118.600000
 30
0
 11
700.000000
 21
119.000000
 31
0
  0
LINE
  8
0
 10
700.000000
 20
119.000000
 30
0
 11
693.988313
 21
118.859939
 31
0
  0
LINE
  8
0
 10
693.988313
 20
118.859939
 30
0
 11
690.977079
 21
118.659191
 31
0
  0
LINE
  8
0
 10
690.977079
 20
118.659191
 30
0
 11
685.000000
 21
118.000000
 31
0
  0
LINE
  8
0
 10
685.000000
 20
118.000000
 30
0
 11
683.800000
 21
117.200000
 31
0
  0
LINE
  8
0
 10
683.800000
 20
117.200000
 30
0
 11
683.200000
 21
116.800000
 31
0
  0
LINE
  8
0
 10
683.200000
 20
116.800000
 30
0
 11
682.000000
 21
116.000000
 31
0
  0
LINE
  8
0
 10
682.000000
 20
116.000000
 30
0
 11
678.000000
 21
116.000000
 31
0
  0
LINE
  8
0
 10
678.000000
 20
116.000000
 30
0
 11
682.000000
 21
116.000000
 31
0
  0
LINE
  8
0
 10
682.000000
 20
116.000000
 30
0
 11
678.000000
 21
116.000000
 31
0
  0
LINE
  8
0
 10
678.000000
 20
116.000000
 30
0
 11
678.000000
 21
115.600000
 31
0
  0
LINE
  8
0
 10
678.000000
 20
115.600000
 30
0
 11
678.000000
 21
115.400000
 31
0
  0
LINE
  8
0
 10
678.000000
 20
115.400000
 30
0
 11
678.000000
 21
115.000000
 31
0
  0
LINE
  8
0
 10
678.000000
 20
115.000000
 30
0
 11
671.000000
 21
115.000000
 31
0
  0
LINE
  8
0
 10
671.000000
 20
115.000000
 30
0
 11
678.000000
 21
115.000000
 31
0
  0
LINE
  8
0
 10
678.000000
 20
115.000000
 30
0
 11
671.000000
 21
115.000000
 31
0
  0
LINE
  8
0
 10
671.000000
 20
115.000000
 30
0
 11
671.000000
 21
114.600000
 31
0
  0
LINE
  8
0
 10
671.000000
 20
114.600000
 30
0
 11
671.000000
 21
114.400000
 31
0
  0
LINE
  8
0
 10
671.000000
 20
114.400000
 30
0
 11
671.000000
 21
114.000000
 31
0
  0
LINE
  8
0
 10
671.000000
 20
114.000000
 30
0
 11
665.000000
 21
114.000000
 31
0
  0
LINE
  8
0
 10
665.000000
 20
114.000000
 30
0
 11
662.000000
 21
114.000000
 31
0
  0
LINE
  8
0
 10
662.000000
 20
114.000000
 30
0
 11
656.000000
 21
114.000000
 31
0
  0
LINE
  8
0
 10
656.000000
 20
114.000000
 30
0
 11
656.169695
 21
112.120850
 31
0
  0
LINE
  8
0
 10
656.169695
 20
112.120850
 30
0
 11
656.885238
 21
110.975983
 31
0
  0
LINE
  8
0
 10
656.885238
 20
110.975983
 30
0
 11
658.500000
 21
110.000000
 31
0
  0
LINE
  8
0
 10
658.500000
 20
110.000000
 30
0
 11
661.884169
 21
110.517105
 31
0
  0
LINE
  8
0
 10
661.884169
 20
110.517105
 30
0
 11
663.828242
 21
110.288391
 31
0
  0
LINE
  8
0
 10
663.828242
 20
110.288391
 30
0
 11
667.000000
 21
109.000000
 31
0
  0
LINE
  8
0
 10
667.000000
 20
109.000000
 30
0
 11
671.377147
 21
107.102479
 31
0
  0
LINE
  8
0
 10
671.377147
 20
107.102479
 30
0
 11
673.488872
 21
105.729858
 31
0
  0
LINE
  8
0
 10
673.488872
 20
105.729858
 30
0
 11
677.000000
 21
102.500000
 31
0
  0
LINE
  8
0
 10
677.000000
 20
102.500000
 30
0
 11
679.292157
 21
97.138469
 31
0
  0
LINE
  8
0
 10
679.292157
 20
97.138469
 30
0
 11
680.847899
 21
94.545565
 31
0
  0
LINE
  8
0
 10
680.847899
 20
94.545565
 30
0
 11
684.500000
 21
90.000000
 31
0
  0
LINE
  8
0
 10
684.500000
 20
90.000000
 30
0
 11
687.167326
 21
89.926708
 31
0
  0
LINE
  8
0
 10
687.167326
 20
89.926708
 30
0
 11
688.634520
 21
90.265291
 31
0
  0
LINE
  8
0
 10
688.634520
 20
90.265291
 30
0
 11
691.000000
 21
91.500000
 31
0
  0
LINE
  8
0
 10
691.000000
 20
91.500000
 30
0
 11
692.468257
 21
92.251146
 31
0
  0
LINE
  8
0
 10
692.468257
 20
92.251146
 30
0
 11
693.350998
 21
92.471831
 31
0
  0
LINE
  8
0
 10
693.350998
 20
92.471831
 30
0
 11
695.000000
 21
92.500000
 31
0
  0
LINE
  8
0
 10
695.000000
 20
92.500000
 30
0
 11
698.000000
 21
93.100000
 31
0
  0
LINE
  8
0
 10
698.000000
 20
93.100000
 30
0
 11
699.500000
 21
93.400000
 31
0
  0
LINE
  8
0
 10
699.500000
 20
93.400000
 30
0
 11
702.500000
 21
94.000000
 31
0
  0
LINE
  8
0
 10
702.500000
 20
94.000000
 30
0
 11
703.410041
 21
93.423957
 31
0
  0
LINE
  8
0
 10
703.410041
 20
93.423957
 30
0
 11
704.738276
 21
93.955251
 31
0
  0
LINE
  8
0
 10
704.738276
 20
93.955251
 30
0
 11
705.000000
 21
95.000000
 31
0
  0
LINE
  8
0
 10
705.000000
 20
95.000000
 30
0
 11
708.000000
 21
95.000000
 31
0
  0
LINE
  8
0
 10
708.000000
 20
95.000000
 30
0
 11
705.000000
 21
95.000000
 31
0
  0
LINE
  8
0
 10
705.000000
 20
95.000000
 30
0
 11
708.000000
 21
95.000000
 31
0
  0
LINE
  8
0
 10
708.000000
 20
95.000000
 30
0
 11
708.701653
 21
92.311565
 31
0
  0
LINE
  8
0
 10
708.701653
 20
92.311565
 30
0
 11
709.505181
 21
90.934088
 31
0
  0
LINE
  8
0
 10
709.505181
 20
90.934088
 30
0
 11
711.500000
 21
89.000000
 31
0
  0
LINE
  8
0
 10
711.500000
 20
89.000000
 30
0
 11
713.823243
 21
90.898037
 31
0
  0
LINE
  8
0
 10
713.823243
 20
90.898037
 30
0
 11
714.828393
 21
92.238237
 31
0
  0
LINE
  8
0
 10
714.828393
 20
92.238237
 30
0
 11
716.000000
 21
95.000000
 31
0
  0
LINE
  8
0
 10
756.000000
 20
84.000000
 30
0
 11
760.000000
 21
84.000000
 31
0
  0
LINE
  8
0
 10
760.000000
 20
84.000000
 30
0
 11
756.000000
 21
84.000000
 31
0
  0
LINE
  8
0
 10
756.000000
 20
84.000000
 30
0
 11
760.000000
 21
84.000000
 31
0
  0
LINE
  8
0
 10
760.000000
 20
84.000000
 30
0
 11
760.942187
 21
85.585018
 31
0
  0
LINE
  8
0
 10
760.942187
 20
85.585018
 30
0
 11
761.182209
 21
86.665116
 31
0
  0
LINE
  8
0
 10
761.182209
 20
86.665116
 30
0
 11
761.000000
 21
88.500000
 31
0
  0
LINE
  8
0
 10
761.000000
 20
88.500000
 30
0
 11
760.158616
 21
89.816083
 31
0
  0
LINE
  8
0
 10
760.158616
 20
89.816083
 30
0
 11
759.446232
 21
90.409736
 31
0
  0
LINE
  8
0
 10
759.446232
 20
90.409736
 30
0
 11
758.000000
 21
91.000000
 31
0
  0
LINE
  8
0
 10
758.000000
 20
91.000000
 30
0
 11
758.000000
 21
92.000000
 31
0
  0
LINE
  8
0
 10
758.000000
 20
92.000000
 30
0
 11
758.000000
 21
91.000000
 31
0
  0
LINE
  8
0
 10
758.000000
 20
91.000000
 30
0
 11
758.000000
 21
92.000000
 31
0
  0
LINE
  8
0
 10
758.000000
 20
92.000000
 30
0
 11
756.000000
 21
92.000000
 31
0
  0
LINE
  8
0
 10
756.000000
 20
92.000000
 30
0
 11
758.000000
 21
92.000000
 31
0
  0
LINE
  8
0
 10
758.000000
 20
92.000000
 30
0
 11
756.000000
 21
92.000000
 31
0
  0
LINE
  8
0
 10
756.000000
 20
92.000000
 30
0
 11
756.117151
 21
91.288470
 31
0
  0
LINE
  8
0
 10
756.117151
 20
91.288470
 30
0
 11
755.701855
 21
90.665526
 31
0
  0
LINE
  8
0
 10
755.701855
 20
90.665526
 30
0
 11
755.000000
 21
90.500000
 31
0
  0
LINE
  8
0
 10
755.000000
 20
90.500000
 30
0
 11
753.676704
 21
89.215910
 31
0
  0
LINE
  8
0
 10
753.676704
 20
89.215910
 30
0
 11
753.345099
 21
87.723689
 31
0
  0
LINE
  8
0
 10
753.345099
 20
87.723689
 30
0
 11
754.000000
 21
86.000000
 31
0
  0
LINE
  8
0
 10
754.000000
 20
86.000000
 30
0
 11
754.706658
 21
85.451699
 31
0
  0
LINE
  8
0
 10
754.706658
 20
85.451699
 30
0
 11
755.137364
 21
85.236346
 31
0
  0
LINE
  8
0
 10
755.137364
 20
85.236346
 30
0
 11
756.000000
 21
85.000000
 31
0
  0
LINE
  8
0
 10
756.000000
 20
85.000000
 30
0
 11
756.000000
 21
84.000000
 31
0
  0
LINE
  8
0
 10
756.000000
 20
84.000000
 30
0
 11
756.000000
 21
85.000000
 31
0
  0
LINE
  8
0
 10
756.000000
 20
85.000000
 30
0
 11
756.000000
 21
84.000000
 31
0
  0
ENDSEC
  0
EOF