  0
SECTION
  2
HEADER
  9
$ACADVER
  1
AC1009
  9
$LIMMIN
 10
0.000000
 20
0.000000
  9
$LIMMAX
 10
214.516060
 20
103.436932
  0
ENDSEC
  0
SECTION
  2
TABLES
  0
TABLE
  2
LTYPE
 70
     4
  0
LTYPE
  2
CONTINUOUS
 70
     0
  3
Solid line
 72
     65
 73
     0
 40
0.000000
  0
LTYPE
  2
HIDDEN
 70
     0
  3
 _ _ _ _ _ _ _ _ _ _ _
 72
     65
 73
     2
 40
0.375000
 49
0.250000
 49
-0.125000
  0
LTYPE
  2
DASHED
 70
     0
  3
 ___ ___ ___ ___ ___ ___ ___ 
 72
     65
 73
     2
 40
0.750000
 49
0.500000
 49
-0.250000
  0
LTYPE
  2
CENTER
 70
     0
  3
___ _ ___ _ ___ _ ___
 72
     65
 73
     4
 40
2.000000
 49
1.250000
 49
-0.250000
 49
0.250000
 49
-0.250000
  0
LTYPE
  2
BORDER
 70
     0
  3
___ ___ . ___ ___ . ___ ___
 72
     65
 73
     6
 40
1.750000
 49
0.500000
 49
-0.250000
 49
0.500000
 49
-0.250000
 49
0.000000
 49
-0.250000
  0
LTYPE
  2
DOT
 70
     0
  3
.................
 72
     65
 73
     2
 40
0.250000
 49
0.000000
 49
-0.250000
  0
LTYPE
  2
DASHDOT
 70
     0
  3
__ . __ . __ . __
 72
     65
 73
     4
 40
1.000000
 49
0.500000
 49
-0.250000
 49
0.000000
 49
-0.250000
  0
LTYPE
  2
DIVIDE
 70
     0
  3
___ .. ___ .. ___ .. ___
 72
     65
 73
     6
 40
1.250000
 49
0.500000
 49
-0.250000
 49
0.000000
 49
-0.250000
 49
0.000000
 49
-0.250000
  0
ENDTAB
  0
TABLE
  2
LAYER
 70
     8
  0
LAYER
  2
BLACK
 70
     0
 62
     1
  6
CONTINUOUS
  0
LAYER
  2
WHITE
 70
     0
 62
     7
  6
CONTINUOUS
  0
LAYER
  2
RED
 70
     0
 62
     1
  6
CONTINUOUS
  0
LAYER
  2
YELLOW
 70
     0
 62
     2
  6
CONTINUOUS
  0
LAYER
  2
GREEN
 70
     0
 62
     3
  6
CONTINUOUS
  0
LAYER
  2
CYAN
 70
     0
 62
     4
  6
CONTINUOUS
  0
LAYER
  2
BLUE
 70
     0
 62
     5
  6
CONTINUOUS
  0
LAYER
  2
MAGENTA
 70
     0
 62
     6
  6
CONTINUOUS
  0
ENDTAB
  0
TABLE
  2
APPID
 70
     1
  0
APPID
  2
TC_BEND_DATA
 70
     0
  0
ENDTAB
  0
ENDSEC
  0
SECTION
  2
BLOCKS
  0
ENDSEC
  0
SECTION
  2
ENTITIES
  0
ARC
  8
WHITE
 10
38.009757
 20
23.390234
 30
0.000000
 40
23.390234
 50
-137.233904
 51
-11.556698
  6
CONTINUOUS
  0
ARC
  8
WHITE
 10
37.975924
 20
23.327158
 30
0.000000
 40
23.322579
 50
40.780600
 51
222.708773
  6
CONTINUOUS
  0
ARC
  8
WHITE
 10
38.540478
 20
23.373681
 30
0.000000
 40
22.867134
 50
-11.782467
 51
41.616291
  6
CONTINUOUS
  0
ARC
  8
WHITE
 10
37.857254
 20
23.451908
 30
0.000000
 40
20.320528
 50
-135.060047
 51
3.387309
  6
CONTINUOUS
  0
ARC
  8
WHITE
 10
37.949064
 20
23.355930
 30
0.000000
 40
20.318153
 50
51.621153
 51
224.565493
  6
CONTINUOUS
  0
ARC
  8
WHITE
 10
37.876636
 20
23.433926
 30
0.000000
 40
20.302250
 50
3.441202
 51
51.324257
  6
CONTINUOUS
  0
ARC
  8
WHITE
 10
37.908590
 20
23.392172
 30
0.000000
 40
15.729397
 50
-8.572779
 51
218.446863
  6
CONTINUOUS
  0
ARC
  8
WHITE
 10
37.852261
 20
23.603323
 30
0.000000
 40
15.817842
 50
-140.827238
 51
-9.298677
  6
CONTINUOUS
  0
ARC
  8
WHITE
 10
45.304856
 20
24.256485
 30
0.000000
 40
2.964937
 50
-169.630935
 51
-74.023377
  6
CONTINUOUS
  0
ARC
  8
WHITE
 10
37.754800
 20
22.739187
 30
0.000000
 40
4.736797
 50
11.985275
 51
168.014725
  6
CONTINUOUS
  0
ARC
  8
WHITE
 10
30.504180
 20
24.202165
 30
0.000000
 40
2.660614
 50
-103.997324
 51
-10.378995
  6
CONTINUOUS
  0
ARC
  8
WHITE
 10
29.131270
 20
35.419450
 30
0.000000
 40
13.818161
 50
-100.555291
 51
-86.974326
  6
CONTINUOUS
  0
ARC
  8
WHITE
 10
26.959050
 20
24.332197
 30
0.000000
 40
2.522767
 50
160.326960
 51
261.817651
  6
CONTINUOUS
  0
ARC
  8
WHITE
 10
37.590215
 20
23.809552
 30
0.000000
 40
13.078831
 50
26.491064
 51
173.978724
  6
CONTINUOUS
  0
ARC
  8
WHITE
 10
39.537700
 20
23.990012
 30
0.000000
 40
11.277523
 50
3.221638
 51
30.086270
  6
CONTINUOUS
  0
ARC
  8
WHITE
 10
48.621116
 20
23.967448
 30
0.000000
 40
2.273103
 50
-81.430058
 51
16.782760
  6
CONTINUOUS
  0
ARC
  8
WHITE
 10
57.871895
 20
-71.948826
 30
0.000000
 40
94.091562
 50
95.435018
 51
97.174318
  6
CONTINUOUS
  0
ARC
  8
WHITE
 10
37.718368
 20
24.287011
 30
0.000000
 40
11.502858
 50
39.677557
 51
145.301549
  6
CONTINUOUS
  0
ARC
  8
WHITE
 10
46.008215
 20
31.179609
 30
0.000000
 40
0.721989
 50
-159.227745
 51
38.717508
  6
CONTINUOUS
  0
ARC
  8
WHITE
 10
36.850809
 20
20.527307
 30
0.000000
 40
13.417607
 50
50.788820
 51
129.804913
  6
CONTINUOUS
  0
CIRCLE
  8
WHITE
 10
37.659616
 20
23.395962
 30
0.000000
 40
3.118773
  6
CONTINUOUS
  0
ARC
  8
WHITE
 10
30.479373
 20
13.264531
 30
0.000000
 40
0.842710
 50
26.500448
 51
241.333825
  6
CONTINUOUS
  0
ARC
  8
WHITE
 10
38.518413
 20
24.203502
 30
0.000000
 40
12.831418
 50
-124.592583
 51
-29.925683
  6
CONTINUOUS
  0
ARC
  8
WHITE
 10
37.852853
 20
22.594027
 30
0.000000
 40
12.723056
 50
-127.684291
 51
-22.124751
  6
CONTINUOUS
  0
CIRCLE
  8
WHITE
 10
27.660865
 20
12.970413
 30
0.000000
 40
0.891777
  6
CONTINUOUS
  0
CIRCLE
  8
WHITE
 10
47.870881
 20
12.959943
 30
0.000000
 40
0.857304
  6
CONTINUOUS
  0
ARC
  8
WHITE
 10
33.775547
 20
19.934547
 30
0.000000
 40
9.140231
 50
-146.675227
 51
-136.780695
  6
CONTINUOUS
  0
ARC
  8
WHITE
 10
37.917094
 20
23.590808
 30
0.000000
 40
14.630269
 50
4.228391
 51
216.379960
  6
CONTINUOUS
  0
ARC
  8
WHITE
 10
37.846383
 20
23.474759
 30
0.000000
 40
14.709759
 50
-126.132048
 51
4.658877
  6
CONTINUOUS
  0
ARC
  8
WHITE
 10
31.244595
 20
14.726226
 30
0.000000
 40
3.755192
 50
-141.141472
 51
-123.484739
  6
CONTINUOUS
  0
LINE
  8
WHITE
 10
199.070940
 20
23.465432
 30
0.000000
 11
199.036300
 21
22.273872
 31
0.000000
  6
CONTINUOUS
  0
LINE
  8
WHITE
 10
199.036300
 20
22.273872
 30
0.000000
 11
198.933660
 21
21.100012
 31
0.000000
  6
CONTINUOUS
  0
LINE
  8
WHITE
 10
198.933660
 20
21.100012
 30
0.000000
 11
198.764940
 21
19.945772
 31
0.000000
  6
CONTINUOUS
  0
LINE
  8
WHITE
 10
198.764940
 20
19.945772
 30
0.000000
 11
198.532100
 21
18.813112
 31
0.000000
  6
CONTINUOUS
  0
LINE
  8
WHITE
 10
198.532100
 20
18.813112
 30
0.000000
 11
198.237040
 21
17.703932
 31
0.000000
  6
CONTINUOUS
  0
LINE
  8
WHITE
 10
198.237040
 20
17.703932
 30
0.000000
 11
197.881740
 21
16.620212
 31
0.000000
  6
CONTINUOUS
  0
LINE
  8
WHITE
 10
197.881740
 20
16.620212
 30
0.000000
 11
197.468100
 21
15.563852
 31
0.000000
  6
CONTINUOUS
  0
LINE
  8
WHITE
 10
197.468100
 20
15.563852
 30
0.000000
 11
196.998080
 21
14.536792
 31
0.000000
  6
CONTINUOUS
  0
LINE
  8
WHITE
 10
196.998080
 20
14.536792
 30
0.000000
 11
196.473600
 21
13.540972
 31
0.000000
  6
CONTINUOUS
  0
LINE
  8
WHITE
 10
196.473600
 20
13.540972
 30
0.000000
 11
195.896580
 21
12.578332
 31
0.000000
  6
CONTINUOUS
  0
LINE
  8
WHITE
 10
195.896580
 20
12.578332
 30
0.000000
 11
195.268980
 21
11.650792
 31
0.000000
  6
CONTINUOUS
  0
LINE
  8
WHITE
 10
195.268980
 20
11.650792
 30
0.000000
 11
194.592740
 21
10.760292
 31
0.000000
  6
CONTINUOUS
  0
LINE
  8
WHITE
 10
194.592740
 20
10.760292
 30
0.000000
 11
193.869780
 21
9.908792
 31
0.000000
  6
CONTINUOUS
  0
LINE
  8
WHITE
 10
193.869780
 20
9.908792
 30
0.000000
 11
193.102020
 21
9.098192
 31
0.000000
  6
CONTINUOUS
  0
LINE
  8
WHITE
 10
193.102020
 20
9.098192
 30
0.000000
 11
192.291420
 21
8.330452
 31
0.000000
  6
CONTINUOUS
  0
LINE
  8
WHITE
 10
192.291420
 20
8.330452
 30
0.000000
 11
191.439900
 21
7.607472
 31
0.000000
  6
CONTINUOUS
  0
LINE
  8
WHITE
 10
191.439900
 20
7.607472
 30
0.000000
 11
190.549420
 21
6.931232
 31
0.000000
  6
CONTINUOUS
  0
LINE
  8
WHITE
 10
190.549420
 20
6.931232
 30
0.000000
 11
189.621880
 21
6.303632
 31
0.000000
  6
CONTINUOUS
  0
LINE
  8
WHITE
 10
189.621880
 20
6.303632
 30
0.000000
 11
188.659240
 21
5.726632
 31
0.000000
  6
CONTINUOUS
  0
LINE
  8
WHITE
 10
188.659240
 20
5.726632
 30
0.000000
 11
187.663420
 21
5.202152
 31
0.000000
  6
CONTINUOUS
  0
LINE
  8
WHITE
 10
187.663420
 20
5.202152
 30
0.000000
 11
186.636360
 21
4.732132
 31
0.000000
  6
CONTINUOUS
  0
LINE
  8
WHITE
 10
186.636360
 20
4.732132
 30
0.000000
 11
185.580000
 21
4.318492
 31
0.000000
  6
CONTINUOUS
  0
LINE
  8
WHITE
 10
185.580000
 20
4.318492
 30
0.000000
 11
184.496280
 21
3.963192
 31
0.000000
  6
CONTINUOUS
  0
LINE
  8
WHITE
 10
184.496280
 20
3.963192
 30
0.000000
 11
183.387100
 21
3.668152
 31
0.000000
  6
CONTINUOUS
  0
LINE
  8
WHITE
 10
183.387100
 20
3.668152
 30
0.000000
 11
182.254440
 21
3.435292
 31
0.000000
  6
CONTINUOUS
  0
LINE
  8
WHITE
 10
182.254440
 20
3.435292
 30
0.000000
 11
181.100220
 21
3.266592
 31
0.000000
  6
CONTINUOUS
  0
LINE
  8
WHITE
 10
181.100220
 20
3.266592
 30
0.000000
 11
179.926360
 21
3.163932
 31
0.000000
  6
CONTINUOUS
  0
LINE
  8
WHITE
 10
179.926360
 20
3.163932
 30
0.000000
 11
178.734800
 21
3.129292
 31
0.000000
  6
CONTINUOUS
  0
LINE
  8
WHITE
 10
178.734800
 20
3.129292
 30
0.000000
 11
177.543260
 21
3.163932
 31
0.000000
  6
CONTINUOUS
  0
LINE
  8
WHITE
 10
177.543260
 20
3.163932
 30
0.000000
 11
176.369400
 21
3.266592
 31
0.000000
  6
CONTINUOUS
  0
LINE
  8
WHITE
 10
176.369400
 20
3.266592
 30
0.000000
 11
175.215160
 21
3.435292
 31
0.000000
  6
CONTINUOUS
  0
LINE
  8
WHITE
 10
175.215160
 20
3.435292
 30
0.000000
 11
174.082500
 21
3.668152
 31
0.000000
  6
CONTINUOUS
  0
LINE
  8
WHITE
 10
174.082500
 20
3.668152
 30
0.000000
 11
172.973340
 21
3.963192
 31
0.000000
  6
CONTINUOUS
  0
LINE
  8
WHITE
 10
172.973340
 20
3.963192
 30
0.000000
 11
171.889600
 21
4.318492
 31
0.000000
  6
CONTINUOUS
  0
LINE
  8
WHITE
 10
171.889600
 20
4.318492
 30
0.000000
 11
170.833240
 21
4.732132
 31
0.000000
  6
CONTINUOUS
  0
LINE
  8
WHITE
 10
170.833240
 20
4.732132
 30
0.000000
 11
169.806200
 21
5.202152
 31
0.000000
  6
CONTINUOUS
  0
LINE
  8
WHITE
 10
169.806200
 20
5.202152
 30
0.000000
 11
168.810380
 21
5.726632
 31
0.000000
  6
CONTINUOUS
  0
LINE
  8
WHITE
 10
168.810380
 20
5.726632
 30
0.000000
 11
167.847720
 21
6.303632
 31
0.000000
  6
CONTINUOUS
  0
LINE
  8
WHITE
 10
167.847720
 20
6.303632
 30
0.000000
 11
166.920200
 21
6.931232
 31
0.000000
  6
CONTINUOUS
  0
LINE
  8
WHITE
 10
166.920200
 20
6.931232
 30
0.000000
 11
166.029700
 21
7.607472
 31
0.000000
  6
CONTINUOUS
  0
LINE
  8
WHITE
 10
166.029700
 20
7.607472
 30
0.000000
 11
165.178180
 21
8.330452
 31
0.000000
  6
CONTINUOUS
  0
LINE
  8
WHITE
 10
165.178180
 20
8.330452
 30
0.000000
 11
164.367600
 21
9.098192
 31
0.000000
  6
CONTINUOUS
  0
LINE
  8
WHITE
 10
164.367600
 20
9.098192
 30
0.000000
 11
163.599840
 21
9.908792
 31
0.000000
  6
CONTINUOUS
  0
LINE
  8
WHITE
 10
163.599840
 20
9.908792
 30
0.000000
 11
162.876880
 21
10.760292
 31
0.000000
  6
CONTINUOUS
  0
LINE
  8
WHITE
 10
162.876880
 20
10.760292
 30
0.000000
 11
162.200620
 21
11.650792
 31
0.000000
  6
CONTINUOUS
  0
LINE
  8
WHITE
 10
162.200620
 20
11.650792
 30
0.000000
 11
161.573020
 21
12.578332
 31
0.000000
  6
CONTINUOUS
  0
LINE
  8
WHITE
 10
161.573020
 20
12.578332
 30
0.000000
 11
160.996020
 21
13.540972
 31
0.000000
  6
CONTINUOUS
  0
LINE
  8
WHITE
 10
160.996020
 20
13.540972
 30
0.000000
 11
160.471540
 21
14.536792
 31
0.000000
  6
CONTINUOUS
  0
LINE
  8
WHITE
 10
160.471540
 20
14.536792
 30
0.000000
 11
160.001500
 21
15.563852
 31
0.000000
  6
CONTINUOUS
  0
LINE
  8
WHITE
 10
160.001500
 20
15.563852
 30
0.000000
 11
159.587880
 21
16.620212
 31
0.000000
  6
CONTINUOUS
  0
LINE
  8
WHITE
 10
159.587880
 20
16.620212
 30
0.000000
 11
159.232560
 21
17.703932
 31
0.000000
  6
CONTINUOUS
  0
LINE
  8
WHITE
 10
159.232560
 20
17.703932
 30
0.000000
 11
158.937520
 21
18.813112
 31
0.000000
  6
CONTINUOUS
  0
LINE
  8
WHITE
 10
158.937520
 20
18.813112
 30
0.000000
 11
158.704680
 21
19.945772
 31
0.000000
  6
CONTINUOUS
  0
LINE
  8
WHITE
 10
158.704680
 20
19.945772
 30
0.000000
 11
158.535960
 21
21.100012
 31
0.000000
  6
CONTINUOUS
  0
LINE
  8
WHITE
 10
158.535960
 20
21.100012
 30
0.000000
 11
158.433300
 21
22.273872
 31
0.000000
  6
CONTINUOUS
  0
LINE
  8
WHITE
 10
158.433300
 20
22.273872
 30
0.000000
 11
158.398660
 21
23.465432
 31
0.000000
  6
CONTINUOUS
  0
LINE
  8
WHITE
 10
158.398660
 20
23.465432
 30
0.000000
 11
158.433300
 21
24.652552
 31
0.000000
  6
CONTINUOUS
  0
LINE
  8
WHITE
 10
158.433300
 20
24.652552
 30
0.000000
 11
158.535960
 21
25.822292
 31
0.000000
  6
CONTINUOUS
  0
LINE
  8
WHITE
 10
158.535960
 20
25.822292
 30
0.000000
 11
158.704680
 21
26.972712
 31
0.000000
  6
CONTINUOUS
  0
LINE
  8
WHITE
 10
158.704680
 20
26.972712
 30
0.000000
 11
158.937520
 21
28.101852
 31
0.000000
  6
CONTINUOUS
  0
LINE
  8
WHITE
 10
158.937520
 20
28.101852
 30
0.000000
 11
159.232560
 21
29.207772
 31
0.000000
  6
CONTINUOUS
  0
LINE
  8
WHITE
 10
159.232560
 20
29.207772
 30
0.000000
 11
159.587880
 21
30.288532
 31
0.000000
  6
CONTINUOUS
  0
LINE
  8
WHITE
 10
159.587880
 20
30.288532
 30
0.000000
 11
160.001500
 21
31.342172
 31
0.000000
  6
CONTINUOUS
  0
LINE
  8
WHITE
 10
160.001500
 20
31.342172
 30
0.000000
 11
160.471540
 21
32.366772
 31
0.000000
  6
CONTINUOUS
  0
LINE
  8
WHITE
 10
160.471540
 20
32.366772
 30
0.000000
 11
160.996020
 21
33.360352
 31
0.000000
  6
CONTINUOUS
  0
LINE
  8
WHITE
 10
160.996020
 20
33.360352
 30
0.000000
 11
161.573020
 21
34.320972
 31
0.000000
  6
CONTINUOUS
  0
LINE
  8
WHITE
 10
161.573020
 20
34.320972
 30
0.000000
 11
162.200620
 21
35.246712
 31
0.000000
  6
CONTINUOUS
  0
LINE
  8
WHITE
 10
162.200620
 20
35.246712
 30
0.000000
 11
162.876880
 21
36.135612
 31
0.000000
  6
CONTINUOUS
  0
LINE
  8
WHITE
 10
162.876880
 20
36.135612
 30
0.000000
 11
163.599840
 21
36.985692
 31
0.000000
  6
CONTINUOUS
  0
LINE
  8
WHITE
 10
163.599840
 20
36.985692
 30
0.000000
 11
164.367600
 21
37.795072
 31
0.000000
  6
CONTINUOUS
  0
LINE
  8
WHITE
 10
164.367600
 20
37.795072
 30
0.000000
 11
165.178180
 21
38.561732
 31
0.000000
  6
CONTINUOUS
  0
LINE
  8
WHITE
 10
165.178180
 20
38.561732
 30
0.000000
 11
166.029700
 21
39.283792
 31
0.000000
  6
CONTINUOUS
  0
LINE
  8
WHITE
 10
166.029700
 20
39.283792
 30
0.000000
 11
166.920200
 21
39.959252
 31
0.000000
  6
CONTINUOUS
  0
LINE
  8
WHITE
 10
166.920200
 20
39.959252
 30
0.000000
 11
167.847720
 21
40.586192
 31
0.000000
  6
CONTINUOUS
  0
LINE
  8
WHITE
 10
167.847720
 20
40.586192
 30
0.000000
 11
168.810380
 21
41.162672
 31
0.000000
  6
CONTINUOUS
  0
LINE
  8
WHITE
 10
168.810380
 20
41.162672
 30
0.000000
 11
169.806200
 21
41.686732
 31
0.000000
  6
CONTINUOUS
  0
LINE
  8
WHITE
 10
169.806200
 20
41.686732
 30
0.000000
 11
170.833240
 21
42.156432
 31
0.000000
  6
CONTINUOUS
  0
LINE
  8
WHITE
 10
170.833240
 20
42.156432
 30
0.000000
 11
171.889600
 21
42.569812
 31
0.000000
  6
CONTINUOUS
  0
LINE
  8
WHITE
 10
171.889600
 20
42.569812
 30
0.000000
 11
172.973340
 21
42.924932
 31
0.000000
  6
CONTINUOUS
  0
LINE
  8
WHITE
 10
172.973340
 20
42.924932
 30
0.000000
 11
174.082500
 21
43.219852
 31
0.000000
  6
CONTINUOUS
  0
LINE
  8
WHITE
 10
174.082500
 20
43.219852
 30
0.000000
 11
175.215160
 21
43.452632
 31
0.000000
  6
CONTINUOUS
  0
LINE
  8
WHITE
 10
175.215160
 20
43.452632
 30
0.000000
 11
176.369400
 21
43.621312
 31
0.000000
  6
CONTINUOUS
  0
LINE
  8
WHITE
 10
176.369400
 20
43.621312
 30
0.000000
 11
177.543260
 21
43.723952
 31
0.000000
  6
CONTINUOUS
  0
LINE
  8
WHITE
 10
177.543260
 20
43.723952
 30
0.000000
 11
178.734800
 21
43.758592
 31
0.000000
  6
CONTINUOUS
  0
LINE
  8
WHITE
 10
178.734800
 20
43.758592
 30
0.000000
 11
179.926360
 21
43.723952
 31
0.000000
  6
CONTINUOUS
  0
LINE
  8
WHITE
 10
179.926360
 20
43.723952
 30
0.000000
 11
181.100220
 21
43.621312
 31
0.000000
  6
CONTINUOUS
  0
LINE
  8
WHITE
 10
181.100220
 20
43.621312
 30
0.000000
 11
182.254440
 21
43.452632
 31
0.000000
  6
CONTINUOUS
  0
LINE
  8
WHITE
 10
182.254440
 20
43.452632
 30
0.000000
 11
183.387100
 21
43.219852
 31
0.000000
  6
CONTINUOUS
  0
LINE
  8
WHITE
 10
183.387100
 20
43.219852
 30
0.000000
 11
184.496280
 21
42.924932
 31
0.000000
  6
CONTINUOUS
  0
LINE
  8
WHITE
 10
184.496280
 20
42.924932
 30
0.000000
 11
185.580000
 21
42.569812
 31
0.000000
  6
CONTINUOUS
  0
LINE
  8
WHITE
 10
185.580000
 20
42.569812
 30
0.000000
 11
186.636360
 21
42.156432
 31
0.000000
  6
CONTINUOUS
  0
LINE
  8
WHITE
 10
186.636360
 20
42.156432
 30
0.000000
 11
187.663420
 21
41.686732
 31
0.000000
  6
CONTINUOUS
  0
LINE
  8
WHITE
 10
187.663420
 20
41.686732
 30
0.000000
 11
188.659240
 21
41.162672
 31
0.000000
  6
CONTINUOUS
  0
LINE
  8
WHITE
 10
188.659240
 20
41.162672
 30
0.000000
 11
189.621880
 21
40.586192
 31
0.000000
  6
CONTINUOUS
  0
LINE
  8
WHITE
 10
189.621880
 20
40.586192
 30
0.000000
 11
190.549420
 21
39.959252
 31
0.000000
  6
CONTINUOUS
  0
LINE
  8
WHITE
 10
190.549420
 20
39.959252
 30
0.000000
 11
191.439900
 21
39.283792
 31
0.000000
  6
CONTINUOUS
  0
LINE
  8
WHITE
 10
191.439900
 20
39.283792
 30
0.000000
 11
192.291420
 21
38.561732
 31
0.000000
  6
CONTINUOUS
  0
LINE
  8
WHITE
 10
192.291420
 20
38.561732
 30
0.000000
 11
193.102020
 21
37.795072
 31
0.000000
  6
CONTINUOUS
  0
LINE
  8
WHITE
 10
193.102020
 20
37.795072
 30
0.000000
 11
193.869780
 21
36.985692
 31
0.000000
  6
CONTINUOUS
  0
LINE
  8
WHITE
 10
193.869780
 20
36.985692
 30
0.000000
 11
194.592740
 21
36.135612
 31
0.000000
  6
CONTINUOUS
  0
LINE
  8
WHITE
 10
194.592740
 20
36.135612
 30
0.000000
 11
195.268980
 21
35.246712
 31
0.000000
  6
CONTINUOUS
  0
LINE
  8
WHITE
 10
195.268980
 20
35.246712
 30
0.000000
 11
195.896580
 21
34.320972
 31
0.000000
  6
CONTINUOUS
  0
LINE
  8
WHITE
 10
195.896580
 20
34.320972
 30
0.000000
 11
196.473600
 21
33.360352
 31
0.000000
  6
CONTINUOUS
  0
LINE
  8
WHITE
 10
196.473600
 20
33.360352
 30
0.000000
 11
196.998080
 21
32.366772
 31
0.000000
  6
CONTINUOUS
  0
LINE
  8
WHITE
 10
196.998080
 20
32.366772
 30
0.000000
 11
197.468100
 21
31.342172
 31
0.000000
  6
CONTINUOUS
  0
LINE
  8
WHITE
 10
197.468100
 20
31.342172
 30
0.000000
 11
197.881740
 21
30.288532
 31
0.000000
  6
CONTINUOUS
  0
LINE
  8
WHITE
 10
197.881740
 20
30.288532
 30
0.000000
 11
198.237040
 21
29.207772
 31
0.000000
  6
CONTINUOUS
  0
LINE
  8
WHITE
 10
198.237040
 20
29.207772
 30
0.000000
 11
198.532100
 21
28.101852
 31
0.000000
  6
CONTINUOUS
  0
LINE
  8
WHITE
 10
198.532100
 20
28.101852
 30
0.000000
 11
198.764940
 21
26.972712
 31
0.000000
  6
CONTINUOUS
  0
LINE
  8
WHITE
 10
198.764940
 20
26.972712
 30
0.000000
 11
198.933660
 21
25.822292
 31
0.000000
  6
CONTINUOUS
  0
LINE
  8
WHITE
 10
198.933660
 20
25.822292
 30
0.000000
 11
199.036300
 21
24.652552
 31
0.000000
  6
CONTINUOUS
  0
LINE
  8
WHITE
 10
199.036300
 20
24.652552
 30
0.000000
 11
199.070940
 21
23.465432
 31
0.000000
  6
CONTINUOUS
  0
LINE
  8
WHITE
 10
194.480240
 20
23.465432
 30
0.000000
 11
194.432680
 21
22.233212
 31
0.000000
  6
CONTINUOUS
  0
LINE
  8
WHITE
 10
194.432680
 20
22.233212
 30
0.000000
 11
194.292360
 21
21.027212
 31
0.000000
  6
CONTINUOUS
  0
LINE
  8
WHITE
 10
194.292360
 20
21.027212
 30
0.000000
 11
194.062840
 21
19.850932
 31
0.000000
  6
CONTINUOUS
  0
LINE
  8
WHITE
 10
194.062840
 20
19.850932
 30
0.000000
 11
193.747680
 21
18.707832
 31
0.000000
  6
CONTINUOUS
  0
LINE
  8
WHITE
 10
193.747680
 20
18.707832
 30
0.000000
 11
193.350460
 21
17.601412
 31
0.000000
  6
CONTINUOUS
  0
LINE
  8
WHITE
 10
193.350460
 20
17.601412
 30
0.000000
 11
192.874700
 21
16.535112
 31
0.000000
  6
CONTINUOUS
  0
LINE
  8
WHITE
 10
192.874700
 20
16.535112
 30
0.000000
 11
192.323960
 21
15.512432
 31
0.000000
  6
CONTINUOUS
  0
LINE
  8
WHITE
 10
192.323960
 20
15.512432
 30
0.000000
 11
191.701840
 21
14.536852
 31
0.000000
  6
CONTINUOUS
  0
LINE
  8
WHITE
 10
191.701840
 20
14.536852
 30
0.000000
 11
191.011860
 21
13.611812
 31
0.000000
  6
CONTINUOUS
  0
LINE
  8
WHITE
 10
191.011860
 20
13.611812
 30
0.000000
 11
190.257580
 21
12.740812
 31
0.000000
  6
CONTINUOUS
  0
LINE
  8
WHITE
 10
190.257580
 20
12.740812
 30
0.000000
 11
189.442560
 21
11.927332
 31
0.000000
  6
CONTINUOUS
  0
LINE
  8
WHITE
 10
189.442560
 20
11.927332
 30
0.000000
 11
188.570380
 21
11.174832
 31
0.000000
  6
CONTINUOUS
  0
LINE
  8
WHITE
 10
188.570380
 20
11.174832
 30
0.000000
 11
187.644580
 21
10.486792
 31
0.000000
  6
CONTINUOUS
  0
LINE
  8
WHITE
 10
187.644580
 20
10.486792
 30
0.000000
 11
186.668720
 21
9.866672
 31
0.000000
  6
CONTINUOUS
  0
LINE
  8
WHITE
 10
186.668720
 20
9.866672
 30
0.000000
 11
185.646340
 21
9.317972
 31
0.000000
  6
CONTINUOUS
  0
LINE
  8
WHITE
 10
185.646340
 20
9.317972
 30
0.000000
 11
184.581040
 21
8.844172
 31
0.000000
  6
CONTINUOUS
  0
LINE
  8
WHITE
 10
184.581040
 20
8.844172
 30
0.000000
 11
183.476320
 21
8.448712
 31
0.000000
  6
CONTINUOUS
  0
LINE
  8
WHITE
 10
183.476320
 20
8.448712
 30
0.000000
 11
182.335800
 21
8.135072
 31
0.000000
  6
CONTINUOUS
  0
LINE
  8
WHITE
 10
182.335800
 20
8.135072
 30
0.000000
 11
181.163000
 21
7.906752
 31
0.000000
  6
CONTINUOUS
  0
LINE
  8
WHITE
 10
181.163000
 20
7.906752
 30
0.000000
 11
179.961480
 21
7.767212
 31
0.000000
  6
CONTINUOUS
  0
LINE
  8
WHITE
 10
179.961480
 20
7.767212
 30
0.000000
 11
178.734800
 21
7.719932
 31
0.000000
  6
CONTINUOUS
  0
LINE
  8
WHITE
 10
178.734800
 20
7.719932
 30
0.000000
 11
177.508140
 21
7.767212
 31
0.000000
  6
CONTINUOUS
  0
LINE
  8
WHITE
 10
177.508140
 20
7.767212
 30
0.000000
 11
176.306620
 21
7.906752
 31
0.000000
  6
CONTINUOUS
  0
LINE
  8
WHITE
 10
176.306620
 20
7.906752
 30
0.000000
 11
175.133800
 21
8.135072
 31
0.000000
  6
CONTINUOUS
  0
LINE
  8
WHITE
 10
175.133800
 20
8.135072
 30
0.000000
 11
173.993280
 21
8.448712
 31
0.000000
  6
CONTINUOUS
  0
LINE
  8
WHITE
 10
173.993280
 20
8.448712
 30
0.000000
 11
172.888560
 21
8.844172
 31
0.000000
  6
CONTINUOUS
  0
LINE
  8
WHITE
 10
172.888560
 20
8.844172
 30
0.000000
 11
171.823260
 21
9.317972
 31
0.000000
  6
CONTINUOUS
  0
LINE
  8
WHITE
 10
171.823260
 20
9.317972
 30
0.000000
 11
170.800880
 21
9.866672
 31
0.000000
  6
CONTINUOUS
  0
LINE
  8
WHITE
 10
170.800880
 20
9.866672
 30
0.000000
 11
169.825000
 21
10.486792
 31
0.000000
  6
CONTINUOUS
  0
LINE
  8
WHITE
 10
169.825000
 20
10.486792
 30
0.000000
 11
168.899200
 21
11.174832
 31
0.000000
  6
CONTINUOUS
  0
LINE
  8
WHITE
 10
168.899200
 20
11.174832
 30
0.000000
 11
168.027000
 21
11.927332
 31
0.000000
  6
CONTINUOUS
  0
LINE
  8
WHITE
 10
168.027000
 20
11.927332
 30
0.000000
 11
167.212000
 21
12.740812
 31
0.000000
  6
CONTINUOUS
  0
LINE
  8
WHITE
 10
167.212000
 20
12.740812
 30
0.000000
 11
166.457700
 21
13.611812
 31
0.000000
  6
CONTINUOUS
  0
LINE
  8
WHITE
 10
166.457700
 20
13.611812
 30
0.000000
 11
165.767720
 21
14.536852
 31
0.000000
  6
CONTINUOUS
  0
LINE
  8
WHITE
 10
165.767720
 20
14.536852
 30
0.000000
 11
165.145580
 21
15.512432
 31
0.000000
  6
CONTINUOUS
  0
LINE
  8
WHITE
 10
165.145580
 20
15.512432
 30
0.000000
 11
164.594860
 21
16.535112
 31
0.000000
  6
CONTINUOUS
  0
LINE
  8
WHITE
 10
164.594860
 20
16.535112
 30
0.000000
 11
164.119100
 21
17.601412
 31
0.000000
  6
CONTINUOUS
  0
LINE
  8
WHITE
 10
164.119100
 20
17.601412
 30
0.000000
 11
163.721860
 21
18.707832
 31
0.000000
  6
CONTINUOUS
  0
LINE
  8
WHITE
 10
163.721860
 20
18.707832
 30
0.000000
 11
163.406700
 21
19.850932
 31
0.000000
  6
CONTINUOUS
  0
LINE
  8
WHITE
 10
163.406700
 20
19.850932
 30
0.000000
 11
163.177180
 21
21.027212
 31
0.000000
  6
CONTINUOUS
  0
LINE
  8
WHITE
 10
163.177180
 20
21.027212
 30
0.000000
 11
163.036860
 21
22.233212
 31
0.000000
  6
CONTINUOUS
  0
LINE
  8
WHITE
 10
163.036860
 20
22.233212
 30
0.000000
 11
162.989300
 21
23.465432
 31
0.000000
  6
CONTINUOUS
  0
LINE
  8
WHITE
 10
162.989300
 20
23.465432
 30
0.000000
 11
163.036860
 21
24.691812
 31
0.000000
  6
CONTINUOUS
  0
LINE
  8
WHITE
 10
163.036860
 20
24.691812
 30
0.000000
 11
163.177180
 21
25.892512
 31
0.000000
  6
CONTINUOUS
  0
LINE
  8
WHITE
 10
163.177180
 20
25.892512
 30
0.000000
 11
163.406700
 21
27.064032
 31
0.000000
  6
CONTINUOUS
  0
LINE
  8
WHITE
 10
163.406700
 20
27.064032
 30
0.000000
 11
163.721860
 21
28.202852
 31
0.000000
  6
CONTINUOUS
  0
LINE
  8
WHITE
 10
163.721860
 20
28.202852
 30
0.000000
 11
164.119100
 21
29.305492
 31
0.000000
  6
CONTINUOUS
  0
LINE
  8
WHITE
 10
164.119100
 20
29.305492
 30
0.000000
 11
164.594860
 21
30.368432
 31
0.000000
  6
CONTINUOUS
  0
LINE
  8
WHITE
 10
164.594860
 20
30.368432
 30
0.000000
 11
165.145580
 21
31.388192
 31
0.000000
  6
CONTINUOUS
  0
LINE
  8
WHITE
 10
165.145580
 20
31.388192
 30
0.000000
 11
165.767720
 21
32.361232
 31
0.000000
  6
CONTINUOUS
  0
LINE
  8
WHITE
 10
165.767720
 20
32.361232
 30
0.000000
 11
166.457700
 21
33.284092
 31
0.000000
  6
CONTINUOUS
  0
LINE
  8
WHITE
 10
166.457700
 20
33.284092
 30
0.000000
 11
167.212000
 21
34.153252
 31
0.000000
  6
CONTINUOUS
  0
LINE
  8
WHITE
 10
167.212000
 20
34.153252
 30
0.000000
 11
168.027000
 21
34.965192
 31
0.000000
  6
CONTINUOUS
  0
LINE
  8
WHITE
 10
168.027000
 20
34.965192
 30
0.000000
 11
168.899200
 21
35.716432
 31
0.000000
  6
CONTINUOUS
  0
LINE
  8
WHITE
 10
168.899200
 20
35.716432
 30
0.000000
 11
169.825000
 21
36.403472
 31
0.000000
  6
CONTINUOUS
  0
LINE
  8
WHITE
 10
169.825000
 20
36.403472
 30
0.000000
 11
170.800880
 21
37.022792
 31
0.000000
  6
CONTINUOUS
  0
LINE
  8
WHITE
 10
170.800880
 20
37.022792
 30
0.000000
 11
171.823260
 21
37.570912
 31
0.000000
  6
CONTINUOUS
  0
LINE
  8
WHITE
 10
171.823260
 20
37.570912
 30
0.000000
 11
172.888560
 21
38.044292
 31
0.000000
  6
CONTINUOUS
  0
LINE
  8
WHITE
 10
172.888560
 20
38.044292
 30
0.000000
 11
173.993280
 21
38.439472
 31
0.000000
  6
CONTINUOUS
  0
LINE
  8
WHITE
 10
173.993280
 20
38.439472
 30
0.000000
 11
175.133800
 21
38.752932
 31
0.000000
  6
CONTINUOUS
  0
LINE
  8
WHITE
 10
175.133800
 20
38.752932
 30
0.000000
 11
176.306620
 21
38.981172
 31
0.000000
  6
CONTINUOUS
  0
LINE
  8
WHITE
 10
176.306620
 20
38.981172
 30
0.000000
 11
177.508140
 21
39.120672
 31
0.000000
  6
CONTINUOUS
  0
LINE
  8
WHITE
 10
177.508140
 20
39.120672
 30
0.000000
 11
178.734800
 21
39.167952
 31
0.000000
  6
CONTINUOUS
  0
LINE
  8
WHITE
 10
178.734800
 20
39.167952
 30
0.000000
 11
179.961480
 21
39.120672
 31
0.000000
  6
CONTINUOUS
  0
LINE
  8
WHITE
 10
179.961480
 20
39.120672
 30
0.000000
 11
181.163000
 21
38.981172
 31
0.000000
  6
CONTINUOUS
  0
LINE
  8
WHITE
 10
181.163000
 20
38.981172
 30
0.000000
 11
182.335800
 21
38.752932
 31
0.000000
  6
CONTINUOUS
  0
LINE
  8
WHITE
 10
182.335800
 20
38.752932
 30
0.000000
 11
183.476320
 21
38.439472
 31
0.000000
  6
CONTINUOUS
  0
LINE
  8
WHITE
 10
183.476320
 20
38.439472
 30
0.000000
 11
184.581040
 21
38.044292
 31
0.000000
  6
CONTINUOUS
  0
LINE
  8
WHITE
 10
184.581040
 20
38.044292
 30
0.000000
 11
185.646340
 21
37.570912
 31
0.000000
  6
CONTINUOUS
  0
LINE
  8
WHITE
 10
185.646340
 20
37.570912
 30
0.000000
 11
186.668720
 21
37.022792
 31
0.000000
  6
CONTINUOUS
  0
LINE
  8
WHITE
 10
186.668720
 20
37.022792
 30
0.000000
 11
187.644580
 21
36.403472
 31
0.000000
  6
CONTINUOUS
  0
LINE
  8
WHITE
 10
187.644580
 20
36.403472
 30
0.000000
 11
188.570380
 21
35.716432
 31
0.000000
  6
CONTINUOUS
  0
LINE
  8
WHITE
 10
188.570380
 20
35.716432
 30
0.000000
 11
189.442560
 21
34.965192
 31
0.000000
  6
CONTINUOUS
  0
LINE
  8
WHITE
 10
189.442560
 20
34.965192
 30
0.000000
 11
190.257580
 21
34.153252
 31
0.000000
  6
CONTINUOUS
  0
LINE
  8
WHITE
 10
190.257580
 20
34.153252
 30
0.000000
 11
191.011860
 21
33.284092
 31
0.000000
  6
CONTINUOUS
  0
LINE
  8
WHITE
 10
191.011860
 20
33.284092
 30
0.000000
 11
191.701840
 21
32.361232
 31
0.000000
  6
CONTINUOUS
  0
LINE
  8
WHITE
 10
191.701840
 20
32.361232
 30
0.000000
 11
192.323960
 21
31.388192
 31
0.000000
  6
CONTINUOUS
  0
LINE
  8
WHITE
 10
192.323960
 20
31.388192
 30
0.000000
 11
192.874700
 21
30.368432
 31
0.000000
  6
CONTINUOUS
  0
LINE
  8
WHITE
 10
192.874700
 20
30.368432
 30
0.000000
 11
193.350460
 21
29.305492
 31
0.000000
  6
CONTINUOUS
  0
LINE
  8
WHITE
 10
193.350460
 20
29.305492
 30
0.000000
 11
193.747680
 21
28.202852
 31
0.000000
  6
CONTINUOUS
  0
LINE
  8
WHITE
 10
193.747680
 20
28.202852
 30
0.000000
 11
194.062840
 21
27.064032
 31
0.000000
  6
CONTINUOUS
  0
LINE
  8
WHITE
 10
194.062840
 20
27.064032
 30
0.000000
 11
194.292360
 21
25.892512
 31
0.000000
  6
CONTINUOUS
  0
LINE
  8
WHITE
 10
194.292360
 20
25.892512
 30
0.000000
 11
194.432680
 21
24.691812
 31
0.000000
  6
CONTINUOUS
  0
LINE
  8
WHITE
 10
194.432680
 20
24.691812
 30
0.000000
 11
194.480240
 21
23.465432
 31
0.000000
  6
CONTINUOUS
  0
LINE
  8
WHITE
 10
178.734800
 20
27.326692
 30
0.000000
 11
177.361900
 21
27.197952
 31
0.000000
  6
CONTINUOUS
  0
LINE
  8
WHITE
 10
177.361900
 20
27.197952
 30
0.000000
 11
176.031900
 21
26.597332
 31
0.000000
  6
CONTINUOUS
  0
LINE
  8
WHITE
 10
176.031900
 20
26.597332
 30
0.000000
 11
175.002200
 21
25.610552
 31
0.000000
  6
CONTINUOUS
  0
LINE
  8
WHITE
 10
175.002200
 20
25.610552
 30
0.000000
 11
174.401580
 21
24.709612
 31
0.000000
  6
CONTINUOUS
  0
LINE
  8
WHITE
 10
174.401580
 20
24.709612
 30
0.000000
 11
174.015440
 21
23.722832
 31
0.000000
  6
CONTINUOUS
  0
LINE
  8
WHITE
 10
174.015440
 20
23.722832
 30
0.000000
 11
173.715120
 21
22.821892
 31
0.000000
  6
CONTINUOUS
  0
LINE
  8
WHITE
 10
173.715120
 20
22.821892
 30
0.000000
 11
173.114500
 21
22.135432
 31
0.000000
  6
CONTINUOUS
  0
LINE
  8
WHITE
 10
173.114500
 20
22.135432
 30
0.000000
 11
172.170640
 21
21.749292
 31
0.000000
  6
CONTINUOUS
  0
LINE
  8
WHITE
 10
172.170640
 20
21.749292
 30
0.000000
 11
170.711900
 21
21.620552
 31
0.000000
  6
CONTINUOUS
  0
LINE
  8
WHITE
 10
170.711900
 20
21.620552
 30
0.000000
 11
169.296060
 21
21.620552
 31
0.000000
  6
CONTINUOUS
  0
LINE
  8
WHITE
 10
169.296060
 20
21.620552
 30
0.000000
 11
167.537080
 21
21.835112
 31
0.000000
  6
CONTINUOUS
  0
LINE
  8
WHITE
 10
167.537080
 20
21.835112
 30
0.000000
 11
166.421580
 21
22.307012
 31
0.000000
  6
CONTINUOUS
  0
LINE
  8
WHITE
 10
166.421580
 20
22.307012
 30
0.000000
 11
165.692200
 21
22.993472
 31
0.000000
  6
CONTINUOUS
  0
LINE
  8
WHITE
 10
165.692200
 20
22.993472
 30
0.000000
 11
165.434800
 21
23.937332
 31
0.000000
  6
CONTINUOUS
  0
LINE
  8
WHITE
 10
165.434800
 20
23.937332
 30
0.000000
 11
165.434800
 21
25.181492
 31
0.000000
  6
CONTINUOUS
  0
LINE
  8
WHITE
 10
165.434800
 20
25.181492
 30
0.000000
 11
165.820940
 21
26.897632
 31
0.000000
  6
CONTINUOUS
  0
LINE
  8
WHITE
 10
165.820940
 20
26.897632
 30
0.000000
 11
166.636060
 21
28.957012
 31
0.000000
  6
CONTINUOUS
  0
LINE
  8
WHITE
 10
166.636060
 20
28.957012
 30
0.000000
 11
167.537080
 21
30.587332
 31
0.000000
  6
CONTINUOUS
  0
LINE
  8
WHITE
 10
167.537080
 20
30.587332
 30
0.000000
 11
168.566700
 21
32.003152
 31
0.000000
  6
CONTINUOUS
  0
LINE
  8
WHITE
 10
168.566700
 20
32.003152
 30
0.000000
 11
170.154180
 21
33.547632
 31
0.000000
  6
CONTINUOUS
  0
LINE
  8
WHITE
 10
170.154180
 20
33.547632
 30
0.000000
 11
172.084800
 21
35.006372
 31
0.000000
  6
CONTINUOUS
  0
LINE
  8
WHITE
 10
172.084800
 20
35.006372
 30
0.000000
 11
174.144180
 21
35.907332
 31
0.000000
  6
CONTINUOUS
  0
LINE
  8
WHITE
 10
174.144180
 20
35.907332
 30
0.000000
 11
176.375120
 21
36.550872
 31
0.000000
  6
CONTINUOUS
  0
LINE
  8
WHITE
 10
176.375120
 20
36.550872
 30
0.000000
 11
178.563160
 21
36.765352
 31
0.000000
  6
CONTINUOUS
  0
LINE
  8
WHITE
 10
178.563160
 20
36.765352
 30
0.000000
 11
180.236380
 21
36.679612
 31
0.000000
  6
CONTINUOUS
  0
LINE
  8
WHITE
 10
180.236380
 20
36.679612
 30
0.000000
 11
181.866700
 21
36.336372
 31
0.000000
  6
CONTINUOUS
  0
LINE
  8
WHITE
 10
181.866700
 20
36.336372
 30
0.000000
 11
184.011900
 21
35.564092
 31
0.000000
  6
CONTINUOUS
  0
LINE
  8
WHITE
 10
184.011900
 20
35.564092
 30
0.000000
 11
186.114180
 21
34.362832
 31
0.000000
  6
CONTINUOUS
  0
LINE
  8
WHITE
 10
186.114180
 20
34.362832
 30
0.000000
 11
187.658660
 21
32.861192
 31
0.000000
  6
CONTINUOUS
  0
LINE
  8
WHITE
 10
187.658660
 20
32.861192
 30
0.000000
 11
188.988660
 21
31.402532
 31
0.000000
  6
CONTINUOUS
  0
LINE
  8
WHITE
 10
188.988660
 20
31.402532
 30
0.000000
 11
190.147020
 21
29.643472
 31
0.000000
  6
CONTINUOUS
  0
LINE
  8
WHITE
 10
190.147020
 20
29.643472
 30
0.000000
 11
190.919300
 21
28.013152
 31
0.000000
  6
CONTINUOUS
  0
LINE
  8
WHITE
 10
190.919300
 20
28.013152
 30
0.000000
 11
191.391260
 21
26.382832
 31
0.000000
  6
CONTINUOUS
  0
LINE
  8
WHITE
 10
191.391260
 20
26.382832
 30
0.000000
 11
191.648660
 21
24.623792
 31
0.000000
  6
CONTINUOUS
  0
LINE
  8
WHITE
 10
191.648660
 20
24.623792
 30
0.000000
 11
191.605760
 21
23.379612
 31
0.000000
  6
CONTINUOUS
  0
LINE
  8
WHITE
 10
191.605760
 20
23.379612
 30
0.000000
 11
191.262520
 21
22.650232
 31
0.000000
  6
CONTINUOUS
  0
LINE
  8
WHITE
 10
191.262520
 20
22.650232
 30
0.000000
 11
190.833460
 21
22.135432
 31
0.000000
  6
CONTINUOUS
  0
LINE
  8
WHITE
 10
190.833460
 20
22.135432
 30
0.000000
 11
189.846700
 21
21.706372
 31
0.000000
  6
CONTINUOUS
  0
LINE
  8
WHITE
 10
189.846700
 20
21.706372
 30
0.000000
 11
188.302200
 21
21.406072
 31
0.000000
  6
CONTINUOUS
  0
LINE
  8
WHITE
 10
188.302200
 20
21.406072
 30
0.000000
 11
187.015120
 21
21.406072
 31
0.000000
  6
CONTINUOUS
  0
LINE
  8
WHITE
 10
187.015120
 20
21.406072
 30
0.000000
 11
185.599300
 21
21.448972
 31
0.000000
  6
CONTINUOUS
  0
LINE
  8
WHITE
 10
185.599300
 20
21.448972
 30
0.000000
 11
184.569600
 21
21.749292
 31
0.000000
  6
CONTINUOUS
  0
LINE
  8
WHITE
 10
184.569600
 20
21.749292
 30
0.000000
 11
184.097720
 21
22.135432
 31
0.000000
  6
CONTINUOUS
  0
LINE
  8
WHITE
 10
184.097720
 20
22.135432
 30
0.000000
 11
183.625760
 21
22.607332
 31
0.000000
  6
CONTINUOUS
  0
LINE
  8
WHITE
 10
183.625760
 20
22.607332
 30
0.000000
 11
183.282520
 21
23.722832
 31
0.000000
  6
CONTINUOUS
  0
LINE
  8
WHITE
 10
183.282520
 20
23.722832
 30
0.000000
 11
182.724800
 21
24.795432
 31
0.000000
  6
CONTINUOUS
  0
LINE
  8
WHITE
 10
182.724800
 20
24.795432
 30
0.000000
 11
182.209920
 21
25.567632
 31
0.000000
  6
CONTINUOUS
  0
LINE
  8
WHITE
 10
182.209920
 20
25.567632
 30
0.000000
 11
181.351900
 21
26.511492
 31
0.000000
  6
CONTINUOUS
  0
LINE
  8
WHITE
 10
181.351900
 20
26.511492
 30
0.000000
 11
180.150640
 21
27.112212
 31
0.000000
  6
CONTINUOUS
  0
LINE
  8
WHITE
 10
180.150640
 20
27.112212
 30
0.000000
 11
178.734800
 21
27.326692
 31
0.000000
  6
CONTINUOUS
  0
LINE
  8
WHITE
 10
171.484180
 20
33.161492
 30
0.000000
 11
173.500640
 21
34.620232
 31
0.000000
  6
CONTINUOUS
  0
LINE
  8
WHITE
 10
173.500640
 20
34.620232
 30
0.000000
 11
174.830640
 21
35.306692
 31
0.000000
  6
CONTINUOUS
  0
LINE
  8
WHITE
 10
174.830640
 20
35.306692
 30
0.000000
 11
176.546700
 21
35.692832
 31
0.000000
  6
CONTINUOUS
  0
LINE
  8
WHITE
 10
176.546700
 20
35.692832
 30
0.000000
 11
178.134180
 21
35.864412
 31
0.000000
  6
CONTINUOUS
  0
LINE
  8
WHITE
 10
178.134180
 20
35.864412
 30
0.000000
 11
179.936060
 21
35.864412
 31
0.000000
  6
CONTINUOUS
  0
LINE
  8
WHITE
 10
179.936060
 20
35.864412
 30
0.000000
 11
181.437720
 21
35.521192
 31
0.000000
  6
CONTINUOUS
  0
LINE
  8
WHITE
 10
181.437720
 20
35.521192
 30
0.000000
 11
183.153780
 21
35.006372
 31
0.000000
  6
CONTINUOUS
  0
LINE
  8
WHITE
 10
183.153780
 20
35.006372
 30
0.000000
 11
184.526700
 21
34.362832
 31
0.000000
  6
CONTINUOUS
  0
LINE
  8
WHITE
 10
184.526700
 20
34.362832
 30
0.000000
 11
185.856700
 21
33.504732
 31
0.000000
  6
CONTINUOUS
  0
LINE
  8
WHITE
 10
185.856700
 20
33.504732
 30
0.000000
 11
187.058040
 21
32.475052
 31
0.000000
  6
CONTINUOUS
  0
LINE
  8
WHITE
 10
187.058040
 20
32.475052
 30
0.000000
 11
188.087720
 21
31.316692
 31
0.000000
  6
CONTINUOUS
  0
LINE
  8
WHITE
 10
188.087720
 20
31.316692
 30
0.000000
 11
188.087720
 21
30.801812
 31
0.000000
  6
CONTINUOUS
  0
LINE
  8
WHITE
 10
188.087720
 20
30.801812
 30
0.000000
 11
187.615760
 21
30.587332
 31
0.000000
  6
CONTINUOUS
  0
LINE
  8
WHITE
 10
187.615760
 20
30.587332
 30
0.000000
 11
187.143780
 21
30.887632
 31
0.000000
  6
CONTINUOUS
  0
LINE
  8
WHITE
 10
187.143780
 20
30.887632
 30
0.000000
 11
186.586060
 21
31.273792
 31
0.000000
  6
CONTINUOUS
  0
LINE
  8
WHITE
 10
186.586060
 20
31.273792
 30
0.000000
 11
185.770940
 21
32.046072
 31
0.000000
  6
CONTINUOUS
  0
LINE
  8
WHITE
 10
185.770940
 20
32.046072
 30
0.000000
 11
184.869920
 21
32.818272
 31
0.000000
  6
CONTINUOUS
  0
LINE
  8
WHITE
 10
184.869920
 20
32.818272
 30
0.000000
 11
183.754500
 21
33.547632
 31
0.000000
  6
CONTINUOUS
  0
LINE
  8
WHITE
 10
183.754500
 20
33.547632
 30
0.000000
 11
182.467400
 21
34.234092
 31
0.000000
  6
CONTINUOUS
  0
LINE
  8
WHITE
 10
182.467400
 20
34.234092
 30
0.000000
 11
181.266060
 21
34.748972
 31
0.000000
  6
CONTINUOUS
  0
LINE
  8
WHITE
 10
181.266060
 20
34.748972
 30
0.000000
 11
180.193460
 21
35.006372
 31
0.000000
  6
CONTINUOUS
  0
LINE
  8
WHITE
 10
180.193460
 20
35.006372
 30
0.000000
 11
178.606060
 21
35.135052
 31
0.000000
  6
CONTINUOUS
  0
LINE
  8
WHITE
 10
178.606060
 20
35.135052
 30
0.000000
 11
176.632520
 21
35.006372
 31
0.000000
  6
CONTINUOUS
  0
LINE
  8
WHITE
 10
176.632520
 20
35.006372
 30
0.000000
 11
175.045120
 21
34.620232
 31
0.000000
  6
CONTINUOUS
  0
LINE
  8
WHITE
 10
175.045120
 20
34.620232
 30
0.000000
 11
173.758040
 21
34.191192
 31
0.000000
  6
CONTINUOUS
  0
LINE
  8
WHITE
 10
173.758040
 20
34.191192
 30
0.000000
 11
172.556700
 21
33.547632
 31
0.000000
  6
CONTINUOUS
  0
LINE
  8
WHITE
 10
172.556700
 20
33.547632
 30
0.000000
 11
169.639300
 21
31.574092
 31
0.000000
  6
CONTINUOUS
  0
LINE
  8
WHITE
 10
169.639300
 20
31.574092
 30
0.000000
 11
171.484180
 21
33.161492
 31
0.000000
  6
CONTINUOUS
  0
LINE
  8
WHITE
 10
181.695120
 20
23.336692
 30
0.000000
 11
181.262900
 21
21.773092
 31
0.000000
  6
CONTINUOUS
  0
LINE
  8
WHITE
 10
181.262900
 20
21.773092
 30
0.000000
 11
180.125160
 21
20.667152
 31
0.000000
  6
CONTINUOUS
  0
LINE
  8
WHITE
 10
180.125160
 20
20.667152
 30
0.000000
 11
178.520240
 21
20.247632
 31
0.000000
  6
CONTINUOUS
  0
LINE
  8
WHITE
 10
178.520240
 20
20.247632
 30
0.000000
 11
176.945580
 21
20.667152
 31
0.000000
  6
CONTINUOUS
  0
LINE
  8
WHITE
 10
176.945580
 20
20.667152
 30
0.000000
 11
175.818980
 21
21.773092
 31
0.000000
  6
CONTINUOUS
  0
LINE
  8
WHITE
 10
175.818980
 20
21.773092
 30
0.000000
 11
175.388340
 21
23.336692
 31
0.000000
  6
CONTINUOUS
  0
LINE
  8
WHITE
 10
175.388340
 20
23.336692
 30
0.000000
 11
175.818980
 21
24.911412
 31
0.000000
  6
CONTINUOUS
  0
LINE
  8
WHITE
 10
175.818980
 20
24.911412
 30
0.000000
 11
176.945580
 21
26.038032
 31
0.000000
  6
CONTINUOUS
  0
LINE
  8
WHITE
 10
176.945580
 20
26.038032
 30
0.000000
 11
178.520240
 21
26.468672
 31
0.000000
  6
CONTINUOUS
  0
LINE
  8
WHITE
 10
178.520240
 20
26.468672
 30
0.000000
 11
180.125160
 21
26.038032
 31
0.000000
  6
CONTINUOUS
  0
LINE
  8
WHITE
 10
180.125160
 20
26.038032
 30
0.000000
 11
181.262900
 21
24.911412
 31
0.000000
  6
CONTINUOUS
  0
LINE
  8
WHITE
 10
181.262900
 20
24.911412
 30
0.000000
 11
181.695120
 21
23.336692
 31
0.000000
  6
CONTINUOUS
  0
LINE
  8
WHITE
 10
176.418040
 20
11.452532
 30
0.000000
 11
174.487400
 21
12.053152
 31
0.000000
  6
CONTINUOUS
  0
LINE
  8
WHITE
 10
174.487400
 20
12.053152
 30
0.000000
 11
173.157400
 21
12.739612
 31
0.000000
  6
CONTINUOUS
  0
LINE
  8
WHITE
 10
173.157400
 20
12.739612
 30
0.000000
 11
172.084800
 21
13.640552
 31
0.000000
  6
CONTINUOUS
  0
LINE
  8
WHITE
 10
172.084800
 20
13.640552
 30
0.000000
 11
171.441260
 21
13.983792
 31
0.000000
  6
CONTINUOUS
  0
LINE
  8
WHITE
 10
171.441260
 20
13.983792
 30
0.000000
 11
170.840640
 21
13.983792
 31
0.000000
  6
CONTINUOUS
  0
LINE
  8
WHITE
 10
170.840640
 20
13.983792
 30
0.000000
 11
170.411580
 21
13.640552
 31
0.000000
  6
CONTINUOUS
  0
LINE
  8
WHITE
 10
170.411580
 20
13.640552
 30
0.000000
 11
170.497400
 21
13.082832
 31
0.000000
  6
CONTINUOUS
  0
LINE
  8
WHITE
 10
170.497400
 20
13.082832
 30
0.000000
 11
170.969300
 21
12.525112
 31
0.000000
  6
CONTINUOUS
  0
LINE
  8
WHITE
 10
170.969300
 20
12.525112
 30
0.000000
 11
171.956060
 21
11.881572
 31
0.000000
  6
CONTINUOUS
  0
LINE
  8
WHITE
 10
171.956060
 20
11.881572
 30
0.000000
 11
174.058340
 21
10.723152
 31
0.000000
  6
CONTINUOUS
  0
LINE
  8
WHITE
 10
174.058340
 20
10.723152
 30
0.000000
 11
176.375120
 21
9.993792
 31
0.000000
  6
CONTINUOUS
  0
LINE
  8
WHITE
 10
176.375120
 20
9.993792
 30
0.000000
 11
178.820640
 21
9.865112
 31
0.000000
  6
CONTINUOUS
  0
LINE
  8
WHITE
 10
178.820640
 20
9.865112
 30
0.000000
 11
181.008660
 21
10.122532
 31
0.000000
  6
CONTINUOUS
  0
LINE
  8
WHITE
 10
181.008660
 20
10.122532
 30
0.000000
 11
183.068040
 21
10.723152
 31
0.000000
  6
CONTINUOUS
  0
LINE
  8
WHITE
 10
183.068040
 20
10.723152
 30
0.000000
 11
185.256060
 21
11.795752
 31
0.000000
  6
CONTINUOUS
  0
LINE
  8
WHITE
 10
185.256060
 20
11.795752
 30
0.000000
 11
187.358340
 21
13.426072
 31
0.000000
  6
CONTINUOUS
  0
LINE
  8
WHITE
 10
187.358340
 20
13.426072
 30
0.000000
 11
188.774180
 21
14.927632
 31
0.000000
  6
CONTINUOUS
  0
LINE
  8
WHITE
 10
188.774180
 20
14.927632
 30
0.000000
 11
189.718040
 21
16.171892
 31
0.000000
  6
CONTINUOUS
  0
LINE
  8
WHITE
 10
189.718040
 20
16.171892
 30
0.000000
 11
190.490240
 21
17.802212
 31
0.000000
  6
CONTINUOUS
  0
LINE
  8
WHITE
 10
190.490240
 20
17.802212
 30
0.000000
 11
188.645440
 21
15.699932
 31
0.000000
  6
CONTINUOUS
  0
LINE
  8
WHITE
 10
188.645440
 20
15.699932
 30
0.000000
 11
187.444180
 21
14.584412
 31
0.000000
  6
CONTINUOUS
  0
LINE
  8
WHITE
 10
187.444180
 20
14.584412
 30
0.000000
 11
185.770940
 21
13.297332
 31
0.000000
  6
CONTINUOUS
  0
LINE
  8
WHITE
 10
185.770940
 20
13.297332
 30
0.000000
 11
184.140640
 21
12.482212
 31
0.000000
  6
CONTINUOUS
  0
LINE
  8
WHITE
 10
184.140640
 20
12.482212
 30
0.000000
 11
182.381580
 21
11.709932
 31
0.000000
  6
CONTINUOUS
  0
LINE
  8
WHITE
 10
182.381580
 20
11.709932
 30
0.000000
 11
180.450940
 21
11.280872
 31
0.000000
  6
CONTINUOUS
  0
LINE
  8
WHITE
 10
180.450940
 20
11.280872
 30
0.000000
 11
178.477400
 21
11.195112
 31
0.000000
  6
CONTINUOUS
  0
LINE
  8
WHITE
 10
178.477400
 20
11.195112
 30
0.000000
 11
176.418040
 21
11.452532
 31
0.000000
  6
CONTINUOUS
  0
LINE
  8
WHITE
 10
189.546380
 20
33.890872
 30
0.000000
 11
189.428800
 21
33.439612
 31
0.000000
  6
CONTINUOUS
  0
LINE
  8
WHITE
 10
189.428800
 20
33.439612
 30
0.000000
 11
189.120540
 21
33.140892
 31
0.000000
  6
CONTINUOUS
  0
LINE
  8
WHITE
 10
189.120540
 20
33.140892
 30
0.000000
 11
188.688340
 21
33.032832
 31
0.000000
  6
CONTINUOUS
  0
LINE
  8
WHITE
 10
188.688340
 20
33.032832
 30
0.000000
 11
188.237040
 21
33.140892
 31
0.000000
  6
CONTINUOUS
  0
LINE
  8
WHITE
 10
188.237040
 20
33.140892
 30
0.000000
 11
187.938300
 21
33.439612
 31
0.000000
  6
CONTINUOUS
  0
LINE
  8
WHITE
 10
187.938300
 20
33.439612
 30
0.000000
 11
187.830240
 21
33.890872
 31
0.000000
  6
CONTINUOUS
  0
LINE
  8
WHITE
 10
187.830240
 20
33.890872
 30
0.000000
 11
187.938300
 21
34.323112
 31
0.000000
  6
CONTINUOUS
  0
LINE
  8
WHITE
 10
187.938300
 20
34.323112
 30
0.000000
 11
188.237040
 21
34.631392
 31
0.000000
  6
CONTINUOUS
  0
LINE
  8
WHITE
 10
188.237040
 20
34.631392
 30
0.000000
 11
188.688340
 21
34.748972
 31
0.000000
  6
CONTINUOUS
  0
LINE
  8
WHITE
 10
188.688340
 20
34.748972
 30
0.000000
 11
189.120540
 21
34.631392
 31
0.000000
  6
CONTINUOUS
  0
LINE
  8
WHITE
 10
189.120540
 20
34.631392
 30
0.000000
 11
189.428800
 21
34.323112
 31
0.000000
  6
CONTINUOUS
  0
LINE
  8
WHITE
 10
189.428800
 20
34.323112
 30
0.000000
 11
189.546380
 21
33.890872
 31
0.000000
  6
CONTINUOUS
  0
LINE
  8
WHITE
 10
169.381900
 20
33.890872
 30
0.000000
 11
169.264300
 21
33.439612
 31
0.000000
  6
CONTINUOUS
  0
LINE
  8
WHITE
 10
169.264300
 20
33.439612
 30
0.000000
 11
168.956040
 21
33.140892
 31
0.000000
  6
CONTINUOUS
  0
LINE
  8
WHITE
 10
168.956040
 20
33.140892
 30
0.000000
 11
168.523860
 21
33.032832
 31
0.000000
  6
CONTINUOUS
  0
LINE
  8
WHITE
 10
168.523860
 20
33.032832
 30
0.000000
 11
168.091620
 21
33.140892
 31
0.000000
  6
CONTINUOUS
  0
LINE
  8
WHITE
 10
168.091620
 20
33.140892
 30
0.000000
 11
167.783340
 21
33.439612
 31
0.000000
  6
CONTINUOUS
  0
LINE
  8
WHITE
 10
167.783340
 20
33.439612
 30
0.000000
 11
167.665760
 21
33.890872
 31
0.000000
  6
CONTINUOUS
  0
LINE
  8
WHITE
 10
167.665760
 20
33.890872
 30
0.000000
 11
167.783340
 21
34.323112
 31
0.000000
  6
CONTINUOUS
  0
LINE
  8
WHITE
 10
167.783340
 20
34.323112
 30
0.000000
 11
168.091620
 21
34.631392
 31
0.000000
  6
CONTINUOUS
  0
LINE
  8
WHITE
 10
168.091620
 20
34.631392
 30
0.000000
 11
168.523860
 21
34.748972
 31
0.000000
  6
CONTINUOUS
  0
LINE
  8
WHITE
 10
168.523860
 20
34.748972
 30
0.000000
 11
168.956040
 21
34.631392
 31
0.000000
  6
CONTINUOUS
  0
LINE
  8
WHITE
 10
168.956040
 20
34.631392
 30
0.000000
 11
169.264300
 21
34.323112
 31
0.000000
  6
CONTINUOUS
  0
LINE
  8
WHITE
 10
169.264300
 20
34.323112
 30
0.000000
 11
169.381900
 21
33.890872
 31
0.000000
  6
CONTINUOUS
  0
LINE
  8
WHITE
 10
189.546380
 20
12.954092
 30
0.000000
 11
189.428800
 21
12.521912
 31
0.000000
  6
CONTINUOUS
  0
LINE
  8
WHITE
 10
189.428800
 20
12.521912
 30
0.000000
 11
189.120540
 21
12.213652
 31
0.000000
  6
CONTINUOUS
  0
LINE
  8
WHITE
 10
189.120540
 20
12.213652
 30
0.000000
 11
188.688340
 21
12.096072
 31
0.000000
  6
CONTINUOUS
  0
LINE
  8
WHITE
 10
188.688340
 20
12.096072
 30
0.000000
 11
188.237040
 21
12.213652
 31
0.000000
  6
CONTINUOUS
  0
LINE
  8
WHITE
 10
188.237040
 20
12.213652
 30
0.000000
 11
187.938300
 21
12.521912
 31
0.000000
  6
CONTINUOUS
  0
LINE
  8
WHITE
 10
187.938300
 20
12.521912
 30
0.000000
 11
187.830240
 21
12.954092
 31
0.000000
  6
CONTINUOUS
  0
LINE
  8
WHITE
 10
187.830240
 20
12.954092
 30
0.000000
 11
187.938300
 21
13.386332
 31
0.000000
  6
CONTINUOUS
  0
LINE
  8
WHITE
 10
187.938300
 20
13.386332
 30
0.000000
 11
188.237040
 21
13.694612
 31
0.000000
  6
CONTINUOUS
  0
LINE
  8
WHITE
 10
188.237040
 20
13.694612
 30
0.000000
 11
188.688340
 21
13.812212
 31
0.000000
  6
CONTINUOUS
  0
LINE
  8
WHITE
 10
188.688340
 20
13.812212
 30
0.000000
 11
189.120540
 21
13.694612
 31
0.000000
  6
CONTINUOUS
  0
LINE
  8
WHITE
 10
189.120540
 20
13.694612
 30
0.000000
 11
189.428800
 21
13.386332
 31
0.000000
  6
CONTINUOUS
  0
LINE
  8
WHITE
 10
189.428800
 20
13.386332
 30
0.000000
 11
189.546380
 21
12.954092
 31
0.000000
  6
CONTINUOUS
  0
LINE
  8
WHITE
 10
169.381900
 20
12.954092
 30
0.000000
 11
169.264300
 21
12.521912
 31
0.000000
  6
CONTINUOUS
  0
LINE
  8
WHITE
 10
169.264300
 20
12.521912
 30
0.000000
 11
168.956040
 21
12.213652
 31
0.000000
  6
CONTINUOUS
  0
LINE
  8
WHITE
 10
168.956040
 20
12.213652
 30
0.000000
 11
168.523860
 21
12.096072
 31
0.000000
  6
CONTINUOUS
  0
LINE
  8
WHITE
 10
168.523860
 20
12.096072
 30
0.000000
 11
168.091620
 21
12.213652
 31
0.000000
  6
CONTINUOUS
  0
LINE
  8
WHITE
 10
168.091620
 20
12.213652
 30
0.000000
 11
167.783340
 21
12.521912
 31
0.000000
  6
CONTINUOUS
  0
LINE
  8
WHITE
 10
167.783340
 20
12.521912
 30
0.000000
 11
167.665760
 21
12.954092
 31
0.000000
  6
CONTINUOUS
  0
LINE
  8
WHITE
 10
167.665760
 20
12.954092
 30
0.000000
 11
167.783340
 21
13.386332
 31
0.000000
  6
CONTINUOUS
  0
LINE
  8
WHITE
 10
167.783340
 20
13.386332
 30
0.000000
 11
168.091620
 21
13.694612
 31
0.000000
  6
CONTINUOUS
  0
LINE
  8
WHITE
 10
168.091620
 20
13.694612
 30
0.000000
 11
168.523860
 21
13.812212
 31
0.000000
  6
CONTINUOUS
  0
LINE
  8
WHITE
 10
168.523860
 20
13.812212
 30
0.000000
 11
168.956040
 21
13.694612
 31
0.000000
  6
CONTINUOUS
  0
LINE
  8
WHITE
 10
168.956040
 20
13.694612
 30
0.000000
 11
169.264300
 21
13.386332
 31
0.000000
  6
CONTINUOUS
  0
LINE
  8
WHITE
 10
169.264300
 20
13.386332
 30
0.000000
 11
169.381900
 21
12.954092
 31
0.000000
  6
CONTINUOUS
  0
LINE
  8
WHITE
 10
167.876895
 20
33.348958
 30
0.000000
 11
167.567560
 21
33.016432
 31
0.000000
  6
CONTINUOUS
  0
LINE
  8
WHITE
 10
167.567560
 20
33.016432
 30
0.000000
 11
166.863640
 21
32.133212
 31
0.000000
  6
CONTINUOUS
  0
LINE
  8
WHITE
 10
166.863640
 20
32.133212
 30
0.000000
 11
166.228180
 21
31.196712
 31
0.000000
  6
CONTINUOUS
  0
LINE
  8
WHITE
 10
166.228180
 20
31.196712
 30
0.000000
 11
165.665040
 21
30.210692
 31
0.000000
  6
CONTINUOUS
  0
LINE
  8
WHITE
 10
165.665040
 20
30.210692
 30
0.000000
 11
165.178040
 21
29.178912
 31
0.000000
  6
CONTINUOUS
  0
LINE
  8
WHITE
 10
165.178040
 20
29.178912
 30
0.000000
 11
164.770980
 21
28.105132
 31
0.000000
  6
CONTINUOUS
  0
LINE
  8
WHITE
 10
164.770980
 20
28.105132
 30
0.000000
 11
164.447720
 21
26.993132
 31
0.000000
  6
CONTINUOUS
  0
LINE
  8
WHITE
 10
164.447720
 20
26.993132
 30
0.000000
 11
164.212080
 21
25.846672
 31
0.000000
  6
CONTINUOUS
  0
LINE
  8
WHITE
 10
164.212080
 20
25.846672
 30
0.000000
 11
164.067900
 21
24.669532
 31
0.000000
  6
CONTINUOUS
  0
LINE
  8
WHITE
 10
164.067900
 20
24.669532
 30
0.000000
 11
164.018980
 21
23.465432
 31
0.000000
  6
CONTINUOUS
  0
LINE
  8
WHITE
 10
164.018980
 20
23.465432
 30
0.000000
 11
164.067900
 21
22.261032
 31
0.000000
  6
CONTINUOUS
  0
LINE
  8
WHITE
 10
164.067900
 20
22.261032
 30
0.000000
 11
164.212080
 21
21.082972
 31
0.000000
  6
CONTINUOUS
  0
LINE
  8
WHITE
 10
164.212080
 20
21.082972
 30
0.000000
 11
164.447720
 21
19.935092
 31
0.000000
  6
CONTINUOUS
  0
LINE
  8
WHITE
 10
164.447720
 20
19.935092
 30
0.000000
 11
164.770980
 21
18.821232
 31
0.000000
  6
CONTINUOUS
  0
LINE
  8
WHITE
 10
164.770980
 20
18.821232
 30
0.000000
 11
165.178040
 21
17.745212
 31
0.000000
  6
CONTINUOUS
  0
LINE
  8
WHITE
 10
165.178040
 20
17.745212
 30
0.000000
 11
165.665040
 21
16.710872
 31
0.000000
  6
CONTINUOUS
  0
LINE
  8
WHITE
 10
165.665040
 20
16.710872
 30
0.000000
 11
166.228180
 21
15.722012
 31
0.000000
  6
CONTINUOUS
  0
LINE
  8
WHITE
 10
166.228180
 20
15.722012
 30
0.000000
 11
166.863640
 21
14.782492
 31
0.000000
  6
CONTINUOUS
  0
LINE
  8
WHITE
 10
166.863640
 20
14.782492
 30
0.000000
 11
167.567560
 21
13.896132
 31
0.000000
  6
CONTINUOUS
  0
LINE
  8
WHITE
 10
167.567560
 20
13.896132
 30
0.000000
 11
167.916542
 21
13.519534
 31
0.000000
  6
CONTINUOUS
  0
LINE
  8
WHITE
 10
188.251415
 20
34.649574
 30
0.000000
 11
187.417700
 21
35.308732
 31
0.000000
  6
CONTINUOUS
  0
LINE
  8
WHITE
 10
187.417700
 20
35.308732
 30
0.000000
 11
186.478180
 21
35.941152
 31
0.000000
  6
CONTINUOUS
  0
LINE
  8
WHITE
 10
186.478180
 20
35.941152
 30
0.000000
 11
185.489320
 21
36.501472
 31
0.000000
  6
CONTINUOUS
  0
LINE
  8
WHITE
 10
185.489320
 20
36.501472
 30
0.000000
 11
184.454980
 21
36.985912
 31
0.000000
  6
CONTINUOUS
  0
LINE
  8
WHITE
 10
184.454980
 20
36.985912
 30
0.000000
 11
183.378960
 21
37.390732
 31
0.000000
  6
CONTINUOUS
  0
LINE
  8
WHITE
 10
183.378960
 20
37.390732
 30
0.000000
 11
182.265120
 21
37.712132
 31
0.000000
  6
CONTINUOUS
  0
LINE
  8
WHITE
 10
182.265120
 20
37.712132
 30
0.000000
 11
181.117260
 21
37.946372
 31
0.000000
  6
CONTINUOUS
  0
LINE
  8
WHITE
 10
181.117260
 20
37.946372
 30
0.000000
 11
179.939200
 21
38.089672
 31
0.000000
  6
CONTINUOUS
  0
LINE
  8
WHITE
 10
179.939200
 20
38.089672
 30
0.000000
 11
178.734800
 21
38.138272
 31
0.000000
  6
CONTINUOUS
  0
LINE
  8
WHITE
 10
178.734800
 20
38.138272
 30
0.000000
 11
177.530400
 21
38.089672
 31
0.000000
  6
CONTINUOUS
  0
LINE
  8
WHITE
 10
177.530400
 20
38.089672
 30
0.000000
 11
176.352340
 21
37.946372
 31
0.000000
  6
CONTINUOUS
  0
LINE
  8
WHITE
 10
176.352340
 20
37.946372
 30
0.000000
 11
175.204460
 21
37.712132
 31
0.000000
  6
CONTINUOUS
  0
LINE
  8
WHITE
 10
175.204460
 20
37.712132
 30
0.000000
 11
174.090600
 21
37.390732
 31
0.000000
  6
CONTINUOUS
  0
LINE
  8
WHITE
 10
174.090600
 20
37.390732
 30
0.000000
 11
173.014580
 21
36.985912
 31
0.000000
  6
CONTINUOUS
  0
LINE
  8
WHITE
 10
173.014580
 20
36.985912
 30
0.000000
 11
171.980240
 21
36.501472
 31
0.000000
  6
CONTINUOUS
  0
LINE
  8
WHITE
 10
171.980240
 20
36.501472
 30
0.000000
 11
170.991380
 21
35.941152
 31
0.000000
  6
CONTINUOUS
  0
LINE
  8
WHITE
 10
170.991380
 20
35.941152
 30
0.000000
 11
170.051860
 21
35.308732
 31
0.000000
  6
CONTINUOUS
  0
LINE
  8
WHITE
 10
170.051860
 20
35.308732
 30
0.000000
 11
169.165500
 21
34.607952
 31
0.000000
  6
CONTINUOUS
  0
LINE
  8
WHITE
 10
169.165500
 20
34.607952
 30
0.000000
 11
169.068751
 21
34.518674
 31
0.000000
  6
CONTINUOUS
  0
LINE
  8
WHITE
 10
188.219891
 20
12.231348
 30
0.000000
 11
187.417700
 21
11.594272
 31
0.000000
  6
CONTINUOUS
  0
LINE
  8
WHITE
 10
187.417700
 20
11.594272
 30
0.000000
 11
186.478180
 21
10.958812
 31
0.000000
  6
CONTINUOUS
  0
LINE
  8
WHITE
 10
186.478180
 20
10.958812
 30
0.000000
 11
185.489320
 21
10.395672
 31
0.000000
  6
CONTINUOUS
  0
LINE
  8
WHITE
 10
185.489320
 20
10.395672
 30
0.000000
 11
184.454980
 21
9.908672
 31
0.000000
  6
CONTINUOUS
  0
LINE
  8
WHITE
 10
184.454980
 20
9.908672
 30
0.000000
 11
183.378960
 21
9.501612
 31
0.000000
  6
CONTINUOUS
  0
LINE
  8
WHITE
 10
183.378960
 20
9.501612
 30
0.000000
 11
182.265120
 21
9.178352
 31
0.000000
  6
CONTINUOUS
  0
LINE
  8
WHITE
 10
182.265120
 20
9.178352
 30
0.000000
 11
181.117260
 21
8.942712
 31
0.000000
  6
CONTINUOUS
  0
LINE
  8
WHITE
 10
181.117260
 20
8.942712
 30
0.000000
 11
179.939200
 21
8.798532
 31
0.000000
  6
CONTINUOUS
  0
LINE
  8
WHITE
 10
179.939200
 20
8.798532
 30
0.000000
 11
178.734800
 21
8.749612
 31
0.000000
  6
CONTINUOUS
  0
LINE
  8
WHITE
 10
178.734800
 20
8.749612
 30
0.000000
 11
177.530400
 21
8.798532
 31
0.000000
  6
CONTINUOUS
  0
LINE
  8
WHITE
 10
177.530400
 20
8.798532
 30
0.000000
 11
176.352340
 21
8.942712
 31
0.000000
  6
CONTINUOUS
  0
LINE
  8
WHITE
 10
176.352340
 20
8.942712
 30
0.000000
 11
175.204460
 21
9.178352
 31
0.000000
  6
CONTINUOUS
  0
LINE
  8
WHITE
 10
175.204460
 20
9.178352
 30
0.000000
 11
174.090600
 21
9.501612
 31
0.000000
  6
CONTINUOUS
  0
LINE
  8
WHITE
 10
174.090600
 20
9.501612
 30
0.000000
 11
173.014580
 21
9.908672
 31
0.000000
  6
CONTINUOUS
  0
LINE
  8
WHITE
 10
173.014580
 20
9.908672
 30
0.000000
 11
171.980240
 21
10.395672
 31
0.000000
  6
CONTINUOUS
  0
LINE
  8
WHITE
 10
171.980240
 20
10.395672
 30
0.000000
 11
170.991380
 21
10.958812
 31
0.000000
  6
CONTINUOUS
  0
LINE
  8
WHITE
 10
170.991380
 20
10.958812
 30
0.000000
 11
170.051860
 21
11.594272
 31
0.000000
  6
CONTINUOUS
  0
LINE
  8
WHITE
 10
170.051860
 20
11.594272
 30
0.000000
 11
169.165500
 21
12.298192
 31
0.000000
  6
CONTINUOUS
  0
LINE
  8
WHITE
 10
169.165500
 20
12.298192
 30
0.000000
 11
169.100663
 21
12.358275
 31
0.000000
  6
CONTINUOUS
  0
LINE
  8
WHITE
 10
189.428800
 20
13.386332
 30
0.000000
 11
189.901980
 21
13.896132
 31
0.000000
  6
CONTINUOUS
  0
LINE
  8
WHITE
 10
189.901980
 20
13.896132
 30
0.000000
 11
190.605900
 21
14.782492
 31
0.000000
  6
CONTINUOUS
  0
LINE
  8
WHITE
 10
190.605900
 20
14.782492
 30
0.000000
 11
191.241340
 21
15.722012
 31
0.000000
  6
CONTINUOUS
  0
LINE
  8
WHITE
 10
191.241340
 20
15.722012
 30
0.000000
 11
191.804480
 21
16.710872
 31
0.000000
  6
CONTINUOUS
  0
LINE
  8
WHITE
 10
191.804480
 20
16.710872
 30
0.000000
 11
192.291500
 21
17.745212
 31
0.000000
  6
CONTINUOUS
  0
LINE
  8
WHITE
 10
192.291500
 20
17.745212
 30
0.000000
 11
192.698540
 21
18.821232
 31
0.000000
  6
CONTINUOUS
  0
LINE
  8
WHITE
 10
192.698540
 20
18.821232
 30
0.000000
 11
193.021800
 21
19.935092
 31
0.000000
  6
CONTINUOUS
  0
LINE
  8
WHITE
 10
193.021800
 20
19.935092
 30
0.000000
 11
193.257440
 21
21.082972
 31
0.000000
  6
CONTINUOUS
  0
LINE
  8
WHITE
 10
193.257440
 20
21.082972
 30
0.000000
 11
193.401640
 21
22.261032
 31
0.000000
  6
CONTINUOUS
  0
LINE
  8
WHITE
 10
193.401640
 20
22.261032
 30
0.000000
 11
193.450560
 21
23.465432
 31
0.000000
  6
CONTINUOUS
  0
LINE
  8
WHITE
 10
193.450560
 20
23.465432
 30
0.000000
 11
193.401640
 21
24.669532
 31
0.000000
  6
CONTINUOUS
  0
LINE
  8
WHITE
 10
193.401640
 20
24.669532
 30
0.000000
 11
193.257440
 21
25.846672
 31
0.000000
  6
CONTINUOUS
  0
LINE
  8
WHITE
 10
193.257440
 20
25.846672
 30
0.000000
 11
193.021800
 21
26.993132
 31
0.000000
  6
CONTINUOUS
  0
LINE
  8
WHITE
 10
193.021800
 20
26.993132
 30
0.000000
 11
192.698540
 21
28.105132
 31
0.000000
  6
CONTINUOUS
  0
LINE
  8
WHITE
 10
192.698540
 20
28.105132
 30
0.000000
 11
192.291500
 21
29.178912
 31
0.000000
  6
CONTINUOUS
  0
LINE
  8
WHITE
 10
192.291500
 20
29.178912
 30
0.000000
 11
191.804480
 21
30.210692
 31
0.000000
  6
CONTINUOUS
  0
LINE
  8
WHITE
 10
191.804480
 20
30.210692
 30
0.000000
 11
191.241340
 21
31.196712
 31
0.000000
  6
CONTINUOUS
  0
LINE
  8
WHITE
 10
191.241340
 20
31.196712
 30
0.000000
 11
190.605900
 21
32.133212
 31
0.000000
  6
CONTINUOUS
  0
LINE
  8
WHITE
 10
190.605900
 20
32.133212
 30
0.000000
 11
189.901980
 21
33.016432
 31
0.000000
  6
CONTINUOUS
  0
LINE
  8
WHITE
 10
189.901980
 20
33.016432
 30
0.000000
 11
189.446198
 21
33.506384
 31
0.000000
  6
CONTINUOUS
  0
LINE
  8
WHITE
 10
89.367400
 20
71.002132
 30
0.000000
 11
89.367400
 21
88.377952
 31
0.000000
  6
CONTINUOUS
  0
LINE
  8
WHITE
 10
89.367400
 20
88.377952
 30
0.000000
 11
87.179300
 21
90.179852
 31
0.000000
  6
CONTINUOUS
  0
LINE
  8
WHITE
 10
87.179300
 20
90.179852
 30
0.000000
 11
77.140000
 21
90.265672
 31
0.000000
  6
CONTINUOUS
  0
LINE
  8
WHITE
 10
77.140000
 20
90.265672
 30
0.000000
 11
77.140000
 21
73.190232
 31
0.000000
  6
CONTINUOUS
  0
LINE
  8
WHITE
 10
77.140000
 20
73.190232
 30
0.000000
 11
78.641580
 21
73.662132
 31
0.000000
  6
CONTINUOUS
  0
LINE
  8
WHITE
 10
78.641580
 20
73.662132
 30
0.000000
 11
80.186140
 21
73.919532
 31
0.000000
  6
CONTINUOUS
  0
LINE
  8
WHITE
 10
80.186140
 20
73.919532
 30
0.000000
 11
81.601900
 21
73.919532
 31
0.000000
  6
CONTINUOUS
  0
LINE
  8
WHITE
 10
81.601900
 20
73.919532
 30
0.000000
 11
83.875760
 21
73.662132
 31
0.000000
  6
CONTINUOUS
  0
LINE
  8
WHITE
 10
83.875760
 20
73.662132
 30
0.000000
 11
85.548980
 21
73.190232
 31
0.000000
  6
CONTINUOUS
  0
LINE
  8
WHITE
 10
85.548980
 20
73.190232
 30
0.000000
 11
87.265120
 21
72.375052
 31
0.000000
  6
CONTINUOUS
  0
LINE
  8
WHITE
 10
87.265120
 20
72.375052
 30
0.000000
 11
89.367400
 21
71.002132
 31
0.000000
  6
CONTINUOUS
  0
LINE
  8
WHITE
 10
84.476460
 20
100.219212
 30
0.000000
 11
93.228660
 21
100.862752
 31
0.000000
  6
CONTINUOUS
  0
LINE
  8
WHITE
 10
93.228660
 20
100.862752
 30
0.000000
 11
105.027080
 21
101.334732
 31
0.000000
  6
CONTINUOUS
  0
LINE
  8
WHITE
 10
105.027080
 20
101.334732
 30
0.000000
 11
111.119300
 21
101.334732
 31
0.000000
  6
CONTINUOUS
  0
LINE
  8
WHITE
 10
111.119300
 20
101.334732
 30
0.000000
 11
121.330320
 21
101.635052
 31
0.000000
  6
CONTINUOUS
  0
LINE
  8
WHITE
 10
121.330320
 20
101.635052
 30
0.000000
 11
131.112200
 21
101.377632
 31
0.000000
  6
CONTINUOUS
  0
LINE
  8
WHITE
 10
131.112200
 20
101.377632
 30
0.000000
 11
140.722520
 21
100.819852
 31
0.000000
  6
CONTINUOUS
  0
LINE
  8
WHITE
 10
140.722520
 20
100.819852
 30
0.000000
 11
144.326380
 21
100.347952
 31
0.000000
  6
CONTINUOUS
  0
LINE
  8
WHITE
 10
144.326380
 20
100.347952
 30
0.000000
 11
146.428660
 21
99.961812
 31
0.000000
  6
CONTINUOUS
  0
LINE
  8
WHITE
 10
146.428660
 20
99.961812
 30
0.000000
 11
147.672840
 21
99.532752
 31
0.000000
  6
CONTINUOUS
  0
LINE
  8
WHITE
 10
147.672840
 20
99.532752
 30
0.000000
 11
149.303160
 21
98.631812
 31
0.000000
  6
CONTINUOUS
  0
LINE
  8
WHITE
 10
149.303160
 20
98.631812
 30
0.000000
 11
150.504500
 21
97.602132
 31
0.000000
  6
CONTINUOUS
  0
LINE
  8
WHITE
 10
150.504500
 20
97.602132
 30
0.000000
 11
151.190940
 21
96.658272
 31
0.000000
  6
CONTINUOUS
  0
LINE
  8
WHITE
 10
151.190940
 20
96.658272
 30
0.000000
 11
151.705760
 21
96.057632
 31
0.000000
  6
CONTINUOUS
  0
LINE
  8
WHITE
 10
151.705760
 20
96.057632
 30
0.000000
 11
152.263460
 21
95.457012
 31
0.000000
  6
CONTINUOUS
  0
LINE
  8
WHITE
 10
152.263460
 20
95.457012
 30
0.000000
 11
153.035760
 21
95.199532
 31
0.000000
  6
CONTINUOUS
  0
LINE
  8
WHITE
 10
153.035760
 20
95.199532
 30
0.000000
 11
153.765120
 21
95.285352
 31
0.000000
  6
CONTINUOUS
  0
LINE
  8
WHITE
 10
153.765120
 20
95.285352
 30
0.000000
 11
154.408660
 21
95.885992
 31
0.000000
  6
CONTINUOUS
  0
LINE
  8
WHITE
 10
154.408660
 20
95.885992
 30
0.000000
 11
154.623160
 21
96.701192
 31
0.000000
  6
CONTINUOUS
  0
LINE
  8
WHITE
 10
154.623160
 20
96.701192
 30
0.000000
 11
154.494500
 21
97.645052
 31
0.000000
  6
CONTINUOUS
  0
LINE
  8
WHITE
 10
154.494500
 20
97.645052
 30
0.000000
 11
153.979600
 21
98.417332
 31
0.000000
  6
CONTINUOUS
  0
LINE
  8
WHITE
 10
153.979600
 20
98.417332
 30
0.000000
 11
153.207400
 21
99.232452
 31
0.000000
  6
CONTINUOUS
  0
LINE
  8
WHITE
 10
153.207400
 20
99.232452
 30
0.000000
 11
152.134800
 21
100.133392
 31
0.000000
  6
CONTINUOUS
  0
LINE
  8
WHITE
 10
152.134800
 20
100.133392
 30
0.000000
 11
150.804800
 21
100.734092
 31
0.000000
  6
CONTINUOUS
  0
LINE
  8
WHITE
 10
150.804800
 20
100.734092
 30
0.000000
 11
149.346060
 21
101.205992
 31
0.000000
  6
CONTINUOUS
  0
LINE
  8
WHITE
 10
149.346060
 20
101.205992
 30
0.000000
 11
147.200940
 21
101.549212
 31
0.000000
  6
CONTINUOUS
  0
LINE
  8
WHITE
 10
147.200940
 20
101.549212
 30
0.000000
 11
144.583860
 21
101.892452
 31
0.000000
  6
CONTINUOUS
  0
LINE
  8
WHITE
 10
144.583860
 20
101.892452
 30
0.000000
 11
137.032840
 21
102.364412
 31
0.000000
  6
CONTINUOUS
  0
LINE
  8
WHITE
 10
137.032840
 20
102.364412
 30
0.000000
 11
128.709600
 21
102.750552
 31
0.000000
  6
CONTINUOUS
  0
LINE
  8
WHITE
 10
128.709600
 20
102.750552
 30
0.000000
 11
121.030000
 21
102.750552
 31
0.000000
  6
CONTINUOUS
  0
LINE
  8
WHITE
 10
121.030000
 20
102.750552
 30
0.000000
 11
110.776060
 21
102.578892
 31
0.000000
  6
CONTINUOUS
  0
LINE
  8
WHITE
 10
110.776060
 20
102.578892
 30
0.000000
 11
100.565120
 21
102.149852
 31
0.000000
  6
CONTINUOUS
  0
LINE
  8
WHITE
 10
100.565120
 20
102.149852
 30
0.000000
 11
92.156060
 21
101.720872
 31
0.000000
  6
CONTINUOUS
  0
LINE
  8
WHITE
 10
92.156060
 20
101.720872
 30
0.000000
 11
84.004500
 21
100.991492
 31
0.000000
  6
CONTINUOUS
  0
LINE
  8
WHITE
 10
84.004500
 20
100.991492
 30
0.000000
 11
80.786780
 21
100.648272
 31
0.000000
  6
CONTINUOUS
  0
LINE
  8
WHITE
 10
80.786780
 20
100.648272
 30
0.000000
 11
82.245440
 21
100.176312
 31
0.000000
  6
CONTINUOUS
  0
LINE
  8
WHITE
 10
82.245440
 20
100.176312
 30
0.000000
 11
82.974800
 21
100.090552
 31
0.000000
  6
CONTINUOUS
  0
LINE
  8
WHITE
 10
82.974800
 20
100.090552
 30
0.000000
 11
84.476460
 21
100.219212
 31
0.000000
  6
CONTINUOUS
  0
LINE
  8
WHITE
 10
82.116780
 20
93.612132
 30
0.000000
 11
67.057720
 21
93.612132
 31
0.000000
  6
CONTINUOUS
  0
LINE
  8
WHITE
 10
67.057720
 20
93.612132
 30
0.000000
 11
67.057720
 21
94.255672
 31
0.000000
  6
CONTINUOUS
  0
LINE
  8
WHITE
 10
67.057720
 20
94.255672
 30
0.000000
 11
76.153240
 21
97.602132
 31
0.000000
  6
CONTINUOUS
  0
LINE
  8
WHITE
 10
76.153240
 20
97.602132
 30
0.000000
 11
90.311260
 21
97.559212
 31
0.000000
  6
CONTINUOUS
  0
LINE
  8
WHITE
 10
90.311260
 20
97.559212
 30
0.000000
 11
82.116780
 21
93.612132
 31
0.000000
  6
CONTINUOUS
  0
LINE
  8
WHITE
 10
92.327720
 20
69.629212
 30
0.000000
 11
154.494500
 21
69.629212
 31
0.000000
  6
CONTINUOUS
  0
LINE
  8
WHITE
 10
154.494500
 20
69.629212
 30
0.000000
 11
155.052200
 21
69.543472
 31
0.000000
  6
CONTINUOUS
  0
LINE
  8
WHITE
 10
155.052200
 20
69.543472
 30
0.000000
 11
155.567080
 21
69.285992
 31
0.000000
  6
CONTINUOUS
  0
LINE
  8
WHITE
 10
155.567080
 20
69.285992
 30
0.000000
 11
155.910320
 21
68.857012
 31
0.000000
  6
CONTINUOUS
  0
LINE
  8
WHITE
 10
155.910320
 20
68.857012
 30
0.000000
 11
156.038980
 21
68.213472
 31
0.000000
  6
CONTINUOUS
  0
LINE
  8
WHITE
 10
156.038980
 20
68.213472
 30
0.000000
 11
156.038980
 21
67.484092
 31
0.000000
  6
CONTINUOUS
  0
LINE
  8
WHITE
 10
156.038980
 20
67.484092
 30
0.000000
 11
155.652840
 21
68.213472
 31
0.000000
  6
CONTINUOUS
  0
LINE
  8
WHITE
 10
155.652840
 20
68.213472
 30
0.000000
 11
155.266700
 21
68.556692
 31
0.000000
  6
CONTINUOUS
  0
LINE
  8
WHITE
 10
155.266700
 20
68.556692
 30
0.000000
 11
154.537400
 21
68.771192
 31
0.000000
  6
CONTINUOUS
  0
LINE
  8
WHITE
 10
154.537400
 20
68.771192
 30
0.000000
 11
92.327720
 21
68.771192
 31
0.000000
  6
CONTINUOUS
  0
LINE
  8
WHITE
 10
92.327720
 20
68.771192
 30
0.000000
 11
92.327720
 21
69.629212
 31
0.000000
  6
CONTINUOUS
  0
LINE
  8
WHITE
 10
6.349680
 20
32.775432
 30
0.000000
 11
4.290320
 21
33.633472
 31
0.000000
  6
CONTINUOUS
  0
LINE
  8
WHITE
 10
4.290320
 20
33.633472
 30
0.000000
 11
2.788740
 21
34.448592
 31
0.000000
  6
CONTINUOUS
  0
LINE
  8
WHITE
 10
2.788740
 20
34.448592
 30
0.000000
 11
1.673240
 21
35.220872
 31
0.000000
  6
CONTINUOUS
  0
LINE
  8
WHITE
 10
1.673240
 20
35.220872
 30
0.000000
 11
0.943860
 21
35.778592
 31
0.000000
  6
CONTINUOUS
  0
LINE
  8
WHITE
 10
0.943860
 20
35.778592
 30
0.000000
 11
0.643540
 21
36.207632
 31
0.000000
  6
CONTINUOUS
  0
LINE
  8
WHITE
 10
0.643540
 20
36.207632
 30
0.000000
 11
0.343240
 21
36.422212
 31
0.000000
  6
CONTINUOUS
  0
LINE
  8
WHITE
 10
0.343240
 20
36.422212
 30
0.000000
 11
0.214500
 21
36.164732
 31
0.000000
  6
CONTINUOUS
  0
LINE
  8
WHITE
 10
0.214500
 20
36.164732
 30
0.000000
 11
0.171580
 21
33.461812
 31
0.000000
  6
CONTINUOUS
  0
LINE
  8
WHITE
 10
0.171580
 20
33.461812
 30
0.000000
 11
0.171580
 21
32.947012
 31
0.000000
  6
CONTINUOUS
  0
LINE
  8
WHITE
 10
0.171580
 20
32.947012
 30
0.000000
 11
0.214500
 21
32.732532
 31
0.000000
  6
CONTINUOUS
  0
LINE
  8
WHITE
 10
0.214500
 20
32.732532
 30
0.000000
 11
0.471980
 21
32.603792
 31
0.000000
  6
CONTINUOUS
  0
LINE
  8
WHITE
 10
0.471980
 20
32.603792
 30
0.000000
 11
0.815200
 21
32.732532
 31
0.000000
  6
CONTINUOUS
  0
LINE
  8
WHITE
 10
0.815200
 20
32.732532
 30
0.000000
 11
2.016460
 21
31.874412
 31
0.000000
  6
CONTINUOUS
  0
LINE
  8
WHITE
 10
2.016460
 20
31.874412
 30
0.000000
 11
3.904180
 21
30.844732
 31
0.000000
  6
CONTINUOUS
  0
LINE
  8
WHITE
 10
3.904180
 20
30.844732
 30
0.000000
 11
6.220940
 21
29.943792
 31
0.000000
  6
CONTINUOUS
  0
LINE
  8
WHITE
 10
6.220940
 20
29.943792
 30
0.000000
 11
8.623540
 21
29.257332
 31
0.000000
  6
CONTINUOUS
  0
LINE
  8
WHITE
 10
8.623540
 20
29.257332
 30
0.000000
 11
10.511260
 21
28.828272
 31
0.000000
  6
CONTINUOUS
  0
LINE
  8
WHITE
 10
10.511260
 20
28.828272
 30
0.000000
 11
11.884180
 21
28.656692
 31
0.000000
  6
CONTINUOUS
  0
LINE
  8
WHITE
 10
11.884180
 20
28.656692
 30
0.000000
 11
12.527720
 21
28.270552
 31
0.000000
  6
CONTINUOUS
  0
LINE
  8
WHITE
 10
12.527720
 20
28.270552
 30
0.000000
 11
12.785120
 21
28.227632
 31
0.000000
  6
CONTINUOUS
  0
LINE
  8
WHITE
 10
12.785120
 20
28.227632
 30
0.000000
 11
13.128340
 21
28.570872
 31
0.000000
  6
CONTINUOUS
  0
LINE
  8
WHITE
 10
13.128340
 20
28.570872
 30
0.000000
 11
13.128340
 21
31.574092
 31
0.000000
  6
CONTINUOUS
  0
LINE
  8
WHITE
 10
13.128340
 20
31.574092
 30
0.000000
 11
12.913860
 21
31.960232
 31
0.000000
  6
CONTINUOUS
  0
LINE
  8
WHITE
 10
12.913860
 20
31.960232
 30
0.000000
 11
12.527720
 21
31.960232
 31
0.000000
  6
CONTINUOUS
  0
LINE
  8
WHITE
 10
12.527720
 20
31.960232
 30
0.000000
 11
12.055820
 21
31.659932
 31
0.000000
  6
CONTINUOUS
  0
LINE
  8
WHITE
 10
12.055820
 20
31.659932
 30
0.000000
 11
11.154800
 21
31.659932
 31
0.000000
  6
CONTINUOUS
  0
LINE
  8
WHITE
 10
11.154800
 20
31.659932
 30
0.000000
 11
8.709380
 21
32.046072
 31
0.000000
  6
CONTINUOUS
  0
LINE
  8
WHITE
 10
8.709380
 20
32.046072
 30
0.000000
 11
6.349680
 21
32.775432
 31
0.000000
  6
CONTINUOUS
  0
LINE
  8
WHITE
 10
2.402600
 20
30.158272
 30
0.000000
 11
1.415820
 21
30.773762
 31
0.000000
  6
CONTINUOUS
  0
LINE
  8
WHITE
 10
1.415820
 20
30.773762
 30
0.000000
 11
1.372920
 21
30.801812
 31
0.000000
  6
CONTINUOUS
  0
LINE
  8
WHITE
 10
1.372920
 20
30.801812
 30
0.000000
 11
0.600640
 21
31.488272
 31
0.000000
  6
CONTINUOUS
  0
LINE
  8
WHITE
 10
0.600640
 20
31.488272
 30
0.000000
 11
0.471980
 21
31.702832
 31
0.000000
  6
CONTINUOUS
  0
LINE
  8
WHITE
 10
0.471980
 20
31.702832
 30
0.000000
 11
0.257400
 21
31.831492
 31
0.000000
  6
CONTINUOUS
  0
LINE
  8
WHITE
 10
0.257400
 20
31.831492
 30
0.000000
 11
0.085820
 21
31.874412
 31
0.000000
  6
CONTINUOUS
  0
LINE
  8
WHITE
 10
0.085820
 20
31.874412
 30
0.000000
 11
0.042920
 21
31.659932
 31
0.000000
  6
CONTINUOUS
  0
LINE
  8
WHITE
 10
0.042920
 20
31.659932
 30
0.000000
 11
0.042920
 21
29.643472
 31
0.000000
  6
CONTINUOUS
  0
LINE
  8
WHITE
 10
0.042920
 20
29.643472
 30
0.000000
 11
0.000000
 21
29.085752
 31
0.000000
  6
CONTINUOUS
  0
LINE
  8
WHITE
 10
0.000000
 20
29.085752
 30
0.000000
 11
0.300320
 21
28.871192
 31
0.000000
  6
CONTINUOUS
  0
LINE
  8
WHITE
 10
0.300320
 20
28.871192
 30
0.000000
 11
0.557720
 21
28.871192
 31
0.000000
  6
CONTINUOUS
  0
LINE
  8
WHITE
 10
0.557720
 20
28.871192
 30
0.000000
 11
0.686460
 21
28.999932
 31
0.000000
  6
CONTINUOUS
  0
LINE
  8
WHITE
 10
0.686460
 20
28.999932
 30
0.000000
 11
1.415820
 21
28.570872
 31
0.000000
  6
CONTINUOUS
  0
LINE
  8
WHITE
 10
1.415820
 20
28.570872
 30
0.000000
 11
2.702920
 21
27.755752
 31
0.000000
  6
CONTINUOUS
  0
LINE
  8
WHITE
 10
2.702920
 20
27.755752
 30
0.000000
 11
4.118740
 21
26.940552
 31
0.000000
  6
CONTINUOUS
  0
LINE
  8
WHITE
 10
4.118740
 20
26.940552
 30
0.000000
 11
5.491580
 21
26.339932
 31
0.000000
  6
CONTINUOUS
  0
LINE
  8
WHITE
 10
5.491580
 20
26.339932
 30
0.000000
 11
7.550940
 21
25.610552
 31
0.000000
  6
CONTINUOUS
  0
LINE
  8
WHITE
 10
7.550940
 20
25.610552
 30
0.000000
 11
9.610320
 21
25.009932
 31
0.000000
  6
CONTINUOUS
  0
LINE
  8
WHITE
 10
9.610320
 20
25.009932
 30
0.000000
 11
11.669680
 21
24.495052
 31
0.000000
  6
CONTINUOUS
  0
LINE
  8
WHITE
 10
11.669680
 20
24.495052
 30
0.000000
 11
11.927080
 21
24.151892
 31
0.000000
  6
CONTINUOUS
  0
LINE
  8
WHITE
 10
11.927080
 20
24.151892
 30
0.000000
 11
12.356140
 21
24.066072
 31
0.000000
  6
CONTINUOUS
  0
LINE
  8
WHITE
 10
12.356140
 20
24.066072
 30
0.000000
 11
12.613540
 21
24.151892
 31
0.000000
  6
CONTINUOUS
  0
LINE
  8
WHITE
 10
12.613540
 20
24.151892
 30
0.000000
 11
12.785120
 21
24.495052
 31
0.000000
  6
CONTINUOUS
  0
LINE
  8
WHITE
 10
12.785120
 20
24.495052
 30
0.000000
 11
12.785120
 21
26.597332
 31
0.000000
  6
CONTINUOUS
  0
LINE
  8
WHITE
 10
12.785120
 20
26.597332
 30
0.000000
 11
12.441980
 21
27.026372
 31
0.000000
  6
CONTINUOUS
  0
LINE
  8
WHITE
 10
12.441980
 20
27.026372
 30
0.000000
 11
12.098740
 21
27.026372
 31
0.000000
  6
CONTINUOUS
  0
LINE
  8
WHITE
 10
12.098740
 20
27.026372
 30
0.000000
 11
11.669680
 21
26.940552
 31
0.000000
  6
CONTINUOUS
  0
LINE
  8
WHITE
 10
11.669680
 20
26.940552
 30
0.000000
 11
10.382600
 21
27.112212
 31
0.000000
  6
CONTINUOUS
  0
LINE
  8
WHITE
 10
10.382600
 20
27.112212
 30
0.000000
 11
7.894180
 21
27.755752
 31
0.000000
  6
CONTINUOUS
  0
LINE
  8
WHITE
 10
7.894180
 20
27.755752
 30
0.000000
 11
5.577400
 21
28.485052
 31
0.000000
  6
CONTINUOUS
  0
LINE
  8
WHITE
 10
5.577400
 20
28.485052
 30
0.000000
 11
3.818340
 21
29.386072
 31
0.000000
  6
CONTINUOUS
  0
LINE
  8
WHITE
 10
3.818340
 20
29.386072
 30
0.000000
 11
2.402600
 21
30.158272
 31
0.000000
  6
CONTINUOUS
  0
LINE
  8
WHITE
 10
153.808040
 20
93.311812
 30
0.000000
 11
153.078660
 21
93.140152
 31
0.000000
  6
CONTINUOUS
  0
LINE
  8
WHITE
 10
153.078660
 20
93.140152
 30
0.000000
 11
153.464800
 21
70.058272
 31
0.000000
  6
CONTINUOUS
  0
LINE
  8
WHITE
 10
153.464800
 20
70.058272
 30
0.000000
 11
154.322840
 21
70.058272
 31
0.000000
  6
CONTINUOUS
  0
LINE
  8
WHITE
 10
154.322840
 20
70.058272
 30
0.000000
 11
154.708980
 21
94.212752
 31
0.000000
  6
CONTINUOUS
  0
LINE
  8
WHITE
 10
154.708980
 20
94.212752
 30
0.000000
 11
154.279920
 21
93.655052
 31
0.000000
  6
CONTINUOUS
  0
LINE
  8
WHITE
 10
154.279920
 20
93.655052
 30
0.000000
 11
153.808040
 21
93.311812
 31
0.000000
  6
CONTINUOUS
  0
LINE
  8
WHITE
 10
33.679060
 20
68.985672
 30
0.000000
 11
32.992600
 21
69.371812
 31
0.000000
  6
CONTINUOUS
  0
LINE
  8
WHITE
 10
32.992600
 20
69.371812
 30
0.000000
 11
28.830940
 21
69.371812
 31
0.000000
  6
CONTINUOUS
  0
LINE
  8
WHITE
 10
28.830940
 20
69.371812
 30
0.000000
 11
29.603240
 21
68.942752
 31
0.000000
  6
CONTINUOUS
  0
LINE
  8
WHITE
 10
29.603240
 20
68.942752
 30
0.000000
 11
30.032280
 21
68.299212
 31
0.000000
  6
CONTINUOUS
  0
LINE
  8
WHITE
 10
30.032280
 20
68.299212
 30
0.000000
 11
30.289680
 21
67.612752
 31
0.000000
  6
CONTINUOUS
  0
LINE
  8
WHITE
 10
30.289680
 20
67.612752
 30
0.000000
 11
30.590000
 21
66.711812
 31
0.000000
  6
CONTINUOUS
  0
LINE
  8
WHITE
 10
30.590000
 20
66.711812
 30
0.000000
 11
30.761580
 21
65.467632
 31
0.000000
  6
CONTINUOUS
  0
LINE
  8
WHITE
 10
30.761580
 20
65.467632
 30
0.000000
 11
30.890320
 21
64.137632
 31
0.000000
  6
CONTINUOUS
  0
LINE
  8
WHITE
 10
30.890320
 20
64.137632
 30
0.000000
 11
30.890320
 21
62.550232
 31
0.000000
  6
CONTINUOUS
  0
LINE
  8
WHITE
 10
30.890320
 20
62.550232
 30
0.000000
 11
35.266460
 21
62.593152
 31
0.000000
  6
CONTINUOUS
  0
LINE
  8
WHITE
 10
35.266460
 20
62.593152
 30
0.000000
 11
35.266460
 21
63.579932
 31
0.000000
  6
CONTINUOUS
  0
LINE
  8
WHITE
 10
35.266460
 20
63.579932
 30
0.000000
 11
35.137720
 21
64.695352
 31
0.000000
  6
CONTINUOUS
  0
LINE
  8
WHITE
 10
35.137720
 20
64.695352
 30
0.000000
 11
34.966140
 21
65.853792
 31
0.000000
  6
CONTINUOUS
  0
LINE
  8
WHITE
 10
34.966140
 20
65.853792
 30
0.000000
 11
34.751580
 21
67.012132
 31
0.000000
  6
CONTINUOUS
  0
LINE
  8
WHITE
 10
34.751580
 20
67.012132
 30
0.000000
 11
34.322600
 21
68.041812
 31
0.000000
  6
CONTINUOUS
  0
LINE
  8
WHITE
 10
34.322600
 20
68.041812
 30
0.000000
 11
33.679060
 21
68.985672
 31
0.000000
  6
CONTINUOUS
  0
LINE
  8
WHITE
 10
23.771560
 20
59.964932
 30
0.000000
 11
23.396033
 21
60.533792
 31
0.000000
  6
CONTINUOUS
  0
LINE
  8
WHITE
 10
23.396033
 20
60.533792
 30
0.000000
 11
22.937340
 21
59.964932
 31
0.000000
  6
CONTINUOUS
  0
LINE
  8
WHITE
 10
22.937340
 20
59.964932
 30
0.000000
 11
22.640180
 21
58.242432
 31
0.000000
  6
CONTINUOUS
  0
LINE
  8
WHITE
 10
22.640180
 20
58.242432
 30
0.000000
 11
22.524180
 21
55.814412
 31
0.000000
  6
CONTINUOUS
  0
LINE
  8
WHITE
 10
22.524180
 20
55.814412
 30
0.000000
 11
22.640180
 21
53.397532
 31
0.000000
  6
CONTINUOUS
  0
LINE
  8
WHITE
 10
22.640180
 20
53.397532
 30
0.000000
 11
22.937340
 21
51.695692
 31
0.000000
  6
CONTINUOUS
  0
LINE
  8
WHITE
 10
22.937340
 20
51.695692
 30
0.000000
 11
23.338992
 21
51.052752
 31
0.000000
  6
CONTINUOUS
  0
LINE
  8
WHITE
 10
23.338992
 20
51.052752
 30
0.000000
 11
23.771560
 21
51.695692
 31
0.000000
  6
CONTINUOUS
  0
LINE
  8
WHITE
 10
23.771560
 20
51.695692
 30
0.000000
 11
24.079820
 21
53.397532
 31
0.000000
  6
CONTINUOUS
  0
LINE
  8
WHITE
 10
24.079820
 20
53.397532
 30
0.000000
 11
24.197400
 21
55.814412
 31
0.000000
  6
CONTINUOUS
  0
LINE
  8
WHITE
 10
24.197400
 20
55.814412
 30
0.000000
 11
24.079820
 21
58.242432
 31
0.000000
  6
CONTINUOUS
  0
LINE
  8
WHITE
 10
24.079820
 20
58.242432
 30
0.000000
 11
23.771560
 21
59.964932
 31
0.000000
  6
CONTINUOUS
  0
LINE
  8
WHITE
 10
162.560240
 20
39.983152
 30
0.000000
 11
164.104800
 21
42.299932
 31
0.000000
  6
CONTINUOUS
  0
LINE
  8
WHITE
 10
164.104800
 20
42.299932
 30
0.000000
 11
165.906700
 21
44.487952
 31
0.000000
  6
CONTINUOUS
  0
LINE
  8
WHITE
 10
165.906700
 20
44.487952
 30
0.000000
 11
168.566700
 21
46.847632
 31
0.000000
  6
CONTINUOUS
  0
LINE
  8
WHITE
 10
168.566700
 20
46.847632
 30
0.000000
 11
171.355440
 21
48.606692
 31
0.000000
  6
CONTINUOUS
  0
LINE
  8
WHITE
 10
171.355440
 20
48.606692
 30
0.000000
 11
173.972520
 21
49.807952
 31
0.000000
  6
CONTINUOUS
  0
LINE
  8
WHITE
 10
173.972520
 20
49.807952
 30
0.000000
 11
176.031900
 21
50.494412
 31
0.000000
  6
CONTINUOUS
  0
LINE
  8
WHITE
 10
176.031900
 20
50.494412
 30
0.000000
 11
177.447720
 21
50.837632
 31
0.000000
  6
CONTINUOUS
  0
LINE
  8
WHITE
 10
177.447720
 20
50.837632
 30
0.000000
 11
178.949300
 21
51.095052
 31
0.000000
  6
CONTINUOUS
  0
LINE
  8
WHITE
 10
178.949300
 20
51.095052
 30
0.000000
 11
180.922840
 21
51.137952
 31
0.000000
  6
CONTINUOUS
  0
LINE
  8
WHITE
 10
180.922840
 20
51.137952
 30
0.000000
 11
178.863460
 21
50.880552
 31
0.000000
  6
CONTINUOUS
  0
LINE
  8
WHITE
 10
178.863460
 20
50.880552
 30
0.000000
 11
176.975760
 21
50.494412
 31
0.000000
  6
CONTINUOUS
  0
LINE
  8
WHITE
 10
176.975760
 20
50.494412
 30
0.000000
 11
174.787720
 21
49.765052
 31
0.000000
  6
CONTINUOUS
  0
LINE
  8
WHITE
 10
174.787720
 20
49.765052
 30
0.000000
 11
173.028660
 21
48.907012
 31
0.000000
  6
CONTINUOUS
  0
LINE
  8
WHITE
 10
173.028660
 20
48.907012
 30
0.000000
 11
171.098040
 21
47.748592
 31
0.000000
  6
CONTINUOUS
  0
LINE
  8
WHITE
 10
171.098040
 20
47.748592
 30
0.000000
 11
169.124500
 21
46.332832
 31
0.000000
  6
CONTINUOUS
  0
LINE
  8
WHITE
 10
169.124500
 20
46.332832
 30
0.000000
 11
166.850640
 21
44.316372
 31
0.000000
  6
CONTINUOUS
  0
LINE
  8
WHITE
 10
166.850640
 20
44.316372
 30
0.000000
 11
164.662520
 21
41.913792
 31
0.000000
  6
CONTINUOUS
  0
LINE
  8
WHITE
 10
164.662520
 20
41.913792
 30
0.000000
 11
162.903460
 21
39.768592
 31
0.000000
  6
CONTINUOUS
  0
LINE
  8
WHITE
 10
162.903460
 20
39.768592
 30
0.000000
 11
161.187400
 21
36.937012
 31
0.000000
  6
CONTINUOUS
  0
LINE
  8
WHITE
 10
161.187400
 20
36.937012
 30
0.000000
 11
162.560240
 21
39.983152
 31
0.000000
  6
CONTINUOUS
  0
LINE
  8
WHITE
 10
132.742520
 20
63.880232
 30
0.000000
 11
132.313540
 21
64.137632
 31
0.000000
  6
CONTINUOUS
  0
LINE
  8
WHITE
 10
132.313540
 20
64.137632
 30
0.000000
 11
131.927400
 21
64.180552
 31
0.000000
  6
CONTINUOUS
  0
LINE
  8
WHITE
 10
131.927400
 20
64.180552
 30
0.000000
 11
131.541260
 21
64.137632
 31
0.000000
  6
CONTINUOUS
  0
LINE
  8
WHITE
 10
131.541260
 20
64.137632
 30
0.000000
 11
131.198040
 21
63.837332
 31
0.000000
  6
CONTINUOUS
  0
LINE
  8
WHITE
 10
131.198040
 20
63.837332
 30
0.000000
 11
130.854800
 21
63.579932
 31
0.000000
  6
CONTINUOUS
  0
LINE
  8
WHITE
 10
130.854800
 20
63.579932
 30
0.000000
 11
128.280640
 21
63.451192
 31
0.000000
  6
CONTINUOUS
  0
LINE
  8
WHITE
 10
128.280640
 20
63.451192
 30
0.000000
 11
127.765760
 21
63.365352
 31
0.000000
  6
CONTINUOUS
  0
LINE
  8
WHITE
 10
127.765760
 20
63.365352
 30
0.000000
 11
127.465440
 21
63.022132
 31
0.000000
  6
CONTINUOUS
  0
LINE
  8
WHITE
 10
127.465440
 20
63.022132
 30
0.000000
 11
127.680000
 21
62.635992
 31
0.000000
  6
CONTINUOUS
  0
LINE
  8
WHITE
 10
127.680000
 20
62.635992
 30
0.000000
 11
128.151900
 21
62.464412
 31
0.000000
  6
CONTINUOUS
  0
LINE
  8
WHITE
 10
128.151900
 20
62.464412
 30
0.000000
 11
130.983540
 21
62.249932
 31
0.000000
  6
CONTINUOUS
  0
LINE
  8
WHITE
 10
130.983540
 20
62.249932
 30
0.000000
 11
131.283860
 21
61.906692
 31
0.000000
  6
CONTINUOUS
  0
LINE
  8
WHITE
 10
131.283860
 20
61.906692
 30
0.000000
 11
131.498340
 21
61.649212
 31
0.000000
  6
CONTINUOUS
  0
LINE
  8
WHITE
 10
131.498340
 20
61.649212
 30
0.000000
 11
131.884500
 21
61.563472
 31
0.000000
  6
CONTINUOUS
  0
LINE
  8
WHITE
 10
131.884500
 20
61.563472
 30
0.000000
 11
132.313540
 21
61.649212
 31
0.000000
  6
CONTINUOUS
  0
LINE
  8
WHITE
 10
132.313540
 20
61.649212
 30
0.000000
 11
132.742520
 21
61.863792
 31
0.000000
  6
CONTINUOUS
  0
LINE
  8
WHITE
 10
132.742520
 20
61.863792
 30
0.000000
 11
133.000000
 21
62.292832
 31
0.000000
  6
CONTINUOUS
  0
LINE
  8
WHITE
 10
133.000000
 20
62.292832
 30
0.000000
 11
135.702840
 21
62.464412
 31
0.000000
  6
CONTINUOUS
  0
LINE
  8
WHITE
 10
135.702840
 20
62.464412
 30
0.000000
 11
136.046060
 21
62.635992
 31
0.000000
  6
CONTINUOUS
  0
LINE
  8
WHITE
 10
136.046060
 20
62.635992
 30
0.000000
 11
136.217720
 21
62.979212
 31
0.000000
  6
CONTINUOUS
  0
LINE
  8
WHITE
 10
136.217720
 20
62.979212
 30
0.000000
 11
136.046060
 21
63.365352
 31
0.000000
  6
CONTINUOUS
  0
LINE
  8
WHITE
 10
136.046060
 20
63.365352
 30
0.000000
 11
135.659920
 21
63.494092
 31
0.000000
  6
CONTINUOUS
  0
LINE
  8
WHITE
 10
135.659920
 20
63.494092
 30
0.000000
 11
132.957080
 21
63.579932
 31
0.000000
  6
CONTINUOUS
  0
LINE
  8
WHITE
 10
132.957080
 20
63.579932
 30
0.000000
 11
132.742520
 21
63.880232
 31
0.000000
  6
CONTINUOUS
  0
LINE
  8
WHITE
 10
132.184800
 20
63.622832
 30
0.000000
 11
132.270640
 21
63.022132
 31
0.000000
  6
CONTINUOUS
  0
LINE
  8
WHITE
 10
132.270640
 20
63.022132
 30
0.000000
 11
132.270640
 21
62.593152
 31
0.000000
  6
CONTINUOUS
  0
LINE
  8
WHITE
 10
132.270640
 20
62.593152
 30
0.000000
 11
132.098980
 21
62.292832
 31
0.000000
  6
CONTINUOUS
  0
LINE
  8
WHITE
 10
132.098980
 20
62.292832
 30
0.000000
 11
131.841580
 21
62.207012
 31
0.000000
  6
CONTINUOUS
  0
LINE
  8
WHITE
 10
131.841580
 20
62.207012
 30
0.000000
 11
131.627080
 21
62.035352
 31
0.000000
  6
CONTINUOUS
  0
LINE
  8
WHITE
 10
131.627080
 20
62.035352
 30
0.000000
 11
131.755760
 21
61.863792
 31
0.000000
  6
CONTINUOUS
  0
LINE
  8
WHITE
 10
131.755760
 20
61.863792
 30
0.000000
 11
132.013160
 21
61.863792
 31
0.000000
  6
CONTINUOUS
  0
LINE
  8
WHITE
 10
132.013160
 20
61.863792
 30
0.000000
 11
132.399300
 21
61.949612
 31
0.000000
  6
CONTINUOUS
  0
LINE
  8
WHITE
 10
132.399300
 20
61.949612
 30
0.000000
 11
132.656780
 21
62.207012
 31
0.000000
  6
CONTINUOUS
  0
LINE
  8
WHITE
 10
132.656780
 20
62.207012
 30
0.000000
 11
132.828340
 21
62.507332
 31
0.000000
  6
CONTINUOUS
  0
LINE
  8
WHITE
 10
132.828340
 20
62.507332
 30
0.000000
 11
132.828340
 21
63.107952
 31
0.000000
  6
CONTINUOUS
  0
LINE
  8
WHITE
 10
132.828340
 20
63.107952
 30
0.000000
 11
132.656780
 21
63.494092
 31
0.000000
  6
CONTINUOUS
  0
LINE
  8
WHITE
 10
132.656780
 20
63.494092
 30
0.000000
 11
132.399300
 21
63.708592
 31
0.000000
  6
CONTINUOUS
  0
LINE
  8
WHITE
 10
132.399300
 20
63.708592
 30
0.000000
 11
132.184800
 21
63.622832
 31
0.000000
  6
CONTINUOUS
  0
LINE
  8
WHITE
 10
133.171580
 20
62.850552
 30
0.000000
 11
135.145120
 21
62.850552
 31
0.000000
  6
CONTINUOUS
  0
LINE
  8
WHITE
 10
135.145120
 20
62.850552
 30
0.000000
 11
135.488340
 21
62.893472
 31
0.000000
  6
CONTINUOUS
  0
LINE
  8
WHITE
 10
135.488340
 20
62.893472
 30
0.000000
 11
135.745760
 21
63.107952
 31
0.000000
  6
CONTINUOUS
  0
LINE
  8
WHITE
 10
135.745760
 20
63.107952
 30
0.000000
 11
135.788660
 21
62.893472
 31
0.000000
  6
CONTINUOUS
  0
LINE
  8
WHITE
 10
135.788660
 20
62.893472
 30
0.000000
 11
135.745760
 21
62.678892
 31
0.000000
  6
CONTINUOUS
  0
LINE
  8
WHITE
 10
135.745760
 20
62.678892
 30
0.000000
 11
135.230940
 21
62.593152
 31
0.000000
  6
CONTINUOUS
  0
LINE
  8
WHITE
 10
135.230940
 20
62.593152
 30
0.000000
 11
133.042840
 21
62.507332
 31
0.000000
  6
CONTINUOUS
  0
LINE
  8
WHITE
 10
133.042840
 20
62.507332
 30
0.000000
 11
133.171580
 21
62.850552
 31
0.000000
  6
CONTINUOUS
  0
LINE
  8
WHITE
 10
131.112200
 20
62.764732
 30
0.000000
 11
128.495120
 21
62.764732
 31
0.000000
  6
CONTINUOUS
  0
LINE
  8
WHITE
 10
128.495120
 20
62.764732
 30
0.000000
 11
128.108980
 21
62.850552
 31
0.000000
  6
CONTINUOUS
  0
LINE
  8
WHITE
 10
128.108980
 20
62.850552
 30
0.000000
 11
127.851580
 21
62.893472
 31
0.000000
  6
CONTINUOUS
  0
LINE
  8
WHITE
 10
127.851580
 20
62.893472
 30
0.000000
 11
128.194800
 21
62.678892
 31
0.000000
  6
CONTINUOUS
  0
LINE
  8
WHITE
 10
128.194800
 20
62.678892
 30
0.000000
 11
128.623860
 21
62.593152
 31
0.000000
  6
CONTINUOUS
  0
LINE
  8
WHITE
 10
128.623860
 20
62.593152
 30
0.000000
 11
129.481900
 21
62.507332
 31
0.000000
  6
CONTINUOUS
  0
LINE
  8
WHITE
 10
129.481900
 20
62.507332
 30
0.000000
 11
131.026380
 21
62.464412
 31
0.000000
  6
CONTINUOUS
  0
LINE
  8
WHITE
 10
131.026380
 20
62.464412
 30
0.000000
 11
131.112200
 21
62.764732
 31
0.000000
  6
CONTINUOUS
  0
LINE
  8
WHITE
 10
59.378040
 20
46.267929
 30
0.000000
 11
60.107400
 21
45.503106
 31
0.000000
  6
CONTINUOUS
  0
LINE
  8
WHITE
 10
60.107400
 20
45.503106
 30
0.000000
 11
60.107400
 21
57.444732
 31
0.000000
  6
CONTINUOUS
  0
LINE
  8
WHITE
 10
60.107400
 20
57.444732
 30
0.000000
 11
60.021580
 21
57.873792
 31
0.000000
  6
CONTINUOUS
  0
LINE
  8
WHITE
 10
60.021580
 20
57.873792
 30
0.000000
 11
59.764180
 21
58.259932
 31
0.000000
  6
CONTINUOUS
  0
LINE
  8
WHITE
 10
59.764180
 20
58.259932
 30
0.000000
 11
59.463860
 21
58.474412
 31
0.000000
  6
CONTINUOUS
  0
LINE
  8
WHITE
 10
59.463860
 20
58.474412
 30
0.000000
 11
58.906140
 21
58.560232
 31
0.000000
  6
CONTINUOUS
  0
LINE
  8
WHITE
 10
58.906140
 20
58.560232
 30
0.000000
 11
58.219680
 21
58.560232
 31
0.000000
  6
CONTINUOUS
  0
LINE
  8
WHITE
 10
58.219680
 20
58.560232
 30
0.000000
 11
58.863240
 21
58.217012
 31
0.000000
  6
CONTINUOUS
  0
LINE
  8
WHITE
 10
58.863240
 20
58.217012
 30
0.000000
 11
59.077720
 21
57.959612
 31
0.000000
  6
CONTINUOUS
  0
LINE
  8
WHITE
 10
59.077720
 20
57.959612
 30
0.000000
 11
59.249380
 21
57.487632
 31
0.000000
  6
CONTINUOUS
  0
LINE
  8
WHITE
 10
59.249380
 20
57.487632
 30
0.000000
 11
59.378040
 21
56.887012
 31
0.000000
  6
CONTINUOUS
  0
LINE
  8
WHITE
 10
59.378040
 20
56.887012
 30
0.000000
 11
59.378040
 21
46.267929
 31
0.000000
  6
CONTINUOUS
  0
LINE
  8
WHITE
 10
91.469680
 20
62.678892
 30
0.000000
 11
91.469680
 21
67.484092
 31
0.000000
  6
CONTINUOUS
  0
LINE
  8
WHITE
 10
91.469680
 20
67.484092
 30
0.000000
 11
92.799680
 21
67.484092
 31
0.000000
  6
CONTINUOUS
  0
LINE
  8
WHITE
 10
92.799680
 20
67.484092
 30
0.000000
 11
92.799680
 21
62.678892
 31
0.000000
  6
CONTINUOUS
  0
LINE
  8
WHITE
 10
92.799680
 20
62.678892
 30
0.000000
 11
91.469680
 21
62.678892
 31
0.000000
  6
CONTINUOUS
  0
LINE
  8
WHITE
 10
91.469680
 20
39.597012
 30
0.000000
 11
91.469680
 21
44.402132
 31
0.000000
  6
CONTINUOUS
  0
LINE
  8
WHITE
 10
91.469680
 20
44.402132
 30
0.000000
 11
92.799680
 21
44.402132
 31
0.000000
  6
CONTINUOUS
  0
LINE
  8
WHITE
 10
92.799680
 20
44.402132
 30
0.000000
 11
92.799680
 21
39.597012
 31
0.000000
  6
CONTINUOUS
  0
LINE
  8
WHITE
 10
92.799680
 20
39.597012
 30
0.000000
 11
91.469680
 21
39.597012
 31
0.000000
  6
CONTINUOUS
  0
LINE
  8
WHITE
 10
213.658040
 20
28.013152
 30
0.000000
 11
213.658040
 21
23.465432
 31
0.000000
  6
CONTINUOUS
  0
LINE
  8
WHITE
 10
213.658040
 20
23.465432
 30
0.000000
 11
214.516060
 21
23.465432
 31
0.000000
  6
CONTINUOUS
  0
LINE
  8
WHITE
 10
214.516060
 20
23.465432
 30
0.000000
 11
214.516060
 21
28.013152
 31
0.000000
  6
CONTINUOUS
  0
LINE
  8
WHITE
 10
214.516060
 20
28.013152
 30
0.000000
 11
213.658040
 21
28.013152
 31
0.000000
  6
CONTINUOUS
  0
LINE
  8
WHITE
 10
18.190940
 20
53.840872
 30
0.000000
 11
20.207400
 21
54.269932
 31
0.000000
  6
CONTINUOUS
  0
LINE
  8
WHITE
 10
20.207400
 20
54.269932
 30
0.000000
 11
17.204180
 21
53.154412
 31
0.000000
  6
CONTINUOUS
  0
LINE
  8
WHITE
 10
17.204180
 20
53.154412
 30
0.000000
 11
15.101980
 21
52.124732
 31
0.000000
  6
CONTINUOUS
  0
LINE
  8
WHITE
 10
15.101980
 20
52.124732
 30
0.000000
 11
13.257080
 21
51.052132
 31
0.000000
  6
CONTINUOUS
  0
LINE
  8
WHITE
 10
13.257080
 20
51.052132
 30
0.000000
 11
10.511260
 21
49.164412
 31
0.000000
  6
CONTINUOUS
  0
LINE
  8
WHITE
 10
10.511260
 20
49.164412
 30
0.000000
 11
11.540940
 21
50.108272
 31
0.000000
  6
CONTINUOUS
  0
LINE
  8
WHITE
 10
11.540940
 20
50.108272
 30
0.000000
 11
12.356140
 21
50.794732
 31
0.000000
  6
CONTINUOUS
  0
LINE
  8
WHITE
 10
12.356140
 20
50.794732
 30
0.000000
 11
13.600320
 21
51.695672
 31
0.000000
  6
CONTINUOUS
  0
LINE
  8
WHITE
 10
13.600320
 20
51.695672
 30
0.000000
 11
14.158040
 21
51.996072
 31
0.000000
  6
CONTINUOUS
  0
LINE
  8
WHITE
 10
14.158040
 20
51.996072
 30
0.000000
 11
15.488040
 21
52.768272
 31
0.000000
  6
CONTINUOUS
  0
LINE
  8
WHITE
 10
15.488040
 20
52.768272
 30
0.000000
 11
16.646460
 21
53.326072
 31
0.000000
  6
CONTINUOUS
  0
LINE
  8
WHITE
 10
16.646460
 20
53.326072
 30
0.000000
 11
18.190940
 21
53.840872
 31
0.000000
  6
CONTINUOUS
  0
LINE
  8
WHITE
 10
213.658040
 20
31.402532
 30
0.000000
 11
213.658040
 21
28.485052
 31
0.000000
  6
CONTINUOUS
  0
LINE
  8
WHITE
 10
213.658040
 20
28.485052
 30
0.000000
 11
214.516060
 21
28.485052
 31
0.000000
  6
CONTINUOUS
  0
LINE
  8
WHITE
 10
214.516060
 20
28.485052
 30
0.000000
 11
214.516060
 21
31.402532
 31
0.000000
  6
CONTINUOUS
  0
LINE
  8
WHITE
 10
214.516060
 20
31.402532
 30
0.000000
 11
213.658040
 21
31.402532
 31
0.000000
  6
CONTINUOUS
  0
LINE
  8
WHITE
 10
1.415820
 20
32.303479
 30
0.000000
 11
1.415820
 21
30.773762
 31
0.000000
  6
CONTINUOUS
  0
LINE
  8
WHITE
 10
20.838243
 20
7.508101
 30
0.000000
 11
18.620000
 21
8.148972
 31
0.000000
  6
CONTINUOUS
  0
LINE
  8
WHITE
 10
18.620000
 20
8.148972
 30
0.000000
 11
16.217400
 21
8.878352
 31
0.000000
  6
CONTINUOUS
  0
LINE
  8
WHITE
 10
16.217400
 20
8.878352
 30
0.000000
 11
13.943540
 21
9.950872
 31
0.000000
  6
CONTINUOUS
  0
LINE
  8
WHITE
 10
13.943540
 20
9.950872
 30
0.000000
 11
11.712600
 21
11.409612
 31
0.000000
  6
CONTINUOUS
  0
LINE
  8
WHITE
 10
11.712600
 20
11.409612
 30
0.000000
 11
9.696140
 21
13.211572
 31
0.000000
  6
CONTINUOUS
  0
LINE
  8
WHITE
 10
9.696140
 20
13.211572
 30
0.000000
 11
8.108740
 21
15.013472
 31
0.000000
  6
CONTINUOUS
  0
LINE
  8
WHITE
 10
8.108740
 20
15.013472
 30
0.000000
 11
6.864500
 21
17.072832
 31
0.000000
  6
CONTINUOUS
  0
LINE
  8
WHITE
 10
6.864500
 20
17.072832
 30
0.000000
 11
5.963540
 21
19.132212
 31
0.000000
  6
CONTINUOUS
  0
LINE
  8
WHITE
 10
5.963540
 20
19.132212
 30
0.000000
 11
5.234180
 21
21.277332
 31
0.000000
  6
CONTINUOUS
  0
LINE
  8
WHITE
 10
5.234180
 20
21.277332
 30
0.000000
 11
4.805200
 21
23.422532
 31
0.000000
  6
CONTINUOUS
  0
LINE
  8
WHITE
 10
4.805200
 20
23.422532
 30
0.000000
 11
4.590640
 21
26.039612
 31
0.000000
  6
CONTINUOUS
  0
LINE
  8
WHITE
 10
4.590640
 20
26.039612
 30
0.000000
 11
4.553241
 21
26.750457
 31
0.000000
  6
CONTINUOUS
  0
LINE
  8
WHITE
 10
16.588944
 20
46.727777
 30
0.000000
 11
15.144800
 21
46.032532
 31
0.000000
  6
CONTINUOUS
  0
LINE
  8
WHITE
 10
15.144800
 20
46.032532
 30
0.000000
 11
13.471580
 21
45.303152
 31
0.000000
  6
CONTINUOUS
  0
LINE
  8
WHITE
 10
13.471580
 20
45.303152
 30
0.000000
 11
11.798340
 21
44.316372
 31
0.000000
  6
CONTINUOUS
  0
LINE
  8
WHITE
 10
11.798340
 20
44.316372
 30
0.000000
 11
9.996460
 21
42.900552
 31
0.000000
  6
CONTINUOUS
  0
LINE
  8
WHITE
 10
9.996460
 20
42.900552
 30
0.000000
 11
8.323240
 21
41.055752
 31
0.000000
  6
CONTINUOUS
  0
LINE
  8
WHITE
 10
8.323240
 20
41.055752
 30
0.000000
 11
7.164800
 21
39.210872
 31
0.000000
  6
CONTINUOUS
  0
LINE
  8
WHITE
 10
7.164800
 20
39.210872
 30
0.000000
 11
6.349680
 21
37.451812
 31
0.000000
  6
CONTINUOUS
  0
LINE
  8
WHITE
 10
6.349680
 20
37.451812
 30
0.000000
 11
5.663240
 21
35.607012
 31
0.000000
  6
CONTINUOUS
  0
LINE
  8
WHITE
 10
5.663240
 20
35.607012
 30
0.000000
 11
5.105520
 21
33.461812
 31
0.000000
  6
CONTINUOUS
  0
LINE
  8
WHITE
 10
5.105520
 20
33.461812
 30
0.000000
 11
5.076636
 21
33.305850
 31
0.000000
  6
CONTINUOUS
  0
LINE
  8
WHITE
 10
16.594770
 20
32.472210
 30
0.000000
 11
14.115120
 21
32.046072
 31
0.000000
  6
CONTINUOUS
  0
LINE
  8
WHITE
 10
14.115120
 20
32.046072
 30
0.000000
 11
16.217400
 21
33.290232
 31
0.000000
  6
CONTINUOUS
  0
LINE
  8
WHITE
 10
16.217400
 20
33.290232
 30
0.000000
 11
16.603540
 21
33.976692
 31
0.000000
  6
CONTINUOUS
  0
LINE
  8
WHITE
 10
16.603540
 20
33.976692
 30
0.000000
 11
16.560640
 21
34.663152
 31
0.000000
  6
CONTINUOUS
  0
LINE
  8
WHITE
 10
16.560640
 20
34.663152
 30
0.000000
 11
16.088740
 21
35.092212
 31
0.000000
  6
CONTINUOUS
  0
LINE
  8
WHITE
 10
16.088740
 20
35.092212
 30
0.000000
 11
15.316460
 21
35.177952
 31
0.000000
  6
CONTINUOUS
  0
LINE
  8
WHITE
 10
15.316460
 20
35.177952
 30
0.000000
 11
14.501260
 21
35.092212
 31
0.000000
  6
CONTINUOUS
  0
LINE
  8
WHITE
 10
14.501260
 20
35.092212
 30
0.000000
 11
12.999680
 21
34.748972
 31
0.000000
  6
CONTINUOUS
  0
LINE
  8
WHITE
 10
12.999680
 20
34.748972
 30
0.000000
 11
7.508040
 21
33.204412
 31
0.000000
  6
CONTINUOUS
  0
LINE
  8
WHITE
 10
7.508040
 20
33.204412
 30
0.000000
 11
11.240640
 21
35.220872
 31
0.000000
  6
CONTINUOUS
  0
LINE
  8
WHITE
 10
11.240640
 20
35.220872
 30
0.000000
 11
12.613540
 21
35.993152
 31
0.000000
  6
CONTINUOUS
  0
LINE
  8
WHITE
 10
12.613540
 20
35.993152
 30
0.000000
 11
14.029380
 21
37.065752
 31
0.000000
  6
CONTINUOUS
  0
LINE
  8
WHITE
 10
14.029380
 20
37.065752
 30
0.000000
 11
15.616780
 21
38.781812
 31
0.000000
  6
CONTINUOUS
  0
LINE
  8
WHITE
 10
15.616780
 20
38.781812
 30
0.000000
 11
16.689380
 21
40.240552
 31
0.000000
  6
CONTINUOUS
  0
LINE
  8
WHITE
 10
16.689380
 20
40.240552
 30
0.000000
 11
17.332920
 21
41.699292
 31
0.000000
  6
CONTINUOUS
  0
LINE
  8
WHITE
 10
17.332920
 20
41.699292
 30
0.000000
 11
17.547400
 21
42.986372
 31
0.000000
  6
CONTINUOUS
  0
LINE
  8
WHITE
 10
17.547400
 20
42.986372
 30
0.000000
 11
17.332920
 21
44.702532
 31
0.000000
  6
CONTINUOUS
  0
LINE
  8
WHITE
 10
17.332920
 20
44.702532
 30
0.000000
 11
16.989680
 21
45.989612
 31
0.000000
  6
CONTINUOUS
  0
LINE
  8
WHITE
 10
16.989680
 20
45.989612
 30
0.000000
 11
16.174500
 21
47.491192
 31
0.000000
  6
CONTINUOUS
  0
LINE
  8
WHITE
 10
16.174500
 20
47.491192
 30
0.000000
 11
15.144800
 21
48.949932
 31
0.000000
  6
CONTINUOUS
  0
LINE
  8
WHITE
 10
15.144800
 20
48.949932
 30
0.000000
 11
16.903860
 21
49.936692
 31
0.000000
  6
CONTINUOUS
  0
LINE
  8
WHITE
 10
16.903860
 20
49.936692
 30
0.000000
 11
18.834500
 21
50.751812
 31
0.000000
  6
CONTINUOUS
  0
LINE
  8
WHITE
 10
18.834500
 20
50.751812
 30
0.000000
 11
21.108340
 21
51.524092
 31
0.000000
  6
CONTINUOUS
  0
LINE
  8
WHITE
 10
21.108340
 20
51.524092
 30
0.000000
 11
22.894965
 21
51.938376
 31
0.000000
  6
CONTINUOUS
  0
LINE
  8
WHITE
 10
15.485004
 20
48.467977
 30
0.000000
 11
10.168040
 21
46.075352
 31
0.000000
  6
CONTINUOUS
  0
LINE
  8
WHITE
 10
10.168040
 20
46.075352
 30
0.000000
 11
9.310000
 21
45.860872
 31
0.000000
  6
CONTINUOUS
  0
LINE
  8
WHITE
 10
9.310000
 20
45.860872
 30
0.000000
 11
8.537720
 21
45.860872
 31
0.000000
  6
CONTINUOUS
  0
LINE
  8
WHITE
 10
8.537720
 20
45.860872
 30
0.000000
 11
7.980000
 21
46.075352
 31
0.000000
  6
CONTINUOUS
  0
LINE
  8
WHITE
 10
7.980000
 20
46.075352
 30
0.000000
 11
7.765520
 21
46.633152
 31
0.000000
  6
CONTINUOUS
  0
LINE
  8
WHITE
 10
7.765520
 20
46.633152
 30
0.000000
 11
7.894180
 21
47.319612
 31
0.000000
  6
CONTINUOUS
  0
LINE
  8
WHITE
 10
7.894180
 20
47.319612
 30
0.000000
 11
8.280320
 21
48.177632
 31
0.000000
  6
CONTINUOUS
  0
LINE
  8
WHITE
 10
8.280320
 20
48.177632
 30
0.000000
 11
9.224180
 21
49.722132
 31
0.000000
  6
CONTINUOUS
  0
LINE
  8
WHITE
 10
9.224180
 20
49.722132
 30
0.000000
 11
11.069060
 21
51.738592
 31
0.000000
  6
CONTINUOUS
  0
LINE
  8
WHITE
 10
11.069060
 20
51.738592
 30
0.000000
 11
9.996460
 21
50.494412
 31
0.000000
  6
CONTINUOUS
  0
LINE
  8
WHITE
 10
9.996460
 20
50.494412
 30
0.000000
 11
9.310000
 21
49.550552
 31
0.000000
  6
CONTINUOUS
  0
LINE
  8
WHITE
 10
9.310000
 20
49.550552
 30
0.000000
 11
8.838040
 21
48.778272
 31
0.000000
  6
CONTINUOUS
  0
LINE
  8
WHITE
 10
8.838040
 20
48.778272
 30
0.000000
 11
8.795200
 21
48.220552
 31
0.000000
  6
CONTINUOUS
  0
LINE
  8
WHITE
 10
8.795200
 20
48.220552
 30
0.000000
 11
9.095520
 21
48.091812
 31
0.000000
  6
CONTINUOUS
  0
LINE
  8
WHITE
 10
9.095520
 20
48.091812
 30
0.000000
 11
9.781980
 21
48.177632
 31
0.000000
  6
CONTINUOUS
  0
LINE
  8
WHITE
 10
9.781980
 20
48.177632
 30
0.000000
 11
10.511260
 21
48.435052
 31
0.000000
  6
CONTINUOUS
  0
LINE
  8
WHITE
 10
10.511260
 20
48.435052
 30
0.000000
 11
11.755520
 21
49.078592
 31
0.000000
  6
CONTINUOUS
  0
LINE
  8
WHITE
 10
11.755520
 20
49.078592
 30
0.000000
 11
13.042600
 21
49.979612
 31
0.000000
  6
CONTINUOUS
  0
LINE
  8
WHITE
 10
13.042600
 20
49.979612
 30
0.000000
 11
14.630000
 21
50.966372
 31
0.000000
  6
CONTINUOUS
  0
LINE
  8
WHITE
 10
14.630000
 20
50.966372
 30
0.000000
 11
16.389060
 21
51.867332
 31
0.000000
  6
CONTINUOUS
  0
LINE
  8
WHITE
 10
16.389060
 20
51.867332
 30
0.000000
 11
18.963240
 21
52.897012
 31
0.000000
  6
CONTINUOUS
  0
LINE
  8
WHITE
 10
18.963240
 20
52.897012
 30
0.000000
 11
21.237080
 21
53.626372
 31
0.000000
  6
CONTINUOUS
  0
LINE
  8
WHITE
 10
21.237080
 20
53.626372
 30
0.000000
 11
22.612977
 21
53.964304
 31
0.000000
  6
CONTINUOUS
  0
LINE
  8
WHITE
 10
11.069060
 20
51.738592
 30
0.000000
 11
12.656460
 21
53.326072
 31
0.000000
  6
CONTINUOUS
  0
LINE
  8
WHITE
 10
12.656460
 20
53.326072
 30
0.000000
 11
14.501260
 21
54.784732
 31
0.000000
  6
CONTINUOUS
  0
LINE
  8
WHITE
 10
14.501260
 20
54.784732
 30
0.000000
 11
16.732280
 21
56.071812
 31
0.000000
  6
CONTINUOUS
  0
LINE
  8
WHITE
 10
16.732280
 20
56.071812
 30
0.000000
 11
18.791580
 21
56.972832
 31
0.000000
  6
CONTINUOUS
  0
LINE
  8
WHITE
 10
18.791580
 20
56.972832
 30
0.000000
 11
20.679380
 21
57.659212
 31
0.000000
  6
CONTINUOUS
  0
LINE
  8
WHITE
 10
20.679380
 20
57.659212
 30
0.000000
 11
22.640180
 21
58.242432
 31
0.000000
  6
CONTINUOUS
  0
LINE
  8
WHITE
 10
26.728740
 20
43.758592
 30
0.000000
 11
26.557080
 21
44.359292
 31
0.000000
  6
CONTINUOUS
  0
LINE
  8
WHITE
 10
26.557080
 20
44.359292
 30
0.000000
 11
26.213860
 21
44.402132
 31
0.000000
  6
CONTINUOUS
  0
LINE
  8
WHITE
 10
26.213860
 20
44.402132
 30
0.000000
 11
25.184180
 21
44.058892
 31
0.000000
  6
CONTINUOUS
  0
LINE
  8
WHITE
 10
25.184180
 20
44.058892
 30
0.000000
 11
24.197400
 21
43.758592
 31
0.000000
  6
CONTINUOUS
  0
LINE
  8
WHITE
 10
24.197400
 20
43.758592
 30
0.000000
 11
23.210640
 21
43.415352
 31
0.000000
  6
CONTINUOUS
  0
LINE
  8
WHITE
 10
23.210640
 20
43.415352
 30
0.000000
 11
22.481260
 21
43.329612
 31
0.000000
  6
CONTINUOUS
  0
LINE
  8
WHITE
 10
22.481260
 20
43.329612
 30
0.000000
 11
21.751900
 21
43.329612
 31
0.000000
  6
CONTINUOUS
  0
LINE
  8
WHITE
 10
21.751900
 20
43.329612
 30
0.000000
 11
21.151260
 21
43.587012
 31
0.000000
  6
CONTINUOUS
  0
LINE
  8
WHITE
 10
21.151260
 20
43.587012
 30
0.000000
 11
20.979680
 21
44.187632
 31
0.000000
  6
CONTINUOUS
  0
LINE
  8
WHITE
 10
20.979680
 20
44.187632
 30
0.000000
 11
21.065520
 21
44.917012
 31
0.000000
  6
CONTINUOUS
  0
LINE
  8
WHITE
 10
21.065520
 20
44.917012
 30
0.000000
 11
21.494500
 21
45.989612
 31
0.000000
  6
CONTINUOUS
  0
LINE
  8
WHITE
 10
21.494500
 20
45.989612
 30
0.000000
 11
22.567080
 21
47.276692
 31
0.000000
  6
CONTINUOUS
  0
LINE
  8
WHITE
 10
22.567080
 20
47.276692
 30
0.000000
 11
23.776826
 21
48.229030
 31
0.000000
  6
CONTINUOUS
  0
LINE
  8
WHITE
 10
59.378040
 20
46.267929
 30
0.000000
 11
58.048040
 21
47.662832
 31
0.000000
  6
CONTINUOUS
  0
LINE
  8
WHITE
 10
58.048040
 20
47.662832
 30
0.000000
 11
55.774180
 21
49.593472
 31
0.000000
  6
CONTINUOUS
  0
LINE
  8
WHITE
 10
55.774180
 20
49.593472
 30
0.000000
 11
53.757720
 21
51.095052
 31
0.000000
  6
CONTINUOUS
  0
LINE
  8
WHITE
 10
53.757720
 20
51.095052
 30
0.000000
 11
51.955820
 21
52.167632
 31
0.000000
  6
CONTINUOUS
  0
LINE
  8
WHITE
 10
51.955820
 20
52.167632
 30
0.000000
 11
50.068040
 21
52.982832
 31
0.000000
  6
CONTINUOUS
  0
LINE
  8
WHITE
 10
50.068040
 20
52.982832
 30
0.000000
 11
48.351900
 21
53.583472
 31
0.000000
  6
CONTINUOUS
  0
LINE
  8
WHITE
 10
48.351900
 20
53.583472
 30
0.000000
 11
46.421260
 21
54.055352
 31
0.000000
  6
CONTINUOUS
  0
LINE
  8
WHITE
 10
46.421260
 20
54.055352
 30
0.000000
 11
43.975820
 21
54.484412
 31
0.000000
  6
CONTINUOUS
  0
LINE
  8
WHITE
 10
43.975820
 20
54.484412
 30
0.000000
 11
42.002280
 21
54.698892
 31
0.000000
  6
CONTINUOUS
  0
LINE
  8
WHITE
 10
42.002280
 20
54.698892
 30
0.000000
 11
40.457720
 21
54.698892
 31
0.000000
  6
CONTINUOUS
  0
LINE
  8
WHITE
 10
40.457720
 20
54.698892
 30
0.000000
 11
38.655820
 21
54.613152
 31
0.000000
  6
CONTINUOUS
  0
LINE
  8
WHITE
 10
38.655820
 20
54.613152
 30
0.000000
 11
36.553540
 21
54.355672
 31
0.000000
  6
CONTINUOUS
  0
LINE
  8
WHITE
 10
36.553540
 20
54.355672
 30
0.000000
 11
34.322600
 21
53.883792
 31
0.000000
  6
CONTINUOUS
  0
LINE
  8
WHITE
 10
34.322600
 20
53.883792
 30
0.000000
 11
32.177400
 21
53.197332
 31
0.000000
  6
CONTINUOUS
  0
LINE
  8
WHITE
 10
32.177400
 20
53.197332
 30
0.000000
 11
30.804500
 21
52.682452
 31
0.000000
  6
CONTINUOUS
  0
LINE
  8
WHITE
 10
30.804500
 20
52.682452
 30
0.000000
 11
28.873860
 21
51.695672
 31
0.000000
  6
CONTINUOUS
  0
LINE
  8
WHITE
 10
28.873860
 20
51.695672
 30
0.000000
 11
27.286460
 21
50.794732
 31
0.000000
  6
CONTINUOUS
  0
LINE
  8
WHITE
 10
27.286460
 20
50.794732
 30
0.000000
 11
25.484500
 21
49.593472
 31
0.000000
  6
CONTINUOUS
  0
LINE
  8
WHITE
 10
25.484500
 20
49.593472
 30
0.000000
 11
23.897080
 21
48.349292
 31
0.000000
  6
CONTINUOUS
  0
LINE
  8
WHITE
 10
23.897080
 20
48.349292
 30
0.000000
 11
22.738740
 21
47.190872
 31
0.000000
  6
CONTINUOUS
  0
LINE
  8
WHITE
 10
22.738740
 20
47.190872
 30
0.000000
 11
22.309680
 21
46.547332
 31
0.000000
  6
CONTINUOUS
  0
LINE
  8
WHITE
 10
22.309680
 20
46.547332
 30
0.000000
 11
22.052280
 21
45.989612
 31
0.000000
  6
CONTINUOUS
  0
LINE
  8
WHITE
 10
22.052280
 20
45.989612
 30
0.000000
 11
22.266780
 21
45.431812
 31
0.000000
  6
CONTINUOUS
  0
LINE
  8
WHITE
 10
22.266780
 20
45.431812
 30
0.000000
 11
22.824500
 21
45.303152
 31
0.000000
  6
CONTINUOUS
  0
LINE
  8
WHITE
 10
22.824500
 20
45.303152
 30
0.000000
 11
23.382280
 21
45.303152
 31
0.000000
  6
CONTINUOUS
  0
LINE
  8
WHITE
 10
23.382280
 20
45.303152
 30
0.000000
 11
24.497720
 21
45.689292
 31
0.000000
  6
CONTINUOUS
  0
LINE
  8
WHITE
 10
24.497720
 20
45.689292
 30
0.000000
 11
25.441580
 21
46.118272
 31
0.000000
  6
CONTINUOUS
  0
LINE
  8
WHITE
 10
25.441580
 20
46.118272
 30
0.000000
 11
27.758340
 21
47.276692
 31
0.000000
  6
CONTINUOUS
  0
LINE
  8
WHITE
 10
27.758340
 20
47.276692
 30
0.000000
 11
26.600000
 21
45.131492
 31
0.000000
  6
CONTINUOUS
  0
LINE
  8
WHITE
 10
26.600000
 20
45.131492
 30
0.000000
 11
29.217080
 21
46.761812
 31
0.000000
  6
CONTINUOUS
  0
LINE
  8
WHITE
 10
29.217080
 20
46.761812
 30
0.000000
 11
31.834180
 21
48.306372
 31
0.000000
  6
CONTINUOUS
  0
LINE
  8
WHITE
 10
31.834180
 20
48.306372
 30
0.000000
 11
34.794500
 21
49.421812
 31
0.000000
  6
CONTINUOUS
  0
LINE
  8
WHITE
 10
34.794500
 20
49.421812
 30
0.000000
 11
36.639380
 21
50.022532
 31
0.000000
  6
CONTINUOUS
  0
LINE
  8
WHITE
 10
36.639380
 20
50.022532
 30
0.000000
 11
38.484180
 21
50.451492
 31
0.000000
  6
CONTINUOUS
  0
LINE
  8
WHITE
 10
38.484180
 20
50.451492
 30
0.000000
 11
40.371900
 21
50.837632
 31
0.000000
  6
CONTINUOUS
  0
LINE
  8
WHITE
 10
40.371900
 20
50.837632
 30
0.000000
 11
42.173860
 21
50.794732
 31
0.000000
  6
CONTINUOUS
  0
LINE
  8
WHITE
 10
42.173860
 20
50.794732
 30
0.000000
 11
44.104500
 21
50.623152
 31
0.000000
  6
CONTINUOUS
  0
LINE
  8
WHITE
 10
44.104500
 20
50.623152
 30
0.000000
 11
46.464180
 21
50.322832
 31
0.000000
  6
CONTINUOUS
  0
LINE
  8
WHITE
 10
46.464180
 20
50.322832
 30
0.000000
 11
48.437720
 21
49.850872
 31
0.000000
  6
CONTINUOUS
  0
LINE
  8
WHITE
 10
48.437720
 20
49.850872
 30
0.000000
 11
50.625820
 21
49.164412
 31
0.000000
  6
CONTINUOUS
  0
LINE
  8
WHITE
 10
50.625820
 20
49.164412
 30
0.000000
 11
54.015120
 21
47.834412
 31
0.000000
  6
CONTINUOUS
  0
LINE
  8
WHITE
 10
54.015120
 20
47.834412
 30
0.000000
 11
52.299060
 21
49.035672
 31
0.000000
  6
CONTINUOUS
  0
LINE
  8
WHITE
 10
52.299060
 20
49.035672
 30
0.000000
 11
50.540000
 21
49.893792
 31
0.000000
  6
CONTINUOUS
  0
LINE
  8
WHITE
 10
50.540000
 20
49.893792
 30
0.000000
 11
48.738040
 21
50.623152
 31
0.000000
  6
CONTINUOUS
  0
LINE
  8
WHITE
 10
48.738040
 20
50.623152
 30
0.000000
 11
46.807400
 21
51.180872
 31
0.000000
  6
CONTINUOUS
  0
LINE
  8
WHITE
 10
46.807400
 20
51.180872
 30
0.000000
 11
44.490640
 21
51.567012
 31
0.000000
  6
CONTINUOUS
  0
LINE
  8
WHITE
 10
44.490640
 20
51.567012
 30
0.000000
 11
42.002280
 21
51.781492
 31
0.000000
  6
CONTINUOUS
  0
LINE
  8
WHITE
 10
42.002280
 20
51.781492
 30
0.000000
 11
39.299380
 21
51.738592
 31
0.000000
  6
CONTINUOUS
  0
LINE
  8
WHITE
 10
39.299380
 20
51.738592
 30
0.000000
 11
37.368660
 21
51.481192
 31
0.000000
  6
CONTINUOUS
  0
LINE
  8
WHITE
 10
37.368660
 20
51.481192
 30
0.000000
 11
35.137720
 21
50.923472
 31
0.000000
  6
CONTINUOUS
  0
LINE
  8
WHITE
 10
35.137720
 20
50.923472
 30
0.000000
 11
37.411580
 21
51.824412
 31
0.000000
  6
CONTINUOUS
  0
LINE
  8
WHITE
 10
37.411580
 20
51.824412
 30
0.000000
 11
38.999060
 21
52.296372
 31
0.000000
  6
CONTINUOUS
  0
LINE
  8
WHITE
 10
38.999060
 20
52.296372
 30
0.000000
 11
40.586460
 21
52.596692
 31
0.000000
  6
CONTINUOUS
  0
LINE
  8
WHITE
 10
40.586460
 20
52.596692
 30
0.000000
 11
42.645820
 21
52.639612
 31
0.000000
  6
CONTINUOUS
  0
LINE
  8
WHITE
 10
42.645820
 20
52.639612
 30
0.000000
 11
44.276140
 21
52.596692
 31
0.000000
  6
CONTINUOUS
  0
LINE
  8
WHITE
 10
44.276140
 20
52.596692
 30
0.000000
 11
46.550000
 21
52.253472
 31
0.000000
  6
CONTINUOUS
  0
LINE
  8
WHITE
 10
46.550000
 20
52.253472
 30
0.000000
 11
48.909680
 21
51.695672
 31
0.000000
  6
CONTINUOUS
  0
LINE
  8
WHITE
 10
48.909680
 20
51.695672
 30
0.000000
 11
51.011900
 21
50.923472
 31
0.000000
  6
CONTINUOUS
  0
LINE
  8
WHITE
 10
51.011900
 20
50.923472
 30
0.000000
 11
53.071260
 21
50.065352
 31
0.000000
  6
CONTINUOUS
  0
LINE
  8
WHITE
 10
53.071260
 20
50.065352
 30
0.000000
 11
55.044800
 21
48.692532
 31
0.000000
  6
CONTINUOUS
  0
LINE
  8
WHITE
 10
55.044800
 20
48.692532
 30
0.000000
 11
56.932600
 21
47.062132
 31
0.000000
  6
CONTINUOUS
  0
LINE
  8
WHITE
 10
56.932600
 20
47.062132
 30
0.000000
 11
58.691580
 21
45.388892
 31
0.000000
  6
CONTINUOUS
  0
LINE
  8
WHITE
 10
58.691580
 20
45.388892
 30
0.000000
 11
61.651900
 21
42.214092
 31
0.000000
  6
CONTINUOUS
  0
LINE
  8
WHITE
 10
61.651900
 20
42.214092
 30
0.000000
 11
72.463540
 21
27.712832
 31
0.000000
  6
CONTINUOUS
  0
LINE
  8
WHITE
 10
72.463540
 20
27.712832
 30
0.000000
 11
76.153240
 21
23.551192
 31
0.000000
  6
CONTINUOUS
  0
LINE
  8
WHITE
 10
76.153240
 20
23.551192
 30
0.000000
 11
77.912200
 21
21.963792
 31
0.000000
  6
CONTINUOUS
  0
LINE
  8
WHITE
 10
77.912200
 20
21.963792
 30
0.000000
 11
78.984800
 21
21.148672
 31
0.000000
  6
CONTINUOUS
  0
LINE
  8
WHITE
 10
78.984800
 20
21.148672
 30
0.000000
 11
80.100320
 21
20.547952
 31
0.000000
  6
CONTINUOUS
  0
LINE
  8
WHITE
 10
80.100320
 20
20.547952
 30
0.000000
 11
81.344500
 21
20.161892
 31
0.000000
  6
CONTINUOUS
  0
LINE
  8
WHITE
 10
81.344500
 20
20.161892
 30
0.000000
 11
82.588660
 21
19.904412
 31
0.000000
  6
CONTINUOUS
  0
LINE
  8
WHITE
 10
82.588660
 20
19.904412
 30
0.000000
 11
84.261900
 21
19.689932
 31
0.000000
  6
CONTINUOUS
  0
LINE
  8
WHITE
 10
84.261900
 20
19.689932
 30
0.000000
 11
88.552200
 21
19.904412
 31
0.000000
  6
CONTINUOUS
  0
LINE
  8
WHITE
 10
88.552200
 20
19.904412
 30
0.000000
 11
84.862520
 21
20.161892
 31
0.000000
  6
CONTINUOUS
  0
LINE
  8
WHITE
 10
84.862520
 20
20.161892
 30
0.000000
 11
83.446780
 21
20.333472
 31
0.000000
  6
CONTINUOUS
  0
LINE
  8
WHITE
 10
83.446780
 20
20.333472
 30
0.000000
 11
81.945120
 21
20.719612
 31
0.000000
  6
CONTINUOUS
  0
LINE
  8
WHITE
 10
81.945120
 20
20.719612
 30
0.000000
 11
80.529380
 21
21.491892
 31
0.000000
  6
CONTINUOUS
  0
LINE
  8
WHITE
 10
80.529380
 20
21.491892
 30
0.000000
 11
78.427080
 21
22.993472
 31
0.000000
  6
CONTINUOUS
  0
LINE
  8
WHITE
 10
78.427080
 20
22.993472
 30
0.000000
 11
76.496460
 21
24.795432
 31
0.000000
  6
CONTINUOUS
  0
LINE
  8
WHITE
 10
76.496460
 20
24.795432
 30
0.000000
 11
74.608660
 21
26.683152
 31
0.000000
  6
CONTINUOUS
  0
LINE
  8
WHITE
 10
74.608660
 20
26.683152
 30
0.000000
 11
72.849680
 21
28.957012
 31
0.000000
  6
CONTINUOUS
  0
LINE
  8
WHITE
 10
72.849680
 20
28.957012
 30
0.000000
 11
62.467080
 21
43.029292
 31
0.000000
  6
CONTINUOUS
  0
LINE
  8
WHITE
 10
62.467080
 20
43.029292
 30
0.000000
 11
60.107400
 21
45.503106
 31
0.000000
  6
CONTINUOUS
  0
LINE
  8
WHITE
 10
26.342600
 20
50.966372
 30
0.000000
 11
23.339380
 21
50.966372
 31
0.000000
  6
CONTINUOUS
  0
LINE
  8
WHITE
 10
23.339380
 20
50.966372
 30
0.000000
 11
23.338992
 21
51.052752
 31
0.000000
  6
CONTINUOUS
  0
LINE
  8
WHITE
 10
23.396033
 20
60.533792
 30
0.000000
 11
24.497720
 21
60.533792
 31
0.000000
  6
CONTINUOUS
  0
LINE
  8
WHITE
 10
24.497720
 20
60.533792
 30
0.000000
 11
24.712280
 21
60.018892
 31
0.000000
  6
CONTINUOUS
  0
LINE
  8
WHITE
 10
24.712280
 20
60.018892
 30
0.000000
 11
24.926780
 21
59.332452
 31
0.000000
  6
CONTINUOUS
  0
LINE
  8
WHITE
 10
24.926780
 20
59.332452
 30
0.000000
 11
25.141260
 21
58.302832
 31
0.000000
  6
CONTINUOUS
  0
LINE
  8
WHITE
 10
25.141260
 20
58.302832
 30
0.000000
 11
25.270000
 21
56.887012
 31
0.000000
  6
CONTINUOUS
  0
LINE
  8
WHITE
 10
25.270000
 20
56.887012
 30
0.000000
 11
25.270000
 21
54.141192
 31
0.000000
  6
CONTINUOUS
  0
LINE
  8
WHITE
 10
25.270000
 20
54.141192
 30
0.000000
 11
25.141260
 21
52.982832
 31
0.000000
  6
CONTINUOUS
  0
LINE
  8
WHITE
 10
25.141260
 20
52.982832
 30
0.000000
 11
24.969680
 21
52.081812
 31
0.000000
  6
CONTINUOUS
  0
LINE
  8
WHITE
 10
24.969680
 20
52.081812
 30
0.000000
 11
24.712280
 21
51.609932
 31
0.000000
  6
CONTINUOUS
  0
LINE
  8
WHITE
 10
24.712280
 20
51.609932
 30
0.000000
 11
24.326140
 21
50.966372
 31
0.000000
  6
CONTINUOUS
  0
LINE
  8
WHITE
 10
24.240320
 20
54.999292
 30
0.000000
 11
25.270000
 21
54.999292
 31
0.000000
  6
CONTINUOUS
  0
LINE
  8
WHITE
 10
25.270000
 20
55.857332
 30
0.000000
 11
24.240320
 21
55.857332
 31
0.000000
  6
CONTINUOUS
  0
LINE
  8
WHITE
 10
24.533490
 20
60.447952
 30
0.000000
 11
26.342600
 21
60.447952
 31
0.000000
  6
CONTINUOUS
  0
LINE
  8
WHITE
 10
25.264270
 20
54.089631
 30
0.000000
 11
26.342600
 21
54.067622
 31
0.000000
  6
CONTINUOUS
  0
LINE
  8
WHITE
 10
26.342600
 20
56.743228
 30
0.000000
 11
25.270000
 21
56.754290
 31
0.000000
  6
CONTINUOUS
  0
LINE
  8
WHITE
 10
25.355820
 20
56.753405
 30
0.000000
 11
25.355820
 21
57.487632
 31
0.000000
  6
CONTINUOUS
  0
LINE
  8
WHITE
 10
25.355820
 20
57.487632
 30
0.000000
 11
26.342600
 21
57.487632
 31
0.000000
  6
CONTINUOUS
  0
LINE
  8
WHITE
 10
26.342600
 20
50.165516
 30
0.000000
 11
26.342600
 21
63.665672
 31
0.000000
  6
CONTINUOUS
  0
LINE
  8
WHITE
 10
26.342600
 20
63.665672
 30
0.000000
 11
26.471260
 21
65.038592
 31
0.000000
  6
CONTINUOUS
  0
LINE
  8
WHITE
 10
26.471260
 20
65.038592
 30
0.000000
 11
26.728740
 21
66.197012
 31
0.000000
  6
CONTINUOUS
  0
LINE
  8
WHITE
 10
26.728740
 20
66.197012
 30
0.000000
 11
27.071900
 21
67.355352
 31
0.000000
  6
CONTINUOUS
  0
LINE
  8
WHITE
 10
27.071900
 20
67.355352
 30
0.000000
 11
27.543860
 21
68.170552
 31
0.000000
  6
CONTINUOUS
  0
LINE
  8
WHITE
 10
27.543860
 20
68.170552
 30
0.000000
 11
28.058660
 21
68.728272
 31
0.000000
  6
CONTINUOUS
  0
LINE
  8
WHITE
 10
28.058660
 20
68.728272
 30
0.000000
 11
28.830940
 21
69.371812
 31
0.000000
  6
CONTINUOUS
  0
LINE
  8
WHITE
 10
84.312760
 20
19.690152
 30
0.000000
 11
83.368960
 21
19.639292
 31
0.000000
  6
CONTINUOUS
  0
LINE
  8
WHITE
 10
83.368960
 20
19.639292
 30
0.000000
 11
82.402140
 21
19.607672
 31
0.000000
  6
CONTINUOUS
  0
LINE
  8
WHITE
 10
82.402140
 20
19.607672
 30
0.000000
 11
81.413620
 21
19.549132
 31
0.000000
  6
CONTINUOUS
  0
LINE
  8
WHITE
 10
81.413620
 20
19.549132
 30
0.000000
 11
80.042840
 21
19.422332
 31
0.000000
  6
CONTINUOUS
  0
LINE
  8
WHITE
 10
80.042840
 20
19.422332
 30
0.000000
 11
79.582560
 21
19.375712
 31
0.000000
  6
CONTINUOUS
  0
LINE
  8
WHITE
 10
79.582560
 20
19.375712
 30
0.000000
 11
78.615820
 21
19.307012
 31
0.000000
  6
CONTINUOUS
  0
LINE
  8
WHITE
 10
78.615820
 20
19.307012
 30
0.000000
 11
77.568780
 21
19.257132
 31
0.000000
  6
CONTINUOUS
  0
LINE
  8
WHITE
 10
77.568780
 20
19.257132
 30
0.000000
 11
76.162200
 21
19.222332
 31
0.000000
  6
CONTINUOUS
  0
LINE
  8
WHITE
 10
76.162200
 20
19.222332
 30
0.000000
 11
74.386060
 21
19.199052
 31
0.000000
  6
CONTINUOUS
  0
LINE
  8
WHITE
 10
74.386060
 20
19.199052
 30
0.000000
 11
72.793000
 21
19.204032
 31
0.000000
  6
CONTINUOUS
  0
LINE
  8
WHITE
 10
72.793000
 20
19.204032
 30
0.000000
 11
71.121120
 21
19.270132
 31
0.000000
  6
CONTINUOUS
  0
LINE
  8
WHITE
 10
71.121120
 20
19.270132
 30
0.000000
 11
69.459180
 21
19.430652
 31
0.000000
  6
CONTINUOUS
  0
LINE
  8
WHITE
 10
69.459180
 20
19.430652
 30
0.000000
 11
67.895900
 21
19.718832
 31
0.000000
  6
CONTINUOUS
  0
LINE
  8
WHITE
 10
67.895900
 20
19.718832
 30
0.000000
 11
67.418660
 21
19.883992
 31
0.000000
  6
CONTINUOUS
  0
LINE
  8
WHITE
 10
67.418660
 20
19.883992
 30
0.000000
 11
66.983060
 21
20.104052
 31
0.000000
  6
CONTINUOUS
  0
LINE
  8
WHITE
 10
66.983060
 20
20.104052
 30
0.000000
 11
66.574880
 21
20.392672
 31
0.000000
  6
CONTINUOUS
  0
LINE
  8
WHITE
 10
66.574880
 20
20.392672
 30
0.000000
 11
66.258200
 21
20.725832
 31
0.000000
  6
CONTINUOUS
  0
LINE
  8
WHITE
 10
66.258200
 20
20.725832
 30
0.000000
 11
65.954020
 21
21.160472
 31
0.000000
  6
CONTINUOUS
  0
LINE
  8
WHITE
 10
65.954020
 20
21.160472
 30
0.000000
 11
65.601200
 21
21.752192
 31
0.000000
  6
CONTINUOUS
  0
LINE
  8
WHITE
 10
65.601200
 20
21.752192
 30
0.000000
 11
65.341020
 21
22.326612
 31
0.000000
  6
CONTINUOUS
  0
LINE
  8
WHITE
 10
65.341020
 20
22.326612
 30
0.000000
 11
65.137740
 21
22.939132
 31
0.000000
  6
CONTINUOUS
  0
LINE
  8
WHITE
 10
65.137740
 20
22.939132
 30
0.000000
 11
64.908160
 21
23.618512
 31
0.000000
  6
CONTINUOUS
  0
LINE
  8
WHITE
 10
64.908160
 20
23.618512
 30
0.000000
 11
64.708200
 21
24.194172
 31
0.000000
  6
CONTINUOUS
  0
LINE
  8
WHITE
 10
64.708200
 20
24.194172
 30
0.000000
 11
63.987220
 21
26.377192
 31
0.000000
  6
CONTINUOUS
  0
LINE
  8
WHITE
 10
63.987220
 20
26.377192
 30
0.000000
 11
63.531260
 21
27.727172
 31
0.000000
  6
CONTINUOUS
  0
LINE
  8
WHITE
 10
63.531260
 20
27.727172
 30
0.000000
 11
63.253660
 21
28.521592
 31
0.000000
  6
CONTINUOUS
  0
LINE
  8
WHITE
 10
63.253660
 20
28.521592
 30
0.000000
 11
63.067780
 21
29.037952
 31
0.000000
  6
CONTINUOUS
  0
LINE
  8
WHITE
 10
63.067780
 20
29.037952
 30
0.000000
 11
62.886940
 21
29.553772
 31
0.000000
  6
CONTINUOUS
  0
LINE
  8
WHITE
 10
62.886940
 20
29.553772
 30
0.000000
 11
62.624500
 21
30.346532
 31
0.000000
  6
CONTINUOUS
  0
LINE
  8
WHITE
 10
62.624500
 20
30.346532
 30
0.000000
 11
62.432800
 21
30.821052
 31
0.000000
  6
CONTINUOUS
  0
LINE
  8
WHITE
 10
62.432800
 20
30.821052
 30
0.000000
 11
62.151820
 21
31.527912
 31
0.000000
  6
CONTINUOUS
  0
LINE
  8
WHITE
 10
62.151820
 20
31.527912
 30
0.000000
 11
61.775520
 21
32.394652
 31
0.000000
  6
CONTINUOUS
  0
LINE
  8
WHITE
 10
61.775520
 20
32.394652
 30
0.000000
 11
61.414060
 21
33.142112
 31
0.000000
  6
CONTINUOUS
  0
LINE
  8
WHITE
 10
61.414060
 20
33.142112
 30
0.000000
 11
61.001000
 21
33.945652
 31
0.000000
  6
CONTINUOUS
  0
LINE
  8
WHITE
 10
61.001000
 20
33.945652
 30
0.000000
 11
60.558660
 21
34.778592
 31
0.000000
  6
CONTINUOUS
  0
LINE
  8
WHITE
 10
60.558660
 20
34.778592
 30
0.000000
 11
60.292660
 21
35.250552
 31
0.000000
  6
CONTINUOUS
  0
LINE
  8
WHITE
 10
60.292660
 20
35.250552
 30
0.000000
 11
60.015160
 21
35.708552
 31
0.000000
  6
CONTINUOUS
  0
LINE
  8
WHITE
 10
60.015160
 20
35.708552
 30
0.000000
 11
59.732520
 21
36.160232
 31
0.000000
  6
CONTINUOUS
  0
LINE
  8
WHITE
 10
59.732520
 20
36.160232
 30
0.000000
 11
58.897320
 21
37.411372
 31
0.000000
  6
CONTINUOUS
  0
LINE
  8
WHITE
 10
58.897320
 20
37.411372
 30
0.000000
 11
58.143240
 21
38.425012
 31
0.000000
  6
CONTINUOUS
  0
LINE
  8
WHITE
 10
58.143240
 20
38.425012
 30
0.000000
 11
57.571820
 21
39.116772
 31
0.000000
  6
CONTINUOUS
  0
LINE
  8
WHITE
 10
57.571820
 20
39.116772
 30
0.000000
 11
56.831660
 21
39.959212
 31
0.000000
  6
CONTINUOUS
  0
LINE
  8
WHITE
 10
56.831660
 20
39.959212
 30
0.000000
 11
55.817100
 21
41.094472
 31
0.000000
  6
CONTINUOUS
  0
LINE
  8
WHITE
 10
55.817100
 20
41.094472
 30
0.000000
 11
55.237800
 21
41.667712
 31
0.000000
  6
CONTINUOUS
  0
LINE
  8
WHITE
 10
55.237800
 20
41.667712
 30
0.000000
 11
54.530880
 21
42.316152
 31
0.000000
  6
CONTINUOUS
  0
LINE
  8
WHITE
 10
54.530880
 20
42.316152
 30
0.000000
 11
53.568900
 21
43.060872
 31
0.000000
  6
CONTINUOUS
  0
LINE
  8
WHITE
 10
53.568900
 20
43.060872
 30
0.000000
 11
53.053300
 21
43.401732
 31
0.000000
  6
CONTINUOUS
  0
LINE
  8
WHITE
 10
53.053300
 20
43.401732
 30
0.000000
 11
52.081220
 21
44.069352
 31
0.000000
  6
CONTINUOUS
  0
LINE
  8
WHITE
 10
52.081220
 20
44.069352
 30
0.000000
 11
50.601380
 21
44.913352
 31
0.000000
  6
CONTINUOUS
  0
LINE
  8
WHITE
 10
50.601380
 20
44.913352
 30
0.000000
 11
49.468500
 21
45.452372
 31
0.000000
  6
CONTINUOUS
  0
LINE
  8
WHITE
 10
49.468500
 20
45.452372
 30
0.000000
 11
48.898900
 21
45.669712
 31
0.000000
  6
CONTINUOUS
  0
LINE
  8
WHITE
 10
48.898900
 20
45.669712
 30
0.000000
 11
47.962980
 21
46.044052
 31
0.000000
  6
CONTINUOUS
  0
LINE
  8
WHITE
 10
47.962980
 20
46.044052
 30
0.000000
 11
46.900480
 21
46.417872
 31
0.000000
  6
CONTINUOUS
  0
LINE
  8
WHITE
 10
46.900480
 20
46.417872
 30
0.000000
 11
45.540580
 21
46.849872
 31
0.000000
  6
CONTINUOUS
  0
LINE
  8
WHITE
 10
45.540580
 20
46.849872
 30
0.000000
 11
44.007740
 21
47.226952
 31
0.000000
  6
CONTINUOUS
  0
LINE
  8
WHITE
 10
44.007740
 20
47.226952
 30
0.000000
 11
42.401280
 21
47.513252
 31
0.000000
  6
CONTINUOUS
  0
LINE
  8
WHITE
 10
42.401280
 20
47.513252
 30
0.000000
 11
40.820540
 21
47.672932
 31
0.000000
  6
CONTINUOUS
  0
LINE
  8
WHITE
 10
40.820540
 20
47.672932
 30
0.000000
 11
39.364880
 21
47.670092
 31
0.000000
  6
CONTINUOUS
  0
LINE
  8
WHITE
 10
39.364880
 20
47.670092
 30
0.000000
 11
37.914560
 21
47.546972
 31
0.000000
  6
CONTINUOUS
  0
LINE
  8
WHITE
 10
37.914560
 20
47.546972
 30
0.000000
 11
36.405420
 21
47.373952
 31
0.000000
  6
CONTINUOUS
  0
LINE
  8
WHITE
 10
36.405420
 20
47.373952
 30
0.000000
 11
34.946540
 21
47.152212
 31
0.000000
  6
CONTINUOUS
  0
LINE
  8
WHITE
 10
34.946540
 20
47.152212
 30
0.000000
 11
33.595280
 21
46.899372
 31
0.000000
  6
CONTINUOUS
  0
LINE
  8
WHITE
 10
33.595280
 20
46.899372
 30
0.000000
 11
32.223280
 21
46.596272
 31
0.000000
  6
CONTINUOUS
  0
LINE
  8
WHITE
 10
32.223280
 20
46.596272
 30
0.000000
 11
30.828060
 21
46.218132
 31
0.000000
  6
CONTINUOUS
  0
LINE
  8
WHITE
 10
30.828060
 20
46.218132
 30
0.000000
 11
29.407060
 21
45.740172
 31
0.000000
  6
CONTINUOUS
  0
LINE
  8
WHITE
 10
29.407060
 20
45.740172
 30
0.000000
 11
27.957780
 21
45.137632
 31
0.000000
  6
CONTINUOUS
  0
LINE
  8
WHITE
 10
27.957780
 20
45.137632
 30
0.000000
 11
26.477720
 21
44.385752
 31
0.000000
  6
CONTINUOUS
  0
LINE
  8
WHITE
 10
31.019060
 20
62.507332
 30
0.000000
 11
26.514180
 21
63.622832
 31
0.000000
  6
CONTINUOUS
  0
LINE
  8
WHITE
 10
29.122512
 20
51.822762
 30
0.000000
 11
29.132880
 21
51.837132
 31
0.000000
  6
CONTINUOUS
  0
LINE
  8
WHITE
 10
29.132880
 20
51.837132
 30
0.000000
 11
29.472920
 21
53.570752
 31
0.000000
  6
CONTINUOUS
  0
LINE
  8
WHITE
 10
29.472920
 20
53.570752
 30
0.000000
 11
29.603240
 21
56.028892
 31
0.000000
  6
CONTINUOUS
  0
LINE
  8
WHITE
 10
29.603240
 20
56.028892
 30
0.000000
 11
29.472920
 21
58.456912
 31
0.000000
  6
CONTINUOUS
  0
LINE
  8
WHITE
 10
29.472920
 20
58.456912
 30
0.000000
 11
29.132880
 21
60.179412
 31
0.000000
  6
CONTINUOUS
  0
LINE
  8
WHITE
 10
29.132880
 20
60.179412
 30
0.000000
 11
28.659380
 21
60.834092
 31
0.000000
  6
CONTINUOUS
  0
LINE
  8
WHITE
 10
28.659380
 20
60.834092
 30
0.000000
 11
28.216000
 21
60.179412
 31
0.000000
  6
CONTINUOUS
  0
LINE
  8
WHITE
 10
28.216000
 20
60.179412
 30
0.000000
 11
27.887060
 21
58.456912
 31
0.000000
  6
CONTINUOUS
  0
LINE
  8
WHITE
 10
27.887060
 20
58.456912
 30
0.000000
 11
27.758340
 21
56.028892
 31
0.000000
  6
CONTINUOUS
  0
LINE
  8
WHITE
 10
27.758340
 20
56.028892
 30
0.000000
 11
27.887060
 21
53.570752
 31
0.000000
  6
CONTINUOUS
  0
LINE
  8
WHITE
 10
27.887060
 20
53.570752
 30
0.000000
 11
28.216000
 21
51.837132
 31
0.000000
  6
CONTINUOUS
  0
LINE
  8
WHITE
 10
28.216000
 20
51.837132
 30
0.000000
 11
28.467422
 21
51.464995
 31
0.000000
  6
CONTINUOUS
  0
LINE
  8
WHITE
 10
30.718652
 20
53.926692
 30
0.000000
 11
30.718660
 21
56.929612
 31
0.000000
  6
CONTINUOUS
  0
LINE
  8
WHITE
 10
30.718660
 20
56.929612
 30
0.000000
 11
30.590000
 21
58.474252
 31
0.000000
  6
CONTINUOUS
  0
LINE
  8
WHITE
 10
30.590000
 20
58.474252
 30
0.000000
 11
30.332600
 21
59.590012
 31
0.000000
  6
CONTINUOUS
  0
LINE
  8
WHITE
 10
30.332600
 20
59.590012
 30
0.000000
 11
30.118040
 21
60.319132
 31
0.000000
  6
CONTINUOUS
  0
LINE
  8
WHITE
 10
30.118040
 20
60.319132
 30
0.000000
 11
29.903540
 21
60.877012
 31
0.000000
  6
CONTINUOUS
  0
LINE
  8
WHITE
 10
29.903540
 20
60.877012
 30
0.000000
 11
28.616460
 21
60.877012
 31
0.000000
  6
CONTINUOUS
  0
LINE
  8
WHITE
 10
29.603240
 20
54.913472
 30
0.000000
 11
30.718660
 21
54.913472
 31
0.000000
  6
CONTINUOUS
  0
LINE
  8
WHITE
 10
30.718660
 20
55.814412
 30
0.000000
 11
29.603240
 21
55.814412
 31
0.000000
  6
CONTINUOUS
  0
LINE
  8
WHITE
 10
31.619680
 20
69.371812
 30
0.000000
 11
31.405120
 21
69.715052
 31
0.000000
  6
CONTINUOUS
  0
LINE
  8
WHITE
 10
31.405120
 20
69.715052
 30
0.000000
 11
31.061900
 21
69.972452
 31
0.000000
  6
CONTINUOUS
  0
LINE
  8
WHITE
 10
31.061900
 20
69.972452
 30
0.000000
 11
30.718660
 21
70.058272
 31
0.000000
  6
CONTINUOUS
  0
LINE
  8
WHITE
 10
30.718660
 20
70.058272
 30
0.000000
 11
30.289680
 21
69.972452
 31
0.000000
  6
CONTINUOUS
  0
LINE
  8
WHITE
 10
30.289680
 20
69.972452
 30
0.000000
 11
30.032280
 21
69.757952
 31
0.000000
  6
CONTINUOUS
  0
LINE
  8
WHITE
 10
30.032280
 20
69.757952
 30
0.000000
 11
29.731900
 21
69.371812
 31
0.000000
  6
CONTINUOUS
  0
LINE
  8
WHITE
 10
34.758338
 20
53.975958
 30
0.000000
 11
34.794500
 21
54.698892
 31
0.000000
  6
CONTINUOUS
  0
LINE
  8
WHITE
 10
34.794500
 20
54.698892
 30
0.000000
 11
34.794500
 21
56.457952
 31
0.000000
  6
CONTINUOUS
  0
LINE
  8
WHITE
 10
34.794500
 20
56.457952
 30
0.000000
 11
34.751580
 21
57.659212
 31
0.000000
  6
CONTINUOUS
  0
LINE
  8
WHITE
 10
34.751580
 20
57.659212
 30
0.000000
 11
34.580000
 21
58.903472
 31
0.000000
  6
CONTINUOUS
  0
LINE
  8
WHITE
 10
34.580000
 20
58.903472
 30
0.000000
 11
34.193860
 21
60.061812
 31
0.000000
  6
CONTINUOUS
  0
LINE
  8
WHITE
 10
34.193860
 20
60.061812
 30
0.000000
 11
33.807720
 21
60.490872
 31
0.000000
  6
CONTINUOUS
  0
LINE
  8
WHITE
 10
33.807720
 20
60.490872
 30
0.000000
 11
33.335820
 21
60.791192
 31
0.000000
  6
CONTINUOUS
  0
LINE
  8
WHITE
 10
33.335820
 20
60.791192
 30
0.000000
 11
29.936537
 21
60.791192
 31
0.000000
  6
CONTINUOUS
  0
LINE
  8
WHITE
 10
30.375520
 20
70.315672
 30
0.000000
 11
30.251540
 21
70.484112
 31
0.000000
  6
CONTINUOUS
  0
LINE
  8
WHITE
 10
30.251540
 20
70.484112
 30
0.000000
 11
30.156180
 21
70.919532
 31
0.000000
  6
CONTINUOUS
  0
LINE
  8
WHITE
 10
30.156180
 20
70.919532
 30
0.000000
 11
30.118040
 21
71.517012
 31
0.000000
  6
CONTINUOUS
  0
LINE
  8
WHITE
 10
30.118040
 20
71.517012
 30
0.000000
 11
30.156180
 21
72.114472
 31
0.000000
  6
CONTINUOUS
  0
LINE
  8
WHITE
 10
30.156180
 20
72.114472
 30
0.000000
 11
30.251540
 21
72.549852
 31
0.000000
  6
CONTINUOUS
  0
LINE
  8
WHITE
 10
30.251540
 20
72.549852
 30
0.000000
 11
30.375520
 21
72.718272
 31
0.000000
  6
CONTINUOUS
  0
LINE
  8
WHITE
 10
30.912999
 20
70.009682
 30
0.000000
 11
31.147720
 21
70.573152
 31
0.000000
  6
CONTINUOUS
  0
LINE
  8
WHITE
 10
31.147720
 20
70.573152
 30
0.000000
 11
31.233540
 21
71.388272
 31
0.000000
  6
CONTINUOUS
  0
LINE
  8
WHITE
 10
31.233540
 20
71.388272
 30
0.000000
 11
31.147720
 21
72.246312
 31
0.000000
  6
CONTINUOUS
  0
LINE
  8
WHITE
 10
31.147720
 20
72.246312
 30
0.000000
 11
30.976140
 21
72.804092
 31
0.000000
  6
CONTINUOUS
  0
LINE
  8
WHITE
 10
30.976140
 20
72.804092
 30
0.000000
 11
30.375520
 21
72.804092
 31
0.000000
  6
CONTINUOUS
  0
LINE
  8
WHITE
 10
30.375520
 20
72.804092
 30
0.000000
 11
30.375520
 21
72.718272
 31
0.000000
  6
CONTINUOUS
  0
LINE
  8
WHITE
 10
30.375520
 20
72.718272
 30
0.000000
 11
30.559800
 21
72.549852
 31
0.000000
  6
CONTINUOUS
  0
LINE
  8
WHITE
 10
30.559800
 20
72.549852
 30
0.000000
 11
30.677360
 21
72.114472
 31
0.000000
  6
CONTINUOUS
  0
LINE
  8
WHITE
 10
30.677360
 20
72.114472
 30
0.000000
 11
30.718660
 21
71.517012
 31
0.000000
  6
CONTINUOUS
  0
LINE
  8
WHITE
 10
30.718660
 20
71.517012
 30
0.000000
 11
30.677360
 21
70.919532
 31
0.000000
  6
CONTINUOUS
  0
LINE
  8
WHITE
 10
30.677360
 20
70.919532
 30
0.000000
 11
30.559800
 21
70.484112
 31
0.000000
  6
CONTINUOUS
  0
LINE
  8
WHITE
 10
30.559800
 20
70.484112
 30
0.000000
 11
30.375520
 21
70.315672
 31
0.000000
  6
CONTINUOUS
  0
LINE
  8
WHITE
 10
30.375520
 20
70.315672
 30
0.000000
 11
30.375520
 21
69.989625
 31
0.000000
  6
CONTINUOUS
  0
LINE
  8
WHITE
 10
34.758338
 20
53.926692
 30
0.000000
 11
30.718652
 21
53.926692
 31
0.000000
  6
CONTINUOUS
  0
LINE
  8
WHITE
 10
30.718652
 20
53.926692
 30
0.000000
 11
30.590000
 21
52.639292
 31
0.000000
  6
CONTINUOUS
  0
LINE
  8
WHITE
 10
30.590000
 20
52.639292
 30
0.000000
 11
30.572903
 21
52.564079
 31
0.000000
  6
CONTINUOUS
  0
LINE
  8
WHITE
 10
30.661457
 20
57.616372
 30
0.000000
 11
34.580000
 21
57.616372
 31
0.000000
  6
CONTINUOUS
  0
LINE
  8
WHITE
 10
34.580000
 20
57.616372
 30
0.000000
 11
34.580000
 21
56.543792
 31
0.000000
  6
CONTINUOUS
  0
LINE
  8
WHITE
 10
34.580000
 20
56.543792
 30
0.000000
 11
30.718660
 21
56.543792
 31
0.000000
  6
CONTINUOUS
  0
LINE
  8
WHITE
 10
30.847400
 20
69.371812
 30
0.000000
 11
30.847400
 21
69.757952
 31
0.000000
  6
CONTINUOUS
  0
LINE
  8
WHITE
 10
30.847400
 20
69.757952
 30
0.000000
 11
30.718660
 21
70.058272
 31
0.000000
  6
CONTINUOUS
  0
LINE
  8
WHITE
 10
31.019060
 20
62.550232
 30
0.000000
 11
31.019060
 21
60.962832
 31
0.000000
  6
CONTINUOUS
  0
LINE
  8
WHITE
 10
33.297626
 20
69.200232
 30
0.000000
 11
70.833240
 21
69.200232
 31
0.000000
  6
CONTINUOUS
  0
LINE
  8
WHITE
 10
70.833240
 20
69.200232
 30
0.000000
 11
71.862920
 21
69.285992
 31
0.000000
  6
CONTINUOUS
  0
LINE
  8
WHITE
 10
71.862920
 20
69.285992
 30
0.000000
 11
72.763860
 21
69.371812
 31
0.000000
  6
CONTINUOUS
  0
LINE
  8
WHITE
 10
72.763860
 20
69.371812
 30
0.000000
 11
73.578980
 21
69.543472
 31
0.000000
  6
CONTINUOUS
  0
LINE
  8
WHITE
 10
73.578980
 20
69.543472
 30
0.000000
 11
74.308340
 21
69.843792
 31
0.000000
  6
CONTINUOUS
  0
LINE
  8
WHITE
 10
74.308340
 20
69.843792
 30
0.000000
 11
74.651580
 21
70.058272
 31
0.000000
  6
CONTINUOUS
  0
LINE
  8
WHITE
 10
74.651580
 20
70.058272
 30
0.000000
 11
74.823240
 21
70.229932
 31
0.000000
  6
CONTINUOUS
  0
LINE
  8
WHITE
 10
74.823240
 20
70.229932
 30
0.000000
 11
76.668040
 21
71.302452
 31
0.000000
  6
CONTINUOUS
  0
LINE
  8
WHITE
 10
76.668040
 20
71.302452
 30
0.000000
 11
78.255440
 21
71.988892
 31
0.000000
  6
CONTINUOUS
  0
LINE
  8
WHITE
 10
78.255440
 20
71.988892
 30
0.000000
 11
80.143240
 21
72.203472
 31
0.000000
  6
CONTINUOUS
  0
LINE
  8
WHITE
 10
80.143240
 20
72.203472
 30
0.000000
 11
81.859300
 21
72.203472
 31
0.000000
  6
CONTINUOUS
  0
LINE
  8
WHITE
 10
81.859300
 20
72.203472
 30
0.000000
 11
83.532520
 21
71.988892
 31
0.000000
  6
CONTINUOUS
  0
LINE
  8
WHITE
 10
83.532520
 20
71.988892
 30
0.000000
 11
84.991260
 21
71.474092
 31
0.000000
  6
CONTINUOUS
  0
LINE
  8
WHITE
 10
84.991260
 20
71.474092
 30
0.000000
 11
86.450000
 21
70.744732
 31
0.000000
  6
CONTINUOUS
  0
LINE
  8
WHITE
 10
86.450000
 20
70.744732
 30
0.000000
 11
88.037400
 21
69.543472
 31
0.000000
  6
CONTINUOUS
  0
LINE
  8
WHITE
 10
88.037400
 20
69.543472
 30
0.000000
 11
89.367400
 21
68.342132
 31
0.000000
  6
CONTINUOUS
  0
LINE
  8
WHITE
 10
89.367400
 20
68.342132
 30
0.000000
 11
90.010940
 21
67.827332
 31
0.000000
  6
CONTINUOUS
  0
LINE
  8
WHITE
 10
90.010940
 20
67.827332
 30
0.000000
 11
90.611580
 21
67.569932
 31
0.000000
  6
CONTINUOUS
  0
LINE
  8
WHITE
 10
90.611580
 20
67.569932
 30
0.000000
 11
91.469680
 21
67.355352
 31
0.000000
  6
CONTINUOUS
  0
LINE
  8
WHITE
 10
34.572827
 20
67.441192
 30
0.000000
 11
70.490000
 21
67.441192
 31
0.000000
  6
CONTINUOUS
  0
LINE
  8
WHITE
 10
70.490000
 20
67.441192
 30
0.000000
 11
71.905760
 21
67.569932
 31
0.000000
  6
CONTINUOUS
  0
LINE
  8
WHITE
 10
71.905760
 20
67.569932
 30
0.000000
 11
73.064180
 21
67.827332
 31
0.000000
  6
CONTINUOUS
  0
LINE
  8
WHITE
 10
73.064180
 20
67.827332
 30
0.000000
 11
73.922200
 21
68.041812
 31
0.000000
  6
CONTINUOUS
  0
LINE
  8
WHITE
 10
73.922200
 20
68.041812
 30
0.000000
 11
74.608660
 21
68.256372
 31
0.000000
  6
CONTINUOUS
  0
LINE
  8
WHITE
 10
74.608660
 20
68.256372
 30
0.000000
 11
75.209380
 21
68.599532
 31
0.000000
  6
CONTINUOUS
  0
LINE
  8
WHITE
 10
75.209380
 20
68.599532
 30
0.000000
 11
75.724180
 21
69.028592
 31
0.000000
  6
CONTINUOUS
  0
LINE
  8
WHITE
 10
75.724180
 20
69.028592
 30
0.000000
 11
76.110320
 21
69.457632
 31
0.000000
  6
CONTINUOUS
  0
LINE
  8
WHITE
 10
76.110320
 20
69.457632
 30
0.000000
 11
76.281900
 21
69.886692
 31
0.000000
  6
CONTINUOUS
  0
LINE
  8
WHITE
 10
76.281900
 20
69.886692
 30
0.000000
 11
76.324800
 21
70.358592
 31
0.000000
  6
CONTINUOUS
  0
LINE
  8
WHITE
 10
76.324800
 20
70.358592
 30
0.000000
 11
76.281900
 21
71.045052
 31
0.000000
  6
CONTINUOUS
  0
LINE
  8
WHITE
 10
35.061460
 20
65.210232
 30
0.000000
 11
71.133540
 21
65.210232
 31
0.000000
  6
CONTINUOUS
  0
LINE
  8
WHITE
 10
71.133540
 20
65.210232
 30
0.000000
 11
73.664800
 21
65.295992
 31
0.000000
  6
CONTINUOUS
  0
LINE
  8
WHITE
 10
73.664800
 20
65.295992
 30
0.000000
 11
76.067400
 21
65.639212
 31
0.000000
  6
CONTINUOUS
  0
LINE
  8
WHITE
 10
76.067400
 20
65.639212
 30
0.000000
 11
78.555760
 21
66.154092
 31
0.000000
  6
CONTINUOUS
  0
LINE
  8
WHITE
 10
78.555760
 20
66.154092
 30
0.000000
 11
80.915440
 21
67.055052
 31
0.000000
  6
CONTINUOUS
  0
LINE
  8
WHITE
 10
80.915440
 20
67.055052
 30
0.000000
 11
82.588660
 21
68.041812
 31
0.000000
  6
CONTINUOUS
  0
LINE
  8
WHITE
 10
82.588660
 20
68.041812
 30
0.000000
 11
83.790000
 21
68.985672
 31
0.000000
  6
CONTINUOUS
  0
LINE
  8
WHITE
 10
83.790000
 20
68.985672
 30
0.000000
 11
84.433540
 21
69.886692
 31
0.000000
  6
CONTINUOUS
  0
LINE
  8
WHITE
 10
84.433540
 20
69.886692
 30
0.000000
 11
85.120000
 21
71.173792
 31
0.000000
  6
CONTINUOUS
  0
LINE
  8
WHITE
 10
35.223540
 20
54.074355
 30
0.000000
 11
35.223540
 21
62.635992
 31
0.000000
  6
CONTINUOUS
  0
LINE
  8
WHITE
 10
88.766780
 20
68.771192
 30
0.000000
 11
87.265120
 21
66.926372
 31
0.000000
  6
CONTINUOUS
  0
LINE
  8
WHITE
 10
87.265120
 20
66.926372
 30
0.000000
 11
85.978040
 21
65.939612
 31
0.000000
  6
CONTINUOUS
  0
LINE
  8
WHITE
 10
85.978040
 20
65.939612
 30
0.000000
 11
84.218980
 21
64.952752
 31
0.000000
  6
CONTINUOUS
  0
LINE
  8
WHITE
 10
84.218980
 20
64.952752
 30
0.000000
 11
82.502920
 21
64.223472
 31
0.000000
  6
CONTINUOUS
  0
LINE
  8
WHITE
 10
82.502920
 20
64.223472
 30
0.000000
 11
80.743860
 21
63.794412
 31
0.000000
  6
CONTINUOUS
  0
LINE
  8
WHITE
 10
80.743860
 20
63.794412
 30
0.000000
 11
78.298340
 21
63.236692
 31
0.000000
  6
CONTINUOUS
  0
LINE
  8
WHITE
 10
78.298340
 20
63.236692
 30
0.000000
 11
76.281900
 21
62.893472
 31
0.000000
  6
CONTINUOUS
  0
LINE
  8
WHITE
 10
76.281900
 20
62.893472
 30
0.000000
 11
73.836460
 21
62.635992
 31
0.000000
  6
CONTINUOUS
  0
LINE
  8
WHITE
 10
73.836460
 20
62.635992
 30
0.000000
 11
35.266460
 21
62.635992
 31
0.000000
  6
CONTINUOUS
  0
LINE
  8
WHITE
 10
35.395120
 20
60.061812
 30
0.000000
 11
71.348040
 21
60.061812
 31
0.000000
  6
CONTINUOUS
  0
LINE
  8
WHITE
 10
42.474180
 20
54.647607
 30
0.000000
 11
42.474180
 21
57.444732
 31
0.000000
  6
CONTINUOUS
  0
LINE
  8
WHITE
 10
42.474180
 20
57.444732
 30
0.000000
 11
42.345440
 21
57.873792
 31
0.000000
  6
CONTINUOUS
  0
LINE
  8
WHITE
 10
42.345440
 20
57.873792
 30
0.000000
 11
42.130940
 21
58.259932
 31
0.000000
  6
CONTINUOUS
  0
LINE
  8
WHITE
 10
42.130940
 20
58.259932
 30
0.000000
 11
41.787720
 21
58.474412
 31
0.000000
  6
CONTINUOUS
  0
LINE
  8
WHITE
 10
41.787720
 20
58.474412
 30
0.000000
 11
41.315820
 21
58.560232
 31
0.000000
  6
CONTINUOUS
  0
LINE
  8
WHITE
 10
41.315820
 20
58.560232
 30
0.000000
 11
40.543540
 21
58.560232
 31
0.000000
  6
CONTINUOUS
  0
LINE
  8
WHITE
 10
40.543540
 20
58.560232
 30
0.000000
 11
41.187080
 21
58.217012
 31
0.000000
  6
CONTINUOUS
  0
LINE
  8
WHITE
 10
41.187080
 20
58.217012
 30
0.000000
 11
41.444500
 21
57.959612
 31
0.000000
  6
CONTINUOUS
  0
LINE
  8
WHITE
 10
41.444500
 20
57.959612
 30
0.000000
 11
41.616140
 21
57.487632
 31
0.000000
  6
CONTINUOUS
  0
LINE
  8
WHITE
 10
41.616140
 20
57.487632
 30
0.000000
 11
41.701900
 21
56.887012
 31
0.000000
  6
CONTINUOUS
  0
LINE
  8
WHITE
 10
41.701900
 20
56.887012
 30
0.000000
 11
41.701900
 21
54.698892
 31
0.000000
  6
CONTINUOUS
  0
LINE
  8
WHITE
 10
44.190320
 20
54.446777
 30
0.000000
 11
44.190320
 21
56.887012
 31
0.000000
  6
CONTINUOUS
  0
LINE
  8
WHITE
 10
44.190320
 20
56.887012
 30
0.000000
 11
44.104500
 21
57.487632
 31
0.000000
  6
CONTINUOUS
  0
LINE
  8
WHITE
 10
44.104500
 20
57.487632
 30
0.000000
 11
43.932920
 21
57.959612
 31
0.000000
  6
CONTINUOUS
  0
LINE
  8
WHITE
 10
43.932920
 20
57.959612
 30
0.000000
 11
43.675440
 21
58.217012
 31
0.000000
  6
CONTINUOUS
  0
LINE
  8
WHITE
 10
43.675440
 20
58.217012
 30
0.000000
 11
43.031900
 21
58.560232
 31
0.000000
  6
CONTINUOUS
  0
LINE
  8
WHITE
 10
43.031900
 20
58.560232
 30
0.000000
 11
43.804180
 21
58.560232
 31
0.000000
  6
CONTINUOUS
  0
LINE
  8
WHITE
 10
43.804180
 20
58.560232
 30
0.000000
 11
44.276140
 21
58.474412
 31
0.000000
  6
CONTINUOUS
  0
LINE
  8
WHITE
 10
44.276140
 20
58.474412
 30
0.000000
 11
44.619380
 21
58.259932
 31
0.000000
  6
CONTINUOUS
  0
LINE
  8
WHITE
 10
44.619380
 20
58.259932
 30
0.000000
 11
44.876780
 21
57.873792
 31
0.000000
  6
CONTINUOUS
  0
LINE
  8
WHITE
 10
44.876780
 20
57.873792
 30
0.000000
 11
44.962600
 21
57.444732
 31
0.000000
  6
CONTINUOUS
  0
LINE
  8
WHITE
 10
44.962600
 20
57.444732
 30
0.000000
 11
44.962600
 21
54.311278
 31
0.000000
  6
CONTINUOUS
  0
LINE
  8
WHITE
 10
47.493860
 20
53.793191
 30
0.000000
 11
47.493860
 21
57.444732
 31
0.000000
  6
CONTINUOUS
  0
LINE
  8
WHITE
 10
47.493860
 20
57.444732
 30
0.000000
 11
47.365120
 21
57.873792
 31
0.000000
  6
CONTINUOUS
  0
LINE
  8
WHITE
 10
47.365120
 20
57.873792
 30
0.000000
 11
47.150640
 21
58.259932
 31
0.000000
  6
CONTINUOUS
  0
LINE
  8
WHITE
 10
47.150640
 20
58.259932
 30
0.000000
 11
46.807400
 21
58.474412
 31
0.000000
  6
CONTINUOUS
  0
LINE
  8
WHITE
 10
46.807400
 20
58.474412
 30
0.000000
 11
46.335440
 21
58.560232
 31
0.000000
  6
CONTINUOUS
  0
LINE
  8
WHITE
 10
46.335440
 20
58.560232
 30
0.000000
 11
45.563240
 21
58.560232
 31
0.000000
  6
CONTINUOUS
  0
LINE
  8
WHITE
 10
45.563240
 20
58.560232
 30
0.000000
 11
46.249680
 21
58.217012
 31
0.000000
  6
CONTINUOUS
  0
LINE
  8
WHITE
 10
46.249680
 20
58.217012
 30
0.000000
 11
46.464180
 21
57.959612
 31
0.000000
  6
CONTINUOUS
  0
LINE
  8
WHITE
 10
46.464180
 20
57.959612
 30
0.000000
 11
46.635820
 21
57.487632
 31
0.000000
  6
CONTINUOUS
  0
LINE
  8
WHITE
 10
46.635820
 20
57.487632
 30
0.000000
 11
46.721580
 21
56.887012
 31
0.000000
  6
CONTINUOUS
  0
LINE
  8
WHITE
 10
46.721580
 20
56.887012
 30
0.000000
 11
46.721580
 21
53.981949
 31
0.000000
  6
CONTINUOUS
  0
LINE
  8
WHITE
 10
49.982200
 20
53.012876
 30
0.000000
 11
49.982200
 21
57.444732
 31
0.000000
  6
CONTINUOUS
  0
LINE
  8
WHITE
 10
49.982200
 20
57.444732
 30
0.000000
 11
49.896460
 21
57.873792
 31
0.000000
  6
CONTINUOUS
  0
LINE
  8
WHITE
 10
49.896460
 20
57.873792
 30
0.000000
 11
49.639060
 21
58.259932
 31
0.000000
  6
CONTINUOUS
  0
LINE
  8
WHITE
 10
49.639060
 20
58.259932
 30
0.000000
 11
49.381580
 21
58.474412
 31
0.000000
  6
CONTINUOUS
  0
LINE
  8
WHITE
 10
49.381580
 20
58.474412
 30
0.000000
 11
48.866780
 21
58.560232
 31
0.000000
  6
CONTINUOUS
  0
LINE
  8
WHITE
 10
48.866780
 20
58.560232
 30
0.000000
 11
48.094500
 21
58.560232
 31
0.000000
  6
CONTINUOUS
  0
LINE
  8
WHITE
 10
48.094500
 20
58.560232
 30
0.000000
 11
48.738040
 21
58.217012
 31
0.000000
  6
CONTINUOUS
  0
LINE
  8
WHITE
 10
48.738040
 20
58.217012
 30
0.000000
 11
48.995440
 21
57.959612
 31
0.000000
  6
CONTINUOUS
  0
LINE
  8
WHITE
 10
48.995440
 20
57.959612
 30
0.000000
 11
49.210000
 21
57.487632
 31
0.000000
  6
CONTINUOUS
  0
LINE
  8
WHITE
 10
49.210000
 20
57.487632
 30
0.000000
 11
49.252920
 21
56.887012
 31
0.000000
  6
CONTINUOUS
  0
LINE
  8
WHITE
 10
49.252920
 20
56.887012
 30
0.000000
 11
49.252920
 21
53.268120
 31
0.000000
  6
CONTINUOUS
  0
LINE
  8
WHITE
 10
52.513540
 20
51.835649
 30
0.000000
 11
52.513540
 21
57.444732
 31
0.000000
  6
CONTINUOUS
  0
LINE
  8
WHITE
 10
52.513540
 20
57.444732
 30
0.000000
 11
52.427720
 21
57.873792
 31
0.000000
  6
CONTINUOUS
  0
LINE
  8
WHITE
 10
52.427720
 20
57.873792
 30
0.000000
 11
52.170320
 21
58.259932
 31
0.000000
  6
CONTINUOUS
  0
LINE
  8
WHITE
 10
52.170320
 20
58.259932
 30
0.000000
 11
51.912920
 21
58.474412
 31
0.000000
  6
CONTINUOUS
  0
LINE
  8
WHITE
 10
51.912920
 20
58.474412
 30
0.000000
 11
51.355120
 21
58.560232
 31
0.000000
  6
CONTINUOUS
  0
LINE
  8
WHITE
 10
51.355120
 20
58.560232
 30
0.000000
 11
50.625820
 21
58.560232
 31
0.000000
  6
CONTINUOUS
  0
LINE
  8
WHITE
 10
50.625820
 20
58.560232
 30
0.000000
 11
51.269380
 21
58.217012
 31
0.000000
  6
CONTINUOUS
  0
LINE
  8
WHITE
 10
51.269380
 20
58.217012
 30
0.000000
 11
51.483860
 21
57.959612
 31
0.000000
  6
CONTINUOUS
  0
LINE
  8
WHITE
 10
51.483860
 20
57.959612
 30
0.000000
 11
51.698340
 21
57.487632
 31
0.000000
  6
CONTINUOUS
  0
LINE
  8
WHITE
 10
51.698340
 20
57.487632
 30
0.000000
 11
51.784180
 21
56.887012
 31
0.000000
  6
CONTINUOUS
  0
LINE
  8
WHITE
 10
51.784180
 20
56.887012
 30
0.000000
 11
51.784180
 21
52.241751
 31
0.000000
  6
CONTINUOUS
  0
LINE
  8
WHITE
 10
54.315440
 20
50.679739
 30
0.000000
 11
54.315440
 21
56.887012
 31
0.000000
  6
CONTINUOUS
  0
LINE
  8
WHITE
 10
54.315440
 20
56.887012
 30
0.000000
 11
54.229680
 21
57.487632
 31
0.000000
  6
CONTINUOUS
  0
LINE
  8
WHITE
 10
54.229680
 20
57.487632
 30
0.000000
 11
54.058040
 21
57.959612
 31
0.000000
  6
CONTINUOUS
  0
LINE
  8
WHITE
 10
54.058040
 20
57.959612
 30
0.000000
 11
53.800640
 21
58.217012
 31
0.000000
  6
CONTINUOUS
  0
LINE
  8
WHITE
 10
53.800640
 20
58.217012
 30
0.000000
 11
53.157080
 21
58.560232
 31
0.000000
  6
CONTINUOUS
  0
LINE
  8
WHITE
 10
53.157080
 20
58.560232
 30
0.000000
 11
53.886460
 21
58.560232
 31
0.000000
  6
CONTINUOUS
  0
LINE
  8
WHITE
 10
53.886460
 20
58.560232
 30
0.000000
 11
54.444180
 21
58.474412
 31
0.000000
  6
CONTINUOUS
  0
LINE
  8
WHITE
 10
54.444180
 20
58.474412
 30
0.000000
 11
54.701580
 21
58.259932
 31
0.000000
  6
CONTINUOUS
  0
LINE
  8
WHITE
 10
54.701580
 20
58.259932
 30
0.000000
 11
54.958980
 21
57.873792
 31
0.000000
  6
CONTINUOUS
  0
LINE
  8
WHITE
 10
54.958980
 20
57.873792
 30
0.000000
 11
55.044800
 21
57.444732
 31
0.000000
  6
CONTINUOUS
  0
LINE
  8
WHITE
 10
55.044800
 20
57.444732
 30
0.000000
 11
55.044800
 21
50.136613
 31
0.000000
  6
CONTINUOUS
  0
LINE
  8
WHITE
 10
57.576140
 20
48.063503
 30
0.000000
 11
57.576140
 21
57.444732
 31
0.000000
  6
CONTINUOUS
  0
LINE
  8
WHITE
 10
57.576140
 20
57.444732
 30
0.000000
 11
57.490320
 21
57.873792
 31
0.000000
  6
CONTINUOUS
  0
LINE
  8
WHITE
 10
57.490320
 20
57.873792
 30
0.000000
 11
57.275820
 21
58.259932
 31
0.000000
  6
CONTINUOUS
  0
LINE
  8
WHITE
 10
57.275820
 20
58.259932
 30
0.000000
 11
56.975440
 21
58.474412
 31
0.000000
  6
CONTINUOUS
  0
LINE
  8
WHITE
 10
56.975440
 20
58.474412
 30
0.000000
 11
56.417720
 21
58.560232
 31
0.000000
  6
CONTINUOUS
  0
LINE
  8
WHITE
 10
56.417720
 20
58.560232
 30
0.000000
 11
55.688340
 21
58.560232
 31
0.000000
  6
CONTINUOUS
  0
LINE
  8
WHITE
 10
55.688340
 20
58.560232
 30
0.000000
 11
56.331900
 21
58.217012
 31
0.000000
  6
CONTINUOUS
  0
LINE
  8
WHITE
 10
56.331900
 20
58.217012
 30
0.000000
 11
56.589380
 21
57.959612
 31
0.000000
  6
CONTINUOUS
  0
LINE
  8
WHITE
 10
56.589380
 20
57.959612
 30
0.000000
 11
56.760940
 21
57.487632
 31
0.000000
  6
CONTINUOUS
  0
LINE
  8
WHITE
 10
56.760940
 20
57.487632
 30
0.000000
 11
56.846780
 21
56.887012
 31
0.000000
  6
CONTINUOUS
  0
LINE
  8
WHITE
 10
56.846780
 20
56.887012
 30
0.000000
 11
56.846780
 21
48.682772
 31
0.000000
  6
CONTINUOUS
  0
LINE
  8
WHITE
 10
62.638660
 20
42.796737
 30
0.000000
 11
62.638660
 21
57.444732
 31
0.000000
  6
CONTINUOUS
  0
LINE
  8
WHITE
 10
62.638660
 20
57.444732
 30
0.000000
 11
62.552920
 21
57.873792
 31
0.000000
  6
CONTINUOUS
  0
LINE
  8
WHITE
 10
62.552920
 20
57.873792
 30
0.000000
 11
62.295440
 21
58.259932
 31
0.000000
  6
CONTINUOUS
  0
LINE
  8
WHITE
 10
62.295440
 20
58.259932
 30
0.000000
 11
61.995120
 21
58.474412
 31
0.000000
  6
CONTINUOUS
  0
LINE
  8
WHITE
 10
61.995120
 20
58.474412
 30
0.000000
 11
61.480320
 21
58.560232
 31
0.000000
  6
CONTINUOUS
  0
LINE
  8
WHITE
 10
61.480320
 20
58.560232
 30
0.000000
 11
60.708040
 21
58.560232
 31
0.000000
  6
CONTINUOUS
  0
LINE
  8
WHITE
 10
60.708040
 20
58.560232
 30
0.000000
 11
61.394500
 21
58.217012
 31
0.000000
  6
CONTINUOUS
  0
LINE
  8
WHITE
 10
61.394500
 20
58.217012
 30
0.000000
 11
61.608980
 21
57.959612
 31
0.000000
  6
CONTINUOUS
  0
LINE
  8
WHITE
 10
61.608980
 20
57.959612
 30
0.000000
 11
61.780640
 21
57.487632
 31
0.000000
  6
CONTINUOUS
  0
LINE
  8
WHITE
 10
61.780640
 20
57.487632
 30
0.000000
 11
61.909380
 21
56.887012
 31
0.000000
  6
CONTINUOUS
  0
LINE
  8
WHITE
 10
61.909380
 20
56.887012
 30
0.000000
 11
61.909380
 21
43.613967
 31
0.000000
  6
CONTINUOUS
  0
LINE
  8
WHITE
 10
60.925800
 20
18.704292
 30
0.000000
 11
60.915905
 21
18.660232
 31
0.000000
  6
CONTINUOUS
  0
LINE
  8
WHITE
 10
60.915905
 20
18.660232
 30
0.000000
 11
134.673160
 21
18.660232
 31
0.000000
  6
CONTINUOUS
  0
LINE
  8
WHITE
 10
134.673160
 20
18.660232
 30
0.000000
 11
134.844800
 21
17.416072
 31
0.000000
  6
CONTINUOUS
  0
LINE
  8
WHITE
 10
134.844800
 20
17.416072
 30
0.000000
 11
135.359600
 21
15.657012
 31
0.000000
  6
CONTINUOUS
  0
LINE
  8
WHITE
 10
135.359600
 20
15.657012
 30
0.000000
 11
136.088980
 21
14.155432
 31
0.000000
  6
CONTINUOUS
  0
LINE
  8
WHITE
 10
136.088980
 20
14.155432
 30
0.000000
 11
136.861260
 21
12.825432
 31
0.000000
  6
CONTINUOUS
  0
LINE
  8
WHITE
 10
136.861260
 20
12.825432
 30
0.000000
 11
137.976780
 21
11.409612
 31
0.000000
  6
CONTINUOUS
  0
LINE
  8
WHITE
 10
137.976780
 20
11.409612
 30
0.000000
 11
139.692840
 21
9.736372
 31
0.000000
  6
CONTINUOUS
  0
LINE
  8
WHITE
 10
139.692840
 20
9.736372
 30
0.000000
 11
141.838040
 21
7.934412
 31
0.000000
  6
CONTINUOUS
  0
LINE
  8
WHITE
 10
141.838040
 20
7.934412
 30
0.000000
 11
143.940320
 21
6.733152
 31
0.000000
  6
CONTINUOUS
  0
LINE
  8
WHITE
 10
143.940320
 20
6.733152
 30
0.000000
 11
146.128340
 21
5.789292
 31
0.000000
  6
CONTINUOUS
  0
LINE
  8
WHITE
 10
146.128340
 20
5.789292
 30
0.000000
 11
148.702520
 21
5.102832
 31
0.000000
  6
CONTINUOUS
  0
LINE
  8
WHITE
 10
148.702520
 20
5.102832
 30
0.000000
 11
151.190940
 21
4.802532
 31
0.000000
  6
CONTINUOUS
  0
LINE
  8
WHITE
 10
151.190940
 20
4.802532
 30
0.000000
 11
153.078660
 21
4.588032
 31
0.000000
  6
CONTINUOUS
  0
LINE
  8
WHITE
 10
153.078660
 20
4.588032
 30
0.000000
 11
155.095120
 21
4.588032
 31
0.000000
  6
CONTINUOUS
  0
LINE
  8
WHITE
 10
155.095120
 20
4.588032
 30
0.000000
 11
156.854180
 21
4.802532
 31
0.000000
  6
CONTINUOUS
  0
LINE
  8
WHITE
 10
156.854180
 20
4.802532
 30
0.000000
 11
158.827720
 21
5.102832
 31
0.000000
  6
CONTINUOUS
  0
LINE
  8
WHITE
 10
158.827720
 20
5.102832
 30
0.000000
 11
160.586700
 21
5.617632
 31
0.000000
  6
CONTINUOUS
  0
LINE
  8
WHITE
 10
160.586700
 20
5.617632
 30
0.000000
 11
162.217080
 21
6.518672
 31
0.000000
  6
CONTINUOUS
  0
LINE
  8
WHITE
 10
162.217080
 20
6.518672
 30
0.000000
 11
164.233460
 21
4.888352
 31
0.000000
  6
CONTINUOUS
  0
LINE
  8
WHITE
 10
164.233460
 20
4.888352
 30
0.000000
 11
165.863860
 21
3.772832
 31
0.000000
  6
CONTINUOUS
  0
LINE
  8
WHITE
 10
165.863860
 20
3.772832
 30
0.000000
 11
168.051900
 21
2.528672
 31
0.000000
  6
CONTINUOUS
  0
LINE
  8
WHITE
 10
168.051900
 20
2.528672
 30
0.000000
 11
170.497400
 21
1.498972
 31
0.000000
  6
CONTINUOUS
  0
LINE
  8
WHITE
 10
170.497400
 20
1.498972
 30
0.000000
 11
173.672200
 21
0.726692
 31
0.000000
  6
CONTINUOUS
  0
LINE
  8
WHITE
 10
173.672200
 20
0.726692
 30
0.000000
 11
176.932840
 21
0.254812
 31
0.000000
  6
CONTINUOUS
  0
LINE
  8
WHITE
 10
176.932840
 20
0.254812
 30
0.000000
 11
180.322200
 21
0.254812
 31
0.000000
  6
CONTINUOUS
  0
LINE
  8
WHITE
 10
180.322200
 20
0.254812
 30
0.000000
 11
182.810640
 21
0.598032
 31
0.000000
  6
CONTINUOUS
  0
LINE
  8
WHITE
 10
182.810640
 20
0.598032
 30
0.000000
 11
185.470640
 21
1.112832
 31
0.000000
  6
CONTINUOUS
  0
LINE
  8
WHITE
 10
185.470640
 20
1.112832
 30
0.000000
 11
187.958980
 21
2.013792
 31
0.000000
  6
CONTINUOUS
  0
LINE
  8
WHITE
 10
187.958980
 20
2.013792
 30
0.000000
 11
190.189920
 21
3.000552
 31
0.000000
  6
CONTINUOUS
  0
LINE
  8
WHITE
 10
190.189920
 20
3.000552
 30
0.000000
 11
192.378040
 21
4.459292
 31
0.000000
  6
CONTINUOUS
  0
LINE
  8
WHITE
 10
192.378040
 20
4.459292
 30
0.000000
 11
194.137020
 21
6.003792
 31
0.000000
  6
CONTINUOUS
  0
LINE
  8
WHITE
 10
194.137020
 20
6.003792
 30
0.000000
 11
196.196380
 21
8.106072
 31
0.000000
  6
CONTINUOUS
  0
LINE
  8
WHITE
 10
196.196380
 20
8.106072
 30
0.000000
 11
197.783780
 21
10.122532
 31
0.000000
  6
CONTINUOUS
  0
LINE
  8
WHITE
 10
197.783780
 20
10.122532
 30
0.000000
 11
199.028040
 21
12.096072
 31
0.000000
  6
CONTINUOUS
  0
LINE
  8
WHITE
 10
199.028040
 20
12.096072
 30
0.000000
 11
199.886060
 21
14.198352
 31
0.000000
  6
CONTINUOUS
  0
LINE
  8
WHITE
 10
199.886060
 20
14.198352
 30
0.000000
 11
200.486700
 21
16.300552
 31
0.000000
  6
CONTINUOUS
  0
LINE
  8
WHITE
 10
200.486700
 20
16.300552
 30
0.000000
 11
201.516380
 21
22.092532
 31
0.000000
  6
CONTINUOUS
  0
LINE
  8
WHITE
 10
201.516380
 20
22.092532
 30
0.000000
 11
201.645120
 21
24.108972
 31
0.000000
  6
CONTINUOUS
  0
LINE
  8
WHITE
 10
201.645120
 20
24.108972
 30
0.000000
 11
202.374500
 21
23.808672
 31
0.000000
  6
CONTINUOUS
  0
LINE
  8
WHITE
 10
202.374500
 20
23.808672
 30
0.000000
 11
203.618660
 21
23.036372
 31
0.000000
  6
CONTINUOUS
  0
LINE
  8
WHITE
 10
203.618660
 20
23.036372
 30
0.000000
 11
204.819920
 21
22.049612
 31
0.000000
  6
CONTINUOUS
  0
LINE
  8
WHITE
 10
204.819920
 20
22.049612
 30
0.000000
 11
205.291900
 21
21.148672
 31
0.000000
  6
CONTINUOUS
  0
LINE
  8
WHITE
 10
205.291900
 20
21.148672
 30
0.000000
 11
200.992685
 21
19.146731
 31
0.000000
  6
CONTINUOUS
  0
LINE
  8
WHITE
 10
64.440640
 20
40.354385
 30
0.000000
 11
64.440640
 21
56.887012
 31
0.000000
  6
CONTINUOUS
  0
LINE
  8
WHITE
 10
64.440640
 20
56.887012
 30
0.000000
 11
64.354800
 21
57.487632
 31
0.000000
  6
CONTINUOUS
  0
LINE
  8
WHITE
 10
64.354800
 20
57.487632
 30
0.000000
 11
64.140320
 21
57.959612
 31
0.000000
  6
CONTINUOUS
  0
LINE
  8
WHITE
 10
64.140320
 20
57.959612
 30
0.000000
 11
63.925760
 21
58.217012
 31
0.000000
  6
CONTINUOUS
  0
LINE
  8
WHITE
 10
63.925760
 20
58.217012
 30
0.000000
 11
63.282200
 21
58.560232
 31
0.000000
  6
CONTINUOUS
  0
LINE
  8
WHITE
 10
63.282200
 20
58.560232
 30
0.000000
 11
64.011580
 21
58.560232
 31
0.000000
  6
CONTINUOUS
  0
LINE
  8
WHITE
 10
64.011580
 20
58.560232
 30
0.000000
 11
64.526460
 21
58.474412
 31
0.000000
  6
CONTINUOUS
  0
LINE
  8
WHITE
 10
64.526460
 20
58.474412
 30
0.000000
 11
64.826780
 21
58.259932
 31
0.000000
  6
CONTINUOUS
  0
LINE
  8
WHITE
 10
64.826780
 20
58.259932
 30
0.000000
 11
65.084180
 21
57.873792
 31
0.000000
  6
CONTINUOUS
  0
LINE
  8
WHITE
 10
65.084180
 20
57.873792
 30
0.000000
 11
65.170000
 21
57.444732
 31
0.000000
  6
CONTINUOUS
  0
LINE
  8
WHITE
 10
65.170000
 20
57.444732
 30
0.000000
 11
65.170000
 21
39.365831
 31
0.000000
  6
CONTINUOUS
  0
LINE
  8
WHITE
 10
74.823240
 20
70.229932
 30
0.000000
 11
74.866140
 21
88.935672
 31
0.000000
  6
CONTINUOUS
  0
LINE
  8
WHITE
 10
74.866140
 20
88.935672
 30
0.000000
 11
71.948660
 21
91.252452
 31
0.000000
  6
CONTINUOUS
  0
LINE
  8
WHITE
 10
71.948660
 20
91.252452
 30
0.000000
 11
67.143540
 21
93.183072
 31
0.000000
  6
CONTINUOUS
  0
LINE
  8
WHITE
 10
67.143540
 20
93.183072
 30
0.000000
 11
66.585760
 21
93.354732
 31
0.000000
  6
CONTINUOUS
  0
LINE
  8
WHITE
 10
66.585760
 20
93.354732
 30
0.000000
 11
66.542920
 21
94.513072
 31
0.000000
  6
CONTINUOUS
  0
LINE
  8
WHITE
 10
66.542920
 20
94.513072
 30
0.000000
 11
74.866140
 21
97.602132
 31
0.000000
  6
CONTINUOUS
  0
LINE
  8
WHITE
 10
74.866140
 20
97.602132
 30
0.000000
 11
75.166460
 21
98.159852
 31
0.000000
  6
CONTINUOUS
  0
LINE
  8
WHITE
 10
75.166460
 20
98.159852
 30
0.000000
 11
75.466780
 21
98.760552
 31
0.000000
  6
CONTINUOUS
  0
LINE
  8
WHITE
 10
75.466780
 20
98.760552
 30
0.000000
 11
75.981580
 21
99.489852
 31
0.000000
  6
CONTINUOUS
  0
LINE
  8
WHITE
 10
75.981580
 20
99.489852
 30
0.000000
 11
76.496460
 21
100.004732
 31
0.000000
  6
CONTINUOUS
  0
LINE
  8
WHITE
 10
76.496460
 20
100.004732
 30
0.000000
 11
77.268660
 21
100.390872
 31
0.000000
  6
CONTINUOUS
  0
LINE
  8
WHITE
 10
77.268660
 20
100.390872
 30
0.000000
 11
78.298340
 21
100.819852
 31
0.000000
  6
CONTINUOUS
  0
LINE
  8
WHITE
 10
78.298340
 20
100.819852
 30
0.000000
 11
81.859300
 21
101.291812
 31
0.000000
  6
CONTINUOUS
  0
LINE
  8
WHITE
 10
81.859300
 20
101.291812
 30
0.000000
 11
88.852520
 21
101.935352
 31
0.000000
  6
CONTINUOUS
  0
LINE
  8
WHITE
 10
88.852520
 20
101.935352
 30
0.000000
 11
96.317720
 21
102.407332
 31
0.000000
  6
CONTINUOUS
  0
LINE
  8
WHITE
 10
96.317720
 20
102.407332
 30
0.000000
 11
114.551580
 21
103.265352
 31
0.000000
  6
CONTINUOUS
  0
LINE
  8
WHITE
 10
114.551580
 20
103.265352
 30
0.000000
 11
121.458980
 21
103.436932
 31
0.000000
  6
CONTINUOUS
  0
LINE
  8
WHITE
 10
121.458980
 20
103.436932
 30
0.000000
 11
127.765760
 21
103.436932
 31
0.000000
  6
CONTINUOUS
  0
LINE
  8
WHITE
 10
127.765760
 20
103.436932
 30
0.000000
 11
135.659920
 21
103.222452
 31
0.000000
  6
CONTINUOUS
  0
LINE
  8
WHITE
 10
135.659920
 20
103.222452
 30
0.000000
 11
141.108660
 21
102.836312
 31
0.000000
  6
CONTINUOUS
  0
LINE
  8
WHITE
 10
141.108660
 20
102.836312
 30
0.000000
 11
146.986380
 21
102.278592
 31
0.000000
  6
CONTINUOUS
  0
LINE
  8
WHITE
 10
146.986380
 20
102.278592
 30
0.000000
 11
150.375760
 21
101.720872
 31
0.000000
  6
CONTINUOUS
  0
LINE
  8
WHITE
 10
150.375760
 20
101.720872
 30
0.000000
 11
152.048980
 21
101.377632
 31
0.000000
  6
CONTINUOUS
  0
LINE
  8
WHITE
 10
152.048980
 20
101.377632
 30
0.000000
 11
153.207400
 21
101.034412
 31
0.000000
  6
CONTINUOUS
  0
LINE
  8
WHITE
 10
153.207400
 20
101.034412
 30
0.000000
 11
154.065440
 21
100.562452
 31
0.000000
  6
CONTINUOUS
  0
LINE
  8
WHITE
 10
154.065440
 20
100.562452
 30
0.000000
 11
154.794800
 21
100.004732
 31
0.000000
  6
CONTINUOUS
  0
LINE
  8
WHITE
 10
154.794800
 20
100.004732
 30
0.000000
 11
155.266700
 21
99.489852
 31
0.000000
  6
CONTINUOUS
  0
LINE
  8
WHITE
 10
155.266700
 20
99.489852
 30
0.000000
 11
155.695760
 21
98.674732
 31
0.000000
  6
CONTINUOUS
  0
LINE
  8
WHITE
 10
155.695760
 20
98.674732
 30
0.000000
 11
155.867400
 21
97.773792
 31
0.000000
  6
CONTINUOUS
  0
LINE
  8
WHITE
 10
155.867400
 20
97.773792
 30
0.000000
 11
156.081900
 21
96.701192
 31
0.000000
  6
CONTINUOUS
  0
LINE
  8
WHITE
 10
156.081900
 20
96.701192
 30
0.000000
 11
155.609920
 21
69.800872
 31
0.000000
  6
CONTINUOUS
  0
LINE
  8
WHITE
 10
155.609920
 20
69.800872
 30
0.000000
 11
156.339300
 21
69.543472
 31
0.000000
  6
CONTINUOUS
  0
LINE
  8
WHITE
 10
156.339300
 20
69.543472
 30
0.000000
 11
156.854180
 21
68.985672
 31
0.000000
  6
CONTINUOUS
  0
LINE
  8
WHITE
 10
156.854180
 20
68.985672
 30
0.000000
 11
157.068660
 21
68.213472
 31
0.000000
  6
CONTINUOUS
  0
LINE
  8
WHITE
 10
157.068660
 20
68.213472
 30
0.000000
 11
156.811260
 21
67.612752
 31
0.000000
  6
CONTINUOUS
  0
LINE
  8
WHITE
 10
156.811260
 20
67.612752
 30
0.000000
 11
156.210640
 21
67.355352
 31
0.000000
  6
CONTINUOUS
  0
LINE
  8
WHITE
 10
156.210640
 20
67.355352
 30
0.000000
 11
92.799680
 21
67.355352
 31
0.000000
  6
CONTINUOUS
  0
LINE
  8
WHITE
 10
71.433860
 20
31.917332
 30
0.000000
 11
71.433860
 21
62.678892
 31
0.000000
  6
CONTINUOUS
  0
LINE
  8
WHITE
 10
71.433860
 20
62.678892
 30
0.000000
 11
71.133540
 21
64.609612
 31
0.000000
  6
CONTINUOUS
  0
LINE
  8
WHITE
 10
71.133540
 20
64.609612
 30
0.000000
 11
70.661580
 21
65.682132
 31
0.000000
  6
CONTINUOUS
  0
LINE
  8
WHITE
 10
70.661580
 20
65.682132
 30
0.000000
 11
69.846460
 21
66.969212
 31
0.000000
  6
CONTINUOUS
  0
LINE
  8
WHITE
 10
69.846460
 20
66.969212
 30
0.000000
 11
69.031260
 21
67.913152
 31
0.000000
  6
CONTINUOUS
  0
LINE
  8
WHITE
 10
69.031260
 20
67.913152
 30
0.000000
 11
67.443860
 21
69.200232
 31
0.000000
  6
CONTINUOUS
  0
LINE
  8
WHITE
 10
70.665541
 20
31.917332
 30
0.000000
 11
153.464800
 21
31.917332
 31
0.000000
  6
CONTINUOUS
  0
LINE
  8
WHITE
 10
153.464800
 20
31.917332
 30
0.000000
 11
154.494500
 21
34.663152
 31
0.000000
  6
CONTINUOUS
  0
LINE
  8
WHITE
 10
154.494500
 20
34.663152
 30
0.000000
 11
155.695760
 21
37.494732
 31
0.000000
  6
CONTINUOUS
  0
LINE
  8
WHITE
 10
155.695760
 20
37.494732
 30
0.000000
 11
157.025760
 21
39.940232
 31
0.000000
  6
CONTINUOUS
  0
LINE
  8
WHITE
 10
157.025760
 20
39.940232
 30
0.000000
 11
158.570320
 21
42.214092
 31
0.000000
  6
CONTINUOUS
  0
LINE
  8
WHITE
 10
158.570320
 20
42.214092
 30
0.000000
 11
160.071900
 21
44.144732
 31
0.000000
  6
CONTINUOUS
  0
LINE
  8
WHITE
 10
160.071900
 20
44.144732
 30
0.000000
 11
162.045440
 21
46.118272
 31
0.000000
  6
CONTINUOUS
  0
LINE
  8
WHITE
 10
162.045440
 20
46.118272
 30
0.000000
 11
164.104800
 21
47.877332
 31
0.000000
  6
CONTINUOUS
  0
LINE
  8
WHITE
 10
164.104800
 20
47.877332
 30
0.000000
 11
166.121260
 21
49.250232
 31
0.000000
  6
CONTINUOUS
  0
LINE
  8
WHITE
 10
166.121260
 20
49.250232
 30
0.000000
 11
168.008980
 21
50.365672
 31
0.000000
  6
CONTINUOUS
  0
LINE
  8
WHITE
 10
168.008980
 20
50.365672
 30
0.000000
 11
170.025440
 21
51.223792
 31
0.000000
  6
CONTINUOUS
  0
LINE
  8
WHITE
 10
170.025440
 20
51.223792
 30
0.000000
 11
172.084800
 21
51.910232
 31
0.000000
  6
CONTINUOUS
  0
LINE
  8
WHITE
 10
172.084800
 20
51.910232
 30
0.000000
 11
174.315760
 21
52.510872
 31
0.000000
  6
CONTINUOUS
  0
LINE
  8
WHITE
 10
174.315760
 20
52.510872
 30
0.000000
 11
176.761260
 21
52.897012
 31
0.000000
  6
CONTINUOUS
  0
LINE
  8
WHITE
 10
176.761260
 20
52.897012
 30
0.000000
 11
179.592840
 21
53.197332
 31
0.000000
  6
CONTINUOUS
  0
LINE
  8
WHITE
 10
179.592840
 20
53.197332
 30
0.000000
 11
182.681900
 21
53.111492
 31
0.000000
  6
CONTINUOUS
  0
LINE
  8
WHITE
 10
182.681900
 20
53.111492
 30
0.000000
 11
185.470640
 21
52.682452
 31
0.000000
  6
CONTINUOUS
  0
LINE
  8
WHITE
 10
185.470640
 20
52.682452
 30
0.000000
 11
187.787400
 21
51.910232
 31
0.000000
  6
CONTINUOUS
  0
LINE
  8
WHITE
 10
187.787400
 20
51.910232
 30
0.000000
 11
189.675120
 21
51.095052
 31
0.000000
  6
CONTINUOUS
  0
LINE
  8
WHITE
 10
189.675120
 20
51.095052
 30
0.000000
 11
191.648660
 21
49.765052
 31
0.000000
  6
CONTINUOUS
  0
LINE
  8
WHITE
 10
191.648660
 20
49.765052
 30
0.000000
 11
193.450560
 21
48.306372
 31
0.000000
  6
CONTINUOUS
  0
LINE
  8
WHITE
 10
193.450560
 20
48.306372
 30
0.000000
 11
194.781447
 21
47.027766
 31
0.000000
  6
CONTINUOUS
  0
LINE
  8
WHITE
 10
194.781447
 20
47.027766
 30
0.000000
 11
195.724500
 21
46.161192
 31
0.000000
  6
CONTINUOUS
  0
LINE
  8
WHITE
 10
195.724500
 20
46.161192
 30
0.000000
 11
197.183160
 21
44.573792
 31
0.000000
  6
CONTINUOUS
  0
LINE
  8
WHITE
 10
197.183160
 20
44.573792
 30
0.000000
 11
198.470240
 21
43.200872
 31
0.000000
  6
CONTINUOUS
  0
LINE
  8
WHITE
 10
198.470240
 20
43.200872
 30
0.000000
 11
199.628660
 21
41.527632
 31
0.000000
  6
CONTINUOUS
  0
LINE
  8
WHITE
 10
199.628660
 20
41.527632
 30
0.000000
 11
200.787020
 21
39.597012
 31
0.000000
  6
CONTINUOUS
  0
LINE
  8
WHITE
 10
200.787020
 20
39.597012
 30
0.000000
 11
201.730940
 21
37.837952
 31
0.000000
  6
CONTINUOUS
  0
LINE
  8
WHITE
 10
201.730940
 20
37.837952
 30
0.000000
 11
202.588980
 21
35.778592
 31
0.000000
  6
CONTINUOUS
  0
LINE
  8
WHITE
 10
202.588980
 20
35.778592
 30
0.000000
 11
203.361260
 21
33.290232
 31
0.000000
  6
CONTINUOUS
  0
LINE
  8
WHITE
 10
203.361260
 20
33.290232
 30
0.000000
 11
205.506380
 21
33.118592
 31
0.000000
  6
CONTINUOUS
  0
LINE
  8
WHITE
 10
205.506380
 20
33.118592
 30
0.000000
 11
207.737320
 21
32.818272
 31
0.000000
  6
CONTINUOUS
  0
LINE
  8
WHITE
 10
207.737320
 20
32.818272
 30
0.000000
 11
210.054100
 21
32.346372
 31
0.000000
  6
CONTINUOUS
  0
LINE
  8
WHITE
 10
210.054100
 20
32.346372
 30
0.000000
 11
212.156380
 21
31.659932
 31
0.000000
  6
CONTINUOUS
  0
LINE
  8
WHITE
 10
212.156380
 20
31.659932
 30
0.000000
 11
213.658040
 21
31.126000
 31
0.000000
  6
CONTINUOUS
  0
LINE
  8
WHITE
 10
152.429805
 20
28.226524
 30
0.000000
 11
73.446881
 21
28.185001
 31
0.000000
  6
CONTINUOUS
  0
LINE
  8
WHITE
 10
77.966771
 20
23.423105
 30
0.000000
 11
151.705760
 21
23.465432
 31
0.000000
  6
CONTINUOUS
  0
LINE
  8
WHITE
 10
151.705760
 20
23.465432
 30
0.000000
 11
156.510940
 21
19.818672
 31
0.000000
  6
CONTINUOUS
  0
LINE
  8
WHITE
 10
156.510940
 20
19.818672
 30
0.000000
 11
88.552173
 21
19.857833
 31
0.000000
  6
CONTINUOUS
  0
LINE
  8
WHITE
 10
138.148340
 20
67.012132
 30
0.000000
 11
138.148340
 21
35.220872
 31
0.000000
  6
CONTINUOUS
  0
LINE
  8
WHITE
 10
138.148340
 20
35.220872
 30
0.000000
 11
92.327720
 21
35.220872
 31
0.000000
  6
CONTINUOUS
  0
LINE
  8
WHITE
 10
92.327720
 20
35.220872
 30
0.000000
 11
92.327720
 21
39.597012
 31
0.000000
  6
CONTINUOUS
  0
LINE
  8
WHITE
 10
92.327720
 20
62.678892
 30
0.000000
 11
92.327720
 21
44.402132
 31
0.000000
  6
CONTINUOUS
  0
LINE
  8
WHITE
 10
92.756780
 20
68.771192
 30
0.000000
 11
92.756780
 21
67.484092
 31
0.000000
  6
CONTINUOUS
  0
LINE
  8
WHITE
 10
92.756780
 20
69.629212
 30
0.000000
 11
92.756780
 21
71.817332
 31
0.000000
  6
CONTINUOUS
  0
LINE
  8
WHITE
 10
92.756780
 20
71.817332
 30
0.000000
 11
132.957080
 21
71.817332
 31
0.000000
  6
CONTINUOUS
  0
LINE
  8
WHITE
 10
132.957080
 20
71.817332
 30
0.000000
 11
132.957080
 21
94.084092
 31
0.000000
  6
CONTINUOUS
  0
LINE
  8
WHITE
 10
132.957080
 20
94.084092
 30
0.000000
 11
132.742520
 21
94.727632
 31
0.000000
  6
CONTINUOUS
  0
LINE
  8
WHITE
 10
132.742520
 20
94.727632
 30
0.000000
 11
132.313540
 21
95.199532
 31
0.000000
  6
CONTINUOUS
  0
LINE
  8
WHITE
 10
132.313540
 20
95.199532
 30
0.000000
 11
131.927400
 21
95.542752
 31
0.000000
  6
CONTINUOUS
  0
LINE
  8
WHITE
 10
131.927400
 20
95.542752
 30
0.000000
 11
131.283860
 21
95.757332
 31
0.000000
  6
CONTINUOUS
  0
LINE
  8
WHITE
 10
131.283860
 20
95.757332
 30
0.000000
 11
94.944800
 21
95.757332
 31
0.000000
  6
CONTINUOUS
  0
LINE
  8
WHITE
 10
94.944800
 20
95.757332
 30
0.000000
 11
94.944800
 21
71.817332
 31
0.000000
  6
CONTINUOUS
  0
LINE
  8
WHITE
 10
137.976780
 20
69.715052
 30
0.000000
 11
137.976780
 21
97.516312
 31
0.000000
  6
CONTINUOUS
  0
LINE
  8
WHITE
 10
137.976780
 20
97.516312
 30
0.000000
 11
92.971260
 21
97.516312
 31
0.000000
  6
CONTINUOUS
  0
LINE
  8
WHITE
 10
94.944800
 20
92.797012
 30
0.000000
 11
109.317400
 21
92.797012
 31
0.000000
  6
CONTINUOUS
  0
LINE
  8
WHITE
 10
109.317400
 20
92.797012
 30
0.000000
 11
109.317400
 21
72.632452
 31
0.000000
  6
CONTINUOUS
  0
LINE
  8
WHITE
 10
94.944800
 20
82.151402
 30
0.000000
 11
96.660940
 21
81.255992
 31
0.000000
  6
CONTINUOUS
  0
LINE
  8
WHITE
 10
96.660940
 20
81.255992
 30
0.000000
 11
98.291260
 21
80.183472
 31
0.000000
  6
CONTINUOUS
  0
LINE
  8
WHITE
 10
98.291260
 20
80.183472
 30
0.000000
 11
99.406780
 21
79.411192
 31
0.000000
  6
CONTINUOUS
  0
LINE
  8
WHITE
 10
99.406780
 20
79.411192
 30
0.000000
 11
100.436460
 21
78.595992
 31
0.000000
  6
CONTINUOUS
  0
LINE
  8
WHITE
 10
100.436460
 20
78.595992
 30
0.000000
 11
101.380320
 21
77.823792
 31
0.000000
  6
CONTINUOUS
  0
LINE
  8
WHITE
 10
101.380320
 20
77.823792
 30
0.000000
 11
102.367080
 21
76.965672
 31
0.000000
  6
CONTINUOUS
  0
LINE
  8
WHITE
 10
102.367080
 20
76.965672
 30
0.000000
 11
103.182200
 21
75.807332
 31
0.000000
  6
CONTINUOUS
  0
LINE
  8
WHITE
 10
103.182200
 20
75.807332
 30
0.000000
 11
103.868660
 21
74.906312
 31
0.000000
  6
CONTINUOUS
  0
LINE
  8
WHITE
 10
103.868660
 20
74.906312
 30
0.000000
 11
104.683860
 21
73.619212
 31
0.000000
  6
CONTINUOUS
  0
LINE
  8
WHITE
 10
104.683860
 20
73.619212
 30
0.000000
 11
105.327400
 21
72.632452
 31
0.000000
  6
CONTINUOUS
  0
LINE
  8
WHITE
 10
94.944800
 20
72.632452
 30
0.000000
 11
132.957080
 21
72.632452
 31
0.000000
  6
CONTINUOUS
  0
LINE
  8
WHITE
 10
94.944800
 20
75.012693
 30
0.000000
 11
95.631260
 21
74.177012
 31
0.000000
  6
CONTINUOUS
  0
LINE
  8
WHITE
 10
95.631260
 20
74.177012
 30
0.000000
 11
96.146060
 21
73.619212
 31
0.000000
  6
CONTINUOUS
  0
LINE
  8
WHITE
 10
96.146060
 20
73.619212
 30
0.000000
 11
95.495221
 21
72.632452
 31
0.000000
  6
CONTINUOUS
  0
LINE
  8
WHITE
 10
95.004923
 20
80.407993
 30
0.000000
 11
96.403540
 21
79.797332
 31
0.000000
  6
CONTINUOUS
  0
LINE
  8
WHITE
 10
96.403540
 20
79.797332
 30
0.000000
 11
97.776460
 21
78.982132
 31
0.000000
  6
CONTINUOUS
  0
LINE
  8
WHITE
 10
97.776460
 20
78.982132
 30
0.000000
 11
99.235120
 21
77.995352
 31
0.000000
  6
CONTINUOUS
  0
LINE
  8
WHITE
 10
99.235120
 20
77.995352
 30
0.000000
 11
100.221900
 21
77.051492
 31
0.000000
  6
CONTINUOUS
  0
LINE
  8
WHITE
 10
100.221900
 20
77.051492
 30
0.000000
 11
98.462840
 21
74.520232
 31
0.000000
  6
CONTINUOUS
  0
LINE
  8
WHITE
 10
98.462840
 20
74.520232
 30
0.000000
 11
97.690640
 21
75.077952
 31
0.000000
  6
CONTINUOUS
  0
LINE
  8
WHITE
 10
97.690640
 20
75.077952
 30
0.000000
 11
94.944800
 21
80.527313
 31
0.000000
  6
CONTINUOUS
  0
LINE
  8
WHITE
 10
94.944800
 20
77.998519
 30
0.000000
 11
96.317720
 21
75.292452
 31
0.000000
  6
CONTINUOUS
  0
LINE
  8
WHITE
 10
96.317720
 20
75.292452
 30
0.000000
 11
95.674180
 21
75.678592
 31
0.000000
  6
CONTINUOUS
  0
LINE
  8
WHITE
 10
95.674180
 20
75.678592
 30
0.000000
 11
94.944800
 21
76.523087
 31
0.000000
  6
CONTINUOUS
  0
LINE
  8
WHITE
 10
103.636347
 20
72.632452
 30
0.000000
 11
103.482520
 21
72.932752
 31
0.000000
  6
CONTINUOUS
  0
LINE
  8
WHITE
 10
103.482520
 20
72.932752
 30
0.000000
 11
102.495760
 21
74.262752
 31
0.000000
  6
CONTINUOUS
  0
LINE
  8
WHITE
 10
102.495760
 20
74.262752
 30
0.000000
 11
101.380320
 21
75.721492
 31
0.000000
  6
CONTINUOUS
  0
LINE
  8
WHITE
 10
101.380320
 20
75.721492
 30
0.000000
 11
99.492520
 21
73.747952
 31
0.000000
  6
CONTINUOUS
  0
LINE
  8
WHITE
 10
99.492520
 20
73.747952
 30
0.000000
 11
100.007400
 21
73.061492
 31
0.000000
  6
CONTINUOUS
  0
LINE
  8
WHITE
 10
100.007400
 20
73.061492
 30
0.000000
 11
100.355987
 21
72.632452
 31
0.000000
  6
CONTINUOUS
  0
LINE
  8
WHITE
 10
151.705760
 20
23.465432
 30
0.000000
 11
152.006060
 21
26.168272
 31
0.000000
  6
CONTINUOUS
  0
LINE
  8
WHITE
 10
152.006060
 20
26.168272
 30
0.000000
 11
152.606700
 21
29.085752
 31
0.000000
  6
CONTINUOUS
  0
LINE
  8
WHITE
 10
152.606700
 20
29.085752
 30
0.000000
 11
153.464800
 21
31.917332
 31
0.000000
  6
CONTINUOUS
  0
LINE
  8
WHITE
 10
182.982200
 20
53.065292
 30
0.000000
 11
181.351900
 21
54.570232
 31
0.000000
  6
CONTINUOUS
  0
LINE
  8
WHITE
 10
181.351900
 20
54.570232
 30
0.000000
 11
179.850240
 21
55.599932
 31
0.000000
  6
CONTINUOUS
  0
LINE
  8
WHITE
 10
179.850240
 20
55.599932
 30
0.000000
 11
178.606060
 21
56.372132
 31
0.000000
  6
CONTINUOUS
  0
LINE
  8
WHITE
 10
178.606060
 20
56.372132
 30
0.000000
 11
176.889920
 21
57.273152
 31
0.000000
  6
CONTINUOUS
  0
LINE
  8
WHITE
 10
176.889920
 20
57.273152
 30
0.000000
 11
174.830640
 21
58.217012
 31
0.000000
  6
CONTINUOUS
  0
LINE
  8
WHITE
 10
174.830640
 20
58.217012
 30
0.000000
 11
171.527020
 21
59.289612
 31
0.000000
  6
CONTINUOUS
  0
LINE
  8
WHITE
 10
171.527020
 20
59.289612
 30
0.000000
 11
166.292840
 21
60.834092
 31
0.000000
  6
CONTINUOUS
  0
LINE
  8
WHITE
 10
166.292840
 20
60.834092
 30
0.000000
 11
161.487720
 21
62.378592
 31
0.000000
  6
CONTINUOUS
  0
LINE
  8
WHITE
 10
161.487720
 20
62.378592
 30
0.000000
 11
159.428340
 21
63.193792
 31
0.000000
  6
CONTINUOUS
  0
LINE
  8
WHITE
 10
159.428340
 20
63.193792
 30
0.000000
 11
157.969600
 21
63.794412
 31
0.000000
  6
CONTINUOUS
  0
LINE
  8
WHITE
 10
157.969600
 20
63.794412
 30
0.000000
 11
156.639600
 21
64.695352
 31
0.000000
  6
CONTINUOUS
  0
LINE
  8
WHITE
 10
156.639600
 20
64.695352
 30
0.000000
 11
155.567080
 21
65.682132
 31
0.000000
  6
CONTINUOUS
  0
LINE
  8
WHITE
 10
155.567080
 20
65.682132
 30
0.000000
 11
154.414402
 21
67.355352
 31
0.000000
  6
CONTINUOUS
  0
LINE
  8
WHITE
 10
154.645600
 20
19.741892
 30
0.000000
 11
154.999580
 21
18.039472
 31
0.000000
  6
CONTINUOUS
  0
LINE
  8
WHITE
 10
154.999580
 20
18.039472
 30
0.000000
 11
155.539920
 21
16.263872
 31
0.000000
  6
CONTINUOUS
  0
LINE
  8
WHITE
 10
155.539920
 20
16.263872
 30
0.000000
 11
156.178580
 21
14.624332
 31
0.000000
  6
CONTINUOUS
  0
LINE
  8
WHITE
 10
156.178580
 20
14.624332
 30
0.000000
 11
156.891800
 21
13.347652
 31
0.000000
  6
CONTINUOUS
  0
LINE
  8
WHITE
 10
156.891800
 20
13.347652
 30
0.000000
 11
157.709920
 21
12.035652
 31
0.000000
  6
CONTINUOUS
  0
LINE
  8
WHITE
 10
157.709920
 20
12.035652
 30
0.000000
 11
158.597860
 21
10.736192
 31
0.000000
  6
CONTINUOUS
  0
LINE
  8
WHITE
 10
158.597860
 20
10.736192
 30
0.000000
 11
159.520520
 21
9.497112
 31
0.000000
  6
CONTINUOUS
  0
LINE
  8
WHITE
 10
159.520520
 20
9.497112
 30
0.000000
 11
160.442860
 21
8.366292
 31
0.000000
  6
CONTINUOUS
  0
LINE
  8
WHITE
 10
160.442860
 20
8.366292
 30
0.000000
 11
161.329760
 21
7.391592
 31
0.000000
  6
CONTINUOUS
  0
LINE
  8
WHITE
 10
161.329760
 20
7.391592
 30
0.000000
 11
162.146140
 21
6.620872
 31
0.000000
  6
CONTINUOUS
  0
LINE
  8
WHITE
 10
187.136942
 20
52.127042
 30
0.000000
 11
184.998660
 21
54.184092
 31
0.000000
  6
CONTINUOUS
  0
LINE
  8
WHITE
 10
184.998660
 20
54.184092
 30
0.000000
 11
183.411260
 21
55.599932
 31
0.000000
  6
CONTINUOUS
  0
LINE
  8
WHITE
 10
183.411260
 20
55.599932
 30
0.000000
 11
181.995440
 21
56.672452
 31
0.000000
  6
CONTINUOUS
  0
LINE
  8
WHITE
 10
181.995440
 20
56.672452
 30
0.000000
 11
180.665440
 21
57.573472
 31
0.000000
  6
CONTINUOUS
  0
LINE
  8
WHITE
 10
180.665440
 20
57.573472
 30
0.000000
 11
179.421260
 21
58.302832
 31
0.000000
  6
CONTINUOUS
  0
LINE
  8
WHITE
 10
179.421260
 20
58.302832
 30
0.000000
 11
178.305760
 21
58.817632
 31
0.000000
  6
CONTINUOUS
  0
LINE
  8
WHITE
 10
178.305760
 20
58.817632
 30
0.000000
 11
176.675440
 21
59.461192
 31
0.000000
  6
CONTINUOUS
  0
LINE
  8
WHITE
 10
176.675440
 20
59.461192
 30
0.000000
 11
175.002200
 21
60.104732
 31
0.000000
  6
CONTINUOUS
  0
LINE
  8
WHITE
 10
175.002200
 20
60.104732
 30
0.000000
 11
172.985760
 21
60.834092
 31
0.000000
  6
CONTINUOUS
  0
LINE
  8
WHITE
 10
172.985760
 20
60.834092
 30
0.000000
 11
165.048660
 21
63.107952
 31
0.000000
  6
CONTINUOUS
  0
LINE
  8
WHITE
 10
165.048660
 20
63.107952
 30
0.000000
 11
162.474500
 21
63.794412
 31
0.000000
  6
CONTINUOUS
  0
LINE
  8
WHITE
 10
162.474500
 20
63.794412
 30
0.000000
 11
160.458040
 21
64.523792
 31
0.000000
  6
CONTINUOUS
  0
LINE
  8
WHITE
 10
160.458040
 20
64.523792
 30
0.000000
 11
158.956380
 21
65.210232
 31
0.000000
  6
CONTINUOUS
  0
LINE
  8
WHITE
 10
158.956380
 20
65.210232
 30
0.000000
 11
157.798040
 21
65.939612
 31
0.000000
  6
CONTINUOUS
  0
LINE
  8
WHITE
 10
157.798040
 20
65.939612
 30
0.000000
 11
156.854180
 21
66.797632
 31
0.000000
  6
CONTINUOUS
  0
LINE
  8
WHITE
 10
156.854180
 20
66.797632
 30
0.000000
 11
156.370315
 21
67.423782
 31
0.000000
  6
CONTINUOUS
  0
LINE
  8
WHITE
 10
201.628740
 20
24.127492
 30
0.000000
 11
200.355860
 21
25.431632
 31
0.000000
  6
CONTINUOUS
  0
LINE
  8
WHITE
 10
200.355860
 20
25.431632
 30
0.000000
 11
199.608420
 21
26.361792
 31
0.000000
  6
CONTINUOUS
  0
LINE
  8
WHITE
 10
199.608420
 20
26.361792
 30
0.000000
 11
199.110280
 21
27.400212
 31
0.000000
  6
CONTINUOUS
  0
LINE
  8
WHITE
 10
199.110280
 20
27.400212
 30
0.000000
 11
198.585360
 21
29.029132
 31
0.000000
  6
CONTINUOUS
  0
LINE
  8
WHITE
 10
198.585360
 20
29.029132
 30
0.000000
 11
198.244000
 21
30.098912
 31
0.000000
  6
CONTINUOUS
  0
LINE
  8
WHITE
 10
198.244000
 20
30.098912
 30
0.000000
 11
197.747880
 21
31.410292
 31
0.000000
  6
CONTINUOUS
  0
LINE
  8
WHITE
 10
197.747880
 20
31.410292
 30
0.000000
 11
197.022520
 21
32.981752
 31
0.000000
  6
CONTINUOUS
  0
LINE
  8
WHITE
 10
197.022520
 20
32.981752
 30
0.000000
 11
195.993460
 21
34.831812
 31
0.000000
  6
CONTINUOUS
  0
LINE
  8
WHITE
 10
195.993460
 20
34.831812
 30
0.000000
 11
195.488460
 21
35.617732
 31
0.000000
  6
CONTINUOUS
  0
LINE
  8
WHITE
 10
195.488460
 20
35.617732
 30
0.000000
 11
194.810240
 21
36.552512
 31
0.000000
  6
CONTINUOUS
  0
LINE
  8
WHITE
 10
194.810240
 20
36.552512
 30
0.000000
 11
193.952660
 21
37.589232
 31
0.000000
  6
CONTINUOUS
  0
LINE
  8
WHITE
 10
193.952660
 20
37.589232
 30
0.000000
 11
192.909540
 21
38.680932
 31
0.000000
  6
CONTINUOUS
  0
LINE
  8
WHITE
 10
192.909540
 20
38.680932
 30
0.000000
 11
191.674700
 21
39.780692
 31
0.000000
  6
CONTINUOUS
  0
LINE
  8
WHITE
 10
191.674700
 20
39.780692
 30
0.000000
 11
190.241980
 21
40.841572
 31
0.000000
  6
CONTINUOUS
  0
LINE
  8
WHITE
 10
190.241980
 20
40.841572
 30
0.000000
 11
188.838000
 21
41.714332
 31
0.000000
  6
CONTINUOUS
  0
LINE
  8
WHITE
 10
188.838000
 20
41.714332
 30
0.000000
 11
187.431980
 21
42.454332
 31
0.000000
  6
CONTINUOUS
  0
LINE
  8
WHITE
 10
187.431980
 20
42.454332
 30
0.000000
 11
186.026000
 21
43.057532
 31
0.000000
  6
CONTINUOUS
  0
LINE
  8
WHITE
 10
186.026000
 20
43.057532
 30
0.000000
 11
184.622100
 21
43.519892
 31
0.000000
  6
CONTINUOUS
  0
LINE
  8
WHITE
 10
184.622100
 20
43.519892
 30
0.000000
 11
183.222360
 21
43.837412
 31
0.000000
  6
CONTINUOUS
  0
LINE
  8
WHITE
 10
183.222360
 20
43.837412
 30
0.000000
 11
181.934180
 21
44.020172
 31
0.000000
  6
CONTINUOUS
  0
LINE
  8
WHITE
 10
181.934180
 20
44.020172
 30
0.000000
 11
180.589860
 21
44.131012
 31
0.000000
  6
CONTINUOUS
  0
LINE
  8
WHITE
 10
180.589860
 20
44.131012
 30
0.000000
 11
179.207780
 21
44.170052
 31
0.000000
  6
CONTINUOUS
  0
LINE
  8
WHITE
 10
179.207780
 20
44.170052
 30
0.000000
 11
177.806280
 21
44.137432
 31
0.000000
  6
CONTINUOUS
  0
LINE
  8
WHITE
 10
177.806280
 20
44.137432
 30
0.000000
 11
176.403700
 21
44.033252
 31
0.000000
  6
CONTINUOUS
  0
LINE
  8
WHITE
 10
176.403700
 20
44.033252
 30
0.000000
 11
175.018420
 21
43.857672
 31
0.000000
  6
CONTINUOUS
  0
LINE
  8
WHITE
 10
175.018420
 20
43.857672
 30
0.000000
 11
173.668760
 21
43.610812
 31
0.000000
  6
CONTINUOUS
  0
LINE
  8
WHITE
 10
173.668760
 20
43.610812
 30
0.000000
 11
172.373100
 21
43.292772
 31
0.000000
  6
CONTINUOUS
  0
LINE
  8
WHITE
 10
172.373100
 20
43.292772
 30
0.000000
 11
171.149760
 21
42.903712
 31
0.000000
  6
CONTINUOUS
  0
LINE
  8
WHITE
 10
171.149760
 20
42.903712
 30
0.000000
 11
169.734100
 21
42.346092
 31
0.000000
  6
CONTINUOUS
  0
LINE
  8
WHITE
 10
169.734100
 20
42.346092
 30
0.000000
 11
168.350680
 21
41.677892
 31
0.000000
  6
CONTINUOUS
  0
LINE
  8
WHITE
 10
168.350680
 20
41.677892
 30
0.000000
 11
167.016120
 21
40.868152
 31
0.000000
  6
CONTINUOUS
  0
LINE
  8
WHITE
 10
167.016120
 20
40.868152
 30
0.000000
 11
165.747020
 21
39.885912
 31
0.000000
  6
CONTINUOUS
  0
LINE
  8
WHITE
 10
165.747020
 20
39.885912
 30
0.000000
 11
164.770040
 21
39.066312
 31
0.000000
  6
CONTINUOUS
  0
LINE
  8
WHITE
 10
164.770040
 20
39.066312
 30
0.000000
 11
163.845240
 21
38.268892
 31
0.000000
  6
CONTINUOUS
  0
LINE
  8
WHITE
 10
163.845240
 20
38.268892
 30
0.000000
 11
162.892840
 21
37.278112
 31
0.000000
  6
CONTINUOUS
  0
LINE
  8
WHITE
 10
162.892840
 20
37.278112
 30
0.000000
 11
161.610720
 21
35.798432
 31
0.000000
  6
CONTINUOUS
  0
LINE
  8
WHITE
 10
161.610720
 20
35.798432
 30
0.000000
 11
160.117880
 21
33.558892
 31
0.000000
  6
CONTINUOUS
  0
LINE
  8
WHITE
 10
160.117880
 20
33.558892
 30
0.000000
 11
158.784800
 21
29.900872
 31
0.000000
  6
CONTINUOUS
  0
LINE
  8
WHITE
 10
158.784800
 20
29.900872
 30
0.000000
 11
157.883860
 21
26.983472
 31
0.000000
  6
CONTINUOUS
  0
LINE
  8
WHITE
 10
157.883860
 20
26.983472
 30
0.000000
 11
157.154500
 21
24.066072
 31
0.000000
  6
CONTINUOUS
  0
LINE
  8
WHITE
 10
157.154500
 20
24.066072
 30
0.000000
 11
156.510940
 21
19.818672
 31
0.000000
  6
CONTINUOUS
  0
LINE
  8
WHITE
 10
200.759929
 20
17.837471
 30
0.000000
 11
207.008040
 21
20.934092
 31
0.000000
  6
CONTINUOUS
  0
LINE
  8
WHITE
 10
207.008040
 20
20.934092
 30
0.000000
 11
207.222520
 21
21.749292
 31
0.000000
  6
CONTINUOUS
  0
LINE
  8
WHITE
 10
207.222520
 20
21.749292
 30
0.000000
 11
206.707720
 21
21.749292
 31
0.000000
  6
CONTINUOUS
  0
LINE
  8
WHITE
 10
206.707720
 20
21.749292
 30
0.000000
 11
205.506380
 21
25.867952
 31
0.000000
  6
CONTINUOUS
  0
LINE
  8
WHITE
 10
205.506380
 20
25.867952
 30
0.000000
 11
207.522840
 21
25.739292
 31
0.000000
  6
CONTINUOUS
  0
LINE
  8
WHITE
 10
207.522840
 20
25.739292
 30
0.000000
 11
209.067320
 21
25.524732
 31
0.000000
  6
CONTINUOUS
  0
LINE
  8
WHITE
 10
209.067320
 20
25.524732
 30
0.000000
 11
210.526060
 21
25.181492
 31
0.000000
  6
CONTINUOUS
  0
LINE
  8
WHITE
 10
210.526060
 20
25.181492
 30
0.000000
 11
212.070560
 21
24.666692
 31
0.000000
  6
CONTINUOUS
  0
LINE
  8
WHITE
 10
212.070560
 20
24.666692
 30
0.000000
 11
213.658040
 21
24.106398
 31
0.000000
  6
CONTINUOUS
  0
LINE
  8
WHITE
 10
213.658040
 20
29.168213
 30
0.000000
 11
212.499600
 21
29.643472
 31
0.000000
  6
CONTINUOUS
  0
LINE
  8
WHITE
 10
212.499600
 20
29.643472
 30
0.000000
 11
210.440240
 21
30.201192
 31
0.000000
  6
CONTINUOUS
  0
LINE
  8
WHITE
 10
210.440240
 20
30.201192
 30
0.000000
 11
208.509600
 21
30.587332
 31
0.000000
  6
CONTINUOUS
  0
LINE
  8
WHITE
 10
208.509600
 20
30.587332
 30
0.000000
 11
206.064100
 21
30.930552
 31
0.000000
  6
CONTINUOUS
  0
LINE
  8
WHITE
 10
206.064100
 20
30.930552
 30
0.000000
 11
204.305120
 21
31.145052
 31
0.000000
  6
CONTINUOUS
  0
LINE
  8
WHITE
 10
204.305120
 20
31.145052
 30
0.000000
 11
204.734100
 21
29.815052
 31
0.000000
  6
CONTINUOUS
  0
LINE
  8
WHITE
 10
204.734100
 20
29.815052
 30
0.000000
 11
206.793460
 21
29.600552
 31
0.000000
  6
CONTINUOUS
  0
LINE
  8
WHITE
 10
206.793460
 20
29.600552
 30
0.000000
 11
209.067320
 21
29.214412
 31
0.000000
  6
CONTINUOUS
  0
LINE
  8
WHITE
 10
209.067320
 20
29.214412
 30
0.000000
 11
211.083780
 21
28.699612
 31
0.000000
  6
CONTINUOUS
  0
LINE
  8
WHITE
 10
211.083780
 20
28.699612
 30
0.000000
 11
212.842840
 21
28.141812
 31
0.000000
  6
CONTINUOUS
  0
LINE
  8
WHITE
 10
212.842840
 20
28.141812
 30
0.000000
 11
213.658040
 21
27.845401
 31
0.000000
  6
CONTINUOUS
  0
ENDSEC
  0
EOF
