  0
SECTION
  2
HEADER
  9
$ACADVER
  1
AC1009
  9
$EXTMIN
 10
0.00000000
 20
0.00000000
 30
0.0
  9
$EXTMAX
 10
11.79851931
 20
9.25810058
 30
0.0
  0
ENDSEC
  0
SECTION
  2
TABLES
  0
TABLE
  2
LAYER
 70
1
 0
LAYER
 2
Default_Layer
 70
0
 62
1
 6
CONTINUOUS
 0
ENDTAB
 0
ENDSEC
  0
SECTION
  2
ENTITIES
  0
POLYLINE
  8
Default_Layer
 66
   1
 39
0.000000
 70
    1
  0
VERTEX
  8
0
 10
0.33915640
 20
8.85538576
  0
VERTEX
  8
0
 10
0.34031830
 20
8.00696579
  0
VERTEX
  8
0
 10
0.34918464
 20
7.97117925
  0
VERTEX
  8
0
 10
0.39632192
 20
7.62818613
  0
VERTEX
  8
0
 10
0.42653134
 20
7.45761909
  0
VERTEX
  8
0
 10
0.48671780
 20
7.46226669
  0
VERTEX
  8
0
 10
0.44163605
 20
7.70905442
  0
VERTEX
  8
0
 10
0.41351805
 20
8.00928959
  0
VERTEX
  8
0
 10
0.38121721
 20
8.22400886
  0
VERTEX
  8
0
 10
0.37889341
 20
8.66436927
  0
VERTEX
  8
0
 10
0.37951600
 20
8.85492100
  0
VERTEX
  8
0
 10
0.33915640
 20
8.85538576
  0
SEQEND
  0
POLYLINE
  8
Default_Layer
 66
   1
 39
0.000000
 70
    1
  0
VERTEX
  8
0
 10
10.52507603
 20
6.69355312
  0
VERTEX
  8
0
 10
10.42462970
 20
6.56647022
  0
VERTEX
  8
0
 10
10.34753758
 20
6.42422451
  0
VERTEX
  8
0
 10
10.32871479
 20
6.35009524
  0
VERTEX
  8
0
 10
10.30521898
 20
6.21760587
  0
VERTEX
  8
0
 10
10.30353059
 20
6.08352614
  0
VERTEX
  8
0
 10
10.34753758
 20
5.81817705
  0
VERTEX
  8
0
 10
10.38866887
 20
5.69850126
  0
VERTEX
  8
0
 10
10.50648562
 20
5.39687181
  0
VERTEX
  8
0
 10
10.58526249
 20
5.29044170
  0
VERTEX
  8
0
 10
10.91097233
 20
4.84912273
  0
VERTEX
  8
0
 10
11.21594225
 20
4.39298952
  0
VERTEX
  8
0
 10
11.38162930
 20
4.10530288
  0
VERTEX
  8
0
 10
11.47853183
 20
3.89694501
  0
VERTEX
  8
0
 10
11.52495703
 20
3.79201448
  0
VERTEX
  8
0
 10
11.55870299
 20
3.68213860
  0
VERTEX
  8
0
 10
11.60514997
 20
3.51488298
  0
VERTEX
  8
0
 10
11.63469130
 20
3.34379309
  0
VERTEX
  8
0
 10
11.61370254
 20
3.20779318
  0
VERTEX
  8
0
 10
11.60464110
 20
3.16975185
  0
VERTEX
  8
0
 10
11.58222555
 20
3.13229113
  0
VERTEX
  8
0
 10
11.55568205
 20
3.11208568
  0
VERTEX
  8
0
 10
11.47946135
 20
3.06609879
  0
VERTEX
  8
0
 10
11.43391484
 20
3.19321074
  0
VERTEX
  8
0
 10
11.28402964
 20
3.50901538
  0
VERTEX
  8
0
 10
11.23174410
 20
3.63845113
  0
VERTEX
  8
0
 10
11.14971390
 20
3.81645433
  0
VERTEX
  8
0
 10
11.10347025
 20
3.91405400
  0
VERTEX
  8
0
 10
11.05469946
 20
4.02870456
  0
VERTEX
  8
0
 10
11.00401154
 20
4.14248370
  0
VERTEX
  8
0
 10
10.91291852
 20
4.34082017
  0
VERTEX
  8
0
 10
10.82809976
 20
4.54124806
  0
VERTEX
  8
0
 10
10.67798217
 20
4.85867936
  0
VERTEX
  8
0
 10
10.58044060
 20
5.08455288
  0
VERTEX
  8
0
 10
10.48603616
 20
5.31182067
  0
VERTEX
  8
0
 10
10.40005550
 20
5.48773246
  0
VERTEX
  8
0
 10
10.29664633
 20
5.72661926
  0
VERTEX
  8
0
 10
10.24308270
 20
5.86666462
  0
VERTEX
  8
0
 10
10.22437610
 20
6.01477066
  0
VERTEX
  8
0
 10
10.23576273
 20
6.31547059
  0
VERTEX
  8
0
 10
10.28598090
 20
6.44773893
  0
VERTEX
  8
0
 10
10.32268004
 20
6.51695571
  0
VERTEX
  8
0
 10
10.37077560
 20
6.58038398
  0
VERTEX
  8
0
 10
10.44788743
 20
6.66510192
  0
VERTEX
  8
0
 10
10.50067763
 20
6.70282860
  0
VERTEX
  8
0
 10
10.52709192
 20
6.70762525
  0
VERTEX
  8
0
 10
10.52507603
 20
6.69355312
  0
SEQEND
  0
POLYLINE
  8
Default_Layer
 66
   1
 39
0.000000
 70
    1
  0
VERTEX
  8
0
 10
5.20612651
 20
7.56846443
  0
VERTEX
  8
0
 10
5.15244669
 20
7.66583171
  0
VERTEX
  8
0
 10
4.90287040
 20
7.66652885
  0
VERTEX
  8
0
 10
4.80062312
 20
7.56567586
  0
VERTEX
  8
0
 10
4.15091724
 20
7.56776728
  0
VERTEX
  8
0
 10
3.50138564
 20
7.57404155
  0
VERTEX
  8
0
 10
2.57860402
 20
7.57264727
  0
VERTEX
  8
0
 10
2.50633379
 20
7.59286434
  0
VERTEX
  8
0
 10
2.37635340
 20
7.66603868
  0
VERTEX
  8
0
 10
2.23787661
 20
7.71988915
  0
VERTEX
  8
0
 10
1.95094520
 20
7.80037983
  0
VERTEX
  8
0
 10
1.86124646
 20
7.81989976
  0
VERTEX
  8
0
 10
1.74203544
 20
7.83686351
  0
VERTEX
  8
0
 10
1.62212727
 20
7.84685586
  0
VERTEX
  8
0
 10
0.46835977
 20
7.84429968
  0
VERTEX
  8
0
 10
0.44231141
 20
7.93649651
  0
VERTEX
  8
0
 10
0.43234085
 20
8.03235332
  0
VERTEX
  8
0
 10
0.42463599
 20
8.12847157
  0
VERTEX
  8
0
 10
0.40538475
 20
8.22145268
  0
VERTEX
  8
0
 10
0.40491999
 20
8.32555899
  0
VERTEX
  8
0
 10
7.84340896
 20
8.32486185
  0
VERTEX
  8
0
 10
7.84480324
 20
7.55777494
  0
VERTEX
  8
0
 10
6.05896170
 20
7.55870446
  0
VERTEX
  8
0
 10
6.00339379
 20
7.55858827
  0
VERTEX
  8
0
 10
5.94904588
 20
7.56614062
  0
VERTEX
  8
0
 10
5.20612651
 20
7.56846443
  0
SEQEND
  0
POLYLINE
  8
Default_Layer
 66
   1
 39
0.000000
 70
    1
  0
VERTEX
  8
0
 10
6.81954197
 20
7.00656919
  0
VERTEX
  8
0
 10
7.05482688
 20
7.01566107
  0
VERTEX
  8
0
 10
7.29080894
 20
7.01656154
  0
VERTEX
  8
0
 10
7.40377474
 20
7.01197203
  0
VERTEX
  8
0
 10
7.51482341
 20
6.98890830
  0
VERTEX
  8
0
 10
7.59982009
 20
6.93968728
  0
VERTEX
  8
0
 10
7.66653861
 20
6.86981347
  0
VERTEX
  8
0
 10
7.76788541
 20
6.70191880
  0
VERTEX
  8
0
 10
7.82179761
 20
6.49858616
  0
VERTEX
  8
0
 10
7.78949676
 20
6.35451046
  0
VERTEX
  8
0
 10
7.74867774
 20
6.28164113
  0
VERTEX
  8
0
 10
7.69387233
 20
6.22033996
  0
VERTEX
  8
0
 10
7.56966513
 20
6.11004653
  0
VERTEX
  8
0
 10
7.52365386
 20
6.16140255
  0
VERTEX
  8
0
 10
7.51859596
 20
6.27423764
  0
VERTEX
  8
0
 10
7.49800490
 20
6.38524274
  0
VERTEX
  8
0
 10
7.42791323
 20
6.60036867
  0
VERTEX
  8
0
 10
7.37374687
 20
6.69366568
  0
VERTEX
  8
0
 10
7.30498413
 20
6.77648379
  0
VERTEX
  8
0
 10
7.13604375
 20
6.90989905
  0
VERTEX
  8
0
 10
6.98058142
 20
6.96694838
  0
VERTEX
  8
0
 10
6.81954197
 20
7.00656919
  0
SEQEND
  0
POLYLINE
  8
Default_Layer
 66
   1
 39
0.000000
 70
    1
  0
VERTEX
  8
0
 10
6.00830283
 20
6.97403597
  0
VERTEX
  8
0
 10
6.19641457
 20
6.98481260
  0
VERTEX
  8
0
 10
6.38452631
 20
6.99541495
  0
VERTEX
  8
0
 10
6.59706701
 20
6.99416590
  0
VERTEX
  8
0
 10
6.80838772
 20
6.97217693
  0
VERTEX
  8
0
 10
6.91281207
 20
6.93635420
  0
VERTEX
  8
0
 10
7.16414983
 20
6.80550327
  0
VERTEX
  8
0
 10
7.30276587
 20
6.66705565
  0
VERTEX
  8
0
 10
7.36838025
 20
6.53493821
  0
VERTEX
  8
0
 10
7.37999926
 20
6.46499178
  0
VERTEX
  8
0
 10
7.38325259
 20
6.44942231
  0
VERTEX
  8
0
 10
7.39083036
 20
6.35571864
  0
VERTEX
  8
0
 10
7.37485785
 20
6.26343104
  0
VERTEX
  8
0
 10
7.34106469
 20
6.17502128
  0
VERTEX
  8
0
 10
7.29518050
 20
6.09295114
  0
VERTEX
  8
0
 10
7.25776798
 20
6.04983650
  0
VERTEX
  8
0
 10
7.18985965
 20
6.02009312
  0
VERTEX
  8
0
 10
7.07115540
 20
6.00881369
  0
VERTEX
  8
0
 10
6.88135509
 20
6.02109093
  0
VERTEX
  8
0
 10
6.24207727
 20
6.03646530
  0
VERTEX
  8
0
 10
5.90118430
 20
6.06411854
  0
VERTEX
  8
0
 10
5.76447903
 20
6.18035194
  0
VERTEX
  8
0
 10
5.69294856
 20
6.25023843
  0
VERTEX
  8
0
 10
5.63091744
 20
6.33080768
  0
VERTEX
  8
0
 10
5.58822848
 20
6.43286615
  0
VERTEX
  8
0
 10
5.57697620
 20
6.54233173
  0
VERTEX
  8
0
 10
5.59670309
 20
6.65066445
  0
VERTEX
  8
0
 10
5.64695167
 20
6.74932436
  0
VERTEX
  8
0
 10
5.71645150
 20
6.83302842
  0
VERTEX
  8
0
 10
5.80523161
 20
6.89453291
  0
VERTEX
  8
0
 10
6.00830283
 20
6.97403597
  0
SEQEND
  0
POLYLINE
  8
Default_Layer
 66
   1
 39
0.000000
 70
    1
  0
VERTEX
  8
0
 10
5.29094527
 20
8.87746188
  0
VERTEX
  8
0
 10
5.25306730
 20
8.96228064
  0
VERTEX
  8
0
 10
5.24028639
 20
9.05407080
  0
VERTEX
  8
0
 10
7.05819640
 20
9.05360604
  0
VERTEX
  8
0
 10
7.05113785
 20
8.94973211
  0
VERTEX
  8
0
 10
7.01427655
 20
8.85213244
  0
VERTEX
  8
0
 10
5.38157353
 20
8.85329434
  0
VERTEX
  8
0
 10
5.32874104
 20
8.85570668
  0
VERTEX
  8
0
 10
5.29094527
 20
8.87746188
  0
SEQEND
  0
POLYLINE
  8
Default_Layer
 66
   1
 39
0.000000
 70
    1
  0
VERTEX
  8
0
 10
0.29175085
 20
8.74918803
  0
VERTEX
  8
0
 10
0.24184721
 20
8.56308056
  0
VERTEX
  8
0
 10
0.23972674
 20
8.46681345
  0
VERTEX
  8
0
 10
0.25782334
 20
8.37226740
  0
VERTEX
  8
0
 10
0.26511427
 20
8.26008588
  0
VERTEX
  8
0
 10
0.29523655
 20
8.15173863
  0
VERTEX
  8
0
 10
0.30063939
 20
8.45063761
  0
VERTEX
  8
0
 10
0.29175085
 20
8.74918803
  0
SEQEND
  0
POLYLINE
  8
Default_Layer
 66
   1
 39
0.000000
 70
    1
  0
VERTEX
  8
0
 10
10.58084727
 20
7.80223887
  0
VERTEX
  8
0
 10
10.59296371
 20
7.69160049
  0
VERTEX
  8
0
 10
10.62566759
 20
7.58133248
  0
VERTEX
  8
0
 10
10.68917636
 20
7.49437509
  0
VERTEX
  8
0
 10
10.73567554
 20
7.46680673
  0
VERTEX
  8
0
 10
10.79370750
 20
7.45366863
  0
VERTEX
  8
0
 10
10.86673296
 20
7.52195935
  0
VERTEX
  8
0
 10
10.96171835
 20
7.55173305
  0
VERTEX
  8
0
 10
10.94940220
 20
7.59727957
  0
VERTEX
  8
0
 10
10.85334205
 20
7.60239193
  0
VERTEX
  8
0
 10
10.75954761
 20
7.62284138
  0
VERTEX
  8
0
 10
10.65939176
 20
7.70138588
  0
VERTEX
  8
0
 10
10.58084727
 20
7.80223887
  0
SEQEND
  0
POLYLINE
  8
Default_Layer
 66
   1
 39
0.000000
 70
    1
  0
VERTEX
  8
0
 10
9.84536406
 20
7.70185064
  0
VERTEX
  8
0
 10
9.75287675
 20
7.54940925
  0
VERTEX
  8
0
 10
9.95225893
 20
7.51873507
  0
VERTEX
  8
0
 10
10.14464066
 20
7.44881769
  0
VERTEX
  8
0
 10
10.34103094
 20
7.39162312
  0
VERTEX
  8
0
 10
10.25397552
 20
7.47998205
  0
VERTEX
  8
0
 10
10.15646300
 20
7.55577066
  0
VERTEX
  8
0
 10
9.95411797
 20
7.69882970
  0
VERTEX
  8
0
 10
9.84536406
 20
7.70185064
  0
SEQEND
  0
POLYLINE
  8
Default_Layer
 66
   1
 39
0.000000
 70
    0
  0
VERTEX
  8
0
 10
7.55781374
 20
7.46226669
  0
VERTEX
  8
0
 10
7.79623579
 20
7.47435046
  0
VERTEX
  8
0
 10
7.81900905
 20
7.54197309
  0
VERTEX
  8
0
 10
7.55781374
 20
7.54383213
  0
SEQEND
  0
POLYLINE
  8
Default_Layer
 66
   1
 39
0.000000
 70
    1
  0
VERTEX
  8
0
 10
7.58546698
 20
7.45174792
  0
VERTEX
  8
0
 10
7.54851854
 20
7.39929167
  0
VERTEX
  8
0
 10
7.50583841
 20
7.40483831
  0
VERTEX
  8
0
 10
7.45247098
 20
7.43251053
  0
VERTEX
  8
0
 10
7.05610497
 20
7.43856391
  0
VERTEX
  8
0
 10
7.16686426
 20
7.21036660
  0
VERTEX
  8
0
 10
7.20320162
 20
7.11718215
  0
VERTEX
  8
0
 10
7.40606950
 20
7.11576210
  0
VERTEX
  8
0
 10
7.80181291
 20
7.11878304
  0
VERTEX
  8
0
 10
7.80343957
 20
7.46127551
  0
VERTEX
  8
0
 10
7.58546698
 20
7.45174792
  0
SEQEND
  0
POLYLINE
  8
Default_Layer
 66
   1
 39
0.000000
 70
    1
  0
VERTEX
  8
0
 10
10.85575300
 20
7.22337989
  0
VERTEX
  8
0
 10
10.95707075
 20
7.12299166
  0
VERTEX
  8
0
 10
10.94763030
 20
7.03279910
  0
VERTEX
  8
0
 10
10.91710136
 20
6.94731225
  0
VERTEX
  8
0
 10
11.21640701
 20
7.06768518
  0
VERTEX
  8
0
 10
11.14943432
 20
7.14501694
  0
VERTEX
  8
0
 10
11.05864993
 20
7.18753525
  0
VERTEX
  8
0
 10
10.85575300
 20
7.22337989
  0
SEQEND
  0
POLYLINE
  8
Default_Layer
 66
   1
 39
0.000000
 70
    1
  0
VERTEX
  8
0
 10
6.81954197
 20
7.00656919
  0
VERTEX
  8
0
 10
6.98058142
 20
6.96694838
  0
VERTEX
  8
0
 10
7.13604375
 20
6.90989905
  0
VERTEX
  8
0
 10
7.30498413
 20
6.77648379
  0
VERTEX
  8
0
 10
7.37374687
 20
6.69366568
  0
VERTEX
  8
0
 10
7.42791323
 20
6.60036867
  0
VERTEX
  8
0
 10
7.49800490
 20
6.38524274
  0
VERTEX
  8
0
 10
7.51859596
 20
6.27423764
  0
VERTEX
  8
0
 10
7.52365386
 20
6.16140255
  0
VERTEX
  8
0
 10
7.56966513
 20
6.11004653
  0
VERTEX
  8
0
 10
7.69387233
 20
6.22033996
  0
VERTEX
  8
0
 10
7.74867774
 20
6.28164113
  0
VERTEX
  8
0
 10
7.78949676
 20
6.35451046
  0
VERTEX
  8
0
 10
7.82179761
 20
6.49858616
  0
VERTEX
  8
0
 10
7.76788541
 20
6.70191880
  0
VERTEX
  8
0
 10
7.66653861
 20
6.86981347
  0
VERTEX
  8
0
 10
7.59982009
 20
6.93968728
  0
VERTEX
  8
0
 10
7.51482341
 20
6.98890830
  0
VERTEX
  8
0
 10
7.40377474
 20
7.01197203
  0
VERTEX
  8
0
 10
7.29080894
 20
7.01656154
  0
VERTEX
  8
0
 10
7.05482688
 20
7.01566107
  0
VERTEX
  8
0
 10
6.81954197
 20
7.00656919
  0
SEQEND
  0
POLYLINE
  8
Default_Layer
 66
   1
 39
0.000000
 70
    1
  0
VERTEX
  8
0
 10
10.75768857
 20
5.26139418
  0
VERTEX
  8
0
 10
10.64428705
 20
5.25093707
  0
VERTEX
  8
0
 10
10.89984713
 20
4.89705113
  0
VERTEX
  8
0
 10
11.14599582
 20
4.53636808
  0
VERTEX
  8
0
 10
11.23380647
 20
4.40048378
  0
VERTEX
  8
0
 10
11.30959145
 20
4.25727950
  0
VERTEX
  8
0
 10
11.39557211
 20
4.12598471
  0
VERTEX
  8
0
 10
11.42229583
 20
4.04976402
  0
VERTEX
  8
0
 10
11.55521729
 20
3.77648495
  0
VERTEX
  8
0
 10
11.60927472
 20
3.59049367
  0
VERTEX
  8
0
 10
11.64538079
 20
3.40049384
  0
VERTEX
  8
0
 10
11.65402969
 20
3.34268565
  0
VERTEX
  8
0
 10
11.64782078
 20
3.28485567
  0
VERTEX
  8
0
 10
11.63422654
 20
3.16834606
  0
VERTEX
  8
0
 10
11.71509484
 20
3.27547332
  0
VERTEX
  8
0
 10
11.75250804
 20
3.48252404
  0
VERTEX
  8
0
 10
11.75189804
 20
3.63426829
  0
VERTEX
  8
0
 10
11.73298811
 20
3.78531539
  0
VERTEX
  8
0
 10
11.65084172
 20
4.01772460
  0
VERTEX
  8
0
 10
11.54429542
 20
4.24054813
  0
VERTEX
  8
0
 10
11.43972434
 20
4.42436084
  0
VERTEX
  8
0
 10
11.31906095
 20
4.64991483
  0
VERTEX
  8
0
 10
11.18828901
 20
4.87006599
  0
VERTEX
  8
0
 10
11.06257134
 20
5.07688433
  0
VERTEX
  8
0
 10
10.85249968
 20
5.37316904
  0
VERTEX
  8
0
 10
10.75768857
 20
5.26139418
  0
SEQEND
  0
POLYLINE
  8
Default_Layer
 66
   1
 39
0.000000
 70
    1
  0
VERTEX
  8
0
 10
8.83125703
 20
3.01265135
  0
VERTEX
  8
0
 10
8.83102465
 20
2.90900980
  0
VERTEX
  8
0
 10
8.89590955
 20
2.85032292
  0
VERTEX
  8
0
 10
8.97469368
 20
2.81440203
  0
VERTEX
  8
0
 10
9.06036208
 20
2.80440605
  0
VERTEX
  8
0
 10
9.14589977
 20
2.82349390
  0
VERTEX
  8
0
 10
9.07506376
 20
2.87828479
  0
VERTEX
  8
0
 10
9.01701592
 20
2.94653920
  0
VERTEX
  8
0
 10
8.93745476
 20
3.10723008
  0
VERTEX
  8
0
 10
8.83125703
 20
3.01265135
  0
SEQEND
  0
POLYLINE
  8
Default_Layer
 66
   1
 39
0.000000
 70
    1
  0
VERTEX
  8
0
 10
2.64111428
 20
7.49933569
  0
VERTEX
  8
0
 10
2.65412757
 20
7.52977749
  0
VERTEX
  8
0
 10
2.66063422
 20
7.50351854
  0
VERTEX
  8
0
 10
2.68079319
 20
7.39586843
  0
VERTEX
  8
0
 10
2.68102557
 20
7.34352479
  0
VERTEX
  8
0
 10
2.66016946
 20
7.30460112
  0
VERTEX
  8
0
 10
2.63970911
 20
7.34711942
  0
VERTEX
  8
0
 10
2.63696049
 20
7.39708842
  0
VERTEX
  8
0
 10
2.64111428
 20
7.49933569
  0
SEQEND
  0
POLYLINE
  8
Default_Layer
 66
   1
 39
0.000000
 70
    1
  0
VERTEX
  8
0
 10
9.33625363
 20
9.06186267
  0
VERTEX
  8
0
 10
9.45511351
 20
9.06112955
  0
VERTEX
  8
0
 10
9.50957472
 20
9.23626973
  0
VERTEX
  8
0
 10
9.55442409
 20
9.23749191
  0
VERTEX
  8
0
 10
9.58234441
 20
9.05555446
  0
VERTEX
  8
0
 10
9.70044489
 20
9.05290890
  0
VERTEX
  8
0
 10
9.70866424
 20
8.77753841
  0
VERTEX
  8
0
 10
9.33877530
 20
8.77684127
  0
VERTEX
  8
0
 10
9.33625363
 20
9.06186267
  0
SEQEND
  0
POLYLINE
  8
Default_Layer
 66
   1
 39
0.000000
 70
    0
  0
VERTEX
  8
0
 10
5.29094527
 20
8.87746188
  0
VERTEX
  8
0
 10
5.25306730
 20
8.96228064
  0
VERTEX
  8
0
 10
5.24028639
 20
9.05407080
  0
VERTEX
  8
0
 10
7.05819640
 20
9.05360604
  0
VERTEX
  8
0
 10
7.05113785
 20
8.94973211
  0
VERTEX
  8
0
 10
7.01427655
 20
8.85213244
  0
VERTEX
  8
0
 10
5.38157353
 20
8.85329434
  0
SEQEND
  0
POLYLINE
  8
Default_Layer
 66
   1
 39
0.000000
 70
    1
  0
VERTEX
  8
0
 10
0.29175085
 20
8.74918803
  0
VERTEX
  8
0
 10
0.30063939
 20
8.45063761
  0
VERTEX
  8
0
 10
0.29523655
 20
8.15173863
  0
VERTEX
  8
0
 10
0.26511427
 20
8.26008588
  0
VERTEX
  8
0
 10
0.25782334
 20
8.37226740
  0
VERTEX
  8
0
 10
0.23972674
 20
8.46681345
  0
VERTEX
  8
0
 10
0.24184721
 20
8.56308056
  0
VERTEX
  8
0
 10
0.29175085
 20
8.74918803
  0
SEQEND
  0
POLYLINE
  8
Default_Layer
 66
   1
 39
0.000000
 70
    1
  0
VERTEX
  8
0
 10
2.71733498
 20
7.22988653
  0
VERTEX
  8
0
 10
3.23760511
 20
7.22573273
  0
VERTEX
  8
0
 10
3.75770096
 20
7.21966180
  0
VERTEX
  8
0
 10
4.09334506
 20
7.22114323
  0
VERTEX
  8
0
 10
4.42881487
 20
7.22175322
  0
VERTEX
  8
0
 10
4.61553233
 20
7.22259560
  0
VERTEX
  8
0
 10
4.80224979
 20
7.22291512
  0
VERTEX
  8
0
 10
4.94954976
 20
7.21983609
  0
VERTEX
  8
0
 10
5.09528117
 20
7.19688855
  0
VERTEX
  8
0
 10
5.17256936
 20
7.17134488
  0
VERTEX
  8
0
 10
5.24319114
 20
7.13196734
  0
VERTEX
  8
0
 10
5.37367260
 20
7.03445481
  0
VERTEX
  8
0
 10
5.27072819
 20
6.97775405
  0
VERTEX
  8
0
 10
5.17061591
 20
7.04326711
  0
VERTEX
  8
0
 10
5.06205081
 20
7.09350842
  0
VERTEX
  8
0
 10
4.94721144
 20
7.12601623
  0
VERTEX
  8
0
 10
4.82827636
 20
7.13832875
  0
VERTEX
  8
0
 10
4.64121033
 20
7.15691916
  0
VERTEX
  8
0
 10
2.72221496
 20
7.15552488
  0
VERTEX
  8
0
 10
2.71733498
 20
7.22988653
  0
SEQEND
  0
POLYLINE
  8
Default_Layer
 66
   1
 39
0.000000
 70
    1
  0
VERTEX
  8
0
 10
10.58084727
 20
7.80223887
  0
VERTEX
  8
0
 10
10.65939176
 20
7.70138588
  0
VERTEX
  8
0
 10
10.75954761
 20
7.62284138
  0
VERTEX
  8
0
 10
10.85334205
 20
7.60239193
  0
VERTEX
  8
0
 10
10.94940220
 20
7.59727957
  0
VERTEX
  8
0
 10
10.96171835
 20
7.55173305
  0
VERTEX
  8
0
 10
10.86673296
 20
7.52195935
  0
VERTEX
  8
0
 10
10.79370750
 20
7.45366863
  0
VERTEX
  8
0
 10
10.73567554
 20
7.46680673
  0
VERTEX
  8
0
 10
10.68917636
 20
7.49437509
  0
VERTEX
  8
0
 10
10.62566759
 20
7.58133248
  0
VERTEX
  8
0
 10
10.59296371
 20
7.69160049
  0
VERTEX
  8
0
 10
10.58084727
 20
7.80223887
  0
SEQEND
  0
POLYLINE
  8
Default_Layer
 66
   1
 39
0.000000
 70
    1
  0
VERTEX
  8
0
 10
10.85575300
 20
7.22337989
  0
VERTEX
  8
0
 10
11.05864993
 20
7.18753525
  0
VERTEX
  8
0
 10
11.14943432
 20
7.14501694
  0
VERTEX
  8
0
 10
11.21640701
 20
7.06768518
  0
VERTEX
  8
0
 10
10.91710136
 20
6.94731225
  0
VERTEX
  8
0
 10
10.94763030
 20
7.03279910
  0
VERTEX
  8
0
 10
10.95707075
 20
7.12299166
  0
VERTEX
  8
0
 10
10.85575300
 20
7.22337989
  0
SEQEND
  0
POLYLINE
  8
Default_Layer
 66
   1
 39
0.000000
 70
    1
  0
VERTEX
  8
0
 10
10.54019501
 20
6.53120820
  0
VERTEX
  8
0
 10
10.51179556
 20
6.33872397
  0
VERTEX
  8
0
 10
10.51324019
 20
6.23849765
  0
VERTEX
  8
0
 10
10.53437123
 20
6.15024830
  0
VERTEX
  8
0
 10
10.68614453
 20
5.81071183
  0
VERTEX
  8
0
 10
10.87294913
 20
5.48912674
  0
VERTEX
  8
0
 10
10.82978452
 20
5.38658899
  0
VERTEX
  8
0
 10
10.76326569
 20
5.29694834
  0
VERTEX
  8
0
 10
10.71098379
 20
5.42225208
  0
VERTEX
  8
0
 10
10.63990088
 20
5.53775229
  0
VERTEX
  8
0
 10
10.56572440
 20
5.65177107
  0
VERTEX
  8
0
 10
10.50416181
 20
5.77263054
  0
VERTEX
  8
0
 10
10.43258872
 20
5.98061078
  0
VERTEX
  8
0
 10
10.40961214
 20
6.13520168
  0
VERTEX
  8
0
 10
10.40700149
 20
6.21282392
  0
VERTEX
  8
0
 10
10.41887829
 20
6.29014116
  0
VERTEX
  8
0
 10
10.44833892
 20
6.40047687
  0
VERTEX
  8
0
 10
10.51095238
 20
6.52888440
  0
VERTEX
  8
0
 10
10.53172002
 20
6.54603164
  0
VERTEX
  8
0
 10
10.54019501
 20
6.53120820
  0
SEQEND
  0
POLYLINE
  8
Default_Layer
 66
   1
 39
0.000000
 70
    1
  0
VERTEX
  8
0
 10
10.75768857
 20
5.26139418
  0
VERTEX
  8
0
 10
10.85249968
 20
5.37316904
  0
VERTEX
  8
0
 10
11.06257134
 20
5.07688433
  0
VERTEX
  8
0
 10
11.18828901
 20
4.87006599
  0
VERTEX
  8
0
 10
11.31906095
 20
4.64991483
  0
VERTEX
  8
0
 10
11.43972434
 20
4.42436084
  0
VERTEX
  8
0
 10
11.54429542
 20
4.24054813
  0
VERTEX
  8
0
 10
11.65084172
 20
4.01772460
  0
VERTEX
  8
0
 10
11.73298811
 20
3.78531539
  0
VERTEX
  8
0
 10
11.75189804
 20
3.63426829
  0
VERTEX
  8
0
 10
11.75250804
 20
3.48252404
  0
VERTEX
  8
0
 10
11.71509484
 20
3.27547332
  0
VERTEX
  8
0
 10
11.63422654
 20
3.16834606
  0
VERTEX
  8
0
 10
11.64782078
 20
3.28485567
  0
VERTEX
  8
0
 10
11.65402969
 20
3.34268565
  0
VERTEX
  8
0
 10
11.64538079
 20
3.40049384
  0
VERTEX
  8
0
 10
11.60927472
 20
3.59049367
  0
VERTEX
  8
0
 10
11.55521729
 20
3.77648495
  0
VERTEX
  8
0
 10
11.42229583
 20
4.04976402
  0
VERTEX
  8
0
 10
11.39557211
 20
4.12598471
  0
VERTEX
  8
0
 10
11.30959145
 20
4.25727950
  0
VERTEX
  8
0
 10
11.23380647
 20
4.40048378
  0
VERTEX
  8
0
 10
11.14599582
 20
4.53636808
  0
VERTEX
  8
0
 10
10.89984713
 20
4.89705113
  0
VERTEX
  8
0
 10
10.64428705
 20
5.25093707
  0
VERTEX
  8
0
 10
10.75768857
 20
5.26139418
  0
SEQEND
  0
POLYLINE
  8
Default_Layer
 66
   1
 39
0.000000
 70
    1
  0
VERTEX
  8
0
 10
9.84536406
 20
7.70185064
  0
VERTEX
  8
0
 10
9.95411797
 20
7.69882970
  0
VERTEX
  8
0
 10
10.15646300
 20
7.55577066
  0
VERTEX
  8
0
 10
10.25397552
 20
7.47998205
  0
VERTEX
  8
0
 10
10.34103094
 20
7.39162312
  0
VERTEX
  8
0
 10
10.14464066
 20
7.44881769
  0
VERTEX
  8
0
 10
9.95225893
 20
7.51873507
  0
VERTEX
  8
0
 10
9.75287675
 20
7.54940925
  0
VERTEX
  8
0
 10
9.84536406
 20
7.70185064
  0
SEQEND
  0
POLYLINE
  8
Default_Layer
 66
   1
 39
0.000000
 70
    1
  0
VERTEX
  8
0
 10
4.90682086
 20
7.63841085
  0
VERTEX
  8
0
 10
5.12014585
 20
7.63492515
  0
VERTEX
  8
0
 10
5.16848092
 20
7.57102061
  0
VERTEX
  8
0
 10
5.04346039
 20
7.56707014
  0
VERTEX
  8
0
 10
4.85848579
 20
7.56637300
  0
VERTEX
  8
0
 10
4.90682086
 20
7.63841085
  0
SEQEND
  0
POLYLINE
  8
Default_Layer
 66
   1
 39
0.000000
 70
    1
  0
VERTEX
  8
0
 10
8.83125703
 20
3.01265135
  0
VERTEX
  8
0
 10
8.93745476
 20
3.10723008
  0
VERTEX
  8
0
 10
9.01701592
 20
2.94653920
  0
VERTEX
  8
0
 10
9.07506376
 20
2.87828479
  0
VERTEX
  8
0
 10
9.14589977
 20
2.82349390
  0
VERTEX
  8
0
 10
9.06036208
 20
2.80440605
  0
VERTEX
  8
0
 10
8.97469368
 20
2.81440203
  0
VERTEX
  8
0
 10
8.89590955
 20
2.85032292
  0
VERTEX
  8
0
 10
8.83102465
 20
2.90900980
  0
VERTEX
  8
0
 10
8.83125703
 20
3.01265135
  0
SEQEND
  0
POLYLINE
  8
Default_Layer
 66
   1
 39
0.000000
 70
    1
  0
VERTEX
  8
0
 10
7.07794871
 20
9.09775827
  0
VERTEX
  8
0
 10
7.64190631
 20
9.09560875
  0
VERTEX
  8
0
 10
8.20499249
 20
9.10635634
  0
VERTEX
  8
0
 10
8.67887374
 20
9.09526018
  0
VERTEX
  8
0
 10
9.15310355
 20
9.09915255
  0
VERTEX
  8
0
 10
9.43567783
 20
9.09171639
  0
VERTEX
  8
0
 10
9.48587195
 20
9.25810058
  0
VERTEX
  8
0
 10
9.57626783
 20
9.25786820
  0
VERTEX
  8
0
 10
9.60066774
 20
9.09380781
  0
VERTEX
  8
0
 10
9.88370678
 20
9.09752589
  0
VERTEX
  8
0
 10
10.16674582
 20
9.09078686
  0
VERTEX
  8
0
 10
10.26439426
 20
8.92824735
  0
VERTEX
  8
0
 10
10.32051370
 20
8.85185044
  0
VERTEX
  8
0
 10
10.38864587
 20
8.78566021
  0
VERTEX
  8
0
 10
10.52649648
 20
8.72333430
  0
VERTEX
  8
0
 10
10.60516331
 20
8.71207964
  0
VERTEX
  8
0
 10
10.68611548
 20
8.72757667
  0
VERTEX
  8
0
 10
10.79299946
 20
8.77289443
  0
VERTEX
  8
0
 10
10.88883812
 20
8.84333104
  0
VERTEX
  8
0
 10
10.98777035
 20
8.90283125
  0
VERTEX
  8
0
 10
11.04281494
 20
8.91721295
  0
VERTEX
  8
0
 10
11.10393501
 20
8.91533984
  0
VERTEX
  8
0
 10
11.13459467
 20
8.91333919
  0
VERTEX
  8
0
 10
11.15697578
 20
8.89584896
  0
VERTEX
  8
0
 10
11.19223947
 20
8.84585817
  0
VERTEX
  8
0
 10
11.20658895
 20
8.76847558
  0
VERTEX
  8
0
 10
11.21292131
 20
8.69039585
  0
VERTEX
  8
0
 10
11.15825387
 20
8.58716096
  0
VERTEX
  8
0
 10
11.11828449
 20
8.54497670
  0
VERTEX
  8
0
 10
11.06838085
 20
8.51425168
  0
VERTEX
  8
0
 10
10.86690725
 20
8.42891007
  0
VERTEX
  8
0
 10
10.67170791
 20
8.33067136
  0
VERTEX
  8
0
 10
10.60352975
 20
8.27411946
  0
VERTEX
  8
0
 10
10.55380403
 20
8.20207798
  0
VERTEX
  8
0
 10
10.48487426
 20
8.03880187
  0
VERTEX
  8
0
 10
10.56756432
 20
7.92188888
  0
VERTEX
  8
0
 10
10.58913840
 20
7.88909889
  0
VERTEX
  8
0
 10
10.65932331
 20
7.79844462
  0
VERTEX
  8
0
 10
10.73677436
 20
7.71904677
  0
VERTEX
  8
0
 10
10.79905224
 20
7.66780258
  0
VERTEX
  8
0
 10
10.87197967
 20
7.64191354
  0
VERTEX
  8
0
 10
10.94553888
 20
7.63266381
  0
VERTEX
  8
0
 10
11.08906268
 20
7.62400328
  0
VERTEX
  8
0
 10
11.27891727
 20
7.57032347
  0
VERTEX
  8
0
 10
11.39737306
 20
7.50720321
  0
VERTEX
  8
0
 10
11.50850887
 20
7.43136013
  0
VERTEX
  8
0
 10
11.52593738
 20
7.42322682
  0
VERTEX
  8
0
 10
11.65458885
 20
7.29294870
  0
VERTEX
  8
0
 10
11.71315228
 20
7.22333268
  0
VERTEX
  8
0
 10
11.75831755
 20
7.14367349
  0
VERTEX
  8
0
 10
11.75901469
 20
7.02469485
  0
VERTEX
  8
0
 10
11.69816013
 20
6.97002741
  0
VERTEX
  8
0
 10
11.62283991
 20
6.94010847
  0
VERTEX
  8
0
 10
11.39972591
 20
6.93409563
  0
VERTEX
  8
0
 10
11.17643762
 20
6.92755994
  0
VERTEX
  8
0
 10
11.03679167
 20
6.88561895
  0
VERTEX
  8
0
 10
10.90368141
 20
6.82574838
  0
VERTEX
  8
0
 10
10.65706796
 20
6.66938558
  0
VERTEX
  8
0
 10
10.59516769
 20
6.60368735
  0
VERTEX
  8
0
 10
10.56028162
 20
6.52199846
  0
VERTEX
  8
0
 10
10.54596120
 20
6.43220532
  0
VERTEX
  8
0
 10
10.54575786
 20
6.34219431
  0
VERTEX
  8
0
 10
10.55077219
 20
6.24075311
  0
VERTEX
  8
0
 10
10.57907537
 20
6.14397403
  0
VERTEX
  8
0
 10
10.65962414
 20
5.95690800
  0
VERTEX
  8
0
 10
10.77038234
 20
5.73036639
  0
VERTEX
  8
0
 10
10.89804619
 20
5.51236475
  0
VERTEX
  8
0
 10
10.90928395
 20
5.47122257
  0
VERTEX
  8
0
 10
10.90237427
 20
5.42705219
  0
VERTEX
  8
0
 10
10.89847101
 20
5.38423251
  0
VERTEX
  8
0
 10
10.91872802
 20
5.34714246
  0
VERTEX
  8
0
 10
11.15575579
 20
5.00077983
  0
VERTEX
  8
0
 10
11.37047506
 20
4.63977725
  0
VERTEX
  8
0
 10
11.64491603
 20
4.12203425
  0
VERTEX
  8
0
 10
11.73670619
 20
3.91335686
  0
VERTEX
  8
0
 10
11.79851931
 20
3.64681682
  0
VERTEX
  8
0
 10
11.79851931
 20
3.58663035
  0
VERTEX
  8
0
 10
11.78713269
 20
3.54921715
  0
VERTEX
  8
0
 10
11.76857132
 20
3.36688586
  0
VERTEX
  8
0
 10
11.74912764
 20
3.27808396
  0
VERTEX
  8
0
 10
11.70905295
 20
3.19623168
  0
VERTEX
  8
0
 10
11.63684082
 20
3.12079527
  0
VERTEX
  8
0
 10
11.55103444
 20
3.05912739
  0
VERTEX
  8
0
 10
11.52697946
 20
3.03324968
  0
VERTEX
  8
0
 10
11.51667123
 20
2.99937664
  0
VERTEX
  8
0
 10
11.49642510
 20
2.92969164
  0
VERTEX
  8
0
 10
11.42229583
 20
2.91574883
  0
VERTEX
  8
0
 10
11.36513031
 20
2.99754664
  0
VERTEX
  8
0
 10
9.32274107
 20
2.75192081
  0
VERTEX
  8
0
 10
9.17750347
 20
2.79700256
  0
VERTEX
  8
0
 10
9.02654351
 20
2.77995167
  0
VERTEX
  8
0
 10
8.87610640
 20
2.80281207
  0
VERTEX
  8
0
 10
8.79221716
 20
2.91481931
  0
VERTEX
  8
0
 10
8.79291430
 20
3.03100939
  0
VERTEX
  8
0
 10
8.91189295
 20
3.15695944
  0
VERTEX
  8
0
 10
8.33419586
 20
4.77479012
  0
VERTEX
  8
0
 10
8.18657637
 20
5.16675736
  0
VERTEX
  8
0
 10
8.10525057
 20
5.35908099
  0
VERTEX
  8
0
 10
7.99747701
 20
5.53815895
  0
VERTEX
  8
0
 10
7.83826755
 20
5.64734858
  0
VERTEX
  8
0
 10
7.75359766
 20
5.69302218
  0
VERTEX
  8
0
 10
7.66284958
 20
5.72568974
  0
VERTEX
  8
0
 10
7.51322580
 20
5.76470056
  0
VERTEX
  8
0
 10
7.36029061
 20
5.78471430
  0
VERTEX
  8
0
 10
6.26833623
 20
5.78517906
  0
VERTEX
  8
0
 10
6.13179110
 20
5.78857762
  0
VERTEX
  8
0
 10
5.99703239
 20
5.81114755
  0
VERTEX
  8
0
 10
5.86645652
 20
5.85158170
  0
VERTEX
  8
0
 10
5.74245992
 20
5.90857293
  0
VERTEX
  8
0
 10
5.64150526
 20
5.98260054
  0
VERTEX
  8
0
 10
5.55963483
 20
6.07640950
  0
VERTEX
  8
0
 10
5.49475719
 20
6.18372557
  0
VERTEX
  8
0
 10
5.44478093
 20
6.29827446
  0
VERTEX
  8
0
 10
5.40306869
 20
6.51566610
  0
VERTEX
  8
0
 10
5.37808783
 20
6.73584631
  0
VERTEX
  8
0
 10
5.33875748
 20
6.83812262
  0
VERTEX
  8
0
 10
5.26910153
 20
6.92244758
  0
VERTEX
  8
0
 10
5.15063485
 20
7.00697223
  0
VERTEX
  8
0
 10
5.01885714
 20
7.06690089
  0
VERTEX
  8
0
 10
4.87823447
 20
7.10299607
  0
VERTEX
  8
0
 10
4.73323288
 20
7.11602025
  0
VERTEX
  8
0
 10
2.73243969
 20
7.11787929
  0
VERTEX
  8
0
 10
2.70653565
 20
7.12410908
  0
VERTEX
  8
0
 10
2.68920971
 20
7.14153123
  0
VERTEX
  8
0
 10
2.66824467
 20
7.19398379
  0
VERTEX
  8
0
 10
2.64544962
 20
7.24329922
  0
VERTEX
  8
0
 10
2.62583619
 20
7.25679996
  0
VERTEX
  8
0
 10
2.59672967
 20
7.25753977
  0
VERTEX
  8
0
 10
0.53830620
 20
7.26032833
  0
VERTEX
  8
0
 10
0.50337292
 20
7.29333358
  0
VERTEX
  8
0
 10
0.48018211
 20
7.33875664
  0
VERTEX
  8
0
 10
0.45046650
 20
7.43809915
  0
VERTEX
  8
0
 10
0.38540005
 20
7.43879629
  0
VERTEX
  8
0
 10
0.32265741
 20
7.84987680
  0
VERTEX
  8
0
 10
0.31824219
 20
7.96368499
  0
VERTEX
  8
0
 10
0.28663848
 20
8.07156748
  0
VERTEX
  8
0
 10
0.24912724
 20
8.16947940
  0
VERTEX
  8
0
 10
0.22810773
 20
8.27170489
  0
VERTEX
  8
0
 10
0.20321401
 20
8.47985942
  0
VERTEX
  8
0
 10
0.21410683
 20
8.61684752
  0
VERTEX
  8
0
 10
0.24783100
 20
8.75104707
  0
VERTEX
  8
0
 10
0.31917171
 20
8.80449451
  0
VERTEX
  8
0
 10
0.30453176
 20
8.87676474
  0
VERTEX
  8
0
 10
0.38330863
 20
8.87583521
  0
VERTEX
  8
0
 10
0.40329332
 20
8.98319485
  0
VERTEX
  8
0
 10
0.45138876
 20
9.05242961
  0
VERTEX
  8
0
 10
0.52349196
 20
9.09125162
  0
VERTEX
  8
0
 10
0.60753370
 20
9.10881085
  0
VERTEX
  8
0
 10
0.69144473
 20
9.11425726
  0
VERTEX
  8
0
 10
4.36676936
 20
9.11053918
  0
VERTEX
  8
0
 10
4.42811773
 20
9.10984204
  0
VERTEX
  8
0
 10
5.61906605
 20
9.11053918
  0
VERTEX
  8
0
 10
5.75709987
 20
9.09311067
  0
VERTEX
  8
0
 10
6.85044853
 20
9.09311067
  0
VERTEX
  8
0
 10
7.07794871
 20
9.09775827
  0
SEQEND
  0
POLYLINE
  8
Default_Layer
 66
   1
 39
0.000000
 70
    1
  0
VERTEX
  8
0
 10
8.03273852
 20
7.55293223
  0
VERTEX
  8
0
 10
7.95402192
 20
7.55454739
  0
VERTEX
  8
0
 10
7.95459573
 20
8.37671852
  0
VERTEX
  8
0
 10
8.03215181
 20
8.43414358
  0
VERTEX
  8
0
 10
8.03273852
 20
7.55293223
  0
SEQEND
  0
POLYLINE
  8
Default_Layer
 66
   1
 39
0.000000
 70
    1
  0
VERTEX
  8
0
 10
11.29332484
 20
7.34398519
  0
VERTEX
  8
0
 10
11.06474991
 20
7.39827500
  0
VERTEX
  8
0
 10
10.83181784
 20
7.42764205
  0
VERTEX
  8
0
 10
10.83397462
 20
7.47325392
  0
VERTEX
  8
0
 10
10.86824343
 20
7.50165513
  0
VERTEX
  8
0
 10
10.96148597
 20
7.53593120
  0
VERTEX
  8
0
 10
11.03942047
 20
7.55035310
  0
VERTEX
  8
0
 10
11.11648354
 20
7.54430839
  0
VERTEX
  8
0
 10
11.25870020
 20
7.49619419
  0
VERTEX
  8
0
 10
11.45389953
 20
7.39441168
  0
VERTEX
  8
0
 10
11.63097322
 20
7.26404641
  0
VERTEX
  8
0
 10
11.71148581
 20
7.15691916
  0
VERTEX
  8
0
 10
11.73393961
 20
7.09929141
  0
VERTEX
  8
0
 10
11.72833039
 20
7.05346121
  0
VERTEX
  8
0
 10
11.69362475
 20
7.01590512
  0
VERTEX
  8
0
 10
11.67256927
 20
6.99797113
  0
VERTEX
  8
0
 10
11.56935253
 20
6.96447934
  0
VERTEX
  8
0
 10
11.46171332
 20
6.95573603
  0
VERTEX
  8
0
 10
11.24475739
 20
6.97519787
  0
VERTEX
  8
0
 10
11.36277280
 20
7.04848477
  0
VERTEX
  8
0
 10
11.40849343
 20
7.09594478
  0
VERTEX
  8
0
 10
11.42899758
 20
7.16063724
  0
VERTEX
  8
0
 10
11.40433981
 20
7.23287842
  0
VERTEX
  8
0
 10
11.36466555
 20
7.30076248
  0
VERTEX
  8
0
 10
11.33386793
 20
7.32806634
  0
VERTEX
  8
0
 10
11.29332484
 20
7.34398519
  0
SEQEND
  0
POLYLINE
  8
Default_Layer
 66
   1
 39
0.000000
 70
    1
  0
VERTEX
  8
0
 10
10.72166965
 20
7.24917408
  0
VERTEX
  8
0
 10
10.53774075
 20
7.32693429
  0
VERTEX
  8
0
 10
10.35032615
 20
7.39720025
  0
VERTEX
  8
0
 10
10.21391899
 20
7.53941690
  0
VERTEX
  8
0
 10
10.48533902
 20
7.53523406
  0
VERTEX
  8
0
 10
10.50534949
 20
7.45670107
  0
VERTEX
  8
0
 10
10.72166965
 20
7.24917408
  0
SEQEND
  0
POLYLINE
  8
Default_Layer
 66
   1
 39
0.000000
 70
    1
  0
VERTEX
  8
0
 10
10.42329352
 20
7.71579345
  0
VERTEX
  8
0
 10
10.46721337
 20
7.56288730
  0
VERTEX
  8
0
 10
10.19277240
 20
7.56265492
  0
VERTEX
  8
0
 10
10.06833282
 20
7.63896276
  0
VERTEX
  8
0
 10
9.94947037
 20
7.72485627
  0
VERTEX
  8
0
 10
9.85094118
 20
7.72694770
  0
VERTEX
  8
0
 10
9.78622330
 20
7.64933272
  0
VERTEX
  8
0
 10
9.73056826
 20
7.56474634
  0
VERTEX
  8
0
 10
9.56682352
 20
7.56242254
  0
VERTEX
  8
0
 10
9.56728828
 20
8.32579137
  0
VERTEX
  8
0
 10
10.22065802
 20
8.32277043
  0
VERTEX
  8
0
 10
10.27149773
 20
8.09829119
  0
VERTEX
  8
0
 10
10.32893231
 20
7.90657149
  0
VERTEX
  8
0
 10
10.42329352
 20
7.71579345
  0
SEQEND
  0
POLYLINE
  8
Default_Layer
 66
   1
 39
0.000000
 70
    1
  0
VERTEX
  8
0
 10
7.66375046
 20
5.97329970
  0
VERTEX
  8
0
 10
7.67805292
 20
6.04414231
  0
VERTEX
  8
0
 10
7.71705702
 20
6.10199313
  0
VERTEX
  8
0
 10
7.77490784
 20
6.14099723
  0
VERTEX
  8
0
 10
7.84575046
 20
6.15529970
  0
VERTEX
  8
0
 10
7.91659307
 20
6.14099723
  0
VERTEX
  8
0
 10
7.97444389
 20
6.10199313
  0
VERTEX
  8
0
 10
8.01344799
 20
6.04414231
  0
VERTEX
  8
0
 10
8.02775046
 20
5.97329970
  0
VERTEX
  8
0
 10
8.01344799
 20
5.90245708
  0
VERTEX
  8
0
 10
7.97444389
 20
5.84460626
  0
VERTEX
  8
0
 10
7.91659307
 20
5.80560216
  0
VERTEX
  8
0
 10
7.84575046
 20
5.79129970
  0
VERTEX
  8
0
 10
7.77490784
 20
5.80560216
  0
VERTEX
  8
0
 10
7.71705702
 20
5.84460626
  0
VERTEX
  8
0
 10
7.67805292
 20
5.90245708
  0
VERTEX
  8
0
 10
7.66375046
 20
5.97329970
  0
SEQEND
  0
POLYLINE
  8
Default_Layer
 66
   1
 39
0.000000
 70
    1
  0
VERTEX
  8
0
 10
5.09528117
 20
7.19688855
  0
VERTEX
  8
0
 10
4.94954976
 20
7.21983609
  0
VERTEX
  8
0
 10
4.80224979
 20
7.22291512
  0
VERTEX
  8
0
 10
4.61553233
 20
7.22259560
  0
VERTEX
  8
0
 10
4.42881487
 20
7.22175322
  0
VERTEX
  8
0
 10
4.09334506
 20
7.22114323
  0
VERTEX
  8
0
 10
3.75770096
 20
7.21966180
  0
VERTEX
  8
0
 10
3.23760511
 20
7.22573273
  0
VERTEX
  8
0
 10
2.71733498
 20
7.22988653
  0
VERTEX
  8
0
 10
2.72221496
 20
7.15552488
  0
VERTEX
  8
0
 10
4.64121033
 20
7.15691916
  0
VERTEX
  8
0
 10
4.82827636
 20
7.13832875
  0
VERTEX
  8
0
 10
4.94721144
 20
7.12601623
  0
VERTEX
  8
0
 10
5.06205081
 20
7.09350842
  0
VERTEX
  8
0
 10
5.17061591
 20
7.04326711
  0
VERTEX
  8
0
 10
5.27072819
 20
6.97775405
  0
VERTEX
  8
0
 10
5.37367260
 20
7.03445481
  0
VERTEX
  8
0
 10
5.24319114
 20
7.13196734
  0
VERTEX
  8
0
 10
5.17256936
 20
7.17134488
  0
VERTEX
  8
0
 10
5.09528117
 20
7.19688855
  0
SEQEND
  0
POLYLINE
  8
Default_Layer
 66
   1
 39
0.000000
 70
    1
  0
VERTEX
  8
0
 10
7.46851030
 20
7.45008456
  0
VERTEX
  8
0
 10
7.19855401
 20
7.45088006
  0
VERTEX
  8
0
 10
6.97695048
 20
7.45607957
  0
VERTEX
  8
0
 10
6.75517266
 20
7.45413339
  0
VERTEX
  8
0
 10
6.40573100
 20
7.45454005
  0
VERTEX
  8
0
 10
6.23114088
 20
7.45393731
  0
VERTEX
  8
0
 10
6.05733504
 20
7.43926106
  0
VERTEX
  8
0
 10
6.01578817
 20
7.41476036
  0
VERTEX
  8
0
 10
5.99112970
 20
7.38855340
  0
VERTEX
  8
0
 10
5.96600964
 20
7.32493002
  0
VERTEX
  8
0
 10
5.96567922
 20
7.25053932
  0
VERTEX
  8
0
 10
5.98794051
 20
7.18190003
  0
VERTEX
  8
0
 10
6.03002674
 20
7.12284642
  0
VERTEX
  8
0
 10
6.08917112
 20
7.07721276
  0
VERTEX
  8
0
 10
5.38075306
 20
7.05702146
  0
VERTEX
  8
0
 10
5.17173424
 20
7.19921235
  0
VERTEX
  8
0
 10
5.08203550
 20
7.23035129
  0
VERTEX
  8
0
 10
4.93194696
 20
7.26805497
  0
VERTEX
  8
0
 10
4.77715273
 20
7.26985592
  0
VERTEX
  8
0
 10
4.60382618
 20
7.27014639
  0
VERTEX
  8
0
 10
4.43067391
 20
7.26939116
  0
VERTEX
  8
0
 10
4.09383886
 20
7.26724164
  0
VERTEX
  8
0
 10
3.75700382
 20
7.26822926
  0
VERTEX
  8
0
 10
2.74359393
 20
7.26776450
  0
VERTEX
  8
0
 10
2.71361689
 20
7.26590545
  0
VERTEX
  8
0
 10
2.69316744
 20
7.34979469
  0
VERTEX
  8
0
 10
2.67341512
 20
7.27148258
  0
VERTEX
  8
0
 10
2.63762858
 20
7.29193203
  0
VERTEX
  8
0
 10
2.54978888
 20
7.29843868
  0
VERTEX
  8
0
 10
0.62056878
 20
7.29774154
  0
VERTEX
  8
0
 10
0.52599005
 20
7.31121959
  0
VERTEX
  8
0
 10
0.48787970
 20
7.55940160
  0
VERTEX
  8
0
 10
0.47021881
 20
7.69026068
  0
VERTEX
  8
0
 10
0.46162075
 20
7.82199118
  0
VERTEX
  8
0
 10
1.64304149
 20
7.82199118
  0
VERTEX
  8
0
 10
1.79799548
 20
7.80669766
  0
VERTEX
  8
0
 10
1.95059663
 20
7.77650276
  0
VERTEX
  8
0
 10
2.25118037
 20
7.69441447
  0
VERTEX
  8
0
 10
2.31369063
 20
7.66885266
  0
VERTEX
  8
0
 10
2.53305751
 20
7.55684542
  0
VERTEX
  8
0
 10
2.57697736
 20
7.53291026
  0
VERTEX
  8
0
 10
2.64111428
 20
7.53118605
  0
VERTEX
  8
0
 10
5.87886708
 20
7.53918452
  0
VERTEX
  8
0
 10
7.54503283
 20
7.54290261
  0
VERTEX
  8
0
 10
7.55781374
 20
7.54383213
  0
VERTEX
  8
0
 10
7.81900905
 20
7.54197309
  0
VERTEX
  8
0
 10
7.79623579
 20
7.47435046
  0
VERTEX
  8
0
 10
7.55781374
 20
7.46226669
  0
VERTEX
  8
0
 10
7.53689953
 20
7.41718494
  0
VERTEX
  8
0
 10
7.46851030
 20
7.45008456
  0
SEQEND
  0
POLYLINE
  8
Default_Layer
 66
   1
 39
0.000000
 70
    1
  0
VERTEX
  8
0
 10
10.71678966
 20
8.69318441
  0
VERTEX
  8
0
 10
10.80741429
 20
8.73539409
  0
VERTEX
  8
0
 10
10.88930288
 20
8.79243978
  0
VERTEX
  8
0
 10
10.97027648
 20
8.85144619
  0
VERTEX
  8
0
 10
11.05815612
 20
8.89953799
  0
VERTEX
  8
0
 10
11.13350539
 20
8.85518243
  0
VERTEX
  8
0
 10
11.16876908
 20
8.77474984
  0
VERTEX
  8
0
 10
11.14241078
 20
8.67623285
  0
VERTEX
  8
0
 10
11.09384511
 20
8.58615471
  0
VERTEX
  8
0
 10
11.08604174
 20
8.57684800
  0
VERTEX
  8
0
 10
10.97984400
 20
8.51146312
  0
VERTEX
  8
0
 10
10.86731391
 20
8.47646086
  0
VERTEX
  8
0
 10
10.76349807
 20
8.42106724
  0
VERTEX
  8
0
 10
10.66292467
 20
8.37300085
  0
VERTEX
  8
0
 10
10.57710014
 20
8.30057812
  0
VERTEX
  8
0
 10
10.51092625
 20
8.20950689
  0
VERTEX
  8
0
 10
10.46930479
 20
8.10549498
  0
VERTEX
  8
0
 10
10.37751463
 20
8.20286227
  0
VERTEX
  8
0
 10
10.30338535
 20
8.32021425
  0
VERTEX
  8
0
 10
10.30152631
 20
8.32323519
  0
VERTEX
  8
0
 10
10.29013968
 20
8.34345226
  0
VERTEX
  8
0
 10
10.21275709
 20
8.57420577
  0
VERTEX
  8
0
 10
10.14393529
 20
8.80565641
  0
VERTEX
  8
0
 10
10.11891202
 20
8.96884652
  0
VERTEX
  8
0
 10
10.11287851
 20
9.04993014
  0
VERTEX
  8
0
 10
10.11568920
 20
9.07016529
  0
VERTEX
  8
0
 10
10.12398787
 20
9.06917551
  0
VERTEX
  8
0
 10
10.21095614
 20
8.94955782
  0
VERTEX
  8
0
 10
10.28223876
 20
8.81983160
  0
VERTEX
  8
0
 10
10.34906099
 20
8.74770839
  0
VERTEX
  8
0
 10
10.45574069
 20
8.68152812
  0
VERTEX
  8
0
 10
10.51594036
 20
8.66257497
  0
VERTEX
  8
0
 10
10.58167946
 20
8.66206518
  0
VERTEX
  8
0
 10
10.71678966
 20
8.69318441
  0
SEQEND
  0
POLYLINE
  8
Default_Layer
 66
   1
 39
0.000000
 70
    1
  0
VERTEX
  8
0
 10
10.92520081
 20
8.69970020
  0
VERTEX
  8
0
 10
10.94681633
 20
8.75188468
  0
VERTEX
  8
0
 10
10.99900081
 20
8.77350020
  0
VERTEX
  8
0
 10
11.05118529
 20
8.75188468
  0
VERTEX
  8
0
 10
11.07280081
 20
8.69970020
  0
VERTEX
  8
0
 10
11.05118529
 20
8.64751572
  0
VERTEX
  8
0
 10
10.99900081
 20
8.62590020
  0
VERTEX
  8
0
 10
10.94681633
 20
8.64751572
  0
VERTEX
  8
0
 10
10.92520081
 20
8.69970020
  0
SEQEND
  0
POLYLINE
  8
Default_Layer
 66
   1
 39
0.000000
 70
    1
  0
VERTEX
  8
0
 10
10.74319879
 20
8.59959909
  0
VERTEX
  8
0
 10
10.76481431
 20
8.65178357
  0
VERTEX
  8
0
 10
10.81699879
 20
8.67339909
  0
VERTEX
  8
0
 10
10.86918327
 20
8.65178357
  0
VERTEX
  8
0
 10
10.89079879
 20
8.59959909
  0
VERTEX
  8
0
 10
10.86918327
 20
8.54741461
  0
VERTEX
  8
0
 10
10.81699879
 20
8.52579909
  0
VERTEX
  8
0
 10
10.76481431
 20
8.54741461
  0
VERTEX
  8
0
 10
10.74319879
 20
8.59959909
  0
SEQEND
  0
POLYLINE
  8
Default_Layer
 66
   1
 39
0.000000
 70
    1
  0
VERTEX
  8
0
 10
10.53389646
 20
8.51769818
  0
VERTEX
  8
0
 10
10.55551198
 20
8.56988266
  0
VERTEX
  8
0
 10
10.60769646
 20
8.59149818
  0
VERTEX
  8
0
 10
10.65988094
 20
8.56988266
  0
VERTEX
  8
0
 10
10.68149646
 20
8.51769818
  0
VERTEX
  8
0
 10
10.65988094
 20
8.46551370
  0
VERTEX
  8
0
 10
10.60769646
 20
8.44389818
  0
VERTEX
  8
0
 10
10.55551198
 20
8.46551370
  0
VERTEX
  8
0
 10
10.53389646
 20
8.51769818
  0
SEQEND
  0
POLYLINE
  8
Default_Layer
 66
   1
 39
0.000000
 70
    1
  0
VERTEX
  8
0
 10
10.32459414
 20
8.48129778
  0
VERTEX
  8
0
 10
10.34620966
 20
8.53348226
  0
VERTEX
  8
0
 10
10.39839414
 20
8.55509778
  0
VERTEX
  8
0
 10
10.45057862
 20
8.53348226
  0
VERTEX
  8
0
 10
10.47219414
 20
8.48129778
  0
VERTEX
  8
0
 10
10.45057862
 20
8.42911330
  0
VERTEX
  8
0
 10
10.39839414
 20
8.40749778
  0
VERTEX
  8
0
 10
10.34620966
 20
8.42911330
  0
VERTEX
  8
0
 10
10.32459414
 20
8.48129778
  0
SEQEND
  0
POLYLINE
  8
Default_Layer
 66
   1
 39
0.000000
 70
    0
  0
VERTEX
  8
0
 10
11.37303124
 20
3.04518458
  0
VERTEX
  8
0
 10
11.46040618
 20
3.07516162
  0
VERTEX
  8
0
 10
10.98123829
 20
4.14550464
  0
VERTEX
  8
0
 10
10.92151658
 20
4.27215183
  0
VERTEX
  8
0
 10
10.84947873
 20
4.43208748
  0
VERTEX
  8
0
 10
10.78232087
 20
4.59376598
  0
VERTEX
  8
0
 10
10.60733861
 20
4.98277037
  0
VERTEX
  8
0
 10
10.36752228
 20
5.51468856
  0
VERTEX
  8
0
 10
10.31221580
 20
5.63924432
  0
VERTEX
  8
0
 10
10.26553644
 20
5.74657491
  0
VERTEX
  8
0
 10
10.22391134
 20
5.85582263
  0
VERTEX
  8
0
 10
10.20592003
 20
5.93511873
  0
VERTEX
  8
0
 10
10.20110904
 20
6.01613590
  0
VERTEX
  8
0
 10
10.20183522
 20
6.17906344
  0
VERTEX
  8
0
 10
10.20558598
 20
6.26532005
  0
VERTEX
  8
0
 10
10.22521848
 20
6.34904953
  0
VERTEX
  8
0
 10
10.29130159
 20
6.50857851
  0
VERTEX
  8
0
 10
10.22806513
 20
6.48083813
  0
VERTEX
  8
0
 10
10.19578245
 20
6.46959310
  0
VERTEX
  8
0
 10
10.16186584
 20
6.47139768
  0
VERTEX
  8
0
 10
9.99225736
 20
6.54421981
  0
VERTEX
  8
0
 10
9.82352032
 20
6.61965622
  0
VERTEX
  8
0
 10
9.78843092
 20
6.88573151
  0
VERTEX
  8
0
 10
9.73358920
 20
7.06675566
  0
VERTEX
  8
0
 10
9.61879340
 20
7.13554018
  0
SEQEND
  0
POLYLINE
  8
Default_Layer
 66
   1
 39
0.000000
 70
    1
  0
VERTEX
  8
0
 10
9.64088301
 20
7.15489874
  0
VERTEX
  8
0
 10
9.60946688
 20
7.26148704
  0
VERTEX
  8
0
 10
9.65251152
 20
7.35829521
  0
VERTEX
  8
0
 10
9.70849214
 20
7.48341329
  0
VERTEX
  8
0
 10
9.80496277
 20
7.47043166
  0
VERTEX
  8
0
 10
9.89744770
 20
7.44221044
  0
VERTEX
  8
0
 10
10.07891762
 20
7.38556835
  0
VERTEX
  8
0
 10
10.08843370
 20
7.38186316
  0
VERTEX
  8
0
 10
10.17743531
 20
7.35792800
  0
VERTEX
  8
0
 10
10.20346188
 20
7.29425583
  0
VERTEX
  8
0
 10
10.16744296
 20
7.20943708
  0
VERTEX
  8
0
 10
10.15257063
 20
7.11392883
  0
VERTEX
  8
0
 10
10.12555644
 20
7.04854286
  0
VERTEX
  8
0
 10
10.08913084
 20
6.98821116
  0
VERTEX
  8
0
 10
9.90694480
 20
7.05420713
  0
VERTEX
  8
0
 10
9.71569593
 20
7.11981288
  0
VERTEX
  8
0
 10
9.64088301
 20
7.15489874
  0
SEQEND
  0
POLYLINE
  8
Default_Layer
 66
   1
 39
0.000000
 70
    1
  0
VERTEX
  8
0
 10
9.58974588
 20
7.23732269
  0
VERTEX
  8
0
 10
9.61879340
 20
7.13554018
  0
VERTEX
  8
0
 10
9.73358920
 20
7.06675566
  0
VERTEX
  8
0
 10
9.78843092
 20
6.88573151
  0
VERTEX
  8
0
 10
9.82352032
 20
6.61965622
  0
VERTEX
  8
0
 10
9.99225736
 20
6.54421981
  0
VERTEX
  8
0
 10
10.16186584
 20
6.47139768
  0
VERTEX
  8
0
 10
10.19578245
 20
6.46959310
  0
VERTEX
  8
0
 10
10.22806513
 20
6.48083813
  0
VERTEX
  8
0
 10
10.29130159
 20
6.50857851
  0
VERTEX
  8
0
 10
10.22521848
 20
6.34904953
  0
VERTEX
  8
0
 10
10.20558598
 20
6.26532005
  0
VERTEX
  8
0
 10
10.20183522
 20
6.17906344
  0
VERTEX
  8
0
 10
10.20110904
 20
6.01613590
  0
VERTEX
  8
0
 10
10.20592003
 20
5.93511873
  0
VERTEX
  8
0
 10
10.22391134
 20
5.85582263
  0
VERTEX
  8
0
 10
10.26553644
 20
5.74657491
  0
VERTEX
  8
0
 10
10.31221580
 20
5.63924432
  0
VERTEX
  8
0
 10
10.36752228
 20
5.51468856
  0
VERTEX
  8
0
 10
10.60733861
 20
4.98277037
  0
VERTEX
  8
0
 10
10.78232087
 20
4.59376598
  0
VERTEX
  8
0
 10
10.84947873
 20
4.43208748
  0
VERTEX
  8
0
 10
10.92151658
 20
4.27215183
  0
VERTEX
  8
0
 10
10.98123829
 20
4.14550464
  0
VERTEX
  8
0
 10
11.46040618
 20
3.07516162
  0
VERTEX
  8
0
 10
11.37303124
 20
3.04518458
  0
VERTEX
  8
0
 10
9.41777029
 20
7.23904968
  0
VERTEX
  8
0
 10
9.58974588
 20
7.23732269
  0
SEQEND
  0
POLYLINE
  8
Default_Layer
 66
   1
 39
0.000000
 70
    1
  0
VERTEX
  8
0
 10
7.97540089
 20
7.27217972
  0
VERTEX
  8
0
 10
7.87896313
 20
7.27008830
  0
VERTEX
  8
0
 10
7.88616691
 20
7.41974112
  0
VERTEX
  8
0
 10
8.38322808
 20
7.41764970
  0
VERTEX
  8
0
 10
9.54396699
 20
7.41741732
  0
VERTEX
  8
0
 10
9.65365042
 20
7.40138309
  0
VERTEX
  8
0
 10
9.60880105
 20
7.32888048
  0
VERTEX
  8
0
 10
9.56116312
 20
7.26288451
  0
VERTEX
  8
0
 10
9.18331297
 20
7.26032833
  0
VERTEX
  8
0
 10
7.97540089
 20
7.27217972
  0
SEQEND
  0
POLYLINE
  8
Default_Layer
 66
   1
 39
0.000000
 70
    1
  0
VERTEX
  8
0
 10
9.21305764
 20
3.10885674
  0
VERTEX
  8
0
 10
9.27789170
 20
2.91667835
  0
VERTEX
  8
0
 10
9.31809347
 20
2.79653780
  0
VERTEX
  8
0
 10
9.22676806
 20
2.81141013
  0
VERTEX
  8
0
 10
9.12084991
 20
2.86445454
  0
VERTEX
  8
0
 10
9.03734919
 20
2.94924062
  0
VERTEX
  8
0
 10
8.97942480
 20
3.05463591
  0
VERTEX
  8
0
 10
8.95023567
 20
3.16950796
  0
VERTEX
  8
0
 10
8.87866258
 20
3.35517971
  0
VERTEX
  8
0
 10
8.79035812
 20
3.63496543
  0
VERTEX
  8
0
 10
8.72668596
 20
3.79344870
  0
VERTEX
  8
0
 10
8.68811085
 20
3.91335686
  0
VERTEX
  8
0
 10
8.65348621
 20
3.98748613
  0
VERTEX
  8
0
 10
8.62769201
 20
4.07764964
  0
VERTEX
  8
0
 10
8.46642018
 20
4.51986908
  0
VERTEX
  8
0
 10
8.44573834
 20
4.58772409
  0
VERTEX
  8
0
 10
8.37067955
 20
4.77618440
  0
VERTEX
  8
0
 10
8.34558249
 20
4.86541838
  0
VERTEX
  8
0
 10
8.21103438
 20
5.19679249
  0
VERTEX
  8
0
 10
8.16703828
 20
5.32284784
  0
VERTEX
  8
0
 10
8.10707330
 20
5.44343499
  0
VERTEX
  8
0
 10
8.02780625
 20
5.55073290
  0
VERTEX
  8
0
 10
7.92590392
 20
5.63692052
  0
VERTEX
  8
0
 10
7.87570980
 20
5.68850892
  0
VERTEX
  8
0
 10
8.03715592
 20
5.61789440
  0
VERTEX
  8
0
 10
8.19128206
 20
5.53141993
  0
VERTEX
  8
0
 10
8.27920165
 20
5.42976087
  0
VERTEX
  8
0
 10
8.35470341
 20
5.31908255
  0
VERTEX
  8
0
 10
8.47664490
 20
5.07990527
  0
VERTEX
  8
0
 10
8.49965054
 20
5.01019122
  0
VERTEX
  8
0
 10
8.61793204
 20
4.70995606
  0
VERTEX
  8
0
 10
8.65278907
 20
4.61096211
  0
VERTEX
  8
0
 10
8.73368641
 20
4.38892286
  0
VERTEX
  8
0
 10
8.81475804
 20
4.16688362
  0
VERTEX
  8
0
 10
8.94070809
 20
3.84643138
  0
VERTEX
  8
0
 10
8.95743946
 20
3.77648495
  0
VERTEX
  8
0
 10
9.00345073
 20
3.66285105
  0
VERTEX
  8
0
 10
9.08245998
 20
3.46137745
  0
VERTEX
  8
0
 10
9.16518732
 20
3.21784304
  0
VERTEX
  8
0
 10
9.21305764
 20
3.10885674
  0
SEQEND
  0
POLYLINE
  8
Default_Layer
 66
   1
 39
0.000000
 70
    1
  0
VERTEX
  8
0
 10
8.32324961
 20
7.43796433
  0
VERTEX
  8
0
 10
7.84680584
 20
7.43495627
  0
VERTEX
  8
0
 10
7.84759181
 20
7.51741395
  0
VERTEX
  8
0
 10
8.00324785
 20
7.51698785
  0
VERTEX
  8
0
 10
8.01537028
 20
7.51650882
  0
VERTEX
  8
0
 10
8.32583018
 20
7.51767072
  0
VERTEX
  8
0
 10
8.32324961
 20
7.43796433
  0
SEQEND
  0
POLYLINE
  8
Default_Layer
 66
   1
 39
0.000000
 70
    1
  0
VERTEX
  8
0
 10
5.33463274
 20
6.97287407
  0
VERTEX
  8
0
 10
5.40661031
 20
7.04065730
  0
VERTEX
  8
0
 10
7.43726872
 20
7.07915509
  0
VERTEX
  8
0
 10
7.80745031
 20
7.07822556
  0
VERTEX
  8
0
 10
9.35338539
 20
2.80280400
  0
VERTEX
  8
0
 10
9.33502826
 20
2.80259480
  0
VERTEX
  8
0
 10
9.15008261
 20
3.32241411
  0
VERTEX
  8
0
 10
9.12568269
 20
3.39398720
  0
VERTEX
  8
0
 10
9.09268471
 20
3.49762875
  0
VERTEX
  8
0
 10
8.99090220
 20
3.74766981
  0
VERTEX
  8
0
 10
8.97393845
 20
3.81877814
  0
VERTEX
  8
0
 10
8.90747772
 20
3.99073946
  0
VERTEX
  8
0
 10
8.90213298
 20
3.99213374
  0
VERTEX
  8
0
 10
8.83148941
 20
4.19430448
  0
VERTEX
  8
0
 10
8.80406855
 20
4.25751188
  0
VERTEX
  8
0
 10
8.72322930
 20
4.47214401
  0
VERTEX
  8
0
 10
8.65023288
 20
4.68973898
  0
VERTEX
  8
0
 10
8.64070530
 20
4.69159802
  0
VERTEX
  8
0
 10
8.58545691
 20
4.84752511
  0
VERTEX
  8
0
 10
8.52776854
 20
5.00275506
  0
VERTEX
  8
0
 10
8.45508075
 20
5.17216020
  0
VERTEX
  8
0
 10
8.36768765
 20
5.33685964
  0
VERTEX
  8
0
 10
8.25715821
 20
5.48404342
  0
VERTEX
  8
0
 10
8.11506137
 20
5.60090160
  0
VERTEX
  8
0
 10
7.87106220
 20
5.71755644
  0
VERTEX
  8
0
 10
7.78740534
 20
5.73754113
  0
VERTEX
  8
0
 10
7.69143234
 20
5.76751817
  0
VERTEX
  8
0
 10
7.58657079
 20
5.85216265
  0
VERTEX
  8
0
 10
7.54934639
 20
5.90502913
  0
VERTEX
  8
0
 10
7.54270903
 20
5.96992129
  0
VERTEX
  8
0
 10
7.56989751
 20
6.08518185
  0
VERTEX
  8
0
 10
7.69544089
 20
6.19480719
  0
VERTEX
  8
0
 10
7.75348510
 20
6.25380271
  0
VERTEX
  8
0
 10
7.80111577
 20
6.32290676
  0
VERTEX
  8
0
 10
7.84317658
 20
6.48115765
  0
VERTEX
  8
0
 10
7.80343957
 20
6.67496270
  0
VERTEX
  8
0
 10
7.73546838
 20
6.79966371
  0
VERTEX
  8
0
 10
7.65425151
 20
6.91617331
  0
VERTEX
  8
0
 10
7.58208658
 20
6.97512525
  0
VERTEX
  8
0
 10
7.49730776
 20
7.01377298
  0
VERTEX
  8
0
 10
7.40560111
 20
7.03394648
  0
VERTEX
  8
0
 10
7.31265267
 20
7.03747576
  0
VERTEX
  8
0
 10
5.33463274
 20
6.97287407
  0
SEQEND
  0
POLYLINE
  8
Default_Layer
 66
   1
 39
0.000000
 70
    1
  0
VERTEX
  8
0
 10
9.39737108
 20
2.85743175
  0
VERTEX
  8
0
 10
11.29625885
 20
3.08796764
  0
VERTEX
  8
0
 10
9.40477127
 20
7.16807341
  0
VERTEX
  8
0
 10
7.81395349
 20
7.17087968
  0
VERTEX
  8
0
 10
9.39737108
 20
2.85743175
  0
SEQEND
  0
POLYLINE
  8
Default_Layer
 66
   1
 39
0.000000
 70
    0
  0
VERTEX
  8
0
 10
0.00000000
 20
0.00000000
  0
VERTEX
  8
0
 10
0.00010000
 20
0.00010000
  0
SEQEND
  0
POLYLINE
  8
Default_Layer
 66
   1
 39
0.000000
 70
    1
  0
VERTEX
  8
0
 10
11.24382787
 20
7.04630620
  0
VERTEX
  8
0
 10
11.18671681
 20
7.13642976
  0
VERTEX
  8
0
 10
11.10047836
 20
7.19407094
  0
VERTEX
  8
0
 10
10.99824924
 20
7.22587434
  0
VERTEX
  8
0
 10
10.89316620
 20
7.23848460
  0
VERTEX
  8
0
 10
10.77793886
 20
7.24894236
  0
VERTEX
  8
0
 10
10.72676569
 20
7.26562407
  0
VERTEX
  8
0
 10
10.68634786
 20
7.29704440
  0
VERTEX
  8
0
 10
10.51252750
 20
7.46366097
  0
VERTEX
  8
0
 10
10.49645599
 20
7.51292557
  0
VERTEX
  8
0
 10
10.44699629
 20
7.75343903
  0
VERTEX
  8
0
 10
10.50927418
 20
7.64933272
  0
VERTEX
  8
0
 10
10.56527780
 20
7.59356148
  0
VERTEX
  8
0
 10
10.69424879
 20
7.46714667
  0
VERTEX
  8
0
 10
10.83280546
 20
7.41134639
  0
VERTEX
  8
0
 10
10.98007638
 20
7.38395458
  0
VERTEX
  8
0
 10
11.11555402
 20
7.35606896
  0
VERTEX
  8
0
 10
11.22783340
 20
7.32631597
  0
VERTEX
  8
0
 10
11.33329423
 20
7.28449587
  0
VERTEX
  8
0
 10
11.38324136
 20
7.22856720
  0
VERTEX
  8
0
 10
11.40660948
 20
7.16263111
  0
VERTEX
  8
0
 10
11.40300564
 20
7.12527969
  0
VERTEX
  8
0
 10
11.38581215
 20
7.08952891
  0
VERTEX
  8
0
 10
11.34549956
 20
7.04226212
  0
VERTEX
  8
0
 10
11.30287406
 20
7.02005051
  0
VERTEX
  8
0
 10
11.26622153
 20
7.02177243
  0
VERTEX
  8
0
 10
11.24382787
 20
7.04630620
  0
SEQEND
  0
POLYLINE
  8
Default_Layer
 66
   1
 39
0.000000
 70
    1
  0
VERTEX
  8
0
 10
9.88568201
 20
7.03759195
  0
VERTEX
  8
0
 10
10.08494800
 20
6.96520553
  0
VERTEX
  8
0
 10
10.14176132
 20
7.03646635
  0
VERTEX
  8
0
 10
10.17415294
 20
7.12136499
  0
VERTEX
  8
0
 10
10.22414372
 20
7.29913582
  0
VERTEX
  8
0
 10
10.20693306
 20
7.34699524
  0
VERTEX
  8
0
 10
10.17150961
 20
7.38049792
  0
VERTEX
  8
0
 10
10.07634994
 20
7.41532590
  0
VERTEX
  8
0
 10
9.89651674
 20
7.45924575
  0
VERTEX
  8
0
 10
9.72173781
 20
7.52059411
  0
VERTEX
  8
0
 10
9.65806564
 20
7.41323448
  0
VERTEX
  8
0
 10
9.62652004
 20
7.43330631
  0
VERTEX
  8
0
 10
9.59114016
 20
7.44135248
  0
VERTEX
  8
0
 10
8.32745684
 20
7.44135248
  0
VERTEX
  8
0
 10
8.32931588
 20
7.51919983
  0
VERTEX
  8
0
 10
9.47564722
 20
7.51943221
  0
VERTEX
  8
0
 10
9.61475579
 20
7.53215502
  0
VERTEX
  8
0
 10
9.68397240
 20
7.53903929
  0
VERTEX
  8
0
 10
9.75334151
 20
7.53058646
  0
VERTEX
  8
0
 10
9.89111390
 20
7.50970464
  0
VERTEX
  8
0
 10
10.02609773
 20
7.47002014
  0
VERTEX
  8
0
 10
10.30547678
 20
7.37580333
  0
VERTEX
  8
0
 10
10.57968537
 20
7.28844633
  0
VERTEX
  8
0
 10
10.76953996
 20
7.21942942
  0
VERTEX
  8
0
 10
10.85947108
 20
7.18300009
  0
VERTEX
  8
0
 10
10.93127655
 20
7.12833640
  0
VERTEX
  8
0
 10
10.92761656
 20
7.05449760
  0
VERTEX
  8
0
 10
10.90966520
 20
6.98309880
  0
VERTEX
  8
0
 10
10.87155485
 20
6.95986078
  0
VERTEX
  8
0
 10
10.73470594
 20
6.91053729
  0
VERTEX
  8
0
 10
10.61703116
 20
6.85080172
  0
VERTEX
  8
0
 10
10.49686048
 20
6.77313619
  0
VERTEX
  8
0
 10
10.36939817
 20
6.66190495
  0
VERTEX
  8
0
 10
10.31451266
 20
6.59506194
  0
VERTEX
  8
0
 10
10.27061975
 20
6.51903561
  0
VERTEX
  8
0
 10
10.20023761
 20
6.49768569
  0
VERTEX
  8
0
 10
10.12863547
 20
6.50439566
  0
VERTEX
  8
0
 10
9.84513168
 20
6.63592284
  0
VERTEX
  8
0
 10
9.83862503
 20
6.72143874
  0
VERTEX
  8
0
 10
9.80234468
 20
6.90507716
  0
VERTEX
  8
0
 10
9.74706725
 20
7.08418417
  0
VERTEX
  8
0
 10
9.88568201
 20
7.03759195
  0
SEQEND
  0
POLYLINE
  8
Default_Layer
 66
   1
 39
0.000000
 70
    0
  0
VERTEX
  8
0
 10
10.89316620
 20
7.23848460
  0
VERTEX
  8
0
 10
10.99824924
 20
7.22587434
  0
VERTEX
  8
0
 10
11.10047836
 20
7.19407094
  0
VERTEX
  8
0
 10
11.18671681
 20
7.13642976
  0
VERTEX
  8
0
 10
11.24382787
 20
7.04630620
  0
SEQEND
  0
POLYLINE
  8
Default_Layer
 66
   1
 39
0.000000
 70
    1
  0
VERTEX
  8
0
 10
10.63290042
 20
6.70005976
  0
VERTEX
  8
0
 10
10.54135716
 20
6.60898489
  0
VERTEX
  8
0
 10
10.47116383
 20
6.50093901
  0
VERTEX
  8
0
 10
10.42049043
 20
6.38160817
  0
VERTEX
  8
0
 10
10.38750697
 20
6.25667841
  0
VERTEX
  8
0
 10
10.38773935
 20
6.10168084
  0
VERTEX
  8
0
 10
10.47069907
 20
5.79842473
  0
VERTEX
  8
0
 10
10.53552950
 20
5.66668697
  0
VERTEX
  8
0
 10
10.61393239
 20
5.54239989
  0
VERTEX
  8
0
 10
10.69072314
 20
5.41732853
  0
VERTEX
  8
0
 10
10.75071717
 20
5.28323791
  0
VERTEX
  8
0
 10
10.62662616
 20
5.28254077
  0
VERTEX
  8
0
 10
10.56036877
 20
5.34217533
  0
VERTEX
  8
0
 10
10.52461127
 20
5.42359553
  0
VERTEX
  8
0
 10
10.43559877
 20
5.63522850
  0
VERTEX
  8
0
 10
10.36394943
 20
5.85466073
  0
VERTEX
  8
0
 10
10.32720069
 20
6.07984437
  0
VERTEX
  8
0
 10
10.32739449
 20
6.19395302
  0
VERTEX
  8
0
 10
10.34288998
 20
6.30873157
  0
VERTEX
  8
0
 10
10.36988239
 20
6.41192288
  0
VERTEX
  8
0
 10
10.41138403
 20
6.51084421
  0
VERTEX
  8
0
 10
10.46987848
 20
6.59956986
  0
VERTEX
  8
0
 10
10.54784928
 20
6.67217414
  0
VERTEX
  8
0
 10
10.62257521
 20
6.70924666
  0
VERTEX
  8
0
 10
10.63527950
 20
6.70719601
  0
VERTEX
  8
0
 10
10.63290042
 20
6.70005976
  0
SEQEND
  0
POLYLINE
  8
Default_Layer
 66
   1
 39
0.000000
 70
    1
  0
VERTEX
  8
0
 10
8.12601455
 20
7.55293223
  0
VERTEX
  8
0
 10
8.04729796
 20
7.55454739
  0
VERTEX
  8
0
 10
8.04787177
 20
8.37671852
  0
VERTEX
  8
0
 10
8.12542785
 20
8.43414358
  0
VERTEX
  8
0
 10
8.12601455
 20
7.55293223
  0
SEQEND
  0
POLYLINE
  8
Default_Layer
 66
   1
 39
0.000000
 70
    1
  0
VERTEX
  8
0
 10
8.22270313
 20
7.55293223
  0
VERTEX
  8
0
 10
8.14398653
 20
7.55454739
  0
VERTEX
  8
0
 10
8.14456034
 20
8.37671852
  0
VERTEX
  8
0
 10
8.22211643
 20
8.43414358
  0
VERTEX
  8
0
 10
8.22270313
 20
7.55293223
  0
SEQEND
  0
POLYLINE
  8
Default_Layer
 66
   1
 39
0.000000
 70
    1
  0
VERTEX
  8
0
 10
8.31370414
 20
7.55293223
  0
VERTEX
  8
0
 10
8.23498754
 20
7.55454739
  0
VERTEX
  8
0
 10
8.23556136
 20
8.37671852
  0
VERTEX
  8
0
 10
8.31311744
 20
8.43414358
  0
VERTEX
  8
0
 10
8.31370414
 20
7.55293223
  0
SEQEND
  0
POLYLINE
  8
Default_Layer
 66
   1
 39
0.000000
 70
    1
  0
VERTEX
  8
0
 10
8.40925520
 20
7.55293223
  0
VERTEX
  8
0
 10
8.33053860
 20
7.55454739
  0
VERTEX
  8
0
 10
8.33111242
 20
8.37671852
  0
VERTEX
  8
0
 10
8.40866850
 20
8.43414358
  0
VERTEX
  8
0
 10
8.40925520
 20
7.55293223
  0
SEQEND
  0
POLYLINE
  8
Default_Layer
 66
   1
 39
0.000000
 70
    1
  0
VERTEX
  8
0
 10
7.93718745
 20
7.55293223
  0
VERTEX
  8
0
 10
7.85847086
 20
7.55454739
  0
VERTEX
  8
0
 10
7.85904467
 20
8.37671852
  0
VERTEX
  8
0
 10
7.93660075
 20
8.43414358
  0
VERTEX
  8
0
 10
7.93718745
 20
7.55293223
  0
SEQEND
  0
POLYLINE
  8
Default_Layer
 66
   1
 39
0.000000
 70
    1
  0
VERTEX
  8
0
 10
8.50480626
 20
7.55293223
  0
VERTEX
  8
0
 10
8.42608966
 20
7.55454739
  0
VERTEX
  8
0
 10
8.42666348
 20
8.37671852
  0
VERTEX
  8
0
 10
8.50421956
 20
8.43414358
  0
VERTEX
  8
0
 10
8.50480626
 20
7.55293223
  0
SEQEND
  0
POLYLINE
  8
Default_Layer
 66
   1
 39
0.000000
 70
    1
  0
VERTEX
  8
0
 10
8.59808230
 20
7.55293223
  0
VERTEX
  8
0
 10
8.51936570
 20
7.55454739
  0
VERTEX
  8
0
 10
8.51993952
 20
8.37671852
  0
VERTEX
  8
0
 10
8.59749560
 20
8.43414358
  0
VERTEX
  8
0
 10
8.59808230
 20
7.55293223
  0
SEQEND
  0
POLYLINE
  8
Default_Layer
 66
   1
 39
0.000000
 70
    1
  0
VERTEX
  8
0
 10
8.69477087
 20
7.55293223
  0
VERTEX
  8
0
 10
8.61605428
 20
7.55454739
  0
VERTEX
  8
0
 10
8.61662809
 20
8.37671852
  0
VERTEX
  8
0
 10
8.69418417
 20
8.43414358
  0
VERTEX
  8
0
 10
8.69477087
 20
7.55293223
  0
SEQEND
  0
POLYLINE
  8
Default_Layer
 66
   1
 39
0.000000
 70
    1
  0
VERTEX
  8
0
 10
8.78577188
 20
7.55293223
  0
VERTEX
  8
0
 10
8.70705529
 20
7.55454739
  0
VERTEX
  8
0
 10
8.70762910
 20
8.37671852
  0
VERTEX
  8
0
 10
8.78518518
 20
8.43414358
  0
VERTEX
  8
0
 10
8.78577188
 20
7.55293223
  0
SEQEND
  0
POLYLINE
  8
Default_Layer
 66
   1
 39
0.000000
 70
    1
  0
VERTEX
  8
0
 10
8.88132294
 20
7.55293223
  0
VERTEX
  8
0
 10
8.80260635
 20
7.55454739
  0
VERTEX
  8
0
 10
8.80318016
 20
8.37671852
  0
VERTEX
  8
0
 10
8.88073624
 20
8.43414358
  0
VERTEX
  8
0
 10
8.88132294
 20
7.55293223
  0
SEQEND
  0
POLYLINE
  8
Default_Layer
 66
   1
 39
0.000000
 70
    1
  0
VERTEX
  8
0
 10
8.97687401
 20
7.55293223
  0
VERTEX
  8
0
 10
8.89815741
 20
7.55454739
  0
VERTEX
  8
0
 10
8.89873122
 20
8.37671852
  0
VERTEX
  8
0
 10
8.97628731
 20
8.43414358
  0
VERTEX
  8
0
 10
8.97687401
 20
7.55293223
  0
SEQEND
  0
POLYLINE
  8
Default_Layer
 66
   1
 39
0.000000
 70
    1
  0
VERTEX
  8
0
 10
9.07015004
 20
7.55293223
  0
VERTEX
  8
0
 10
8.99143345
 20
7.55454739
  0
VERTEX
  8
0
 10
8.99200726
 20
8.37671852
  0
VERTEX
  8
0
 10
9.06956334
 20
8.43414358
  0
VERTEX
  8
0
 10
9.07015004
 20
7.55293223
  0
SEQEND
  0
POLYLINE
  8
Default_Layer
 66
   1
 39
0.000000
 70
    1
  0
VERTEX
  8
0
 10
9.16683862
 20
7.55293223
  0
VERTEX
  8
0
 10
9.08812202
 20
7.55454739
  0
VERTEX
  8
0
 10
9.08869583
 20
8.37671852
  0
VERTEX
  8
0
 10
9.16625192
 20
8.43414358
  0
VERTEX
  8
0
 10
9.16683862
 20
7.55293223
  0
SEQEND
  0
POLYLINE
  8
Default_Layer
 66
   1
 39
0.000000
 70
    1
  0
VERTEX
  8
0
 10
9.25783963
 20
7.55293223
  0
VERTEX
  8
0
 10
9.17912303
 20
7.55454739
  0
VERTEX
  8
0
 10
9.17969685
 20
8.37671852
  0
VERTEX
  8
0
 10
9.25725293
 20
8.43414358
  0
VERTEX
  8
0
 10
9.25783963
 20
7.55293223
  0
SEQEND
  0
POLYLINE
  8
Default_Layer
 66
   1
 39
0.000000
 70
    1
  0
VERTEX
  8
0
 10
9.35339069
 20
7.55293223
  0
VERTEX
  8
0
 10
9.27467409
 20
7.55454739
  0
VERTEX
  8
0
 10
9.27524791
 20
8.37671852
  0
VERTEX
  8
0
 10
9.35280399
 20
8.43414358
  0
VERTEX
  8
0
 10
9.35339069
 20
7.55293223
  0
SEQEND
  0
POLYLINE
  8
Default_Layer
 66
   1
 39
0.000000
 70
    1
  0
VERTEX
  8
0
 10
9.44894175
 20
7.55293223
  0
VERTEX
  8
0
 10
9.37022515
 20
7.55454739
  0
VERTEX
  8
0
 10
9.37079897
 20
8.37671852
  0
VERTEX
  8
0
 10
9.44835505
 20
8.43414358
  0
VERTEX
  8
0
 10
9.44894175
 20
7.55293223
  0
SEQEND
  0
POLYLINE
  8
Default_Layer
 66
   1
 39
0.000000
 70
    1
  0
VERTEX
  8
0
 10
9.54221779
 20
7.55293223
  0
VERTEX
  8
0
 10
9.46350119
 20
7.55454739
  0
VERTEX
  8
0
 10
9.46407501
 20
8.37671852
  0
VERTEX
  8
0
 10
9.54163109
 20
8.43414358
  0
VERTEX
  8
0
 10
9.54221779
 20
7.55293223
  0
SEQEND
  0
POLYLINE
  8
Default_Layer
 66
   1
 39
0.000000
 70
    1
  0
VERTEX
  8
0
 10
9.45768384
 20
8.40020180
  0
VERTEX
  8
0
 10
9.45788539
 20
8.47681409
  0
VERTEX
  8
0
 10
9.36362510
 20
8.39562736
  0
VERTEX
  8
0
 10
9.36327029
 20
8.40020180
  0
VERTEX
  8
0
 10
9.36347184
 20
8.47681409
  0
VERTEX
  8
0
 10
9.26921155
 20
8.39562736
  0
VERTEX
  8
0
 10
9.26885675
 20
8.40020180
  0
VERTEX
  8
0
 10
9.26905829
 20
8.47681409
  0
VERTEX
  8
0
 10
9.17479800
 20
8.39562736
  0
VERTEX
  8
0
 10
9.17444320
 20
8.40020180
  0
VERTEX
  8
0
 10
9.17464474
 20
8.47681409
  0
VERTEX
  8
0
 10
9.08038445
 20
8.39562736
  0
VERTEX
  8
0
 10
9.08002965
 20
8.40020180
  0
VERTEX
  8
0
 10
9.08023120
 20
8.47681409
  0
VERTEX
  8
0
 10
8.98597090
 20
8.39562736
  0
VERTEX
  8
0
 10
8.98561610
 20
8.40020180
  0
VERTEX
  8
0
 10
8.98581765
 20
8.47681409
  0
VERTEX
  8
0
 10
8.89155735
 20
8.39562736
  0
VERTEX
  8
0
 10
8.89120255
 20
8.40020180
  0
VERTEX
  8
0
 10
8.89140410
 20
8.47681409
  0
VERTEX
  8
0
 10
8.79714380
 20
8.39562736
  0
VERTEX
  8
0
 10
8.79678900
 20
8.40020180
  0
VERTEX
  8
0
 10
8.79699055
 20
8.47681409
  0
VERTEX
  8
0
 10
8.70273025
 20
8.39562736
  0
VERTEX
  8
0
 10
8.70251764
 20
8.40020180
  0
VERTEX
  8
0
 10
8.70271919
 20
8.47681409
  0
VERTEX
  8
0
 10
8.60845889
 20
8.39562736
  0
VERTEX
  8
0
 10
8.60810409
 20
8.40020180
  0
VERTEX
  8
0
 10
8.60830564
 20
8.47681409
  0
VERTEX
  8
0
 10
8.51404535
 20
8.39562736
  0
VERTEX
  8
0
 10
8.51369054
 20
8.40020180
  0
VERTEX
  8
0
 10
8.51389209
 20
8.47681409
  0
VERTEX
  8
0
 10
8.41963180
 20
8.39562736
  0
VERTEX
  8
0
 10
8.41927699
 20
8.40020180
  0
VERTEX
  8
0
 10
8.41947854
 20
8.47681409
  0
VERTEX
  8
0
 10
8.32521825
 20
8.39562736
  0
VERTEX
  8
0
 10
8.32486344
 20
8.40020180
  0
VERTEX
  8
0
 10
8.32506499
 20
8.47681409
  0
VERTEX
  8
0
 10
8.23080470
 20
8.39562736
  0
VERTEX
  8
0
 10
8.23044989
 20
8.40020180
  0
VERTEX
  8
0
 10
8.23065144
 20
8.47681409
  0
VERTEX
  8
0
 10
8.13639115
 20
8.39562736
  0
VERTEX
  8
0
 10
8.13603635
 20
8.40020180
  0
VERTEX
  8
0
 10
8.13623789
 20
8.47681409
  0
VERTEX
  8
0
 10
8.04197760
 20
8.39562736
  0
VERTEX
  8
0
 10
8.04162280
 20
8.40020180
  0
VERTEX
  8
0
 10
8.04182435
 20
8.47681409
  0
VERTEX
  8
0
 10
7.94756405
 20
8.39562736
  0
VERTEX
  8
0
 10
7.94718534
 20
8.48078894
  0
VERTEX
  8
0
 10
7.83422420
 20
8.38087974
  0
VERTEX
  8
0
 10
0.40491999
 20
8.38519741
  0
VERTEX
  8
0
 10
0.40232519
 20
8.63262166
  0
VERTEX
  8
0
 10
0.41677444
 20
8.90570501
  0
VERTEX
  8
0
 10
0.43548875
 20
8.96068351
  0
VERTEX
  8
0
 10
0.47427624
 20
9.00296626
  0
VERTEX
  8
0
 10
0.59894226
 20
9.05582651
  0
VERTEX
  8
0
 10
0.76451554
 20
9.07704982
  0
VERTEX
  8
0
 10
0.94473910
 20
9.07940024
  0
VERTEX
  8
0
 10
3.01478158
 20
9.07475263
  0
VERTEX
  8
0
 10
4.40836541
 20
9.07940024
  0
VERTEX
  8
0
 10
4.47714994
 20
9.07860554
  0
VERTEX
  8
0
 10
5.21728075
 20
9.08023220
  0
VERTEX
  8
0
 10
5.23915354
 20
8.94411374
  0
VERTEX
  8
0
 10
5.30930330
 20
8.82935918
  0
VERTEX
  8
0
 10
7.03309934
 20
8.83005632
  0
VERTEX
  8
0
 10
7.07062873
 20
8.94848306
  0
VERTEX
  8
0
 10
7.08166679
 20
9.07196407
  0
VERTEX
  8
0
 10
9.31938743
 20
9.07335835
  0
VERTEX
  8
0
 10
9.31874460
 20
8.75825085
  0
VERTEX
  8
0
 10
9.72821591
 20
8.75697713
  0
VERTEX
  8
0
 10
9.71704143
 20
9.07382311
  0
VERTEX
  8
0
 10
10.09726415
 20
9.07335835
  0
VERTEX
  8
0
 10
10.10888316
 20
8.84004867
  0
VERTEX
  8
0
 10
10.18481338
 20
8.59355141
  0
VERTEX
  8
0
 10
10.26388073
 20
8.34809987
  0
VERTEX
  8
0
 10
10.24482555
 20
8.34577607
  0
VERTEX
  8
0
 10
9.56659114
 20
8.34972653
  0
VERTEX
  8
0
 10
9.56264068
 20
8.48218322
  0
VERTEX
  8
0
 10
9.45768384
 20
8.40020180
  0
SEQEND
  0
POLYLINE
  8
Default_Layer
 66
   1
 39
0.000000
 70
    1
  0
VERTEX
  8
0
 10
6.29273614
 20
7.08604321
  0
VERTEX
  8
0
 10
6.22777936
 20
7.07935905
  0
VERTEX
  8
0
 10
6.16295917
 20
7.08633480
  0
VERTEX
  8
0
 10
6.08777684
 20
7.10951361
  0
VERTEX
  8
0
 10
6.03935462
 20
7.14303444
  0
VERTEX
  8
0
 10
6.00295808
 20
7.18875524
  0
VERTEX
  8
0
 10
5.98912995
 20
7.27236880
  0
VERTEX
  8
0
 10
6.01155615
 20
7.35792800
  0
VERTEX
  8
0
 10
6.06148157
 20
7.41606298
  0
VERTEX
  8
0
 10
6.13262621
 20
7.43714059
  0
VERTEX
  8
0
 10
6.28925044
 20
7.43740201
  0
VERTEX
  8
0
 10
7.03774694
 20
7.43647249
  0
VERTEX
  8
0
 10
7.10351053
 20
7.31005769
  0
VERTEX
  8
0
 10
7.14541212
 20
7.21408468
  0
VERTEX
  8
0
 10
7.18599398
 20
7.11615369
  0
VERTEX
  8
0
 10
6.29273614
 20
7.08604321
  0
SEQEND
  0
ENDSEC
  0
EOF
