0
SECTION
2
HEADER
9
$ACADVER
1
AC1003
9
$INSBASE
10
0.0
20
0.0
30
0.0
9
$EXTMIN
10
0.000
20
0.000
30
0.0
9
$EXTMAX
10
758.000
20
569.000
30
0.0
9
$LIMMIN
10
0.000
20
0.000
9
$LIMMAX
10
758.000
20
569.000
9
$LTSCALE
40
1.0
9
$LUNITS
70
2
9
$LUPREC
70
3
9
$LIMCHECK
70
0
9
$UCSNAME
2

9
$UCSORG
10
0.0
20
0.0
30
0.0
9
$UCSXDIR
10
1.0
20
0.0
30
0.0
9
$UCSYDIR
10
0.0
20
1.0
30
0.0
9
$WORLDVIEW
70
1
9
$UNITMODE
70
0
0
ENDSEC
0
SECTION
2
TABLES
0
TABLE
2
VPORT
70
1
0
VPORT
2
*ACTIVE
70
0
10
0.0
20
0.0
11
1.0
21
1.0
12
379.000
22
284.500
13
0.0
23
0.0
14
1.0
24
1.0
15
0.0
25
0.0
16
0.0
26
0.0
36
1.0
17
0.0
27
0.0
37
0.0
40
500.0
41
0.751
42
50.0
43
0.0
44
0.0
50
0.0
51
0.0
71
0
72
100
73
1
74
1
75
0
76
0
77
0
78
0
0
ENDTAB
0
TABLE
2
LTYPE
70
1
0
LTYPE
2
CONTINUOUS
70
64
3
Solid line
72
65
73
0
40
0.000
0
ENDTAB
0
TABLE
2
LAYER
70
1
0
LAYER
2
0
70
64
62
7
6
CONTINUOUS
0
ENDTAB
0
ENDSEC
0
SECTION
2
BLOCKS
0
ENDSEC
0
SECTION
2
ENTITIES
0
POLYLINE
8
0
6
CONTINUOUS
66
1
62
7
10
0.0
20
0.0
30
0.000000
0
VERTEX
8
0
10
378.000000
20
471.000000
0
VERTEX
8
0
10
379.000000
20
472.000000
0
SEQEND
0
POLYLINE
8
0
6
CONTINUOUS
66
1
62
7
10
0.0
20
0.0
30
0.000000
0
VERTEX
8
0
10
380.000000
20
471.000000
0
VERTEX
8
0
10
379.000000
20
472.000000
0
SEQEND
0
POLYLINE
8
0
6
CONTINUOUS
66
1
62
7
10
0.0
20
0.0
30
0.000000
0
VERTEX
8
0
10
380.000000
20
470.000000
0
VERTEX
8
0
10
378.000000
20
471.000000
0
SEQEND
0
POLYLINE
8
0
6
CONTINUOUS
66
1
62
7
10
0.0
20
0.0
30
0.000000
0
VERTEX
8
0
10
380.000000
20
470.000000
0
VERTEX
8
0
10
380.000000
20
471.000000
0
SEQEND
0
POLYLINE
8
0
6
CONTINUOUS
66
1
62
7
10
0.0
20
0.0
30
0.000000
0
VERTEX
8
0
10
386.000000
20
469.000000
0
VERTEX
8
0
10
385.000000
20
470.000000
0
SEQEND
0
POLYLINE
8
0
6
CONTINUOUS
66
1
62
7
10
0.0
20
0.0
30
0.000000
0
VERTEX
8
0
10
385.000000
20
470.000000
0
VERTEX
8
0
10
384.000000
20
469.000000
0
VERTEX
8
0
10
385.000000
20
468.000000
0
VERTEX
8
0
10
386.000000
20
469.000000
0
SEQEND
0
POLYLINE
8
0
6
CONTINUOUS
66
1
62
7
10
0.0
20
0.0
30
0.000000
0
VERTEX
8
0
10
614.000000
20
467.000000
0
VERTEX
8
0
10
613.000000
20
468.000000
0
SEQEND
0
POLYLINE
8
0
6
CONTINUOUS
66
1
62
7
10
0.0
20
0.0
30
0.000000
0
VERTEX
8
0
10
154.000000
20
466.000000
0
VERTEX
8
0
10
155.000000
20
467.000000
0
SEQEND
0
POLYLINE
8
0
6
CONTINUOUS
66
1
62
7
10
0.0
20
0.0
30
0.000000
0
VERTEX
8
0
10
384.000000
20
466.000000
0
VERTEX
8
0
10
380.000000
20
469.000000
0
VERTEX
8
0
10
380.000000
20
470.000000
0
SEQEND
0
POLYLINE
8
0
6
CONTINUOUS
66
1
62
7
10
0.0
20
0.0
30
0.000000
0
VERTEX
8
0
10
613.000000
20
468.000000
0
VERTEX
8
0
10
612.000000
20
467.000000
0
VERTEX
8
0
10
613.000000
20
466.000000
0
VERTEX
8
0
10
614.000000
20
467.000000
0
SEQEND
0
POLYLINE
8
0
6
CONTINUOUS
66
1
62
7
10
0.0
20
0.0
30
0.000000
0
VERTEX
8
0
10
154.000000
20
466.000000
0
VERTEX
8
0
10
155.000000
20
465.000000
0
VERTEX
8
0
10
156.000000
20
466.000000
0
VERTEX
8
0
10
155.000000
20
467.000000
0
SEQEND
0
POLYLINE
8
0
6
CONTINUOUS
66
1
62
7
10
0.0
20
0.0
30
0.000000
0
VERTEX
8
0
10
241.000000
20
454.000000
0
VERTEX
8
0
10
245.000000
20
457.000000
0
VERTEX
8
0
10
245.500000
20
459.000000
0
VERTEX
8
0
10
245.000000
20
461.000000
0
VERTEX
8
0
10
242.100000
20
463.200000
0
VERTEX
8
0
10
241.000000
20
464.000000
0
VERTEX
8
0
10
238.000000
20
461.000000
0
VERTEX
8
0
10
237.800000
20
457.900000
0
VERTEX
8
0
10
241.000000
20
454.000000
0
SEQEND
0
POLYLINE
8
0
6
CONTINUOUS
66
1
62
7
10
0.0
20
0.0
30
0.000000
0
VERTEX
8
0
10
525.000000
20
454.000000
0
VERTEX
8
0
10
530.000000
20
458.000000
0
VERTEX
8
0
10
529.000000
20
462.000000
0
VERTEX
8
0
10
526.000000
20
464.000000
0
VERTEX
8
0
10
523.000000
20
463.000000
0
VERTEX
8
0
10
521.000000
20
460.000000
0
VERTEX
8
0
10
522.000000
20
456.000000
0
VERTEX
8
0
10
525.000000
20
454.000000
0
SEQEND
0
POLYLINE
8
0
6
CONTINUOUS
66
1
62
7
10
0.0
20
0.0
30
0.000000
0
VERTEX
8
0
10
583.000000
20
440.000000
0
VERTEX
8
0
10
581.000000
20
443.000000
0
SEQEND
0
POLYLINE
8
0
6
CONTINUOUS
66
1
62
7
10
0.0
20
0.0
30
0.000000
0
VERTEX
8
0
10
183.000000
20
439.000000
0
VERTEX
8
0
10
182.000000
20
440.000000
0
SEQEND
0
POLYLINE
8
0
6
CONTINUOUS
66
1
62
7
10
0.0
20
0.0
30
0.000000
0
VERTEX
8
0
10
379.000000
20
472.000000
0
VERTEX
8
0
10
371.100000
20
477.200000
0
VERTEX
8
0
10
364.000000
20
479.000000
0
VERTEX
8
0
10
356.000000
20
479.000000
0
VERTEX
8
0
10
354.911765
20
478.352941
0
VERTEX
8
0
10
352.000000
20
478.000000
0
VERTEX
8
0
10
348.000000
20
474.000000
0
VERTEX
8
0
10
348.000000
20
471.000000
0
VERTEX
8
0
10
357.900000
20
463.800000
0
VERTEX
8
0
10
371.000000
20
458.000000
0
VERTEX
8
0
10
371.000000
20
454.000000
0
VERTEX
8
0
10
367.000000
20
450.000000
0
VERTEX
8
0
10
361.000000
20
450.000000
0
VERTEX
8
0
10
359.911765
20
450.647059
0
VERTEX
8
0
10
352.000000
20
453.000000
0
VERTEX
8
0
10
329.000000
20
477.000000
0
VERTEX
8
0
10
315.000000
20
481.000000
0
VERTEX
8
0
10
311.000000
20
481.000000
0
VERTEX
8
0
10
299.000000
20
477.000000
0
VERTEX
8
0
10
293.000000
20
471.000000
0
VERTEX
8
0
10
290.000000
20
466.000000
0
VERTEX
8
0
10
287.000000
20
465.000000
0
VERTEX
8
0
10
283.000000
20
465.000000
0
VERTEX
8
0
10
280.000000
20
466.000000
0
VERTEX
8
0
10
277.000000
20
470.000000
0
VERTEX
8
0
10
277.000000
20
473.000000
0
VERTEX
8
0
10
281.000000
20
475.000000
0
VERTEX
8
0
10
282.000000
20
476.000000
0
VERTEX
8
0
10
282.000000
20
478.000000
0
VERTEX
8
0
10
276.000000
20
482.000000
0
VERTEX
8
0
10
272.000000
20
482.000000
0
VERTEX
8
0
10
270.100000
20
480.800000
0
VERTEX
8
0
10
268.000000
20
480.000000
0
VERTEX
8
0
10
265.800000
20
477.100000
0
VERTEX
8
0
10
264.800000
20
475.100000
0
VERTEX
8
0
10
263.000000
20
472.000000
0
VERTEX
8
0
10
247.000000
20
481.000000
0
VERTEX
8
0
10
243.900000
20
480.300000
0
VERTEX
8
0
10
242.000000
20
480.000000
0
VERTEX
8
0
10
239.000000
20
477.000000
0
VERTEX
8
0
10
239.000000
20
471.000000
0
VERTEX
8
0
10
240.000000
20
469.000000
0
VERTEX
8
0
10
243.900000
20
466.800000
0
VERTEX
8
0
10
245.000000
20
466.000000
0
VERTEX
8
0
10
248.100000
20
466.800000
0
VERTEX
8
0
10
249.000000
20
467.000000
0
VERTEX
8
0
10
254.000000
20
474.000000
0
VERTEX
8
0
10
265.180000
20
465.240000
0
VERTEX
8
0
10
270.100000
20
463.200000
0
VERTEX
8
0
10
277.000000
20
461.000000
0
VERTEX
8
0
10
287.000000
20
461.000000
0
VERTEX
8
0
10
291.000000
20
463.000000
0
VERTEX
8
0
10
294.000000
20
456.000000
0
VERTEX
8
0
10
298.900000
20
452.800000
0
VERTEX
8
0
10
307.000000
20
450.000000
0
VERTEX
8
0
10
310.000000
20
450.000000
0
VERTEX
8
0
10
317.000000
20
454.000000
0
VERTEX
8
0
10
319.200000
20
456.900000
0
VERTEX
8
0
10
320.000000
20
458.000000
0
VERTEX
8
0
10
320.000000
20
464.000000
0
VERTEX
8
0
10
319.000000
20
466.000000
0
VERTEX
8
0
10
318.750000
20
466.750000
0
VERTEX
8
0
10
314.100000
20
465.700000
0
VERTEX
8
0
10
313.000000
20
465.000000
0
VERTEX
8
0
10
309.800000
20
468.900000
0
VERTEX
8
0
10
309.000000
20
470.000000
0
VERTEX
8
0
10
310.000000
20
474.000000
0
VERTEX
8
0
10
312.000000
20
476.000000
0
VERTEX
8
0
10
316.000000
20
477.000000
0
VERTEX
8
0
10
317.088235
20
476.352941
0
VERTEX
8
0
10
323.820000
20
473.760000
0
VERTEX
8
0
10
327.180000
20
471.240000
0
VERTEX
8
0
10
336.000000
20
463.000000
0
VERTEX
8
0
10
336.200000
20
462.100000
0
VERTEX
8
0
10
345.000000
20
450.000000
0
VERTEX
8
0
10
355.000000
20
440.000000
0
VERTEX
8
0
10
362.000000
20
439.000000
0
VERTEX
8
0
10
366.000000
20
439.000000
0
VERTEX
8
0
10
369.911765
20
440.352941
0
VERTEX
8
0
10
376.000000
20
443.000000
0
VERTEX
8
0
10
377.230769
20
444.846154
0
VERTEX
8
0
10
381.000000
20
452.000000
0
VERTEX
8
0
10
379.760000
20
454.820000
0
VERTEX
8
0
10
377.000000
20
459.000000
0
VERTEX
8
0
10
367.900000
20
463.700000
0
VERTEX
8
0
10
364.900000
20
464.800000
0
VERTEX
8
0
10
360.000000
20
468.000000
0
VERTEX
8
0
10
359.000000
20
470.000000
0
VERTEX
8
0
10
359.000000
20
473.000000
0
VERTEX
8
0
10
361.000000
20
475.000000
0
VERTEX
8
0
10
367.000000
20
475.000000
0
VERTEX
8
0
10
373.900000
20
472.800000
0
VERTEX
8
0
10
378.000000
20
471.000000
0
SEQEND
0
POLYLINE
8
0
6
CONTINUOUS
66
1
62
7
10
0.0
20
0.0
30
0.000000
0
VERTEX
8
0
10
386.000000
20
469.000000
0
VERTEX
8
0
10
392.900000
20
473.200000
0
VERTEX
8
0
10
396.000000
20
475.000000
0
VERTEX
8
0
10
407.000000
20
475.000000
0
VERTEX
8
0
10
409.000000
20
473.000000
0
VERTEX
8
0
10
408.300000
20
470.900000
0
VERTEX
8
0
10
408.000000
20
469.000000
0
VERTEX
8
0
10
406.153846
20
467.769231
0
VERTEX
8
0
10
403.846154
20
466.230769
0
VERTEX
8
0
10
391.000000
20
460.000000
0
VERTEX
8
0
10
388.000000
20
457.000000
0
VERTEX
8
0
10
385.000000
20
451.000000
0
VERTEX
8
0
10
392.000000
20
442.000000
0
VERTEX
8
0
10
394.100000
20
441.200000
0
VERTEX
8
0
10
394.900000
20
440.800000
0
VERTEX
8
0
10
401.000000
20
439.000000
0
VERTEX
8
0
10
405.000000
20
439.000000
0
VERTEX
8
0
10
412.900000
20
442.200000
0
VERTEX
8
0
10
414.100000
20
442.800000
0
VERTEX
8
0
10
428.000000
20
456.000000
0
VERTEX
8
0
10
430.243902
20
460.804878
0
VERTEX
8
0
10
433.756098
20
465.195122
0
VERTEX
8
0
10
440.000000
20
472.000000
0
VERTEX
8
0
10
451.000000
20
477.000000
0
VERTEX
8
0
10
453.000000
20
477.000000
0
VERTEX
8
0
10
457.000000
20
474.000000
0
VERTEX
8
0
10
457.200000
20
473.100000
0
VERTEX
8
0
10
458.500000
20
470.000000
0
VERTEX
8
0
10
458.000000
20
468.000000
0
VERTEX
8
0
10
455.000000
20
465.000000
0
VERTEX
8
0
10
449.000000
20
467.000000
0
VERTEX
8
0
10
446.000000
20
464.000000
0
VERTEX
8
0
10
446.000000
20
461.000000
0
VERTEX
8
0
10
448.000000
20
457.000000
0
VERTEX
8
0
10
453.000000
20
452.000000
0
VERTEX
8
0
10
459.000000
20
450.000000
0
VERTEX
8
0
10
463.000000
20
450.000000
0
VERTEX
8
0
10
470.000000
20
453.000000
0
VERTEX
8
0
10
471.200000
20
454.900000
0
VERTEX
8
0
10
473.200000
20
458.900000
0
VERTEX
8
0
10
476.000000
20
463.000000
0
VERTEX
8
0
10
477.000000
20
463.000000
0
VERTEX
8
0
10
480.000000
20
461.000000
0
VERTEX
8
0
10
489.000000
20
461.000000
0
VERTEX
8
0
10
498.846154
20
464.230769
0
VERTEX
8
0
10
501.900000
20
466.200000
0
VERTEX
8
0
10
513.000000
20
474.000000
0
VERTEX
8
0
10
514.000000
20
473.000000
0
VERTEX
8
0
10
514.000000
20
470.000000
0
VERTEX
8
0
10
517.000000
20
467.000000
0
VERTEX
8
0
10
521.000000
20
466.000000
0
VERTEX
8
0
10
524.000000
20
467.000000
0
VERTEX
8
0
10
527.000000
20
470.000000
0
VERTEX
8
0
10
528.000000
20
473.000000
0
VERTEX
8
0
10
526.800000
20
476.900000
0
VERTEX
8
0
10
526.000000
20
479.000000
0
VERTEX
8
0
10
523.100000
20
480.300000
0
VERTEX
8
0
10
522.000000
20
481.000000
0
VERTEX
8
0
10
515.900000
20
479.200000
0
VERTEX
8
0
10
509.195122
20
474.756098
0
VERTEX
8
0
10
505.000000
20
471.000000
0
VERTEX
8
0
10
503.000000
20
472.000000
0
VERTEX
8
0
10
501.000000
20
478.000000
0
VERTEX
8
0
10
497.100000
20
480.200000
0
VERTEX
8
0
10
491.000000
20
482.000000
0
VERTEX
8
0
10
484.000000
20
477.000000
0
VERTEX
8
0
10
489.000000
20
474.000000
0
VERTEX
8
0
10
489.000000
20
470.000000
0
VERTEX
8
0
10
488.000000
20
468.000000
0
VERTEX
8
0
10
485.100000
20
465.800000
0
VERTEX
8
0
10
484.000000
20
465.000000
0
VERTEX
8
0
10
476.000000
20
466.000000
0
VERTEX
8
0
10
470.230769
20
474.153846
0
VERTEX
8
0
10
470.000000
20
475.000000
0
VERTEX
8
0
10
463.100000
20
479.200000
0
VERTEX
8
0
10
457.000000
20
481.000000
0
VERTEX
8
0
10
452.000000
20
481.000000
0
VERTEX
8
0
10
443.088235
20
478.647059
0
VERTEX
8
0
10
439.900000
20
477.200000
0
VERTEX
8
0
10
422.230032
20
461.750799
0
VERTEX
8
0
10
410.000000
20
450.000000
0
VERTEX
8
0
10
402.000000
20
450.000000
0
VERTEX
8
0
10
398.000000
20
451.000000
0
VERTEX
8
0
10
395.000000
20
455.000000
0
VERTEX
8
0
10
395.000000
20
456.000000
0
VERTEX
8
0
10
398.000000
20
460.000000
0
VERTEX
8
0
10
398.900000
20
460.200000
0
VERTEX
8
0
10
410.100000
20
463.800000
0
VERTEX
8
0
10
415.000000
20
466.000000
0
VERTEX
8
0
10
417.300000
20
470.900000
0
VERTEX
8
0
10
418.000000
20
472.000000
0
VERTEX
8
0
10
417.200000
20
475.100000
0
VERTEX
8
0
10
417.000000
20
476.000000
0
VERTEX
8
0
10
415.100000
20
477.200000
0
VERTEX
8
0
10
408.000000
20
479.000000
0
VERTEX
8
0
10
400.000000
20
479.000000
0
VERTEX
8
0
10
390.000000
20
476.000000
0
VERTEX
8
0
10
385.000000
20
470.000000
0
SEQEND
0
POLYLINE
8
0
6
CONTINUOUS
66
1
62
7
10
0.0
20
0.0
30
0.000000
0
VERTEX
8
0
10
213.000000
20
437.000000
0
VERTEX
8
0
10
215.760000
20
440.180000
0
VERTEX
8
0
10
221.200000
20
447.900000
0
VERTEX
8
0
10
221.594595
20
449.067568
0
VERTEX
8
0
10
223.000000
20
459.000000
0
VERTEX
8
0
10
222.000000
20
464.000000
0
VERTEX
8
0
10
218.100000
20
466.200000
0
VERTEX
8
0
10
217.000000
20
467.000000
0
VERTEX
8
0
10
210.000000
20
466.000000
0
VERTEX
8
0
10
206.000000
20
459.000000
0
VERTEX
8
0
10
199.846154
20
462.769231
0
VERTEX
8
0
10
193.100000
20
466.200000
0
VERTEX
8
0
10
184.000000
20
470.000000
0
VERTEX
8
0
10
179.000000
20
470.000000
0
VERTEX
8
0
10
174.000000
20
468.000000
0
VERTEX
8
0
10
170.000000
20
462.000000
0
VERTEX
8
0
10
170.000000
20
459.000000
0
VERTEX
8
0
10
172.000000
20
455.000000
0
VERTEX
8
0
10
175.153846
20
453.230769
0
VERTEX
8
0
10
183.100000
20
450.300000
0
VERTEX
8
0
10
206.788235
20
442.752941
0
VERTEX
8
0
10
213.000000
20
437.000000
0
SEQEND
0
POLYLINE
8
0
6
CONTINUOUS
66
1
62
7
10
0.0
20
0.0
30
0.000000
0
VERTEX
8
0
10
553.000000
20
437.000000
0
VERTEX
8
0
10
556.846154
20
440.230769
0
VERTEX
8
0
10
565.100000
20
444.700000
0
VERTEX
8
0
10
569.900000
20
446.300000
0
VERTEX
8
0
10
591.000000
20
452.000000
0
VERTEX
8
0
10
596.000000
20
460.000000
0
VERTEX
8
0
10
595.200000
20
463.100000
0
VERTEX
8
0
10
594.200000
20
465.100000
0
VERTEX
8
0
10
590.000000
20
470.000000
0
VERTEX
8
0
10
580.000000
20
470.000000
0
VERTEX
8
0
10
572.100000
20
465.800000
0
VERTEX
8
0
10
570.900000
20
465.200000
0
VERTEX
8
0
10
566.204918
20
462.754098
0
VERTEX
8
0
10
561.000000
20
458.000000
0
VERTEX
8
0
10
559.700000
20
460.900000
0
VERTEX
8
0
10
558.800000
20
462.900000
0
VERTEX
8
0
10
557.000000
20
466.000000
0
VERTEX
8
0
10
555.000000
20
467.000000
0
VERTEX
8
0
10
548.000000
20
466.000000
0
VERTEX
8
0
10
543.000000
20
459.000000
0
VERTEX
8
0
10
543.000000
20
453.000000
0
VERTEX
8
0
10
547.200000
20
445.100000
0
VERTEX
8
0
10
553.000000
20
437.000000
0
SEQEND
0
POLYLINE
8
0
6
CONTINUOUS
66
1
62
7
10
0.0
20
0.0
30
0.000000
0
VERTEX
8
0
10
383.000000
20
434.000000
0
VERTEX
8
0
10
386.000000
20
436.000000
0
VERTEX
8
0
10
387.000000
20
439.000000
0
VERTEX
8
0
10
384.000000
20
443.000000
0
VERTEX
8
0
10
381.000000
20
443.000000
0
VERTEX
8
0
10
378.000000
20
439.000000
0
VERTEX
8
0
10
378.000000
20
437.000000
0
VERTEX
8
0
10
379.900000
20
435.800000
0
VERTEX
8
0
10
383.000000
20
434.000000
0
SEQEND
0
POLYLINE
8
0
6
CONTINUOUS
66
1
62
7
10
0.0
20
0.0
30
0.000000
0
VERTEX
8
0
10
165.000000
20
429.000000
0
VERTEX
8
0
10
167.000000
20
430.000000
0
VERTEX
8
0
10
169.200000
20
432.900000
0
VERTEX
8
0
10
170.000000
20
434.000000
0
VERTEX
8
0
10
170.000000
20
440.000000
0
VERTEX
8
0
10
167.000000
20
443.000000
0
VERTEX
8
0
10
162.000000
20
444.000000
0
VERTEX
8
0
10
159.000000
20
442.000000
0
VERTEX
8
0
10
157.800000
20
440.100000
0
VERTEX
8
0
10
157.000000
20
439.000000
0
VERTEX
8
0
10
157.000000
20
436.000000
0
VERTEX
8
0
10
158.200000
20
434.100000
0
VERTEX
8
0
10
160.000000
20
431.000000
0
VERTEX
8
0
10
165.000000
20
429.000000
0
SEQEND
0
POLYLINE
8
0
6
CONTINUOUS
66
1
62
7
10
0.0
20
0.0
30
0.000000
0
VERTEX
8
0
10
581.000000
20
443.000000
0
VERTEX
8
0
10
594.923077
20
445.384615
0
VERTEX
8
0
10
598.804878
20
447.243902
0
VERTEX
8
0
10
607.000000
20
454.000000
0
VERTEX
8
0
10
607.800000
20
456.100000
0
VERTEX
8
0
10
610.000000
20
461.000000
0
VERTEX
8
0
10
608.300000
20
466.100000
0
VERTEX
8
0
10
607.000000
20
470.000000
0
VERTEX
8
0
10
600.100000
20
476.200000
0
VERTEX
8
0
10
597.000000
20
478.000000
0
VERTEX
8
0
10
588.000000
20
478.000000
0
VERTEX
8
0
10
580.088235
20
475.647059
0
VERTEX
8
0
10
571.153846
20
470.769231
0
VERTEX
8
0
10
563.000000
20
466.000000
0
VERTEX
8
0
10
562.000000
20
467.000000
0
VERTEX
8
0
10
561.000000
20
470.000000
0
VERTEX
8
0
10
555.000000
20
476.000000
0
VERTEX
8
0
10
548.000000
20
479.000000
0
VERTEX
8
0
10
541.000000
20
477.000000
0
VERTEX
8
0
10
536.000000
20
472.000000
0
VERTEX
8
0
10
535.000000
20
468.000000
0
VERTEX
8
0
10
535.647059
20
463.911765
0
VERTEX
8
0
10
537.352941
20
457.088235
0
VERTEX
8
0
10
545.200000
20
443.100000
0
VERTEX
8
0
10
555.000000
20
429.000000
0
VERTEX
8
0
10
557.000000
20
430.000000
0
VERTEX
8
0
10
566.000000
20
440.000000
0
VERTEX
8
0
10
569.200000
20
441.400000
0
VERTEX
8
0
10
572.923077
20
442.384615
0
VERTEX
8
0
10
581.000000
20
443.000000
0
SEQEND
0
POLYLINE
8
0
6
CONTINUOUS
66
1
62
7
10
0.0
20
0.0
30
0.000000
0
VERTEX
8
0
10
603.000000
20
429.000000
0
VERTEX
8
0
10
607.000000
20
431.000000
0
VERTEX
8
0
10
608.200000
20
432.900000
0
VERTEX
8
0
10
610.000000
20
439.000000
0
VERTEX
8
0
10
606.000000
20
444.000000
0
VERTEX
8
0
10
604.000000
20
445.000000
0
VERTEX
8
0
10
601.900000
20
444.200000
0
VERTEX
8
0
10
601.000000
20
444.000000
0
VERTEX
8
0
10
596.000000
20
439.000000
0
VERTEX
8
0
10
596.000000
20
434.000000
0
VERTEX
8
0
10
600.000000
20
430.000000
0
VERTEX
8
0
10
602.100000
20
429.200000
0
VERTEX
8
0
10
603.000000
20
429.000000
0
SEQEND
0
POLYLINE
8
0
6
CONTINUOUS
66
1
62
7
10
0.0
20
0.0
30
0.000000
0
VERTEX
8
0
10
212.000000
20
428.000000
0
VERTEX
8
0
10
202.000000
20
439.000000
0
VERTEX
8
0
10
201.153846
20
439.230769
0
VERTEX
8
0
10
197.000000
20
442.000000
0
VERTEX
8
0
10
187.000000
20
442.000000
0
VERTEX
8
0
10
185.153846
20
440.769231
0
VERTEX
8
0
10
183.000000
20
439.000000
0
SEQEND
0
POLYLINE
8
0
6
CONTINUOUS
66
1
62
7
10
0.0
20
0.0
30
0.000000
0
VERTEX
8
0
10
212.000000
20
428.000000
0
VERTEX
8
0
10
227.769231
20
453.153846
0
VERTEX
8
0
10
231.000000
20
463.000000
0
VERTEX
8
0
10
231.000000
20
468.000000
0
VERTEX
8
0
10
228.000000
20
476.000000
0
VERTEX
8
0
10
224.100000
20
478.200000
0
VERTEX
8
0
10
223.000000
20
479.000000
0
VERTEX
8
0
10
217.000000
20
479.000000
0
VERTEX
8
0
10
212.000000
20
477.000000
0
VERTEX
8
0
10
208.000000
20
473.000000
0
VERTEX
8
0
10
204.000000
20
465.000000
0
VERTEX
8
0
10
194.820000
20
471.760000
0
VERTEX
8
0
10
184.923077
20
476.615385
0
VERTEX
8
0
10
181.076923
20
477.384615
0
VERTEX
8
0
10
180.000000
20
478.000000
0
VERTEX
8
0
10
168.000000
20
478.000000
0
VERTEX
8
0
10
160.000000
20
470.000000
0
VERTEX
8
0
10
157.000000
20
463.000000
0
VERTEX
8
0
10
159.000000
20
455.000000
0
VERTEX
8
0
10
166.000000
20
448.000000
0
VERTEX
8
0
10
174.088235
20
445.352941
0
VERTEX
8
0
10
178.088235
20
444.352941
0
VERTEX
8
0
10
181.000000
20
444.000000
0
VERTEX
8
0
10
183.000000
20
442.000000
0
VERTEX
8
0
10
182.000000
20
440.000000
0
SEQEND
0
POLYLINE
8
0
6
CONTINUOUS
66
1
62
7
10
0.0
20
0.0
30
0.000000
0
VERTEX
8
0
10
212.000000
20
427.000000
0
VERTEX
8
0
10
212.000000
20
428.000000
0
SEQEND
0
POLYLINE
8
0
6
CONTINUOUS
66
1
62
7
10
0.0
20
0.0
30
0.000000
0
VERTEX
8
0
10
182.000000
20
440.000000
0
VERTEX
8
0
10
177.000000
20
432.000000
0
VERTEX
8
0
10
179.800000
20
425.900000
0
VERTEX
8
0
10
180.000000
20
425.000000
0
VERTEX
8
0
10
182.846154
20
422.769231
0
VERTEX
8
0
10
185.000000
20
421.000000
0
VERTEX
8
0
10
191.000000
20
422.000000
0
VERTEX
8
0
10
195.000000
20
427.000000
0
VERTEX
8
0
10
193.800000
20
430.900000
0
VERTEX
8
0
10
192.000000
20
434.000000
0
VERTEX
8
0
10
190.000000
20
434.000000
0
VERTEX
8
0
10
189.000000
20
433.000000
0
VERTEX
8
0
10
189.000000
20
431.000000
0
VERTEX
8
0
10
186.000000
20
428.000000
0
VERTEX
8
0
10
183.900000
20
428.800000
0
VERTEX
8
0
10
183.000000
20
429.000000
0
VERTEX
8
0
10
181.800000
20
430.900000
0
VERTEX
8
0
10
181.000000
20
432.000000
0
VERTEX
8
0
10
181.700000
20
435.100000
0
VERTEX
8
0
10
183.000000
20
439.000000
0
SEQEND
0
POLYLINE
8
0
6
CONTINUOUS
66
1
62
7
10
0.0
20
0.0
30
0.000000
0
VERTEX
8
0
10
583.000000
20
440.000000
0
VERTEX
8
0
10
584.200000
20
437.100000
0
VERTEX
8
0
10
585.000000
20
436.000000
0
VERTEX
8
0
10
584.000000
20
431.000000
0
VERTEX
8
0
10
580.000000
20
428.000000
0
VERTEX
8
0
10
578.800000
20
429.900000
0
VERTEX
8
0
10
576.000000
20
434.000000
0
VERTEX
8
0
10
572.000000
20
431.000000
0
VERTEX
8
0
10
574.800000
20
422.900000
0
VERTEX
8
0
10
575.000000
20
422.000000
0
VERTEX
8
0
10
576.000000
20
421.000000
0
VERTEX
8
0
10
581.000000
20
421.000000
0
VERTEX
8
0
10
582.900000
20
422.200000
0
VERTEX
8
0
10
587.000000
20
425.000000
0
VERTEX
8
0
10
587.700000
20
427.100000
0
VERTEX
8
0
10
589.000000
20
430.000000
0
VERTEX
8
0
10
588.000000
20
437.000000
0
VERTEX
8
0
10
584.000000
20
441.000000
0
VERTEX
8
0
10
583.000000
20
440.000000
0
SEQEND
0
POLYLINE
8
0
6
CONTINUOUS
66
1
62
7
10
0.0
20
0.0
30
0.000000
0
VERTEX
8
0
10
155.000000
20
467.000000
0
VERTEX
8
0
10
148.000000
20
476.000000
0
VERTEX
8
0
10
145.900000
20
476.700000
0
VERTEX
8
0
10
143.000000
20
478.000000
0
VERTEX
8
0
10
134.000000
20
478.000000
0
VERTEX
8
0
10
132.100000
20
476.800000
0
VERTEX
8
0
10
126.000000
20
473.000000
0
VERTEX
8
0
10
122.000000
20
464.000000
0
VERTEX
8
0
10
122.700000
20
459.900000
0
VERTEX
8
0
10
125.230769
20
454.153846
0
VERTEX
8
0
10
129.000000
20
449.000000
0
VERTEX
8
0
10
139.804878
20
440.756098
0
VERTEX
8
0
10
148.000000
20
434.000000
0
VERTEX
8
0
10
150.200000
20
429.100000
0
VERTEX
8
0
10
151.500000
20
426.000000
0
VERTEX
8
0
10
151.200000
20
424.900000
0
VERTEX
8
0
10
148.000000
20
420.000000
0
VERTEX
8
0
10
147.153846
20
419.769231
0
VERTEX
8
0
10
145.000000
20
419.000000
0
VERTEX
8
0
10
141.000000
20
421.000000
0
VERTEX
8
0
10
141.000000
20
424.000000
0
VERTEX
8
0
10
143.000000
20
427.000000
0
VERTEX
8
0
10
141.100000
20
428.200000
0
VERTEX
8
0
10
140.000000
20
429.000000
0
VERTEX
8
0
10
135.000000
20
429.000000
0
VERTEX
8
0
10
133.000000
20
428.000000
0
VERTEX
8
0
10
131.000000
20
425.000000
0
VERTEX
8
0
10
131.000000
20
416.000000
0
VERTEX
8
0
10
132.000000
20
414.000000
0
VERTEX
8
0
10
133.000000
20
413.000000
0
VERTEX
8
0
10
143.000000
20
409.000000
0
VERTEX
8
0
10
145.000000
20
409.000000
0
VERTEX
8
0
10
150.000000
20
412.000000
0
VERTEX
8
0
10
152.230769
20
414.846154
0
VERTEX
8
0
10
155.300000
20
420.900000
0
VERTEX
8
0
10
156.000000
20
422.000000
0
VERTEX
8
0
10
156.000000
20
426.000000
0
VERTEX
8
0
10
154.700000
20
428.900000
0
VERTEX
8
0
10
154.300000
20
430.100000
0
VERTEX
8
0
10
147.240000
20
440.180000
0
VERTEX
8
0
10
141.756098
20
446.804878
0
VERTEX
8
0
10
134.000000
20
459.000000
0
VERTEX
8
0
10
136.000000
20
466.000000
0
VERTEX
8
0
10
139.000000
20
469.000000
0
VERTEX
8
0
10
142.000000
20
470.000000
0
VERTEX
8
0
10
149.000000
20
470.000000
0
VERTEX
8
0
10
154.000000
20
466.000000
0
SEQEND
0
POLYLINE
8
0
6
CONTINUOUS
66
1
62
7
10
0.0
20
0.0
30
0.000000
0
VERTEX
8
0
10
624.000000
20
408.000000
0
VERTEX
8
0
10
617.000000
20
411.000000
0
VERTEX
8
0
10
611.000000
20
421.000000
0
VERTEX
8
0
10
611.000000
20
425.000000
0
VERTEX
8
0
10
613.200000
20
431.900000
0
VERTEX
8
0
10
613.800000
20
433.100000
0
VERTEX
8
0
10
623.752212
20
446.216814
0
VERTEX
8
0
10
631.200000
20
456.900000
0
VERTEX
8
0
10
633.000000
20
460.000000
0
VERTEX
8
0
10
632.000000
20
465.000000
0
VERTEX
8
0
10
628.000000
20
469.000000
0
VERTEX
8
0
10
626.100000
20
469.300000
0
VERTEX
8
0
10
625.000000
20
470.000000
0
VERTEX
8
0
10
617.000000
20
470.000000
0
VERTEX
8
0
10
614.000000
20
467.000000
0
SEQEND
0
POLYLINE
8
0
6
CONTINUOUS
66
1
62
7
10
0.0
20
0.0
30
0.000000
0
VERTEX
8
0
10
625.000000
20
408.000000
0
VERTEX
8
0
10
624.000000
20
408.000000
0
SEQEND
0
POLYLINE
8
0
6
CONTINUOUS
66
1
62
7
10
0.0
20
0.0
30
0.000000
0
VERTEX
8
0
10
680.000000
20
381.000000
0
VERTEX
8
0
10
680.000000
20
382.000000
0
SEQEND
0
POLYLINE
8
0
6
CONTINUOUS
66
1
62
7
10
0.0
20
0.0
30
0.000000
0
VERTEX
8
0
10
678.000000
20
354.000000
0
VERTEX
8
0
10
686.211765
20
360.752941
0
VERTEX
8
0
10
694.100000
20
364.800000
0
VERTEX
8
0
10
699.000000
20
368.000000
0
VERTEX
8
0
10
702.200000
20
371.900000
0
VERTEX
8
0
10
705.000000
20
378.000000
0
VERTEX
8
0
10
702.230769
20
383.153846
0
VERTEX
8
0
10
702.000000
20
384.000000
0
VERTEX
8
0
10
699.100000
20
385.300000
0
VERTEX
8
0
10
698.000000
20
386.000000
0
VERTEX
8
0
10
693.000000
20
386.000000
0
VERTEX
8
0
10
688.000000
20
384.000000
0
VERTEX
8
0
10
683.230769
20
377.846154
0
VERTEX
8
0
10
680.000000
20
374.000000
0
VERTEX
8
0
10
675.100000
20
378.200000
0
VERTEX
8
0
10
673.900000
20
378.800000
0
VERTEX
8
0
10
667.000000
20
381.000000
0
VERTEX
8
0
10
665.000000
20
380.000000
0
VERTEX
8
0
10
661.800000
20
376.100000
0
VERTEX
8
0
10
661.000000
20
375.000000
0
VERTEX
8
0
10
661.000000
20
370.000000
0
VERTEX
8
0
10
664.000000
20
366.000000
0
VERTEX
8
0
10
678.000000
20
354.000000
0
SEQEND
0
POLYLINE
8
0
6
CONTINUOUS
66
1
62
7
10
0.0
20
0.0
30
0.000000
0
VERTEX
8
0
10
87.000000
20
353.000000
0
VERTEX
8
0
10
100.000000
20
364.000000
0
VERTEX
8
0
10
101.769231
20
367.153846
0
VERTEX
8
0
10
102.200000
20
367.900000
0
VERTEX
8
0
10
104.000000
20
371.000000
0
VERTEX
8
0
10
104.000000
20
375.000000
0
VERTEX
8
0
10
100.000000
20
380.000000
0
VERTEX
8
0
10
96.000000
20
381.000000
0
VERTEX
8
0
10
94.900000
20
380.300000
0
VERTEX
8
0
10
91.204918
20
378.754098
0
VERTEX
8
0
10
86.000000
20
374.000000
0
VERTEX
8
0
10
82.000000
20
380.000000
0
VERTEX
8
0
10
75.100000
20
385.200000
0
VERTEX
8
0
10
74.000000
20
386.000000
0
VERTEX
8
0
10
66.000000
20
386.000000
0
VERTEX
8
0
10
64.000000
20
385.000000
0
VERTEX
8
0
10
61.800000
20
381.100000
0
VERTEX
8
0
10
61.000000
20
380.000000
0
VERTEX
8
0
10
61.000000
20
375.000000
0
VERTEX
8
0
10
62.000000
20
373.000000
0
VERTEX
8
0
10
69.846154
20
366.769231
0
VERTEX
8
0
10
75.153846
20
363.230769
0
VERTEX
8
0
10
80.000000
20
361.000000
0
VERTEX
8
0
10
87.000000
20
353.000000
0
SEQEND
0
POLYLINE
8
0
6
CONTINUOUS
66
1
62
7
10
0.0
20
0.0
30
0.000000
0
VERTEX
8
0
10
69.000000
20
348.000000
0
VERTEX
8
0
10
68.000000
20
348.000000
0
SEQEND
0
POLYLINE
8
0
6
CONTINUOUS
66
1
62
7
10
0.0
20
0.0
30
0.000000
0
VERTEX
8
0
10
615.000000
20
342.000000
0
VERTEX
8
0
10
614.000000
20
342.000000
0
VERTEX
8
0
10
611.769231
20
344.846154
0
VERTEX
8
0
10
607.000000
20
354.000000
0
VERTEX
8
0
10
607.000000
20
361.000000
0
VERTEX
8
0
10
608.000000
20
363.000000
0
VERTEX
8
0
10
613.000000
20
367.000000
0
VERTEX
8
0
10
619.000000
20
365.000000
0
VERTEX
8
0
10
623.230769
20
359.153846
0
VERTEX
8
0
10
626.200000
20
354.100000
0
VERTEX
8
0
10
628.000000
20
351.000000
0
VERTEX
8
0
10
628.900000
20
350.800000
0
VERTEX
8
0
10
632.000000
20
349.500000
0
VERTEX
8
0
10
634.000000
20
350.000000
0
VERTEX
8
0
10
636.200000
20
352.900000
0
VERTEX
8
0
10
637.000000
20
354.000000
0
VERTEX
8
0
10
635.300000
20
358.100000
0
VERTEX
8
0
10
630.751381
20
364.776243
0
VERTEX
8
0
10
622.248619
20
374.223757
0
VERTEX
8
0
10
616.000000
20
385.000000
0
VERTEX
8
0
10
616.000000
20
394.000000
0
VERTEX
8
0
10
617.384615
20
398.923077
0
VERTEX
8
0
10
617.800000
20
400.100000
0
VERTEX
8
0
10
624.000000
20
408.000000
0
SEQEND
0
POLYLINE
8
0
6
CONTINUOUS
66
1
62
7
10
0.0
20
0.0
30
0.000000
0
VERTEX
8
0
10
616.000000
20
341.000000
0
VERTEX
8
0
10
615.000000
20
342.000000
0
SEQEND
0
POLYLINE
8
0
6
CONTINUOUS
66
1
62
7
10
0.0
20
0.0
30
0.000000
0
VERTEX
8
0
10
615.000000
20
342.000000
0
VERTEX
8
0
10
614.700000
20
344.900000
0
VERTEX
8
0
10
613.000000
20
350.000000
0
VERTEX
8
0
10
613.000000
20
356.000000
0
VERTEX
8
0
10
615.000000
20
358.000000
0
VERTEX
8
0
10
618.000000
20
357.000000
0
VERTEX
8
0
10
631.000000
20
341.000000
0
VERTEX
8
0
10
637.000000
20
341.000000
0
VERTEX
8
0
10
641.000000
20
342.000000
0
VERTEX
8
0
10
644.000000
20
345.000000
0
VERTEX
8
0
10
645.000000
20
357.000000
0
VERTEX
8
0
10
639.000000
20
366.000000
0
VERTEX
8
0
10
634.000000
20
371.000000
0
VERTEX
8
0
10
623.846154
20
378.769231
0
VERTEX
8
0
10
623.000000
20
379.000000
0
VERTEX
8
0
10
619.800000
20
382.900000
0
VERTEX
8
0
10
618.000000
20
387.000000
0
VERTEX
8
0
10
618.647059
20
391.088235
0
VERTEX
8
0
10
619.800000
20
395.100000
0
VERTEX
8
0
10
623.000000
20
399.000000
0
VERTEX
8
0
10
626.000000
20
398.000000
0
VERTEX
8
0
10
627.000000
20
397.000000
0
VERTEX
8
0
10
627.000000
20
389.000000
0
VERTEX
8
0
10
628.000000
20
388.000000
0
VERTEX
8
0
10
635.000000
20
389.000000
0
VERTEX
8
0
10
638.000000
20
392.000000
0
VERTEX
8
0
10
639.000000
20
401.000000
0
VERTEX
8
0
10
635.000000
20
405.000000
0
VERTEX
8
0
10
628.900000
20
407.800000
0
VERTEX
8
0
10
627.000000
20
409.000000
0
VERTEX
8
0
10
628.900000
20
410.200000
0
VERTEX
8
0
10
630.100000
20
410.800000
0
VERTEX
8
0
10
634.000000
20
414.000000
0
VERTEX
8
0
10
634.230769
20
414.846154
0
VERTEX
8
0
10
637.000000
20
419.000000
0
VERTEX
8
0
10
637.000000
20
421.000000
0
VERTEX
8
0
10
634.000000
20
427.000000
0
VERTEX
8
0
10
633.100000
20
427.200000
0
VERTEX
8
0
10
630.000000
20
429.000000
0
VERTEX
8
0
10
627.000000
20
429.000000
0
VERTEX
8
0
10
624.000000
20
427.000000
0
VERTEX
8
0
10
624.647059
20
425.911765
0
VERTEX
8
0
10
626.000000
20
421.000000
0
VERTEX
8
0
10
623.000000
20
418.000000
0
VERTEX
8
0
10
622.000000
20
418.000000
0
VERTEX
8
0
10
616.000000
20
423.000000
0
VERTEX
8
0
10
615.000000
20
425.000000
0
VERTEX
8
0
10
616.230769
20
428.846154
0
VERTEX
8
0
10
618.240000
20
431.820000
0
VERTEX
8
0
10
624.000000
20
439.000000
0
VERTEX
8
0
10
628.180000
20
441.760000
0
VERTEX
8
0
10
634.000000
20
446.000000
0
VERTEX
8
0
10
642.230769
20
454.846154
0
VERTEX
8
0
10
645.000000
20
461.000000
0
VERTEX
8
0
10
645.000000
20
463.000000
0
VERTEX
8
0
10
641.000000
20
472.000000
0
VERTEX
8
0
10
638.180000
20
474.240000
0
VERTEX
8
0
10
634.820000
20
476.760000
0
VERTEX
8
0
10
629.000000
20
479.000000
0
VERTEX
8
0
10
625.000000
20
479.000000
0
VERTEX
8
0
10
621.100000
20
476.800000
0
VERTEX
8
0
10
619.000000
20
476.000000
0
VERTEX
8
0
10
614.769231
20
471.153846
0
VERTEX
8
0
10
613.000000
20
468.000000
0
SEQEND
0
POLYLINE
8
0
6
CONTINUOUS
66
1
62
7
10
0.0
20
0.0
30
0.000000
0
VERTEX
8
0
10
132.000000
20
339.000000
0
VERTEX
8
0
10
132.000000
20
340.000000
0
SEQEND
0
POLYLINE
8
0
6
CONTINUOUS
66
1
62
7
10
0.0
20
0.0
30
0.000000
0
VERTEX
8
0
10
83.000000
20
337.000000
0
VERTEX
8
0
10
83.000000
20
339.000000
0
SEQEND
0
POLYLINE
8
0
6
CONTINUOUS
66
1
62
7
10
0.0
20
0.0
30
0.000000
0
VERTEX
8
0
10
615.000000
20
336.000000
0
VERTEX
8
0
10
618.000000
20
339.000000
0
SEQEND
0
POLYLINE
8
0
6
CONTINUOUS
66
1
62
7
10
0.0
20
0.0
30
0.000000
0
VERTEX
8
0
10
613.000000
20
335.000000
0
VERTEX
8
0
10
615.000000
20
336.000000
0
SEQEND
0
POLYLINE
8
0
6
CONTINUOUS
66
1
62
7
10
0.0
20
0.0
30
0.000000
0
VERTEX
8
0
10
614.000000
20
334.000000
0
VERTEX
8
0
10
613.000000
20
335.000000
0
SEQEND
0
POLYLINE
8
0
6
CONTINUOUS
66
1
62
7
10
0.0
20
0.0
30
0.000000
0
VERTEX
8
0
10
614.000000
20
334.000000
0
VERTEX
8
0
10
615.000000
20
336.000000
0
SEQEND
0
POLYLINE
8
0
6
CONTINUOUS
66
1
62
7
10
0.0
20
0.0
30
0.000000
0
VERTEX
8
0
10
83.000000
20
339.000000
0
VERTEX
8
0
10
84.000000
20
339.000000
0
VERTEX
8
0
10
86.000000
20
341.000000
0
VERTEX
8
0
10
86.000000
20
342.000000
0
VERTEX
8
0
10
109.200000
20
362.900000
0
VERTEX
8
0
10
110.200000
20
364.900000
0
VERTEX
8
0
10
113.000000
20
373.000000
0
VERTEX
8
0
10
113.000000
20
383.000000
0
VERTEX
8
0
10
111.000000
20
387.000000
0
VERTEX
8
0
10
108.000000
20
390.000000
0
VERTEX
8
0
10
105.900000
20
390.700000
0
VERTEX
8
0
10
103.000000
20
392.000000
0
VERTEX
8
0
10
95.000000
20
392.000000
0
VERTEX
8
0
10
93.000000
20
391.000000
0
VERTEX
8
0
10
86.000000
20
381.000000
0
VERTEX
8
0
10
81.000000
20
389.000000
0
VERTEX
8
0
10
76.153846
20
393.230769
0
VERTEX
8
0
10
69.000000
20
397.000000
0
VERTEX
8
0
10
65.000000
20
397.000000
0
VERTEX
8
0
10
61.100000
20
394.800000
0
VERTEX
8
0
10
59.000000
20
394.000000
0
VERTEX
8
0
10
54.800000
20
389.100000
0
VERTEX
8
0
10
53.700000
20
386.100000
0
VERTEX
8
0
10
53.000000
20
385.000000
0
VERTEX
8
0
10
53.000000
20
379.000000
0
VERTEX
8
0
10
55.200000
20
373.100000
0
VERTEX
8
0
10
55.800000
20
371.900000
0
VERTEX
8
0
10
58.000000
20
368.000000
0
VERTEX
8
0
10
66.000000
20
361.000000
0
VERTEX
8
0
10
65.000000
20
360.000000
0
VERTEX
8
0
10
57.000000
20
356.000000
0
VERTEX
8
0
10
54.000000
20
353.000000
0
VERTEX
8
0
10
52.000000
20
347.000000
0
VERTEX
8
0
10
52.000000
20
342.000000
0
VERTEX
8
0
10
52.700000
20
340.900000
0
VERTEX
8
0
10
54.000000
20
337.000000
0
VERTEX
8
0
10
56.846154
20
334.769231
0
VERTEX
8
0
10
62.000000
20
332.000000
0
VERTEX
8
0
10
68.000000
20
333.000000
0
VERTEX
8
0
10
72.000000
20
337.000000
0
VERTEX
8
0
10
73.000000
20
342.000000
0
VERTEX
8
0
10
70.000000
20
346.000000
0
VERTEX
8
0
10
69.000000
20
346.000000
0
VERTEX
8
0
10
65.000000
20
342.000000
0
VERTEX
8
0
10
62.900000
20
342.800000
0
VERTEX
8
0
10
59.000000
20
346.000000
0
VERTEX
8
0
10
58.000000
20
350.000000
0
VERTEX
8
0
10
62.000000
20
356.000000
0
VERTEX
8
0
10
62.900000
20
356.200000
0
VERTEX
8
0
10
66.000000
20
358.000000
0
VERTEX
8
0
10
73.000000
20
358.000000
0
VERTEX
8
0
10
76.000000
20
356.000000
0
VERTEX
8
0
10
78.000000
20
354.000000
0
VERTEX
8
0
10
81.647059
20
344.911765
0
VERTEX
8
0
10
83.000000
20
339.000000
0
SEQEND
0
POLYLINE
8
0
6
CONTINUOUS
66
1
62
7
10
0.0
20
0.0
30
0.000000
0
VERTEX
8
0
10
680.000000
20
382.000000
0
VERTEX
8
0
10
676.000000
20
387.000000
0
VERTEX
8
0
10
672.100000
20
390.200000
0
VERTEX
8
0
10
670.100000
20
391.200000
0
VERTEX
8
0
10
669.000000
20
392.000000
0
VERTEX
8
0
10
662.000000
20
392.000000
0
VERTEX
8
0
10
660.900000
20
391.300000
0
VERTEX
8
0
10
657.000000
20
390.000000
0
VERTEX
8
0
10
653.800000
20
386.100000
0
VERTEX
8
0
10
651.000000
20
379.000000
0
VERTEX
8
0
10
651.000000
20
374.000000
0
VERTEX
8
0
10
653.200000
20
369.100000
0
VERTEX
8
0
10
653.800000
20
367.900000
0
VERTEX
8
0
10
655.000000
20
365.000000
0
VERTEX
8
0
10
668.000000
20
352.000000
0
VERTEX
8
0
10
669.000000
20
352.000000
0
VERTEX
8
0
10
679.200000
20
341.100000
0
VERTEX
8
0
10
680.200000
20
339.100000
0
VERTEX
8
0
10
682.000000
20
336.000000
0
VERTEX
8
0
10
683.000000
20
337.000000
0
VERTEX
8
0
10
683.445545
20
345.955446
0
VERTEX
8
0
10
686.200000
20
350.900000
0
VERTEX
8
0
10
686.800000
20
352.100000
0
VERTEX
8
0
10
690.000000
20
356.000000
0
VERTEX
8
0
10
690.846154
20
356.230769
0
VERTEX
8
0
10
693.000000
20
358.000000
0
VERTEX
8
0
10
700.000000
20
358.000000
0
VERTEX
8
0
10
701.900000
20
356.800000
0
VERTEX
8
0
10
704.000000
20
356.000000
0
VERTEX
8
0
10
705.200000
20
354.100000
0
VERTEX
8
0
10
707.000000
20
350.000000
0
VERTEX
8
0
10
706.200000
20
346.900000
0
VERTEX
8
0
10
703.000000
20
343.000000
0
VERTEX
8
0
10
701.000000
20
342.500000
0
VERTEX
8
0
10
699.100000
20
343.200000
0
VERTEX
8
0
10
696.000000
20
345.000000
0
VERTEX
8
0
10
694.000000
20
345.000000
0
VERTEX
8
0
10
693.000000
20
344.000000
0
VERTEX
8
0
10
692.000000
20
339.000000
0
VERTEX
8
0
10
693.000000
20
337.000000
0
VERTEX
8
0
10
694.900000
20
335.800000
0
VERTEX
8
0
10
696.100000
20
335.200000
0
VERTEX
8
0
10
703.000000
20
332.000000
0
VERTEX
8
0
10
704.100000
20
332.700000
0
VERTEX
8
0
10
708.000000
20
334.000000
0
VERTEX
8
0
10
711.000000
20
337.000000
0
VERTEX
8
0
10
711.700000
20
339.100000
0
VERTEX
8
0
10
713.000000
20
342.000000
0
VERTEX
8
0
10
712.352941
20
347.088235
0
VERTEX
8
0
10
711.200000
20
351.100000
0
VERTEX
8
0
10
708.000000
20
356.000000
0
VERTEX
8
0
10
700.000000
20
361.000000
0
VERTEX
8
0
10
700.000000
20
362.000000
0
VERTEX
8
0
10
703.000000
20
365.000000
0
VERTEX
8
0
10
704.000000
20
365.000000
0
VERTEX
8
0
10
707.240000
20
368.820000
0
VERTEX
8
0
10
710.200000
20
372.900000
0
VERTEX
8
0
10
713.000000
20
381.000000
0
VERTEX
8
0
10
713.000000
20
384.000000
0
VERTEX
8
0
10
710.000000
20
391.000000
0
VERTEX
8
0
10
707.000000
20
394.000000
0
VERTEX
8
0
10
704.900000
20
394.700000
0
VERTEX
8
0
10
702.000000
20
396.000000
0
VERTEX
8
0
10
694.000000
20
396.000000
0
VERTEX
8
0
10
692.100000
20
394.800000
0
VERTEX
8
0
10
685.000000
20
390.000000
0
VERTEX
8
0
10
680.000000
20
382.000000
0
SEQEND
0
POLYLINE
8
0
6
CONTINUOUS
66
1
62
7
10
0.0
20
0.0
30
0.000000
0
VERTEX
8
0
10
132.000000
20
339.000000
0
VERTEX
8
0
10
139.000000
20
336.000000
0
VERTEX
8
0
10
148.000000
20
322.000000
0
VERTEX
8
0
10
151.000000
20
321.000000
0
VERTEX
8
0
10
153.000000
20
323.000000
0
VERTEX
8
0
10
154.000000
20
332.000000
0
VERTEX
8
0
10
148.000000
20
340.000000
0
VERTEX
8
0
10
150.240000
20
343.820000
0
VERTEX
8
0
10
155.000000
20
352.000000
0
VERTEX
8
0
10
154.000000
20
356.000000
0
VERTEX
8
0
10
153.000000
20
357.000000
0
VERTEX
8
0
10
149.000000
20
357.000000
0
VERTEX
8
0
10
145.800000
20
353.100000
0
VERTEX
8
0
10
145.200000
20
351.900000
0
VERTEX
8
0
10
142.000000
20
347.000000
0
VERTEX
8
0
10
136.000000
20
341.000000
0
VERTEX
8
0
10
132.000000
20
340.000000
0
SEQEND
0
POLYLINE
8
0
6
CONTINUOUS
66
1
62
7
10
0.0
20
0.0
30
0.000000
0
VERTEX
8
0
10
704.000000
20
289.000000
0
VERTEX
8
0
10
706.100000
20
289.800000
0
VERTEX
8
0
10
711.000000
20
294.000000
0
VERTEX
8
0
10
711.200000
20
294.900000
0
VERTEX
8
0
10
713.000000
20
300.000000
0
VERTEX
8
0
10
713.000000
20
304.000000
0
VERTEX
8
0
10
709.000000
20
311.000000
0
VERTEX
8
0
10
704.000000
20
316.000000
0
VERTEX
8
0
10
698.900000
20
318.800000
0
VERTEX
8
0
10
692.216814
20
323.247788
0
VERTEX
8
0
10
685.000000
20
330.000000
0
VERTEX
8
0
10
683.000000
20
329.000000
0
VERTEX
8
0
10
683.000000
20
325.000000
0
VERTEX
8
0
10
686.000000
20
320.000000
0
VERTEX
8
0
10
692.000000
20
314.000000
0
VERTEX
8
0
10
699.100000
20
311.200000
0
VERTEX
8
0
10
699.900000
20
310.800000
0
VERTEX
8
0
10
704.000000
20
308.000000
0
VERTEX
8
0
10
705.400000
20
304.800000
0
VERTEX
8
0
10
703.800000
20
301.100000
0
VERTEX
8
0
10
703.000000
20
299.000000
0
VERTEX
8
0
10
701.100000
20
297.800000
0
VERTEX
8
0
10
700.000000
20
297.000000
0
VERTEX
8
0
10
697.900000
20
297.700000
0
VERTEX
8
0
10
696.307692
20
298.461538
0
VERTEX
8
0
10
692.000000
20
302.000000
0
VERTEX
8
0
10
690.000000
20
300.000000
0
VERTEX
8
0
10
690.800000
20
296.900000
0
VERTEX
8
0
10
691.800000
20
294.900000
0
VERTEX
8
0
10
696.000000
20
290.000000
0
VERTEX
8
0
10
699.000000
20
289.000000
0
VERTEX
8
0
10
701.000000
20
289.000000
0
VERTEX
8
0
10
702.000000
20
290.000000
0
VERTEX
8
0
10
704.000000
20
289.000000
0
SEQEND
0
POLYLINE
8
0
6
CONTINUOUS
66
1
62
7
10
0.0
20
0.0
30
0.000000
0
VERTEX
8
0
10
702.000000
20
287.000000
0
VERTEX
8
0
10
703.000000
20
287.000000
0
VERTEX
8
0
10
704.000000
20
289.000000
0
SEQEND
0
POLYLINE
8
0
6
CONTINUOUS
66
1
62
7
10
0.0
20
0.0
30
0.000000
0
VERTEX
8
0
10
132.000000
20
339.000000
0
VERTEX
8
0
10
127.000000
20
338.000000
0
VERTEX
8
0
10
123.800000
20
333.100000
0
VERTEX
8
0
10
122.000000
20
330.000000
0
VERTEX
8
0
10
122.000000
20
322.000000
0
VERTEX
8
0
10
125.200000
20
315.100000
0
VERTEX
8
0
10
129.000000
20
309.000000
0
VERTEX
8
0
10
134.804878
20
304.756098
0
VERTEX
8
0
10
145.000000
20
296.000000
0
VERTEX
8
0
10
145.240000
20
295.180000
0
VERTEX
8
0
10
149.000000
20
289.000000
0
VERTEX
8
0
10
148.300000
20
284.900000
0
VERTEX
8
0
10
148.000000
20
283.000000
0
VERTEX
8
0
10
143.000000
20
279.000000
0
VERTEX
8
0
10
139.846154
20
280.769231
0
VERTEX
8
0
10
138.000000
20
282.000000
0
VERTEX
8
0
10
138.647059
20
285.088235
0
VERTEX
8
0
10
140.000000
20
289.000000
0
VERTEX
8
0
10
135.000000
20
292.000000
0
VERTEX
8
0
10
133.000000
20
292.000000
0
VERTEX
8
0
10
128.000000
20
288.000000
0
VERTEX
8
0
10
127.000000
20
284.000000
0
VERTEX
8
0
10
127.000000
20
278.000000
0
VERTEX
8
0
10
131.000000
20
274.000000
0
VERTEX
8
0
10
138.000000
20
271.000000
0
VERTEX
8
0
10
141.088235
20
271.647059
0
VERTEX
8
0
10
146.000000
20
273.000000
0
VERTEX
8
0
10
147.000000
20
274.000000
0
VERTEX
8
0
10
152.000000
20
284.000000
0
VERTEX
8
0
10
152.000000
20
292.000000
0
VERTEX
8
0
10
150.800000
20
293.900000
0
VERTEX
8
0
10
140.752941
20
306.788235
0
VERTEX
8
0
10
135.247059
20
313.211765
0
VERTEX
8
0
10
131.000000
20
322.000000
0
VERTEX
8
0
10
131.000000
20
325.000000
0
VERTEX
8
0
10
135.000000
20
331.000000
0
VERTEX
8
0
10
138.000000
20
331.000000
0
VERTEX
8
0
10
139.200000
20
329.100000
0
VERTEX
8
0
10
141.300000
20
324.100000
0
VERTEX
8
0
10
147.000000
20
315.000000
0
VERTEX
8
0
10
152.000000
20
311.000000
0
VERTEX
8
0
10
153.000000
20
311.000000
0
VERTEX
8
0
10
157.000000
20
314.000000
0
VERTEX
8
0
10
157.240000
20
314.820000
0
VERTEX
8
0
10
160.000000
20
318.000000
0
VERTEX
8
0
10
159.384615
20
323.076923
0
VERTEX
8
0
10
156.600000
20
331.800000
0
VERTEX
8
0
10
151.500000
20
340.000000
0
VERTEX
8
0
10
156.200000
20
347.900000
0
VERTEX
8
0
10
158.200000
20
351.900000
0
VERTEX
8
0
10
161.000000
20
357.000000
0
VERTEX
8
0
10
161.000000
20
359.000000
0
VERTEX
8
0
10
158.000000
20
364.000000
0
VERTEX
8
0
10
156.100000
20
365.200000
0
VERTEX
8
0
10
153.000000
20
367.000000
0
VERTEX
8
0
10
151.000000
20
367.000000
0
VERTEX
8
0
10
145.000000
20
363.000000
0
VERTEX
8
0
10
142.200000
20
357.900000
0
VERTEX
8
0
10
140.000000
20
353.000000
0
VERTEX
8
0
10
137.000000
20
350.000000
0
VERTEX
8
0
10
133.000000
20
349.000000
0
VERTEX
8
0
10
131.000000
20
351.000000
0
VERTEX
8
0
10
131.000000
20
357.000000
0
VERTEX
8
0
10
132.230769
20
358.846154
0
VERTEX
8
0
10
133.769231
20
361.153846
0
VERTEX
8
0
10
149.506897
20
379.417241
0
VERTEX
8
0
10
152.000000
20
386.000000
0
VERTEX
8
0
10
152.000000
20
391.000000
0
VERTEX
8
0
10
150.615385
20
395.923077
0
VERTEX
8
0
10
150.300000
20
397.100000
0
VERTEX
8
0
10
147.000000
20
404.000000
0
VERTEX
8
0
10
142.100000
20
406.300000
0
VERTEX
8
0
10
141.000000
20
407.000000
0
VERTEX
8
0
10
135.000000
20
407.000000
0
VERTEX
8
0
10
130.000000
20
405.000000
0
VERTEX
8
0
10
127.000000
20
401.000000
0
VERTEX
8
0
10
127.000000
20
395.000000
0
VERTEX
8
0
10
129.000000
20
391.000000
0
VERTEX
8
0
10
135.000000
20
388.000000
0
VERTEX
8
0
10
139.000000
20
388.000000
0
VERTEX
8
0
10
141.000000
20
390.000000
0
VERTEX
8
0
10
139.800000
20
391.900000
0
VERTEX
8
0
10
139.000000
20
393.000000
0
VERTEX
8
0
10
139.000000
20
396.000000
0
VERTEX
8
0
10
142.000000
20
399.000000
0
VERTEX
8
0
10
144.000000
20
399.000000
0
VERTEX
8
0
10
147.200000
20
394.100000
0
VERTEX
8
0
10
147.800000
20
392.900000
0
VERTEX
8
0
10
149.000000
20
389.000000
0
VERTEX
8
0
10
145.000000
20
381.000000
0
VERTEX
8
0
10
132.100000
20
370.800000
0
VERTEX
8
0
10
130.900000
20
370.200000
0
VERTEX
8
0
10
127.000000
20
367.000000
0
VERTEX
8
0
10
123.200000
20
358.900000
0
VERTEX
8
0
10
122.800000
20
358.100000
0
VERTEX
8
0
10
122.000000
20
357.000000
0
VERTEX
8
0
10
122.594595
20
349.932432
0
VERTEX
8
0
10
124.000000
20
343.000000
0
VERTEX
8
0
10
132.000000
20
340.000000
0
SEQEND
0
POLYLINE
8
0
6
CONTINUOUS
66
1
62
7
10
0.0
20
0.0
30
0.000000
0
VERTEX
8
0
10
613.000000
20
335.000000
0
VERTEX
8
0
10
610.240000
20
331.820000
0
VERTEX
8
0
10
607.000000
20
326.000000
0
VERTEX
8
0
10
607.000000
20
317.000000
0
VERTEX
8
0
10
612.900000
20
311.800000
0
VERTEX
8
0
10
614.000000
20
311.000000
0
VERTEX
8
0
10
617.000000
20
312.000000
0
VERTEX
8
0
10
621.000000
20
316.000000
0
VERTEX
8
0
10
622.800000
20
320.100000
0
VERTEX
8
0
10
625.240000
20
324.820000
0
VERTEX
8
0
10
630.000000
20
331.000000
0
VERTEX
8
0
10
632.000000
20
331.000000
0
VERTEX
8
0
10
635.000000
20
326.000000
0
VERTEX
8
0
10
635.000000
20
319.000000
0
VERTEX
8
0
10
617.800000
20
295.100000
0
VERTEX
8
0
10
614.700000
20
288.100000
0
VERTEX
8
0
10
614.000000
20
287.000000
0
VERTEX
8
0
10
614.000000
20
283.000000
0
VERTEX
8
0
10
617.800000
20
276.900000
0
VERTEX
8
0
10
618.000000
20
276.000000
0
VERTEX
8
0
10
620.846154
20
273.769231
0
VERTEX
8
0
10
623.200000
20
272.400000
0
VERTEX
8
0
10
628.000000
20
271.000000
0
VERTEX
8
0
10
629.088235
20
271.647059
0
VERTEX
8
0
10
635.000000
20
273.000000
0
VERTEX
8
0
10
641.000000
20
281.000000
0
VERTEX
8
0
10
640.200000
20
284.100000
0
VERTEX
8
0
10
639.769231
20
284.846154
0
VERTEX
8
0
10
635.000000
20
291.000000
0
VERTEX
8
0
10
632.000000
20
292.000000
0
VERTEX
8
0
10
629.000000
20
292.000000
0
VERTEX
8
0
10
627.000000
20
290.000000
0
VERTEX
8
0
10
628.000000
20
288.000000
0
VERTEX
8
0
10
628.000000
20
283.000000
0
VERTEX
8
0
10
626.000000
20
280.000000
0
VERTEX
8
0
10
623.000000
20
279.000000
0
VERTEX
8
0
10
621.000000
20
280.000000
0
VERTEX
8
0
10
617.800000
20
284.900000
0
VERTEX
8
0
10
617.000000
20
286.000000
0
VERTEX
8
0
10
617.800000
20
289.100000
0
VERTEX
8
0
10
620.800000
20
295.100000
0
VERTEX
8
0
10
641.200000
20
314.900000
0
VERTEX
8
0
10
645.000000
20
326.000000
0
VERTEX
8
0
10
645.000000
20
332.000000
0
VERTEX
8
0
10
637.000000
20
339.000000
0
VERTEX
8
0
10
633.000000
20
339.000000
0
VERTEX
8
0
10
628.000000
20
336.000000
0
VERTEX
8
0
10
624.769231
20
332.153846
0
VERTEX
8
0
10
620.000000
20
324.000000
0
VERTEX
8
0
10
616.100000
20
321.800000
0
VERTEX
8
0
10
615.000000
20
321.000000
0
VERTEX
8
0
10
613.000000
20
323.000000
0
VERTEX
8
0
10
613.000000
20
330.000000
0
VERTEX
8
0
10
614.000000
20
334.000000
0
SEQEND
0
POLYLINE
8
0
6
CONTINUOUS
66
1
62
7
10
0.0
20
0.0
30
0.000000
0
VERTEX
8
0
10
65.000000
20
270.000000
0
VERTEX
8
0
10
67.000000
20
271.000000
0
VERTEX
8
0
10
69.000000
20
273.000000
0
VERTEX
8
0
10
70.000000
20
276.000000
0
VERTEX
8
0
10
69.300000
20
279.100000
0
VERTEX
8
0
10
66.756098
20
283.804878
0
VERTEX
8
0
10
63.000000
20
288.000000
0
VERTEX
8
0
10
64.900000
20
289.200000
0
VERTEX
8
0
10
68.100000
20
290.800000
0
VERTEX
8
0
10
71.000000
20
292.000000
0
VERTEX
8
0
10
75.000000
20
297.000000
0
VERTEX
8
0
10
75.000000
20
300.000000
0
VERTEX
8
0
10
73.000000
20
302.000000
0
VERTEX
8
0
10
67.000000
20
297.000000
0
VERTEX
8
0
10
61.000000
20
299.000000
0
VERTEX
8
0
10
59.000000
20
303.000000
0
VERTEX
8
0
10
59.000000
20
305.000000
0
VERTEX
8
0
10
64.000000
20
311.000000
0
VERTEX
8
0
10
70.100000
20
313.800000
0
VERTEX
8
0
10
72.846154
20
315.230769
0
VERTEX
8
0
10
79.000000
20
319.000000
0
VERTEX
8
0
10
80.200000
20
321.900000
0
VERTEX
8
0
10
82.000000
20
326.000000
0
VERTEX
8
0
10
82.000000
20
329.000000
0
VERTEX
8
0
10
81.000000
20
330.000000
0
VERTEX
8
0
10
73.783186
20
323.247788
0
VERTEX
8
0
10
65.846154
20
318.230769
0
VERTEX
8
0
10
62.180000
20
315.760000
0
VERTEX
8
0
10
55.000000
20
310.000000
0
VERTEX
8
0
10
52.700000
20
305.100000
0
VERTEX
8
0
10
52.000000
20
304.000000
0
VERTEX
8
0
10
52.000000
20
299.000000
0
VERTEX
8
0
10
65.000000
20
281.000000
0
VERTEX
8
0
10
64.750000
20
280.250000
0
VERTEX
8
0
10
59.000000
20
279.000000
0
VERTEX
8
0
10
56.000000
20
276.000000
0
VERTEX
8
0
10
56.800000
20
273.900000
0
VERTEX
8
0
10
57.000000
20
273.000000
0
VERTEX
8
0
10
58.900000
20
271.800000
0
VERTEX
8
0
10
62.088235
20
270.352941
0
VERTEX
8
0
10
65.000000
20
270.000000
0
SEQEND
0
POLYLINE
8
0
6
CONTINUOUS
66
1
62
7
10
0.0
20
0.0
30
0.000000
0
VERTEX
8
0
10
702.000000
20
287.000000
0
VERTEX
8
0
10
701.000000
20
287.000000
0
VERTEX
8
0
10
697.800000
20
282.100000
0
VERTEX
8
0
10
696.000000
20
279.000000
0
VERTEX
8
0
10
696.000000
20
275.000000
0
VERTEX
8
0
10
699.000000
20
271.000000
0
VERTEX
8
0
10
701.000000
20
270.000000
0
VERTEX
8
0
10
704.100000
20
270.700000
0
VERTEX
8
0
10
706.000000
20
271.000000
0
VERTEX
8
0
10
709.000000
20
274.000000
0
VERTEX
8
0
10
707.769231
20
275.846154
0
VERTEX
8
0
10
706.000000
20
279.000000
0
VERTEX
8
0
10
705.000000
20
280.000000
0
VERTEX
8
0
10
701.000000
20
280.000000
0
VERTEX
8
0
10
700.000000
20
281.000000
0
VERTEX
8
0
10
701.700000
20
284.100000
0
VERTEX
8
0
10
702.000000
20
287.000000
0
SEQEND
0
POLYLINE
8
0
6
CONTINUOUS
66
1
62
7
10
0.0
20
0.0
30
0.000000
0
VERTEX
8
0
10
700.000000
20
253.000000
0
VERTEX
8
0
10
699.000000
20
254.000000
0
VERTEX
8
0
10
700.000000
20
255.000000
0
VERTEX
8
0
10
701.000000
20
254.000000
0
SEQEND
0
POLYLINE
8
0
6
CONTINUOUS
66
1
62
7
10
0.0
20
0.0
30
0.000000
0
VERTEX
8
0
10
700.000000
20
253.000000
0
VERTEX
8
0
10
701.000000
20
254.000000
0
SEQEND
0
POLYLINE
8
0
6
CONTINUOUS
66
1
62
7
10
0.0
20
0.0
30
0.000000
0
VERTEX
8
0
10
618.000000
20
252.000000
0
VERTEX
8
0
10
617.000000
20
252.000000
0
SEQEND
0
POLYLINE
8
0
6
CONTINUOUS
66
1
62
7
10
0.0
20
0.0
30
0.000000
0
VERTEX
8
0
10
618.000000
20
252.000000
0
VERTEX
8
0
10
620.000000
20
257.000000
0
VERTEX
8
0
10
621.900000
20
258.200000
0
VERTEX
8
0
10
623.000000
20
259.000000
0
VERTEX
8
0
10
625.000000
20
259.000000
0
VERTEX
8
0
10
627.000000
20
257.000000
0
VERTEX
8
0
10
627.000000
20
252.000000
0
VERTEX
8
0
10
630.000000
20
249.000000
0
VERTEX
8
0
10
636.000000
20
250.000000
0
VERTEX
8
0
10
639.200000
20
254.900000
0
VERTEX
8
0
10
641.000000
20
258.000000
0
VERTEX
8
0
10
640.200000
20
260.100000
0
VERTEX
8
0
10
637.000000
20
265.000000
0
VERTEX
8
0
10
633.793103
20
266.482759
0
VERTEX
8
0
10
631.088235
20
267.352941
0
VERTEX
8
0
10
627.000000
20
268.000000
0
VERTEX
8
0
10
625.153846
20
266.769231
0
VERTEX
8
0
10
620.000000
20
263.000000
0
VERTEX
8
0
10
617.405405
20
257.932432
0
VERTEX
8
0
10
617.000000
20
252.000000
0
SEQEND
0
POLYLINE
8
0
6
CONTINUOUS
66
1
62
7
10
0.0
20
0.0
30
0.000000
0
VERTEX
8
0
10
702.000000
20
247.000000
0
VERTEX
8
0
10
700.000000
20
253.000000
0
SEQEND
0
POLYLINE
8
0
6
CONTINUOUS
66
1
62
7
10
0.0
20
0.0
30
0.000000
0
VERTEX
8
0
10
701.000000
20
246.000000
0
VERTEX
8
0
10
696.800000
20
251.900000
0
VERTEX
8
0
10
696.000000
20
253.000000
0
VERTEX
8
0
10
697.000000
20
259.000000
0
VERTEX
8
0
10
700.000000
20
262.000000
0
VERTEX
8
0
10
705.000000
20
263.000000
0
VERTEX
8
0
10
708.000000
20
260.000000
0
VERTEX
8
0
10
708.500000
20
258.000000
0
VERTEX
8
0
10
708.200000
20
256.900000
0
VERTEX
8
0
10
705.000000
20
253.000000
0
VERTEX
8
0
10
701.000000
20
254.000000
0
SEQEND
0
POLYLINE
8
0
6
CONTINUOUS
66
1
62
7
10
0.0
20
0.0
30
0.000000
0
VERTEX
8
0
10
701.000000
20
246.000000
0
VERTEX
8
0
10
702.000000
20
247.000000
0
SEQEND
0
POLYLINE
8
0
6
CONTINUOUS
66
1
62
7
10
0.0
20
0.0
30
0.000000
0
VERTEX
8
0
10
60.000000
20
244.000000
0
VERTEX
8
0
10
60.000000
20
245.000000
0
VERTEX
8
0
10
65.000000
20
252.000000
0
VERTEX
8
0
10
64.000000
20
253.000000
0
VERTEX
8
0
10
59.900000
20
253.800000
0
VERTEX
8
0
10
57.000000
20
256.000000
0
VERTEX
8
0
10
57.000000
20
261.000000
0
VERTEX
8
0
10
60.000000
20
263.000000
0
VERTEX
8
0
10
66.000000
20
262.000000
0
VERTEX
8
0
10
68.000000
20
260.000000
0
VERTEX
8
0
10
69.000000
20
253.000000
0
VERTEX
8
0
10
63.000000
20
245.000000
0
SEQEND
0
POLYLINE
8
0
6
CONTINUOUS
66
1
62
7
10
0.0
20
0.0
30
0.000000
0
VERTEX
8
0
10
60.000000
20
244.000000
0
VERTEX
8
0
10
63.000000
20
245.000000
0
SEQEND
0
POLYLINE
8
0
6
CONTINUOUS
66
1
62
7
10
0.0
20
0.0
30
0.000000
0
VERTEX
8
0
10
706.000000
20
244.000000
0
VERTEX
8
0
10
706.000000
20
245.000000
0
VERTEX
8
0
10
702.000000
20
247.000000
0
SEQEND
0
POLYLINE
8
0
6
CONTINUOUS
66
1
62
7
10
0.0
20
0.0
30
0.000000
0
VERTEX
8
0
10
705.000000
20
243.000000
0
VERTEX
8
0
10
706.000000
20
244.000000
0
SEQEND
0
POLYLINE
8
0
6
CONTINUOUS
66
1
62
7
10
0.0
20
0.0
30
0.000000
0
VERTEX
8
0
10
60.000000
20
244.000000
0
VERTEX
8
0
10
58.000000
20
244.000000
0
VERTEX
8
0
10
52.000000
20
235.000000
0
VERTEX
8
0
10
52.000000
20
229.000000
0
VERTEX
8
0
10
55.000000
20
225.000000
0
VERTEX
8
0
10
71.795082
20
210.754098
0
VERTEX
8
0
10
77.204918
20
206.245902
0
VERTEX
8
0
10
81.000000
20
204.000000
0
VERTEX
8
0
10
82.000000
20
205.000000
0
VERTEX
8
0
10
81.384615
20
207.076923
0
VERTEX
8
0
10
79.000000
20
215.000000
0
VERTEX
8
0
10
74.100000
20
218.200000
0
VERTEX
8
0
10
70.900000
20
219.800000
0
VERTEX
8
0
10
63.000000
20
223.000000
0
VERTEX
8
0
10
59.000000
20
228.000000
0
VERTEX
8
0
10
60.000000
20
232.000000
0
VERTEX
8
0
10
63.000000
20
235.000000
0
VERTEX
8
0
10
68.000000
20
236.000000
0
VERTEX
8
0
10
69.820000
20
234.760000
0
VERTEX
8
0
10
73.000000
20
232.000000
0
VERTEX
8
0
10
74.000000
20
233.000000
0
VERTEX
8
0
10
74.000000
20
239.000000
0
VERTEX
8
0
10
70.000000
20
243.000000
0
VERTEX
8
0
10
66.911765
20
243.647059
0
VERTEX
8
0
10
63.000000
20
245.000000
0
SEQEND
0
POLYLINE
8
0
6
CONTINUOUS
66
1
62
7
10
0.0
20
0.0
30
0.000000
0
VERTEX
8
0
10
701.000000
20
246.000000
0
VERTEX
8
0
10
694.000000
20
242.000000
0
VERTEX
8
0
10
690.800000
20
237.100000
0
VERTEX
8
0
10
690.000000
20
234.000000
0
VERTEX
8
0
10
692.000000
20
232.000000
0
VERTEX
8
0
10
695.900000
20
235.200000
0
VERTEX
8
0
10
697.000000
20
236.000000
0
VERTEX
8
0
10
704.000000
20
235.000000
0
VERTEX
8
0
10
705.000000
20
234.000000
0
VERTEX
8
0
10
706.000000
20
232.000000
0
VERTEX
8
0
10
706.000000
20
226.000000
0
VERTEX
8
0
10
703.000000
20
223.000000
0
VERTEX
8
0
10
693.900000
20
220.200000
0
VERTEX
8
0
10
693.153846
20
219.769231
0
VERTEX
8
0
10
685.000000
20
214.000000
0
VERTEX
8
0
10
683.000000
20
205.000000
0
VERTEX
8
0
10
685.000000
20
204.000000
0
VERTEX
8
0
10
686.000000
20
206.000000
0
VERTEX
8
0
10
688.900000
20
208.200000
0
VERTEX
8
0
10
690.100000
20
208.800000
0
VERTEX
8
0
10
705.000000
20
219.000000
0
VERTEX
8
0
10
710.000000
20
224.000000
0
VERTEX
8
0
10
713.000000
20
230.000000
0
VERTEX
8
0
10
712.352941
20
235.088235
0
VERTEX
8
0
10
710.230769
20
240.153846
0
VERTEX
8
0
10
707.000000
20
244.000000
0
VERTEX
8
0
10
706.000000
20
244.000000
0
SEQEND
0
POLYLINE
8
0
6
CONTINUOUS
66
1
62
7
10
0.0
20
0.0
30
0.000000
0
VERTEX
8
0
10
152.000000
20
203.000000
0
VERTEX
8
0
10
151.000000
20
204.000000
0
SEQEND
0
POLYLINE
8
0
6
CONTINUOUS
66
1
62
7
10
0.0
20
0.0
30
0.000000
0
VERTEX
8
0
10
616.000000
20
203.000000
0
VERTEX
8
0
10
615.000000
20
203.000000
0
VERTEX
8
0
10
614.000000
20
203.000000
0
VERTEX
8
0
10
610.000000
20
207.000000
0
VERTEX
8
0
10
607.000000
20
214.000000
0
VERTEX
8
0
10
607.000000
20
221.000000
0
VERTEX
8
0
10
608.000000
20
224.000000
0
VERTEX
8
0
10
611.900000
20
226.200000
0
VERTEX
8
0
10
614.000000
20
227.000000
0
VERTEX
8
0
10
619.000000
20
224.000000
0
VERTEX
8
0
10
620.230769
20
221.153846
0
VERTEX
8
0
10
627.000000
20
211.000000
0
VERTEX
8
0
10
629.900000
20
209.800000
0
VERTEX
8
0
10
634.000000
20
211.000000
0
VERTEX
8
0
10
635.000000
20
212.000000
0
VERTEX
8
0
10
635.000000
20
218.000000
0
VERTEX
8
0
10
634.200000
20
219.100000
0
VERTEX
8
0
10
630.512195
20
226.609756
0
VERTEX
8
0
10
622.760000
20
235.820000
0
VERTEX
8
0
10
616.000000
20
245.000000
0
VERTEX
8
0
10
616.000000
20
251.000000
0
VERTEX
8
0
10
617.000000
20
252.000000
0
SEQEND
0
POLYLINE
8
0
6
CONTINUOUS
66
1
62
7
10
0.0
20
0.0
30
0.000000
0
VERTEX
8
0
10
616.000000
20
203.000000
0
VERTEX
8
0
10
616.000000
20
204.000000
0
SEQEND
0
POLYLINE
8
0
6
CONTINUOUS
66
1
62
7
10
0.0
20
0.0
30
0.000000
0
VERTEX
8
0
10
152.000000
20
203.000000
0
VERTEX
8
0
10
153.000000
20
203.000000
0
VERTEX
8
0
10
157.558824
20
209.264706
0
VERTEX
8
0
10
158.300000
20
210.900000
0
VERTEX
8
0
10
161.000000
20
217.000000
0
VERTEX
8
0
10
161.000000
20
220.000000
0
VERTEX
8
0
10
159.000000
20
224.000000
0
VERTEX
8
0
10
158.000000
20
225.000000
0
VERTEX
8
0
10
153.000000
20
227.000000
0
VERTEX
8
0
10
150.000000
20
225.000000
0
VERTEX
8
0
10
146.769231
20
221.153846
0
VERTEX
8
0
10
144.769231
20
218.153846
0
VERTEX
8
0
10
139.000000
20
210.000000
0
VERTEX
8
0
10
137.000000
20
209.000000
0
VERTEX
8
0
10
134.900000
20
209.800000
0
VERTEX
8
0
10
132.000000
20
212.000000
0
VERTEX
8
0
10
131.000000
20
219.000000
0
VERTEX
8
0
10
131.800000
20
220.100000
0
VERTEX
8
0
10
137.248619
20
227.776243
0
VERTEX
8
0
10
145.751381
20
237.223757
0
VERTEX
8
0
10
147.800000
20
241.100000
0
VERTEX
8
0
10
148.230769
20
241.846154
0
VERTEX
8
0
10
152.000000
20
249.000000
0
VERTEX
8
0
10
152.000000
20
253.000000
0
VERTEX
8
0
10
150.700000
20
255.900000
0
VERTEX
8
0
10
147.000000
20
263.000000
0
VERTEX
8
0
10
140.000000
20
268.000000
0
VERTEX
8
0
10
137.000000
20
268.000000
0
VERTEX
8
0
10
130.000000
20
265.000000
0
VERTEX
8
0
10
127.000000
20
261.000000
0
VERTEX
8
0
10
127.000000
20
254.000000
0
VERTEX
8
0
10
128.000000
20
252.000000
0
VERTEX
8
0
10
129.900000
20
250.800000
0
VERTEX
8
0
10
134.000000
20
248.000000
0
VERTEX
8
0
10
137.000000
20
248.000000
0
VERTEX
8
0
10
141.000000
20
251.000000
0
VERTEX
8
0
10
141.000000
20
252.000000
0
VERTEX
8
0
10
139.000000
20
254.000000
0
VERTEX
8
0
10
139.000000
20
256.000000
0
VERTEX
8
0
10
142.000000
20
259.000000
0
VERTEX
8
0
10
144.000000
20
259.000000
0
VERTEX
8
0
10
148.000000
20
256.000000
0
VERTEX
8
0
10
149.000000
20
249.000000
0
VERTEX
8
0
10
147.800000
20
247.100000
0
VERTEX
8
0
10
146.800000
20
245.100000
0
VERTEX
8
0
10
144.000000
20
241.000000
0
VERTEX
8
0
10
131.000000
20
232.000000
0
VERTEX
8
0
10
124.800000
20
223.100000
0
VERTEX
8
0
10
123.800000
20
221.100000
0
VERTEX
8
0
10
122.000000
20
218.000000
0
VERTEX
8
0
10
122.000000
20
209.000000
0
VERTEX
8
0
10
123.000000
20
205.000000
0
VERTEX
8
0
10
124.900000
20
203.800000
0
VERTEX
8
0
10
128.000000
20
202.000000
0
VERTEX
8
0
10
135.000000
20
202.000000
0
VERTEX
8
0
10
139.000000
20
204.000000
0
VERTEX
8
0
10
140.245902
20
205.795082
0
VERTEX
8
0
10
151.000000
20
220.000000
0
VERTEX
8
0
10
155.000000
20
217.000000
0
VERTEX
8
0
10
155.000000
20
211.000000
0
VERTEX
8
0
10
151.000000
20
204.000000
0
SEQEND
0
POLYLINE
8
0
6
CONTINUOUS
66
1
62
7
10
0.0
20
0.0
30
0.000000
0
VERTEX
8
0
10
150.000000
20
202.000000
0
VERTEX
8
0
10
151.000000
20
204.000000
0
SEQEND
0
POLYLINE
8
0
6
CONTINUOUS
66
1
62
7
10
0.0
20
0.0
30
0.000000
0
VERTEX
8
0
10
150.000000
20
202.000000
0
VERTEX
8
0
10
152.000000
20
203.000000
0
SEQEND
0
POLYLINE
8
0
6
CONTINUOUS
66
1
62
7
10
0.0
20
0.0
30
0.000000
0
VERTEX
8
0
10
616.000000
20
204.000000
0
VERTEX
8
0
10
613.300000
20
208.100000
0
VERTEX
8
0
10
612.700000
20
209.900000
0
VERTEX
8
0
10
612.000000
20
211.000000
0
VERTEX
8
0
10
612.000000
20
216.000000
0
VERTEX
8
0
10
614.000000
20
218.000000
0
VERTEX
8
0
10
617.000000
20
218.000000
0
VERTEX
8
0
10
619.000000
20
217.000000
0
VERTEX
8
0
10
624.230769
20
209.153846
0
VERTEX
8
0
10
626.000000
20
206.000000
0
VERTEX
8
0
10
631.900000
20
202.800000
0
VERTEX
8
0
10
633.000000
20
202.000000
0
VERTEX
8
0
10
640.000000
20
202.000000
0
VERTEX
8
0
10
644.000000
20
206.000000
0
VERTEX
8
0
10
645.000000
20
211.000000
0
VERTEX
8
0
10
645.000000
20
218.000000
0
VERTEX
8
0
10
641.800000
20
222.900000
0
VERTEX
8
0
10
640.000000
20
227.000000
0
VERTEX
8
0
10
636.204918
20
230.245902
0
VERTEX
8
0
10
630.795082
20
234.754098
0
VERTEX
8
0
10
621.000000
20
244.000000
0
VERTEX
8
0
10
618.200000
20
250.100000
0
VERTEX
8
0
10
618.000000
20
252.000000
0
SEQEND
0
POLYLINE
8
0
6
CONTINUOUS
66
1
62
7
10
0.0
20
0.0
30
0.000000
0
VERTEX
8
0
10
149.000000
20
201.000000
0
VERTEX
8
0
10
150.000000
20
202.000000
0
SEQEND
0
POLYLINE
8
0
6
CONTINUOUS
66
1
62
7
10
0.0
20
0.0
30
0.000000
0
VERTEX
8
0
10
618.000000
20
201.000000
0
VERTEX
8
0
10
616.000000
20
203.000000
0
SEQEND
0
POLYLINE
8
0
6
CONTINUOUS
66
1
62
7
10
0.0
20
0.0
30
0.000000
0
VERTEX
8
0
10
616.000000
20
198.000000
0
VERTEX
8
0
10
617.000000
20
199.000000
0
SEQEND
0
POLYLINE
8
0
6
CONTINUOUS
66
1
62
7
10
0.0
20
0.0
30
0.000000
0
VERTEX
8
0
10
83.000000
20
195.000000
0
VERTEX
8
0
10
83.000000
20
198.000000
0
SEQEND
0
POLYLINE
8
0
6
CONTINUOUS
66
1
62
7
10
0.0
20
0.0
30
0.000000
0
VERTEX
8
0
10
683.000000
20
195.000000
0
VERTEX
8
0
10
683.000000
20
197.000000
0
SEQEND
0
POLYLINE
8
0
6
CONTINUOUS
66
1
62
7
10
0.0
20
0.0
30
0.000000
0
VERTEX
8
0
10
68.000000
20
175.000000
0
VERTEX
8
0
10
75.000000
20
177.000000
0
VERTEX
8
0
10
78.000000
20
180.000000
0
VERTEX
8
0
10
80.700000
20
186.100000
0
VERTEX
8
0
10
83.000000
20
195.000000
0
SEQEND
0
POLYLINE
8
0
6
CONTINUOUS
66
1
62
7
10
0.0
20
0.0
30
0.000000
0
VERTEX
8
0
10
67.000000
20
174.000000
0
VERTEX
8
0
10
60.900000
20
175.700000
0
VERTEX
8
0
10
57.000000
20
177.000000
0
VERTEX
8
0
10
54.000000
20
180.000000
0
VERTEX
8
0
10
53.000000
20
183.000000
0
VERTEX
8
0
10
53.000000
20
192.000000
0
VERTEX
8
0
10
55.000000
20
196.000000
0
VERTEX
8
0
10
59.000000
20
200.000000
0
VERTEX
8
0
10
68.000000
20
200.000000
0
VERTEX
8
0
10
70.000000
20
199.000000
0
VERTEX
8
0
10
72.200000
20
196.100000
0
VERTEX
8
0
10
73.000000
20
195.000000
0
VERTEX
8
0
10
73.000000
20
191.000000
0
VERTEX
8
0
10
71.800000
20
189.100000
0
VERTEX
8
0
10
70.000000
20
186.000000
0
VERTEX
8
0
10
69.000000
20
186.000000
0
VERTEX
8
0
10
68.000000
20
187.000000
0
VERTEX
8
0
10
67.000000
20
190.000000
0
VERTEX
8
0
10
65.000000
20
192.000000
0
VERTEX
8
0
10
62.900000
20
191.200000
0
VERTEX
8
0
10
62.000000
20
191.000000
0
VERTEX
8
0
10
59.000000
20
185.000000
0
VERTEX
8
0
10
60.200000
20
181.100000
0
VERTEX
8
0
10
62.000000
20
178.000000
0
VERTEX
8
0
10
68.000000
20
175.000000
0
SEQEND
0
POLYLINE
8
0
6
CONTINUOUS
66
1
62
7
10
0.0
20
0.0
30
0.000000
0
VERTEX
8
0
10
67.000000
20
174.000000
0
VERTEX
8
0
10
68.000000
20
175.000000
0
SEQEND
0
POLYLINE
8
0
6
CONTINUOUS
66
1
62
7
10
0.0
20
0.0
30
0.000000
0
VERTEX
8
0
10
68.000000
20
173.000000
0
VERTEX
8
0
10
67.000000
20
174.000000
0
SEQEND
0
POLYLINE
8
0
6
CONTINUOUS
66
1
62
7
10
0.0
20
0.0
30
0.000000
0
VERTEX
8
0
10
69.000000
20
173.000000
0
VERTEX
8
0
10
68.000000
20
173.000000
0
SEQEND
0
POLYLINE
8
0
6
CONTINUOUS
66
1
62
7
10
0.0
20
0.0
30
0.000000
0
VERTEX
8
0
10
70.000000
20
147.000000
0
VERTEX
8
0
10
74.100000
20
148.800000
0
VERTEX
8
0
10
80.000000
20
152.000000
0
VERTEX
8
0
10
86.000000
20
159.000000
0
VERTEX
8
0
10
90.900000
20
154.800000
0
VERTEX
8
0
10
94.000000
20
153.000000
0
VERTEX
8
0
10
100.000000
20
155.000000
0
VERTEX
8
0
10
105.000000
20
161.000000
0
VERTEX
8
0
10
103.000000
20
166.000000
0
VERTEX
8
0
10
88.000000
20
181.000000
0
VERTEX
8
0
10
81.788235
20
175.247059
0
VERTEX
8
0
10
69.846154
20
167.230769
0
VERTEX
8
0
10
69.153846
20
166.769231
0
VERTEX
8
0
10
63.000000
20
162.000000
0
VERTEX
8
0
10
61.000000
20
159.000000
0
VERTEX
8
0
10
61.000000
20
153.000000
0
VERTEX
8
0
10
62.000000
20
151.000000
0
VERTEX
8
0
10
63.846154
20
149.769231
0
VERTEX
8
0
10
68.100000
20
147.300000
0
VERTEX
8
0
10
70.000000
20
147.000000
0
SEQEND
0
POLYLINE
8
0
6
CONTINUOUS
66
1
62
7
10
0.0
20
0.0
30
0.000000
0
VERTEX
8
0
10
697.000000
20
147.000000
0
VERTEX
8
0
10
699.000000
20
148.000000
0
VERTEX
8
0
10
703.000000
20
152.000000
0
VERTEX
8
0
10
704.000000
20
155.000000
0
VERTEX
8
0
10
703.200000
20
158.100000
0
VERTEX
8
0
10
701.000000
20
163.000000
0
VERTEX
8
0
10
698.153846
20
165.230769
0
VERTEX
8
0
10
692.846154
20
168.769231
0
VERTEX
8
0
10
686.220690
20
173.248276
0
VERTEX
8
0
10
678.000000
20
181.000000
0
VERTEX
8
0
10
671.000000
20
175.000000
0
VERTEX
8
0
10
666.000000
20
170.000000
0
VERTEX
8
0
10
663.240000
20
165.820000
0
VERTEX
8
0
10
662.800000
20
165.100000
0
VERTEX
8
0
10
661.000000
20
162.000000
0
VERTEX
8
0
10
661.000000
20
160.000000
0
VERTEX
8
0
10
664.000000
20
156.000000
0
VERTEX
8
0
10
669.000000
20
153.000000
0
VERTEX
8
0
10
672.100000
20
153.700000
0
VERTEX
8
0
10
680.000000
20
160.000000
0
VERTEX
8
0
10
682.200000
20
157.100000
0
VERTEX
8
0
10
682.800000
20
155.900000
0
VERTEX
8
0
10
687.000000
20
151.000000
0
VERTEX
8
0
10
687.820000
20
150.760000
0
VERTEX
8
0
10
695.100000
20
147.300000
0
VERTEX
8
0
10
697.000000
20
147.000000
0
SEQEND
0
POLYLINE
8
0
6
CONTINUOUS
66
1
62
7
10
0.0
20
0.0
30
0.000000
0
VERTEX
8
0
10
68.000000
20
173.000000
0
VERTEX
8
0
10
66.900000
20
172.200000
0
VERTEX
8
0
10
61.000000
20
169.000000
0
VERTEX
8
0
10
55.000000
20
163.000000
0
VERTEX
8
0
10
53.000000
20
159.000000
0
VERTEX
8
0
10
53.000000
20
152.000000
0
VERTEX
8
0
10
56.200000
20
143.100000
0
VERTEX
8
0
10
59.000000
20
139.000000
0
VERTEX
8
0
10
66.000000
20
136.000000
0
VERTEX
8
0
10
75.100000
20
138.800000
0
VERTEX
8
0
10
75.900000
20
139.200000
0
VERTEX
8
0
10
80.000000
20
142.000000
0
VERTEX
8
0
10
80.800000
20
144.100000
0
VERTEX
8
0
10
83.000000
20
149.000000
0
VERTEX
8
0
10
86.000000
20
152.000000
0
VERTEX
8
0
10
90.000000
20
145.000000
0
VERTEX
8
0
10
93.900000
20
142.800000
0
VERTEX
8
0
10
95.000000
20
142.000000
0
VERTEX
8
0
10
103.000000
20
142.000000
0
VERTEX
8
0
10
107.000000
20
144.000000
0
VERTEX
8
0
10
111.000000
20
148.000000
0
VERTEX
8
0
10
113.000000
20
152.000000
0
VERTEX
8
0
10
113.000000
20
161.000000
0
VERTEX
8
0
10
110.800000
20
164.900000
0
VERTEX
8
0
10
110.200000
20
166.100000
0
VERTEX
8
0
10
106.000000
20
173.000000
0
VERTEX
8
0
10
83.000000
20
195.000000
0
SEQEND
0
POLYLINE
8
0
6
CONTINUOUS
66
1
62
7
10
0.0
20
0.0
30
0.000000
0
VERTEX
8
0
10
683.000000
20
195.000000
0
VERTEX
8
0
10
662.000000
20
177.000000
0
VERTEX
8
0
10
656.000000
20
171.000000
0
VERTEX
8
0
10
654.300000
20
166.900000
0
VERTEX
8
0
10
653.700000
20
165.100000
0
VERTEX
8
0
10
652.000000
20
160.000000
0
VERTEX
8
0
10
652.000000
20
155.000000
0
VERTEX
8
0
10
656.000000
20
146.000000
0
VERTEX
8
0
10
658.000000
20
144.000000
0
VERTEX
8
0
10
662.100000
20
142.300000
0
VERTEX
8
0
10
663.900000
20
141.700000
0
VERTEX
8
0
10
668.000000
20
141.000000
0
VERTEX
8
0
10
674.000000
20
144.000000
0
VERTEX
8
0
10
678.000000
20
151.000000
0
VERTEX
8
0
10
679.000000
20
152.000000
0
VERTEX
8
0
10
686.000000
20
142.000000
0
VERTEX
8
0
10
688.900000
20
139.800000
0
VERTEX
8
0
10
697.000000
20
136.000000
0
VERTEX
8
0
10
700.088235
20
136.647059
0
VERTEX
8
0
10
704.100000
20
137.800000
0
VERTEX
8
0
10
708.000000
20
141.000000
0
VERTEX
8
0
10
710.558824
20
145.264706
0
VERTEX
8
0
10
713.000000
20
152.000000
0
VERTEX
8
0
10
713.000000
20
156.000000
0
VERTEX
8
0
10
710.769231
20
160.846154
0
VERTEX
8
0
10
709.230769
20
163.153846
0
VERTEX
8
0
10
698.000000
20
173.000000
0
VERTEX
8
0
10
705.100000
20
175.800000
0
VERTEX
8
0
10
708.000000
20
177.000000
0
VERTEX
8
0
10
711.000000
20
180.000000
0
VERTEX
8
0
10
713.000000
20
185.000000
0
VERTEX
8
0
10
713.000000
20
189.000000
0
VERTEX
8
0
10
709.000000
20
199.000000
0
VERTEX
8
0
10
707.000000
20
200.000000
0
VERTEX
8
0
10
698.000000
20
200.000000
0
VERTEX
8
0
10
693.000000
20
196.000000
0
VERTEX
8
0
10
692.000000
20
193.000000
0
VERTEX
8
0
10
692.000000
20
191.000000
0
VERTEX
8
0
10
694.000000
20
188.000000
0
VERTEX
8
0
10
696.000000
20
187.000000
0
VERTEX
8
0
10
699.000000
20
191.000000
0
VERTEX
8
0
10
701.000000
20
192.000000
0
VERTEX
8
0
10
703.100000
20
191.200000
0
VERTEX
8
0
10
704.000000
20
191.000000
0
VERTEX
8
0
10
706.200000
20
187.100000
0
VERTEX
8
0
10
707.000000
20
186.000000
0
VERTEX
8
0
10
707.000000
20
182.000000
0
VERTEX
8
0
10
705.000000
20
179.000000
0
VERTEX
8
0
10
704.000000
20
178.000000
0
VERTEX
8
0
10
695.000000
20
175.000000
0
VERTEX
8
0
10
689.000000
20
178.000000
0
VERTEX
8
0
10
684.200000
20
187.100000
0
VERTEX
8
0
10
683.000000
20
195.000000
0
SEQEND
0
POLYLINE
8
0
6
CONTINUOUS
66
1
62
7
10
0.0
20
0.0
30
0.000000
0
VERTEX
8
0
10
140.000000
20
132.000000
0
VERTEX
8
0
10
141.088235
20
132.647059
0
VERTEX
8
0
10
147.000000
20
135.000000
0
VERTEX
8
0
10
149.000000
20
137.000000
0
VERTEX
8
0
10
152.000000
20
145.000000
0
VERTEX
8
0
10
152.000000
20
149.000000
0
VERTEX
8
0
10
150.647059
20
152.911765
0
VERTEX
8
0
10
150.300000
20
154.100000
0
VERTEX
8
0
10
136.240000
20
173.180000
0
VERTEX
8
0
10
132.352941
20
180.088235
0
VERTEX
8
0
10
131.000000
20
187.000000
0
VERTEX
8
0
10
132.000000
20
189.000000
0
VERTEX
8
0
10
135.900000
20
192.200000
0
VERTEX
8
0
10
137.000000
20
193.000000
0
VERTEX
8
0
10
140.000000
20
190.000000
0
VERTEX
8
0
10
145.769231
20
179.846154
0
VERTEX
8
0
10
146.000000
20
179.000000
0
VERTEX
8
0
10
150.900000
20
175.800000
0
VERTEX
8
0
10
152.100000
20
175.200000
0
VERTEX
8
0
10
155.100000
20
174.800000
0
VERTEX
8
0
10
159.000000
20
178.000000
0
VERTEX
8
0
10
159.800000
20
180.100000
0
VERTEX
8
0
10
161.000000
20
182.000000
0
VERTEX
8
0
10
157.769231
20
191.846154
0
VERTEX
8
0
10
156.230769
20
194.153846
0
VERTEX
8
0
10
151.000000
20
200.000000
0
VERTEX
8
0
10
150.000000
20
198.000000
0
VERTEX
8
0
10
152.230769
20
195.153846
0
VERTEX
8
0
10
154.000000
20
193.000000
0
VERTEX
8
0
10
154.000000
20
184.000000
0
VERTEX
8
0
10
152.000000
20
182.000000
0
VERTEX
8
0
10
148.000000
20
184.000000
0
VERTEX
8
0
10
145.000000
20
187.000000
0
VERTEX
8
0
10
141.200000
20
193.100000
0
VERTEX
8
0
10
140.000000
20
196.000000
0
VERTEX
8
0
10
138.100000
20
197.200000
0
VERTEX
8
0
10
133.000000
20
199.000000
0
VERTEX
8
0
10
128.000000
20
199.000000
0
VERTEX
8
0
10
124.000000
20
196.000000
0
VERTEX
8
0
10
123.352941
20
193.911765
0
VERTEX
8
0
10
122.647059
20
191.088235
0
VERTEX
8
0
10
122.000000
20
186.000000
0
VERTEX
8
0
10
125.300000
20
177.100000
0
VERTEX
8
0
10
128.769231
20
170.846154
0
VERTEX
8
0
10
147.200000
20
153.100000
0
VERTEX
8
0
10
148.200000
20
151.100000
0
VERTEX
8
0
10
149.000000
20
150.000000
0
VERTEX
8
0
10
148.300000
20
145.900000
0
VERTEX
8
0
10
148.000000
20
144.000000
0
VERTEX
8
0
10
143.000000
20
140.000000
0
VERTEX
8
0
10
140.000000
20
141.000000
0
VERTEX
8
0
10
138.000000
20
144.000000
0
VERTEX
8
0
10
138.800000
20
146.100000
0
VERTEX
8
0
10
141.000000
20
150.000000
0
VERTEX
8
0
10
139.100000
20
151.200000
0
VERTEX
8
0
10
136.000000
20
153.000000
0
VERTEX
8
0
10
131.900000
20
152.300000
0
VERTEX
8
0
10
130.000000
20
152.000000
0
VERTEX
8
0
10
127.000000
20
147.000000
0
VERTEX
8
0
10
127.000000
20
141.000000
0
VERTEX
8
0
10
131.000000
20
135.000000
0
VERTEX
8
0
10
140.000000
20
132.000000
0
SEQEND
0
POLYLINE
8
0
6
CONTINUOUS
66
1
62
7
10
0.0
20
0.0
30
0.000000
0
VERTEX
8
0
10
616.000000
20
198.000000
0
VERTEX
8
0
10
615.000000
20
198.000000
0
VERTEX
8
0
10
612.000000
20
197.000000
0
VERTEX
8
0
10
608.800000
20
193.100000
0
VERTEX
8
0
10
607.000000
20
188.000000
0
VERTEX
8
0
10
607.000000
20
181.000000
0
VERTEX
8
0
10
607.647059
20
179.911765
0
VERTEX
8
0
10
608.000000
20
177.000000
0
VERTEX
8
0
10
612.000000
20
174.000000
0
VERTEX
8
0
10
618.000000
20
176.000000
0
VERTEX
8
0
10
620.230769
20
179.846154
0
VERTEX
8
0
10
628.000000
20
191.000000
0
VERTEX
8
0
10
630.000000
20
192.000000
0
VERTEX
8
0
10
631.000000
20
192.000000
0
VERTEX
8
0
10
635.000000
20
188.000000
0
VERTEX
8
0
10
635.000000
20
181.000000
0
VERTEX
8
0
10
628.752941
20
171.211765
0
VERTEX
8
0
10
618.800000
20
159.100000
0
VERTEX
8
0
10
614.000000
20
149.000000
0
VERTEX
8
0
10
614.000000
20
145.000000
0
VERTEX
8
0
10
615.441176
20
142.264706
0
VERTEX
8
0
10
617.760000
20
138.820000
0
VERTEX
8
0
10
621.000000
20
135.000000
0
VERTEX
8
0
10
621.846154
20
134.769231
0
VERTEX
8
0
10
627.000000
20
132.000000
0
VERTEX
8
0
10
630.088235
20
132.647059
0
VERTEX
8
0
10
635.000000
20
134.000000
0
VERTEX
8
0
10
641.000000
20
143.000000
0
VERTEX
8
0
10
638.769231
20
147.846154
0
VERTEX
8
0
10
637.000000
20
151.000000
0
VERTEX
8
0
10
633.000000
20
153.000000
0
VERTEX
8
0
10
628.000000
20
152.000000
0
VERTEX
8
0
10
627.000000
20
151.000000
0
VERTEX
8
0
10
627.000000
20
149.000000
0
VERTEX
8
0
10
628.000000
20
148.000000
0
VERTEX
8
0
10
627.000000
20
142.000000
0
VERTEX
8
0
10
624.000000
20
140.500000
0
VERTEX
8
0
10
620.000000
20
142.000000
0
VERTEX
8
0
10
617.000000
20
147.000000
0
VERTEX
8
0
10
617.000000
20
149.000000
0
VERTEX
8
0
10
619.249730
20
152.761622
0
VERTEX
8
0
10
639.750270
20
174.238378
0
VERTEX
8
0
10
641.800000
20
179.100000
0
VERTEX
8
0
10
642.200000
20
179.900000
0
VERTEX
8
0
10
645.000000
20
186.000000
0
VERTEX
8
0
10
645.000000
20
192.000000
0
VERTEX
8
0
10
643.000000
20
195.000000
0
VERTEX
8
0
10
638.100000
20
199.200000
0
VERTEX
8
0
10
637.000000
20
200.000000
0
VERTEX
8
0
10
633.000000
20
200.000000
0
VERTEX
8
0
10
628.000000
20
197.000000
0
VERTEX
8
0
10
620.800000
20
187.100000
0
VERTEX
8
0
10
619.000000
20
184.000000
0
VERTEX
8
0
10
616.900000
20
183.200000
0
VERTEX
8
0
10
614.000000
20
182.000000
0
VERTEX
8
0
10
612.000000
20
186.000000
0
VERTEX
8
0
10
612.000000
20
190.000000
0
VERTEX
8
0
10
616.000000
20
198.000000
0
SEQEND
0
POLYLINE
8
0
6
CONTINUOUS
66
1
62
7
10
0.0
20
0.0
30
0.000000
0
VERTEX
8
0
10
618.000000
20
122.000000
0
VERTEX
8
0
10
617.000000
20
123.000000
0
SEQEND
0
POLYLINE
8
0
6
CONTINUOUS
66
1
62
7
10
0.0
20
0.0
30
0.000000
0
VERTEX
8
0
10
617.000000
20
121.000000
0
VERTEX
8
0
10
616.000000
20
122.000000
0
VERTEX
8
0
10
617.000000
20
123.000000
0
SEQEND
0
POLYLINE
8
0
6
CONTINUOUS
66
1
62
7
10
0.0
20
0.0
30
0.000000
0
VERTEX
8
0
10
617.000000
20
121.000000
0
VERTEX
8
0
10
618.000000
20
122.000000
0
SEQEND
0
POLYLINE
8
0
6
CONTINUOUS
66
1
62
7
10
0.0
20
0.0
30
0.000000
0
VERTEX
8
0
10
152.000000
20
118.000000
0
VERTEX
8
0
10
151.000000
20
118.000000
0
SEQEND
0
POLYLINE
8
0
6
CONTINUOUS
66
1
62
7
10
0.0
20
0.0
30
0.000000
0
VERTEX
8
0
10
165.000000
20
117.000000
0
VERTEX
8
0
10
169.000000
20
120.000000
0
VERTEX
8
0
10
171.000000
20
125.000000
0
VERTEX
8
0
10
166.000000
20
131.000000
0
VERTEX
8
0
10
161.900000
20
129.200000
0
VERTEX
8
0
10
161.000000
20
129.000000
0
VERTEX
8
0
10
159.000000
20
127.000000
0
VERTEX
8
0
10
159.000000
20
122.000000
0
VERTEX
8
0
10
162.000000
20
118.000000
0
VERTEX
8
0
10
165.000000
20
117.000000
0
SEQEND
0
POLYLINE
8
0
6
CONTINUOUS
66
1
62
7
10
0.0
20
0.0
30
0.000000
0
VERTEX
8
0
10
602.000000
20
117.000000
0
VERTEX
8
0
10
603.100000
20
117.700000
0
VERTEX
8
0
10
605.000000
20
118.000000
0
VERTEX
8
0
10
608.000000
20
121.000000
0
VERTEX
8
0
10
609.000000
20
125.000000
0
VERTEX
8
0
10
602.000000
20
131.000000
0
VERTEX
8
0
10
601.000000
20
131.000000
0
VERTEX
8
0
10
597.000000
20
128.000000
0
VERTEX
8
0
10
595.000000
20
124.000000
0
VERTEX
8
0
10
596.000000
20
121.000000
0
VERTEX
8
0
10
601.153846
20
117.230769
0
VERTEX
8
0
10
602.000000
20
117.000000
0
SEQEND
0
POLYLINE
8
0
6
CONTINUOUS
66
1
62
7
10
0.0
20
0.0
30
0.000000
0
VERTEX
8
0
10
616.000000
20
116.000000
0
VERTEX
8
0
10
617.000000
20
121.000000
0
SEQEND
0
POLYLINE
8
0
6
CONTINUOUS
66
1
62
7
10
0.0
20
0.0
30
0.000000
0
VERTEX
8
0
10
152.000000
20
115.000000
0
VERTEX
8
0
10
151.000000
20
118.000000
0
SEQEND
0
POLYLINE
8
0
6
CONTINUOUS
66
1
62
7
10
0.0
20
0.0
30
0.000000
0
VERTEX
8
0
10
152.000000
20
115.000000
0
VERTEX
8
0
10
153.000000
20
116.000000
0
VERTEX
8
0
10
152.000000
20
118.000000
0
SEQEND
0
POLYLINE
8
0
6
CONTINUOUS
66
1
62
7
10
0.0
20
0.0
30
0.000000
0
VERTEX
8
0
10
152.000000
20
114.000000
0
VERTEX
8
0
10
152.000000
20
115.000000
0
SEQEND
0
POLYLINE
8
0
6
CONTINUOUS
66
1
62
7
10
0.0
20
0.0
30
0.000000
0
VERTEX
8
0
10
151.000000
20
112.000000
0
VERTEX
8
0
10
152.000000
20
114.000000
0
SEQEND
0
POLYLINE
8
0
6
CONTINUOUS
66
1
62
7
10
0.0
20
0.0
30
0.000000
0
VERTEX
8
0
10
152.000000
20
112.000000
0
VERTEX
8
0
10
151.000000
20
112.000000
0
SEQEND
0
POLYLINE
8
0
6
CONTINUOUS
66
1
62
7
10
0.0
20
0.0
30
0.000000
0
VERTEX
8
0
10
152.000000
20
112.000000
0
VERTEX
8
0
10
153.000000
20
113.000000
0
VERTEX
8
0
10
152.000000
20
114.000000
0
SEQEND
0
POLYLINE
8
0
6
CONTINUOUS
66
1
62
7
10
0.0
20
0.0
30
0.000000
0
VERTEX
8
0
10
616.000000
20
111.000000
0
VERTEX
8
0
10
616.000000
20
116.000000
0
SEQEND
0
POLYLINE
8
0
6
CONTINUOUS
66
1
62
7
10
0.0
20
0.0
30
0.000000
0
VERTEX
8
0
10
615.000000
20
110.000000
0
VERTEX
8
0
10
614.000000
20
111.000000
0
VERTEX
8
0
10
614.000000
20
115.000000
0
VERTEX
8
0
10
616.000000
20
116.000000
0
SEQEND
0
POLYLINE
8
0
6
CONTINUOUS
66
1
62
7
10
0.0
20
0.0
30
0.000000
0
VERTEX
8
0
10
615.000000
20
110.000000
0
VERTEX
8
0
10
616.000000
20
111.000000
0
SEQEND
0
POLYLINE
8
0
6
CONTINUOUS
66
1
62
7
10
0.0
20
0.0
30
0.000000
0
VERTEX
8
0
10
152.000000
20
118.000000
0
VERTEX
8
0
10
150.000000
20
124.000000
0
VERTEX
8
0
10
146.100000
20
127.200000
0
VERTEX
8
0
10
141.000000
20
129.000000
0
VERTEX
8
0
10
138.000000
20
129.000000
0
VERTEX
8
0
10
134.000000
20
127.000000
0
VERTEX
8
0
10
129.230769
20
120.846154
0
VERTEX
8
0
10
128.000000
20
117.000000
0
VERTEX
8
0
10
129.800000
20
112.900000
0
VERTEX
8
0
10
134.000000
20
108.000000
0
VERTEX
8
0
10
139.000000
20
107.000000
0
VERTEX
8
0
10
144.000000
20
110.000000
0
VERTEX
8
0
10
141.000000
20
115.000000
0
VERTEX
8
0
10
141.000000
20
118.000000
0
VERTEX
8
0
10
144.000000
20
123.000000
0
VERTEX
8
0
10
147.100000
20
122.200000
0
VERTEX
8
0
10
148.000000
20
122.000000
0
VERTEX
8
0
10
149.230769
20
120.153846
0
VERTEX
8
0
10
151.000000
20
118.000000
0
SEQEND
0
POLYLINE
8
0
6
CONTINUOUS
66
1
62
7
10
0.0
20
0.0
30
0.000000
0
VERTEX
8
0
10
618.000000
20
122.000000
0
VERTEX
8
0
10
620.000000
20
123.000000
0
VERTEX
8
0
10
624.000000
20
122.000000
0
VERTEX
8
0
10
625.800000
20
118.900000
0
VERTEX
8
0
10
627.000000
20
115.000000
0
VERTEX
8
0
10
624.000000
20
110.000000
0
VERTEX
8
0
10
625.900000
20
108.800000
0
VERTEX
8
0
10
629.000000
20
107.000000
0
VERTEX
8
0
10
632.000000
20
108.000000
0
VERTEX
8
0
10
638.000000
20
115.000000
0
VERTEX
8
0
10
638.000000
20
119.000000
0
VERTEX
8
0
10
635.800000
20
122.900000
0
VERTEX
8
0
10
634.000000
20
126.000000
0
VERTEX
8
0
10
630.000000
20
128.000000
0
VERTEX
8
0
10
622.000000
20
128.000000
0
VERTEX
8
0
10
617.000000
20
124.000000
0
VERTEX
8
0
10
617.000000
20
123.000000
0
SEQEND
0
POLYLINE
8
0
6
CONTINUOUS
66
1
62
7
10
0.0
20
0.0
30
0.000000
0
VERTEX
8
0
10
175.000000
20
102.000000
0
VERTEX
8
0
10
171.000000
20
102.000000
0
SEQEND
0
POLYLINE
8
0
6
CONTINUOUS
66
1
62
7
10
0.0
20
0.0
30
0.000000
0
VERTEX
8
0
10
175.000000
20
102.000000
0
VERTEX
8
0
10
176.000000
20
102.000000
0
VERTEX
8
0
10
188.000000
20
104.000000
0
VERTEX
8
0
10
189.000000
20
105.000000
0
VERTEX
8
0
10
192.000000
20
112.000000
0
VERTEX
8
0
10
191.000000
20
114.000000
0
VERTEX
8
0
10
188.000000
20
117.000000
0
VERTEX
8
0
10
185.000000
20
118.000000
0
VERTEX
8
0
10
181.100000
20
116.800000
0
VERTEX
8
0
10
179.000000
20
116.000000
0
VERTEX
8
0
10
177.000000
20
113.000000
0
VERTEX
8
0
10
178.000000
20
109.000000
0
VERTEX
8
0
10
179.000000
20
108.000000
0
VERTEX
8
0
10
182.000000
20
108.000000
0
VERTEX
8
0
10
183.000000
20
107.000000
0
VERTEX
8
0
10
183.000000
20
106.000000
0
VERTEX
8
0
10
181.000000
20
104.000000
0
VERTEX
8
0
10
176.000000
20
104.000000
0
VERTEX
8
0
10
175.000000
20
102.000000
0
SEQEND
0
POLYLINE
8
0
6
CONTINUOUS
66
1
62
7
10
0.0
20
0.0
30
0.000000
0
VERTEX
8
0
10
591.000000
20
102.000000
0
VERTEX
8
0
10
591.000000
20
103.000000
0
VERTEX
8
0
10
583.000000
20
106.000000
0
VERTEX
8
0
10
583.000000
20
107.000000
0
VERTEX
8
0
10
584.000000
20
108.000000
0
VERTEX
8
0
10
587.750000
20
108.250000
0
VERTEX
8
0
10
589.000000
20
113.000000
0
VERTEX
8
0
10
588.000000
20
115.000000
0
VERTEX
8
0
10
585.000000
20
118.000000
0
VERTEX
8
0
10
579.000000
20
118.000000
0
VERTEX
8
0
10
576.000000
20
115.000000
0
VERTEX
8
0
10
575.000000
20
109.000000
0
VERTEX
8
0
10
576.000000
20
106.000000
0
VERTEX
8
0
10
577.900000
20
104.800000
0
VERTEX
8
0
10
579.900000
20
103.800000
0
VERTEX
8
0
10
583.053846
20
102.430769
0
VERTEX
8
0
10
591.000000
20
102.000000
0
SEQEND
0
POLYLINE
8
0
6
CONTINUOUS
66
1
62
7
10
0.0
20
0.0
30
0.000000
0
VERTEX
8
0
10
594.000000
20
102.000000
0
VERTEX
8
0
10
591.000000
20
102.000000
0
SEQEND
0
POLYLINE
8
0
6
CONTINUOUS
66
1
62
7
10
0.0
20
0.0
30
0.000000
0
VERTEX
8
0
10
150.000000
20
82.000000
0
VERTEX
8
0
10
150.700000
20
89.100000
0
VERTEX
8
0
10
153.769231
20
95.153846
0
VERTEX
8
0
10
154.200000
20
95.900000
0
VERTEX
8
0
10
157.000000
20
100.000000
0
VERTEX
8
0
10
158.000000
20
100.000000
0
VERTEX
8
0
10
159.000000
20
102.000000
0
VERTEX
8
0
10
160.000000
20
103.000000
0
VERTEX
8
0
10
169.000000
20
103.000000
0
VERTEX
8
0
10
171.000000
20
102.000000
0
SEQEND
0
POLYLINE
8
0
6
CONTINUOUS
66
1
62
7
10
0.0
20
0.0
30
0.000000
0
VERTEX
8
0
10
474.000000
20
82.000000
0
VERTEX
8
0
10
473.000000
20
82.000000
0
SEQEND
0
POLYLINE
8
0
6
CONTINUOUS
66
1
62
7
10
0.0
20
0.0
30
0.000000
0
VERTEX
8
0
10
151.000000
20
81.000000
0
VERTEX
8
0
10
150.000000
20
82.000000
0
SEQEND
0
POLYLINE
8
0
6
CONTINUOUS
66
1
62
7
10
0.0
20
0.0
30
0.000000
0
VERTEX
8
0
10
244.000000
20
81.000000
0
VERTEX
8
0
10
241.000000
20
81.000000
0
SEQEND
0
POLYLINE
8
0
6
CONTINUOUS
66
1
62
7
10
0.0
20
0.0
30
0.000000
0
VERTEX
8
0
10
294.000000
20
81.000000
0
VERTEX
8
0
10
291.000000
20
81.000000
0
SEQEND
0
POLYLINE
8
0
6
CONTINUOUS
66
1
62
7
10
0.0
20
0.0
30
0.000000
0
VERTEX
8
0
10
526.000000
20
81.000000
0
VERTEX
8
0
10
524.000000
20
81.000000
0
SEQEND
0
POLYLINE
8
0
6
CONTINUOUS
66
1
62
7
10
0.0
20
0.0
30
0.000000
0
VERTEX
8
0
10
151.000000
20
81.000000
0
VERTEX
8
0
10
154.000000
20
88.000000
0
VERTEX
8
0
10
158.000000
20
92.000000
0
VERTEX
8
0
10
161.000000
20
92.000000
0
VERTEX
8
0
10
163.000000
20
89.000000
0
VERTEX
8
0
10
163.000000
20
87.000000
0
VERTEX
8
0
10
160.800000
20
83.100000
0
VERTEX
8
0
10
160.000000
20
82.000000
0
VERTEX
8
0
10
162.000000
20
80.000000
0
VERTEX
8
0
10
169.000000
20
80.000000
0
VERTEX
8
0
10
172.100000
20
81.800000
0
VERTEX
8
0
10
176.000000
20
85.000000
0
VERTEX
8
0
10
177.000000
20
89.000000
0
VERTEX
8
0
10
177.000000
20
95.000000
0
VERTEX
8
0
10
171.000000
20
102.000000
0
SEQEND
0
POLYLINE
8
0
6
CONTINUOUS
66
1
62
7
10
0.0
20
0.0
30
0.000000
0
VERTEX
8
0
10
362.000000
20
78.000000
0
VERTEX
8
0
10
361.000000
20
78.000000
0
SEQEND
0
POLYLINE
8
0
6
CONTINUOUS
66
1
62
7
10
0.0
20
0.0
30
0.000000
0
VERTEX
8
0
10
269.000000
20
74.000000
0
VERTEX
8
0
10
273.000000
20
77.000000
0
VERTEX
8
0
10
274.000000
20
82.000000
0
VERTEX
8
0
10
269.000000
20
86.000000
0
VERTEX
8
0
10
264.000000
20
85.000000
0
VERTEX
8
0
10
261.000000
20
82.000000
0
VERTEX
8
0
10
261.000000
20
79.000000
0
VERTEX
8
0
10
262.000000
20
77.000000
0
VERTEX
8
0
10
263.900000
20
75.800000
0
VERTEX
8
0
10
269.000000
20
74.000000
0
SEQEND
0
POLYLINE
8
0
6
CONTINUOUS
66
1
62
7
10
0.0
20
0.0
30
0.000000
0
VERTEX
8
0
10
500.000000
20
74.000000
0
VERTEX
8
0
10
505.000000
20
78.000000
0
VERTEX
8
0
10
505.200000
20
81.100000
0
VERTEX
8
0
10
504.000000
20
84.000000
0
VERTEX
8
0
10
501.000000
20
86.000000
0
VERTEX
8
0
10
497.000000
20
86.000000
0
VERTEX
8
0
10
492.800000
20
81.100000
0
VERTEX
8
0
10
492.000000
20
80.000000
0
VERTEX
8
0
10
492.800000
20
77.900000
0
VERTEX
8
0
10
493.000000
20
77.000000
0
VERTEX
8
0
10
496.000000
20
74.000000
0
VERTEX
8
0
10
500.000000
20
74.000000
0
SEQEND
0
POLYLINE
8
0
6
CONTINUOUS
66
1
62
7
10
0.0
20
0.0
30
0.000000
0
VERTEX
8
0
10
152.000000
20
112.000000
0
VERTEX
8
0
10
150.200000
20
103.900000
0
VERTEX
8
0
10
139.243902
20
89.804878
0
VERTEX
8
0
10
133.240000
20
81.820000
0
VERTEX
8
0
10
132.000000
20
79.000000
0
VERTEX
8
0
10
133.200000
20
77.100000
0
VERTEX
8
0
10
136.000000
20
73.000000
0
VERTEX
8
0
10
139.200000
20
71.600000
0
VERTEX
8
0
10
140.846154
20
72.230769
0
VERTEX
8
0
10
144.000000
20
74.000000
0
VERTEX
8
0
10
149.200000
20
80.900000
0
VERTEX
8
0
10
150.000000
20
82.000000
0
SEQEND
0
POLYLINE
8
0
6
CONTINUOUS
66
1
62
7
10
0.0
20
0.0
30
0.000000
0
VERTEX
8
0
10
594.000000
20
102.000000
0
VERTEX
8
0
10
595.000000
20
103.000000
0
VERTEX
8
0
10
605.000000
20
103.000000
0
VERTEX
8
0
10
612.000000
20
97.000000
0
VERTEX
8
0
10
614.760000
20
92.820000
0
VERTEX
8
0
10
619.000000
20
77.000000
0
VERTEX
8
0
10
623.000000
20
73.000000
0
VERTEX
8
0
10
629.000000
20
71.000000
0
VERTEX
8
0
10
631.000000
20
72.000000
0
VERTEX
8
0
10
634.000000
20
75.000000
0
VERTEX
8
0
10
634.000000
20
79.000000
0
VERTEX
8
0
10
629.769231
20
86.846154
0
VERTEX
8
0
10
619.200000
20
99.100000
0
VERTEX
8
0
10
618.800000
20
99.900000
0
VERTEX
8
0
10
615.352941
20
107.088235
0
VERTEX
8
0
10
615.000000
20
110.000000
0
SEQEND
0
POLYLINE
8
0
6
CONTINUOUS
66
1
62
7
10
0.0
20
0.0
30
0.000000
0
VERTEX
8
0
10
446.000000
20
70.000000
0
VERTEX
8
0
10
448.000000
20
71.000000
0
VERTEX
8
0
10
449.000000
20
72.000000
0
VERTEX
8
0
10
449.000000
20
74.000000
0
VERTEX
8
0
10
451.000000
20
76.000000
0
VERTEX
8
0
10
482.153846
20
90.769231
0
VERTEX
8
0
10
483.000000
20
91.000000
0
VERTEX
8
0
10
487.000000
20
96.000000
0
VERTEX
8
0
10
481.100000
20
101.200000
0
VERTEX
8
0
10
480.000000
20
102.000000
0
VERTEX
8
0
10
472.000000
20
102.000000
0
VERTEX
8
0
10
467.076923
20
100.615385
0
VERTEX
8
0
10
461.180000
20
97.760000
0
VERTEX
8
0
10
457.220690
20
94.751724
0
VERTEX
8
0
10
449.000000
20
87.000000
0
VERTEX
8
0
10
447.000000
20
87.000000
0
VERTEX
8
0
10
444.153846
20
89.230769
0
VERTEX
8
0
10
440.000000
20
92.000000
0
VERTEX
8
0
10
431.000000
20
92.000000
0
VERTEX
8
0
10
429.000000
20
91.000000
0
VERTEX
8
0
10
427.800000
20
89.100000
0
VERTEX
8
0
10
427.000000
20
88.000000
0
VERTEX
8
0
10
427.000000
20
81.000000
0
VERTEX
8
0
10
428.000000
20
79.000000
0
VERTEX
8
0
10
429.000000
20
78.000000
0
VERTEX
8
0
10
439.100000
20
72.300000
0
VERTEX
8
0
10
446.000000
20
70.000000
0
SEQEND
0
POLYLINE
8
0
6
CONTINUOUS
66
1
62
7
10
0.0
20
0.0
30
0.000000
0
VERTEX
8
0
10
215.000000
20
68.000000
0
VERTEX
8
0
10
215.615385
20
69.076923
0
VERTEX
8
0
10
216.000000
20
73.000000
0
VERTEX
8
0
10
222.000000
20
79.000000
0
VERTEX
8
0
10
227.100000
20
81.800000
0
VERTEX
8
0
10
229.100000
20
82.800000
0
VERTEX
8
0
10
250.000000
20
93.000000
0
VERTEX
8
0
10
253.000000
20
96.000000
0
VERTEX
8
0
10
253.000000
20
97.000000
0
VERTEX
8
0
10
249.000000
20
101.000000
0
VERTEX
8
0
10
238.000000
20
102.000000
0
VERTEX
8
0
10
232.900000
20
100.200000
0
VERTEX
8
0
10
220.000000
20
93.000000
0
VERTEX
8
0
10
216.800000
20
89.100000
0
VERTEX
8
0
10
215.000000
20
86.000000
0
VERTEX
8
0
10
214.000000
20
86.000000
0
VERTEX
8
0
10
212.000000
20
88.000000
0
VERTEX
8
0
10
212.000000
20
89.000000
0
VERTEX
8
0
10
207.100000
20
91.300000
0
VERTEX
8
0
10
206.000000
20
92.000000
0
VERTEX
8
0
10
198.000000
20
92.000000
0
VERTEX
8
0
10
194.000000
20
88.000000
0
VERTEX
8
0
10
193.200000
20
85.900000
0
VERTEX
8
0
10
192.000000
20
84.000000
0
VERTEX
8
0
10
192.800000
20
81.900000
0
VERTEX
8
0
10
196.000000
20
78.000000
0
VERTEX
8
0
10
212.100000
20
69.300000
0
VERTEX
8
0
10
215.000000
20
68.000000
0
SEQEND
0
POLYLINE
8
0
6
CONTINUOUS
66
1
62
7
10
0.0
20
0.0
30
0.000000
0
VERTEX
8
0
10
553.000000
20
68.000000
0
VERTEX
8
0
10
556.100000
20
69.800000
0
VERTEX
8
0
10
570.000000
20
76.000000
0
VERTEX
8
0
10
572.200000
20
79.900000
0
VERTEX
8
0
10
574.000000
20
83.000000
0
VERTEX
8
0
10
572.700000
20
87.900000
0
VERTEX
8
0
10
571.000000
20
91.000000
0
VERTEX
8
0
10
570.100000
20
91.200000
0
VERTEX
8
0
10
569.000000
20
92.000000
0
VERTEX
8
0
10
558.000000
20
92.000000
0
VERTEX
8
0
10
553.000000
20
87.000000
0
VERTEX
8
0
10
551.000000
20
87.000000
0
VERTEX
8
0
10
549.769231
20
88.846154
0
VERTEX
8
0
10
546.000000
20
94.000000
0
VERTEX
8
0
10
543.100000
20
95.200000
0
VERTEX
8
0
10
528.000000
20
102.000000
0
VERTEX
8
0
10
518.900000
20
100.300000
0
VERTEX
8
0
10
517.000000
20
100.000000
0
VERTEX
8
0
10
514.000000
20
97.000000
0
VERTEX
8
0
10
514.000000
20
95.000000
0
VERTEX
8
0
10
517.000000
20
92.000000
0
VERTEX
8
0
10
518.900000
20
91.700000
0
VERTEX
8
0
10
541.900000
20
79.800000
0
VERTEX
8
0
10
546.000000
20
78.000000
0
VERTEX
8
0
10
550.200000
20
73.100000
0
VERTEX
8
0
10
553.000000
20
68.000000
0
SEQEND
0
POLYLINE
8
0
6
CONTINUOUS
66
1
62
7
10
0.0
20
0.0
30
0.000000
0
VERTEX
8
0
10
291.000000
20
81.000000
0
VERTEX
8
0
10
291.000000
20
82.000000
0
VERTEX
8
0
10
275.000000
20
91.000000
0
VERTEX
8
0
10
269.000000
20
99.000000
0
VERTEX
8
0
10
270.000000
20
104.000000
0
VERTEX
8
0
10
272.000000
20
106.000000
0
VERTEX
8
0
10
283.000000
20
110.000000
0
VERTEX
8
0
10
292.000000
20
110.000000
0
VERTEX
8
0
10
297.932432
20
108.594595
0
VERTEX
8
0
10
299.100000
20
108.200000
0
VERTEX
8
0
10
312.000000
20
100.000000
0
VERTEX
8
0
10
321.000000
20
91.000000
0
VERTEX
8
0
10
321.000000
20
89.000000
0
VERTEX
8
0
10
319.000000
20
86.000000
0
VERTEX
8
0
10
318.000000
20
86.000000
0
VERTEX
8
0
10
315.000000
20
89.000000
0
VERTEX
8
0
10
315.000000
20
90.000000
0
VERTEX
8
0
10
309.153846
20
95.230769
0
VERTEX
8
0
10
306.180000
20
97.240000
0
VERTEX
8
0
10
300.911765
20
100.647059
0
VERTEX
8
0
10
297.000000
20
102.000000
0
VERTEX
8
0
10
287.000000
20
102.000000
0
VERTEX
8
0
10
285.000000
20
101.000000
0
VERTEX
8
0
10
281.000000
20
97.000000
0
VERTEX
8
0
10
281.000000
20
94.000000
0
VERTEX
8
0
10
285.000000
20
90.000000
0
VERTEX
8
0
10
294.100000
20
86.300000
0
VERTEX
8
0
10
300.900000
20
83.800000
0
VERTEX
8
0
10
316.000000
20
76.000000
0
VERTEX
8
0
10
316.230769
20
75.153846
0
VERTEX
8
0
10
319.000000
20
70.000000
0
VERTEX
8
0
10
321.000000
20
70.000000
0
VERTEX
8
0
10
329.900000
20
74.200000
0
VERTEX
8
0
10
335.100000
20
76.800000
0
VERTEX
8
0
10
339.000000
20
80.000000
0
VERTEX
8
0
10
340.000000
20
82.000000
0
VERTEX
8
0
10
339.000000
20
88.000000
0
VERTEX
8
0
10
336.153846
20
90.230769
0
VERTEX
8
0
10
325.000000
20
93.000000
0
VERTEX
8
0
10
327.820000
20
95.240000
0
VERTEX
8
0
10
335.000000
20
99.000000
0
VERTEX
8
0
10
340.000000
20
99.000000
0
VERTEX
8
0
10
343.911765
20
97.647059
0
VERTEX
8
0
10
352.000000
20
94.000000
0
VERTEX
8
0
10
354.000000
20
92.000000
0
VERTEX
8
0
10
356.000000
20
87.000000
0
VERTEX
8
0
10
355.000000
20
82.000000
0
VERTEX
8
0
10
353.000000
20
81.000000
0
VERTEX
8
0
10
348.000000
20
76.000000
0
VERTEX
8
0
10
353.000000
20
70.000000
0
VERTEX
8
0
10
364.000000
20
64.000000
0
VERTEX
8
0
10
365.000000
20
64.000000
0
VERTEX
8
0
10
370.000000
20
68.000000
0
VERTEX
8
0
10
371.000000
20
70.000000
0
VERTEX
8
0
10
370.200000
20
72.100000
0
VERTEX
8
0
10
367.000000
20
76.000000
0
VERTEX
8
0
10
364.900000
20
76.700000
0
VERTEX
8
0
10
362.000000
20
78.000000
0
SEQEND
0
POLYLINE
8
0
6
CONTINUOUS
66
1
62
7
10
0.0
20
0.0
30
0.000000
0
VERTEX
8
0
10
151.000000
20
112.000000
0
VERTEX
8
0
10
148.769231
20
108.153846
0
VERTEX
8
0
10
144.000000
20
102.000000
0
VERTEX
8
0
10
135.820000
20
96.240000
0
VERTEX
8
0
10
130.000000
20
93.000000
0
VERTEX
8
0
10
125.000000
20
88.000000
0
VERTEX
8
0
10
120.000000
20
77.000000
0
VERTEX
8
0
10
120.000000
20
74.000000
0
VERTEX
8
0
10
121.230769
20
72.153846
0
VERTEX
8
0
10
124.000000
20
67.000000
0
VERTEX
8
0
10
130.900000
20
61.800000
0
VERTEX
8
0
10
135.000000
20
60.000000
0
VERTEX
8
0
10
141.100000
20
62.800000
0
VERTEX
8
0
10
142.000000
20
63.000000
0
VERTEX
8
0
10
145.240000
20
66.820000
0
VERTEX
8
0
10
147.760000
20
70.180000
0
VERTEX
8
0
10
149.647059
20
74.088235
0
VERTEX
8
0
10
151.000000
20
81.000000
0
SEQEND
0
POLYLINE
8
0
6
CONTINUOUS
66
1
62
7
10
0.0
20
0.0
30
0.000000
0
VERTEX
8
0
10
244.000000
20
81.000000
0
VERTEX
8
0
10
244.000000
20
82.000000
0
VERTEX
8
0
10
262.000000
20
91.000000
0
VERTEX
8
0
10
265.200000
20
96.900000
0
VERTEX
8
0
10
266.000000
20
98.000000
0
VERTEX
8
0
10
265.000000
20
104.000000
0
VERTEX
8
0
10
262.180000
20
106.240000
0
VERTEX
8
0
10
254.000000
20
110.000000
0
VERTEX
8
0
10
239.000000
20
110.000000
0
VERTEX
8
0
10
235.153846
20
107.769231
0
VERTEX
8
0
10
232.846154
20
106.230769
0
VERTEX
8
0
10
223.000000
20
100.000000
0
VERTEX
8
0
10
215.000000
20
92.000000
0
VERTEX
8
0
10
215.000000
20
91.000000
0
VERTEX
8
0
10
214.000000
20
90.000000
0
VERTEX
8
0
10
213.000000
20
92.000000
0
VERTEX
8
0
10
204.911765
20
96.647059
0
VERTEX
8
0
10
202.088235
20
97.352941
0
VERTEX
8
0
10
193.000000
20
99.000000
0
VERTEX
8
0
10
190.100000
20
97.700000
0
VERTEX
8
0
10
186.900000
20
96.200000
0
VERTEX
8
0
10
181.000000
20
91.000000
0
VERTEX
8
0
10
180.000000
20
89.000000
0
VERTEX
8
0
10
181.200000
20
85.100000
0
VERTEX
8
0
10
182.200000
20
83.100000
0
VERTEX
8
0
10
185.000000
20
79.000000
0
VERTEX
8
0
10
189.180000
20
76.240000
0
VERTEX
8
0
10
199.100000
20
71.300000
0
VERTEX
8
0
10
200.900000
20
70.700000
0
VERTEX
8
0
10
218.000000
20
63.000000
0
VERTEX
8
0
10
222.000000
20
67.000000
0
VERTEX
8
0
10
222.000000
20
68.000000
0
VERTEX
8
0
10
228.820000
20
74.240000
0
VERTEX
8
0
10
232.180000
20
76.760000
0
VERTEX
8
0
10
238.000000
20
79.000000
0
VERTEX
8
0
10
241.000000
20
79.000000
0
VERTEX
8
0
10
248.000000
20
76.000000
0
VERTEX
8
0
10
249.000000
20
75.000000
0
VERTEX
8
0
10
249.000000
20
70.000000
0
VERTEX
8
0
10
247.000000
20
68.000000
0
VERTEX
8
0
10
243.000000
20
68.000000
0
VERTEX
8
0
10
241.900000
20
68.800000
0
VERTEX
8
0
10
238.000000
20
73.000000
0
VERTEX
8
0
10
236.000000
20
71.000000
0
VERTEX
8
0
10
235.000000
20
67.000000
0
VERTEX
8
0
10
236.000000
20
65.000000
0
VERTEX
8
0
10
242.900000
20
60.800000
0
VERTEX
8
0
10
244.000000
20
60.000000
0
VERTEX
8
0
10
247.000000
20
60.000000
0
VERTEX
8
0
10
249.800000
20
61.400000
0
VERTEX
8
0
10
253.000000
20
63.000000
0
VERTEX
8
0
10
257.200000
20
67.900000
0
VERTEX
8
0
10
259.000000
20
71.000000
0
VERTEX
8
0
10
258.200000
20
73.100000
0
VERTEX
8
0
10
257.000000
20
76.000000
0
VERTEX
8
0
10
254.100000
20
78.200000
0
VERTEX
8
0
10
252.900000
20
78.800000
0
VERTEX
8
0
10
244.000000
20
81.000000
0
SEQEND
0
POLYLINE
8
0
6
CONTINUOUS
66
1
62
7
10
0.0
20
0.0
30
0.000000
0
VERTEX
8
0
10
291.000000
20
81.000000
0
VERTEX
8
0
10
290.000000
20
81.000000
0
VERTEX
8
0
10
284.206897
20
79.482759
0
VERTEX
8
0
10
281.846154
20
78.230769
0
VERTEX
8
0
10
279.000000
20
76.000000
0
VERTEX
8
0
10
277.000000
20
72.000000
0
VERTEX
8
0
10
278.000000
20
67.000000
0
VERTEX
8
0
10
282.000000
20
63.000000
0
VERTEX
8
0
10
288.000000
20
60.000000
0
VERTEX
8
0
10
291.100000
20
60.700000
0
VERTEX
8
0
10
295.000000
20
62.000000
0
VERTEX
8
0
10
297.000000
20
64.000000
0
VERTEX
8
0
10
300.000000
20
71.000000
0
VERTEX
8
0
10
299.000000
20
73.000000
0
VERTEX
8
0
10
298.000000
20
74.000000
0
VERTEX
8
0
10
295.000000
20
71.000000
0
VERTEX
8
0
10
295.000000
20
70.000000
0
VERTEX
8
0
10
293.000000
20
68.000000
0
VERTEX
8
0
10
290.000000
20
68.000000
0
VERTEX
8
0
10
288.000000
20
70.000000
0
VERTEX
8
0
10
288.000000
20
75.000000
0
VERTEX
8
0
10
291.000000
20
78.000000
0
VERTEX
8
0
10
295.000000
20
79.000000
0
VERTEX
8
0
10
300.000000
20
79.000000
0
VERTEX
8
0
10
307.000000
20
75.000000
0
VERTEX
8
0
10
309.240000
20
72.180000
0
VERTEX
8
0
10
317.000000
20
62.000000
0
VERTEX
8
0
10
329.100000
20
67.800000
0
VERTEX
8
0
10
329.900000
20
68.200000
0
VERTEX
8
0
10
333.000000
20
70.000000
0
VERTEX
8
0
10
341.000000
20
70.000000
0
VERTEX
8
0
10
360.911765
20
61.647059
0
VERTEX
8
0
10
371.000000
20
60.000000
0
VERTEX
8
0
10
378.000000
20
63.000000
0
VERTEX
8
0
10
380.200000
20
66.900000
0
VERTEX
8
0
10
382.000000
20
71.000000
0
VERTEX
8
0
10
382.000000
20
75.000000
0
VERTEX
8
0
10
379.000000
20
81.000000
0
VERTEX
8
0
10
377.100000
20
82.200000
0
VERTEX
8
0
10
374.000000
20
84.000000
0
VERTEX
8
0
10
367.000000
20
84.000000
0
VERTEX
8
0
10
364.000000
20
82.000000
0
VERTEX
8
0
10
362.000000
20
78.000000
0
SEQEND
0
POLYLINE
8
0
6
CONTINUOUS
66
1
62
7
10
0.0
20
0.0
30
0.000000
0
VERTEX
8
0
10
474.000000
20
82.000000
0
VERTEX
8
0
10
484.100000
20
86.700000
0
VERTEX
8
0
10
491.000000
20
90.000000
0
VERTEX
8
0
10
494.230769
20
93.846154
0
VERTEX
8
0
10
497.500000
20
100.000000
0
VERTEX
8
0
10
496.800000
20
101.900000
0
VERTEX
8
0
10
494.000000
20
107.000000
0
VERTEX
8
0
10
493.100000
20
107.200000
0
VERTEX
8
0
10
482.000000
20
110.000000
0
VERTEX
8
0
10
470.000000
20
110.000000
0
VERTEX
8
0
10
459.900000
20
104.200000
0
VERTEX
8
0
10
445.594595
20
92.567568
0
VERTEX
8
0
10
439.100000
20
95.200000
0
VERTEX
8
0
10
435.911765
20
96.647059
0
VERTEX
8
0
10
423.000000
20
99.000000
0
VERTEX
8
0
10
419.900000
20
97.200000
0
VERTEX
8
0
10
413.000000
20
92.000000
0
VERTEX
8
0
10
411.000000
20
88.000000
0
VERTEX
8
0
10
411.700000
20
84.900000
0
VERTEX
8
0
10
414.245902
20
80.204918
0
VERTEX
8
0
10
419.000000
20
75.000000
0
VERTEX
8
0
10
415.180000
20
71.760000
0
VERTEX
8
0
10
408.153846
20
66.769231
0
VERTEX
8
0
10
404.000000
20
64.500000
0
VERTEX
8
0
10
400.000000
20
66.000000
0
VERTEX
8
0
10
396.000000
20
71.000000
0
VERTEX
8
0
10
397.000000
20
74.000000
0
VERTEX
8
0
10
402.100000
20
76.700000
0
VERTEX
8
0
10
404.000000
20
77.000000
0
VERTEX
8
0
10
405.000000
20
79.000000
0
VERTEX
8
0
10
401.100000
20
82.200000
0
VERTEX
8
0
10
398.000000
20
84.000000
0
VERTEX
8
0
10
392.000000
20
84.000000
0
VERTEX
8
0
10
385.000000
20
78.000000
0
VERTEX
8
0
10
385.000000
20
68.000000
0
VERTEX
8
0
10
386.000000
20
66.000000
0
VERTEX
8
0
10
388.820000
20
63.760000
0
VERTEX
8
0
10
396.000000
20
60.000000
0
VERTEX
8
0
10
402.000000
20
60.000000
0
VERTEX
8
0
10
405.911765
20
61.352941
0
VERTEX
8
0
10
425.000000
20
70.000000
0
VERTEX
8
0
10
431.000000
20
70.000000
0
VERTEX
8
0
10
435.923077
20
68.615385
0
VERTEX
8
0
10
437.100000
20
68.200000
0
VERTEX
8
0
10
446.846154
20
62.769231
0
VERTEX
8
0
10
449.000000
20
61.000000
0
VERTEX
8
0
10
453.247059
20
66.788235
0
VERTEX
8
0
10
462.000000
20
77.000000
0
VERTEX
8
0
10
462.900000
20
77.200000
0
VERTEX
8
0
10
467.000000
20
79.000000
0
VERTEX
8
0
10
474.000000
20
79.000000
0
VERTEX
8
0
10
475.900000
20
77.800000
0
VERTEX
8
0
10
478.000000
20
77.000000
0
VERTEX
8
0
10
479.200000
20
75.100000
0
VERTEX
8
0
10
480.000000
20
74.000000
0
VERTEX
8
0
10
480.000000
20
71.000000
0
VERTEX
8
0
10
477.000000
20
68.000000
0
VERTEX
8
0
10
473.900000
20
68.800000
0
VERTEX
8
0
10
469.000000
20
74.000000
0
VERTEX
8
0
10
467.000000
20
72.000000
0
VERTEX
8
0
10
467.000000
20
68.000000
0
VERTEX
8
0
10
468.200000
20
66.100000
0
VERTEX
8
0
10
470.000000
20
63.000000
0
VERTEX
8
0
10
475.100000
20
61.200000
0
VERTEX
8
0
10
478.000000
20
60.000000
0
VERTEX
8
0
10
483.100000
20
62.800000
0
VERTEX
8
0
10
488.000000
20
67.000000
0
VERTEX
8
0
10
489.000000
20
75.000000
0
VERTEX
8
0
10
487.000000
20
77.000000
0
VERTEX
8
0
10
481.911765
20
79.647059
0
VERTEX
8
0
10
474.000000
20
82.000000
0
SEQEND
0
POLYLINE
8
0
6
CONTINUOUS
66
1
62
7
10
0.0
20
0.0
30
0.000000
0
VERTEX
8
0
10
524.000000
20
81.000000
0
VERTEX
8
0
10
517.088235
20
79.647059
0
VERTEX
8
0
10
510.000000
20
76.000000
0
VERTEX
8
0
10
509.000000
20
73.000000
0
VERTEX
8
0
10
509.000000
20
70.000000
0
VERTEX
8
0
10
510.200000
20
68.100000
0
VERTEX
8
0
10
513.000000
20
64.000000
0
VERTEX
8
0
10
513.820000
20
63.760000
0
VERTEX
8
0
10
520.000000
20
60.000000
0
VERTEX
8
0
10
523.100000
20
60.700000
0
VERTEX
8
0
10
527.000000
20
62.000000
0
VERTEX
8
0
10
531.000000
20
67.000000
0
VERTEX
8
0
10
530.200000
20
70.100000
0
VERTEX
8
0
10
529.750000
20
71.750000
0
VERTEX
8
0
10
520.000000
20
68.000000
0
VERTEX
8
0
10
518.000000
20
70.000000
0
VERTEX
8
0
10
518.000000
20
75.000000
0
VERTEX
8
0
10
521.900000
20
77.200000
0
VERTEX
8
0
10
525.911765
20
78.352941
0
VERTEX
8
0
10
531.000000
20
79.000000
0
VERTEX
8
0
10
535.153846
20
76.230769
0
VERTEX
8
0
10
546.000000
20
66.000000
0
VERTEX
8
0
10
546.000000
20
65.000000
0
VERTEX
8
0
10
548.000000
20
63.000000
0
VERTEX
8
0
10
551.100000
20
63.800000
0
VERTEX
8
0
10
570.100000
20
71.800000
0
VERTEX
8
0
10
579.000000
20
77.000000
0
VERTEX
8
0
10
585.000000
20
83.000000
0
VERTEX
8
0
10
587.000000
20
87.000000
0
VERTEX
8
0
10
586.000000
20
91.000000
0
VERTEX
8
0
10
580.000000
20
97.000000
0
VERTEX
8
0
10
574.000000
20
99.000000
0
VERTEX
8
0
10
569.000000
20
99.000000
0
VERTEX
8
0
10
557.100000
20
94.800000
0
VERTEX
8
0
10
551.000000
20
92.000000
0
VERTEX
8
0
10
548.000000
20
95.000000
0
VERTEX
8
0
10
548.000000
20
96.000000
0
VERTEX
8
0
10
538.100000
20
104.200000
0
VERTEX
8
0
10
536.900000
20
104.800000
0
VERTEX
8
0
10
527.088235
20
108.352941
0
VERTEX
8
0
10
521.067568
20
109.405405
0
VERTEX
8
0
10
513.000000
20
110.000000
0
VERTEX
8
0
10
511.923077
20
109.384615
0
VERTEX
8
0
10
504.000000
20
107.000000
0
VERTEX
8
0
10
502.000000
20
105.000000
0
VERTEX
8
0
10
500.000000
20
100.000000
0
VERTEX
8
0
10
504.000000
20
93.000000
0
VERTEX
8
0
10
507.000000
20
90.000000
0
VERTEX
8
0
10
524.000000
20
82.000000
0
VERTEX
8
0
10
524.000000
20
81.000000
0
SEQEND
0
POLYLINE
8
0
6
CONTINUOUS
66
1
62
7
10
0.0
20
0.0
30
0.000000
0
VERTEX
8
0
10
594.000000
20
102.000000
0
VERTEX
8
0
10
595.000000
20
100.000000
0
VERTEX
8
0
10
590.000000
20
96.000000
0
VERTEX
8
0
10
589.000000
20
90.000000
0
VERTEX
8
0
10
590.300000
20
87.100000
0
VERTEX
8
0
10
590.800000
20
85.900000
0
VERTEX
8
0
10
595.000000
20
81.000000
0
VERTEX
8
0
10
599.000000
20
80.000000
0
VERTEX
8
0
10
603.000000
20
80.000000
0
VERTEX
8
0
10
605.000000
20
82.000000
0
VERTEX
8
0
10
603.000000
20
86.000000
0
VERTEX
8
0
10
604.000000
20
90.000000
0
VERTEX
8
0
10
606.900000
20
92.200000
0
VERTEX
8
0
10
608.000000
20
93.000000
0
VERTEX
8
0
10
610.000000
20
91.000000
0
VERTEX
8
0
10
613.700000
20
83.900000
0
VERTEX
8
0
10
616.800000
20
73.900000
0
VERTEX
8
0
10
620.000000
20
67.000000
0
VERTEX
8
0
10
623.000000
20
64.000000
0
VERTEX
8
0
10
630.000000
20
60.000000
0
VERTEX
8
0
10
632.000000
20
60.000000
0
VERTEX
8
0
10
637.846154
20
63.230769
0
VERTEX
8
0
10
641.000000
20
65.000000
0
VERTEX
8
0
10
644.600000
20
70.200000
0
VERTEX
8
0
10
646.000000
20
73.000000
0
VERTEX
8
0
10
645.352941
20
77.088235
0
VERTEX
8
0
10
644.647059
20
79.911765
0
VERTEX
8
0
10
641.000000
20
88.000000
0
VERTEX
8
0
10
634.000000
20
95.000000
0
VERTEX
8
0
10
630.846154
20
96.769231
0
VERTEX
8
0
10
626.820000
20
99.760000
0
VERTEX
8
0
10
617.000000
20
108.000000
0
VERTEX
8
0
10
616.000000
20
111.000000
0
SEQEND
0
ENDSEC
0
EOF
