  0
SECTION
  2
HEADER
  9
$ACADVER
  1
AC1006
  0
ENDSEC
  0
SECTION
  2
TABLES
  0
TABLE
  2
LTYPE
 70
    25
  0
LTYPE
  2
CONTINUOUS
 70
    64
  3
Solid line
 72
    64
 73
     0
 40
0.000000
  0
LTYPE
  2
DASHDOT
 70
    64
  3
__ . __ . __ . __ . __ . __ . __ . __ . __ . __
 72
    65
 73
     4
 40
1.000000
 49
0.500000
 49
-0.250000
 49
0.000000
 49
-0.250000
  0
LTYPE
  2
DASHED
 70
    64
  3
__ __ __ __ __ __ __ __ __ __ __ __ __ __ __ __
 72
    65
 73
     2
 40
0.750000
 49
0.500000
 49
-0.250000
  0
LTYPE
  2
DIVIDE
 70
    64
  3
____ . . ____ . . ____ . . ____ . . ____ . . __
 72
    65
 73
     6
 40
1.250000
 49
0.500000
 49
-0.250000
 49
0.000000
 49
-0.250000
 49
0.000000
 49
-0.250000
  0
LTYPE
  2
DOT
 70
    64
  3
. . . . . . . . . . . . . . . . . . . . . . . . 
 72
    65
 73
     2
 40
0.250000
 49
0.000000
 49
-0.250000
  0
ENDTAB
  0
ENDSEC
  0
SECTION
  2
ENTITIES
  0
LINE
  8
Layer 1
 62
     7
  6
CONTINUOUS
 10
31.891517
 20
10.004085
 30
0.000000
 11
31.688067
 21
10.004085
 31
0.000000
  0
LINE
  8
Layer 1
 62
     7
  6
CONTINUOUS
 10
31.688067
 20
9.784904
 30
-0.000000
 11
31.688067
 21
8.211886
 31
-0.000000
  0
LINE
  8
Layer 1
 62
     7
  6
CONTINUOUS
 10
31.688067
 20
8.211886
 30
-0.000000
 11
31.688067
 21
8.133121
 31
-0.000000
  0
LINE
  8
Layer 1
 62
     7
  6
CONTINUOUS
 10
31.688067
 20
8.133121
 30
-0.000000
 11
31.688067
 21
8.125380
 31
-0.000000
  0
LINE
  8
Layer 1
 62
     7
  6
CONTINUOUS
 10
31.688067
 20
8.125380
 30
-0.000000
 11
31.688067
 21
8.124223
 31
-0.000000
  0
LINE
  8
Layer 1
 62
     7
  6
CONTINUOUS
 10
31.688067
 20
8.124223
 30
-0.000000
 11
31.688067
 21
8.124217
 31
-0.000000
  0
LINE
  8
Layer 1
 62
     7
  6
CONTINUOUS
 10
31.688067
 20
8.124217
 30
-0.000000
 11
31.688067
 21
8.124217
 31
-0.000000
  0
LINE
  8
Layer 1
 62
     7
  6
CONTINUOUS
 10
31.688067
 20
8.124217
 30
-0.000000
 11
31.688067
 21
8.124216
 31
-0.000000
  0
LINE
  8
Layer 1
 62
     7
  6
CONTINUOUS
 10
31.688067
 20
8.124216
 30
-0.000000
 11
31.688068
 21
8.124216
 31
-0.000000
  0
LINE
  8
Layer 1
 62
     7
  6
CONTINUOUS
 10
31.688068
 20
8.124216
 30
-0.000000
 11
31.688069
 21
8.124216
 31
-0.000000
  0
LINE
  8
Layer 1
 62
     7
  6
CONTINUOUS
 10
31.688069
 20
8.124216
 30
-0.000000
 11
31.688075
 21
8.124217
 31
-0.000000
  0
LINE
  8
Layer 1
 62
     7
  6
CONTINUOUS
 10
31.688075
 20
8.124217
 30
-0.000000
 11
31.688101
 21
8.124217
 31
-0.000000
  0
LINE
  8
Layer 1
 62
     7
  6
CONTINUOUS
 10
31.688101
 20
8.124217
 30
-0.000000
 11
31.688213
 21
8.124218
 31
-0.000000
  0
LINE
  8
Layer 1
 62
     7
  6
CONTINUOUS
 10
31.688213
 20
8.124218
 30
-0.000000
 11
31.688665
 21
8.124221
 31
-0.000000
  0
LINE
  8
Layer 1
 62
     7
  6
CONTINUOUS
 10
31.688665
 20
8.124221
 30
-0.000000
 11
31.693481
 21
8.124261
 31
-0.000000
  0
LINE
  8
Layer 1
 62
     7
  6
CONTINUOUS
 10
31.693481
 20
8.124261
 30
-0.000000
 11
31.716891
 21
8.124455
 31
-0.000000
  0
LINE
  8
Layer 1
 62
     7
  6
CONTINUOUS
 10
5.415495
 20
7.423790
 30
-0.000000
 11
7.779493
 21
7.135009
 31
-0.000000
  0
LINE
  8
Layer 1
 62
     7
  6
CONTINUOUS
 10
7.779493
 20
7.135009
 30
-0.000000
 11
8.771683
 21
7.038955
 31
-0.000000
  0
LINE
  8
Layer 1
 62
     7
  6
CONTINUOUS
 10
8.771683
 20
7.038955
 30
-0.000000
 11
8.795658
 21
7.030777
 31
-0.000000
  0
LINE
  8
Layer 1
 62
     7
  6
CONTINUOUS
 10
33.993306
 20
13.344112
 30
-0.000000
 11
33.993281
 21
13.344112
 31
-0.000000
  0
LINE
  8
Layer 1
 62
     7
  6
CONTINUOUS
 10
33.993281
 20
13.344112
 30
-0.000000
 11
33.993275
 21
13.344112
 31
-0.000000
  0
LINE
  8
Layer 1
 62
     7
  6
CONTINUOUS
 10
33.993275
 20
13.344112
 30
-0.000000
 11
33.993274
 21
13.344112
 31
-0.000000
  0
LINE
  8
Layer 1
 62
     7
  6
CONTINUOUS
 10
33.993274
 20
13.344112
 30
-0.000000
 11
33.993274
 21
13.344112
 31
-0.000000
  0
LINE
  8
Layer 1
 62
     7
  6
CONTINUOUS
 10
8.795658
 20
7.030777
 30
-0.000000
 11
8.816350
 21
7.021042
 31
-0.000000
  0
LINE
  8
Layer 1
 62
     7
  6
CONTINUOUS
 10
8.816350
 20
7.021042
 30
-0.000000
 11
8.833959
 21
7.009534
 31
-0.000000
  0
LINE
  8
Layer 1
 62
     7
  6
CONTINUOUS
 10
22.263948
 20
11.106991
 30
-0.000000
 11
22.263948
 21
11.106991
 31
-0.000000
  0
LINE
  8
Layer 1
 62
     7
  6
CONTINUOUS
 10
22.263948
 20
11.106991
 30
-0.000000
 11
22.263948
 21
11.106991
 31
-0.000000
  0
LINE
  8
Layer 1
 62
     7
  6
CONTINUOUS
 10
22.263948
 20
11.106991
 30
-0.000000
 11
22.263948
 21
11.106991
 31
-0.000000
  0
LINE
  8
Layer 1
 62
     7
  6
CONTINUOUS
 10
22.263948
 20
11.106991
 30
-0.000000
 11
22.263948
 21
11.106990
 31
-0.000000
  0
LINE
  8
Layer 1
 62
     7
  6
CONTINUOUS
 10
22.263948
 20
11.106990
 30
-0.000000
 11
22.263948
 21
11.106985
 31
-0.000000
  0
LINE
  8
Layer 1
 62
     7
  6
CONTINUOUS
 10
22.263948
 20
11.106985
 30
-0.000000
 11
22.263948
 21
11.106965
 31
-0.000000
  0
LINE
  8
Layer 1
 62
     7
  6
CONTINUOUS
 10
22.263948
 20
11.106965
 30
-0.000000
 11
22.263948
 21
11.106887
 31
-0.000000
  0
LINE
  8
Layer 1
 62
     7
  6
CONTINUOUS
 10
34.671243
 20
8.869950
 30
-0.000000
 11
34.819552
 21
8.881325
 31
-0.000000
  0
LINE
  8
Layer 1
 62
     7
  6
CONTINUOUS
 10
34.819552
 20
8.881325
 30
-0.000000
 11
34.967712
 21
8.914393
 31
-0.000000
  0
LINE
  8
Layer 1
 62
     7
  6
CONTINUOUS
 10
34.967712
 20
8.914393
 30
-0.000000
 11
35.114423
 21
8.967570
 31
-0.000000
  0
LINE
  8
Layer 1
 62
     7
  6
CONTINUOUS
 10
35.114423
 20
8.967570
 30
-0.000000
 11
35.258386
 21
9.039272
 31
-0.000000
  0
LINE
  8
Layer 1
 62
     7
  6
CONTINUOUS
 10
35.258386
 20
9.039272
 30
-0.000000
 11
35.398302
 21
9.127916
 31
-0.000000
  0
LINE
  8
Layer 1
 62
     7
  6
CONTINUOUS
 10
35.398302
 20
9.127916
 30
-0.000000
 11
35.532869
 21
9.231917
 31
-0.000000
  0
LINE
  8
Layer 1
 62
     7
  6
CONTINUOUS
 10
35.532869
 20
9.231917
 30
-0.000000
 11
35.780762
 21
9.479654
 31
-0.000000
  0
LINE
  8
Layer 1
 62
     7
  6
CONTINUOUS
 10
35.780762
 20
9.479654
 30
-0.000000
 11
35.991667
 21
9.769811
 31
-0.000000
  0
LINE
  8
Layer 1
 62
     7
  6
CONTINUOUS
 10
35.991667
 20
9.769811
 30
-0.000000
 11
36.155187
 21
10.089717
 31
-0.000000
  0
LINE
  8
Layer 1
 62
     7
  6
CONTINUOUS
 10
36.155187
 20
10.089717
 30
-0.000000
 11
36.215928
 21
10.256866
 31
-0.000000
  0
LINE
  8
Layer 1
 62
     7
  6
CONTINUOUS
 10
36.215928
 20
10.256866
 30
-0.000000
 11
36.260924
 21
10.426700
 31
-0.000000
  0
LINE
  8
Layer 1
 62
     7
  6
CONTINUOUS
 10
36.260924
 20
10.426700
 30
-0.000000
 11
36.288874
 21
10.597635
 31
-0.000000
  0
LINE
  8
Layer 1
 62
     7
  6
CONTINUOUS
 10
36.288874
 20
10.597635
 30
-0.000000
 11
36.298480
 21
10.768087
 31
-0.000000
  0
LINE
  8
Layer 1
 62
     7
  6
CONTINUOUS
 10
36.298480
 20
10.768087
 30
-0.000000
 11
36.298480
 21
10.768087
 31
-0.000000
  0
LINE
  8
Layer 1
 62
     7
  6
CONTINUOUS
 10
36.298480
 20
10.768087
 30
-0.000000
 11
36.298480
 21
10.768087
 31
-0.000000
  0
LINE
  8
Layer 1
 62
     7
  6
CONTINUOUS
 10
36.298480
 20
10.768087
 30
-0.000000
 11
36.298480
 21
10.768087
 31
-0.000000
  0
LINE
  8
Layer 1
 62
     7
  6
CONTINUOUS
 10
36.298480
 20
10.768087
 30
-0.000000
 11
36.298480
 21
10.768088
 31
-0.000000
  0
LINE
  8
Layer 1
 62
     7
  6
CONTINUOUS
 10
36.298480
 20
10.768088
 30
-0.000000
 11
36.298480
 21
10.768093
 31
-0.000000
  0
LINE
  8
Layer 1
 62
     7
  6
CONTINUOUS
 10
36.298480
 20
10.768093
 30
-0.000000
 11
36.298480
 21
10.768112
 31
-0.000000
  0
LINE
  8
Layer 1
 62
     7
  6
CONTINUOUS
 10
36.298480
 20
10.768112
 30
-0.000000
 11
36.298480
 21
10.768191
 31
-0.000000
  0
LINE
  8
Layer 1
 62
     7
  6
CONTINUOUS
 10
36.298480
 20
10.768191
 30
-0.000000
 11
36.298480
 21
10.769022
 31
-0.000000
  0
LINE
  8
Layer 1
 62
     7
  6
CONTINUOUS
 10
36.298480
 20
10.769022
 30
-0.000000
 11
36.298480
 21
10.773050
 31
-0.000000
  0
LINE
  8
Layer 1
 62
     7
  6
CONTINUOUS
 10
36.298480
 20
10.773050
 30
-0.000000
 11
36.298480
 21
10.815599
 31
-0.000000
  0
LINE
  8
Layer 1
 62
     7
  6
CONTINUOUS
 10
36.298480
 20
10.815599
 30
-0.000000
 11
36.298480
 21
11.095750
 31
-0.000000
  0
LINE
  8
Layer 1
 62
     7
  6
CONTINUOUS
 10
36.298480
 20
11.095750
 30
-0.000000
 11
36.298480
 21
11.106248
 31
-0.000000
  0
LINE
  8
Layer 1
 62
     7
  6
CONTINUOUS
 10
36.298480
 20
11.106248
 30
-0.000000
 11
36.298480
 21
11.106944
 31
-0.000000
  0
LINE
  8
Layer 1
 62
     7
  6
CONTINUOUS
 10
36.298480
 20
11.106944
 30
-0.000000
 11
36.298480
 21
11.106988
 31
-0.000000
  0
LINE
  8
Layer 1
 62
     7
  6
CONTINUOUS
 10
36.298480
 20
11.106988
 30
-0.000000
 11
36.298480
 21
11.106991
 31
-0.000000
  0
LINE
  8
Layer 1
 62
     7
  6
CONTINUOUS
 10
36.298480
 20
11.106991
 30
-0.000000
 11
36.298480
 21
11.106991
 31
-0.000000
  0
LINE
  8
Layer 1
 62
     7
  6
CONTINUOUS
 10
36.298480
 20
11.106991
 30
-0.000000
 11
36.298480
 21
11.106991
 31
-0.000000
  0
LINE
  8
Layer 1
 62
     7
  6
CONTINUOUS
 10
36.298480
 20
11.106991
 30
-0.000000
 11
36.293805
 21
11.208042
 31
-0.000000
  0
LINE
  8
Layer 1
 62
     7
  6
CONTINUOUS
 10
36.293805
 20
11.208042
 30
-0.000000
 11
36.257725
 21
11.412213
 31
-0.000000
  0
LINE
  8
Layer 1
 62
     7
  6
CONTINUOUS
 10
36.257725
 20
11.412213
 30
-0.000000
 11
36.188939
 21
11.616200
 31
-0.000000
  0
LINE
  8
Layer 1
 62
     7
  6
CONTINUOUS
 10
36.188939
 20
11.616200
 30
-0.000000
 11
36.090968
 21
11.816465
 31
-0.000000
  0
LINE
  8
Layer 1
 62
     7
  6
CONTINUOUS
 10
36.090968
 20
11.816465
 30
-0.000000
 11
35.967334
 21
12.009473
 31
-0.000000
  0
LINE
  8
Layer 1
 62
     7
  6
CONTINUOUS
 10
35.967334
 20
12.009473
 30
-0.000000
 11
35.821556
 21
12.191687
 31
-0.000000
  0
LINE
  8
Layer 1
 62
     7
  6
CONTINUOUS
 10
35.821556
 20
12.191687
 30
-0.000000
 11
35.657156
 21
12.359572
 31
-0.000000
  0
LINE
  8
Layer 1
 62
     7
  6
CONTINUOUS
 10
35.657156
 20
12.359572
 30
-0.000000
 11
35.477655
 21
12.509591
 31
-0.000000
  0
LINE
  8
Layer 1
 62
     7
  6
CONTINUOUS
 10
35.477655
 20
12.509591
 30
-0.000000
 11
35.286574
 21
12.638210
 31
-0.000000
  0
LINE
  8
Layer 1
 62
     7
  6
CONTINUOUS
 10
35.286574
 20
12.638210
 30
-0.000000
 11
35.087433
 21
12.741891
 31
-0.000000
  0
LINE
  8
Layer 1
 62
     7
  6
CONTINUOUS
 10
35.087433
 20
12.741891
 30
-0.000000
 11
34.883754
 21
12.817098
 31
-0.000000
  0
LINE
  8
Layer 1
 62
     7
  6
CONTINUOUS
 10
34.883754
 20
12.817098
 30
-0.000000
 11
34.679057
 21
12.860297
 31
-0.000000
  0
LINE
  8
Layer 1
 62
     7
  6
CONTINUOUS
 10
34.679057
 20
12.860297
 30
-0.000000
 11
34.534711
 21
12.869598
 31
-0.000000
  0
LINE
  8
Layer 1
 62
     7
  6
CONTINUOUS
 10
34.534711
 20
12.869598
 30
-0.000000
 11
34.529064
 21
12.869598
 31
-0.000000
  0
LINE
  8
Layer 1
 62
     7
  6
CONTINUOUS
 10
34.529064
 20
12.869598
 30
-0.000000
 11
34.503968
 21
12.869598
 31
-0.000000
  0
LINE
  8
Layer 1
 62
     7
  6
CONTINUOUS
 10
34.503968
 20
12.869598
 30
-0.000000
 11
34.048518
 21
12.869598
 31
-0.000000
  0
LINE
  8
Layer 1
 62
     7
  6
CONTINUOUS
 10
34.048518
 20
12.869598
 30
-0.000000
 11
33.995103
 21
12.869598
 31
-0.000000
  0
LINE
  8
Layer 1
 62
     7
  6
CONTINUOUS
 10
33.995103
 20
12.869598
 30
-0.000000
 11
33.993565
 21
12.869598
 31
-0.000000
  0
LINE
  8
Layer 1
 62
     7
  6
CONTINUOUS
 10
33.993565
 20
12.869598
 30
-0.000000
 11
33.993290
 21
12.869598
 31
-0.000000
  0
LINE
  8
Layer 1
 62
     7
  6
CONTINUOUS
 10
33.993290
 20
12.869598
 30
-0.000000
 11
33.993274
 21
12.869598
 31
-0.000000
  0
LINE
  8
Layer 1
 62
     7
  6
CONTINUOUS
 10
33.993274
 20
12.869598
 30
-0.000000
 11
33.993274
 21
12.869598
 31
-0.000000
  0
LINE
  8
Layer 1
 62
     7
  6
CONTINUOUS
 10
33.993274
 20
12.869598
 30
-0.000000
 11
33.902322
 21
12.864756
 31
-0.000000
  0
LINE
  8
Layer 1
 62
     7
  6
CONTINUOUS
 10
33.902322
 20
12.864756
 30
-0.000000
 11
33.809525
 21
12.850552
 31
-0.000000
  0
LINE
  8
Layer 1
 62
     7
  6
CONTINUOUS
 10
33.809525
 20
12.850552
 30
-0.000000
 11
33.620365
 21
12.795989
 31
-0.000000
  0
LINE
  8
Layer 1
 62
     7
  6
CONTINUOUS
 10
33.620365
 20
12.795989
 30
-0.000000
 11
33.429739
 21
12.709774
 31
-0.000000
  0
LINE
  8
Layer 1
 62
     7
  6
CONTINUOUS
 10
33.429739
 20
12.709774
 30
-0.000000
 11
33.241592
 21
12.595772
 31
-0.000000
  0
LINE
  8
Layer 1
 62
     7
  6
CONTINUOUS
 10
33.241592
 20
12.595772
 30
-0.000000
 11
33.059869
 21
12.457845
 31
-0.000000
  0
LINE
  8
Layer 1
 62
     7
  6
CONTINUOUS
 10
33.059869
 20
12.457845
 30
-0.000000
 11
32.888517
 21
12.299858
 31
-0.000000
  0
LINE
  8
Layer 1
 62
     7
  6
CONTINUOUS
 10
32.888517
 20
12.299858
 30
-0.000000
 11
32.731479
 21
12.125676
 31
-0.000000
  0
LINE
  8
Layer 1
 62
     7
  6
CONTINUOUS
 10
32.731479
 20
12.125676
 30
-0.000000
 11
32.592701
 21
11.939161
 31
-0.000000
  0
LINE
  8
Layer 1
 62
     7
  6
CONTINUOUS
 10
32.592701
 20
11.939161
 30
-0.000000
 11
32.476129
 21
11.744180
 31
-0.000000
  0
LINE
  8
Layer 1
 62
     7
  6
CONTINUOUS
 10
32.476129
 20
11.744180
 30
-0.000000
 11
32.385707
 21
11.544595
 31
-0.000000
  0
LINE
  8
Layer 1
 62
     7
  6
CONTINUOUS
 10
32.385707
 20
11.544595
 30
-0.000000
 11
32.325382
 21
11.344271
 31
-0.000000
  0
LINE
  8
Layer 1
 62
     7
  6
CONTINUOUS
 10
32.325382
 20
11.344271
 30
-0.000000
 11
32.307738
 21
11.245039
 31
-0.000000
  0
LINE
  8
Layer 1
 62
     7
  6
CONTINUOUS
 10
32.307738
 20
11.245039
 30
-0.000000
 11
32.299097
 21
11.147072
 31
-0.000000
  0
LINE
  8
Layer 1
 62
     7
  6
CONTINUOUS
 10
32.299097
 20
11.147072
 30
-0.000000
 11
32.298271
 21
11.106973
 31
-0.000000
  0
LINE
  8
Layer 1
 62
     7
  6
CONTINUOUS
 10
32.298271
 20
11.106973
 30
-0.000000
 11
32.298271
 21
11.106885
 31
-0.000000
  0
LINE
  8
Layer 1
 62
     7
  6
CONTINUOUS
 10
32.298271
 20
11.106885
 30
-0.000000
 11
32.298271
 21
11.106490
 31
-0.000000
  0
LINE
  8
Layer 1
 62
     7
  6
CONTINUOUS
 10
32.298271
 20
11.106490
 30
-0.000000
 11
32.298271
 21
11.104844
 31
-0.000000
  0
LINE
  8
Layer 1
 62
     7
  6
CONTINUOUS
 10
32.298271
 20
11.104844
 30
-0.000000
 11
32.298271
 21
11.087745
 31
-0.000000
  0
LINE
  8
Layer 1
 62
     7
  6
CONTINUOUS
 10
32.298271
 20
11.087745
 30
-0.000000
 11
32.298271
 21
10.692922
 31
-0.000000
  0
LINE
  8
Layer 1
 62
     7
  6
CONTINUOUS
 10
32.298271
 20
10.692922
 30
-0.000000
 11
32.298271
 21
10.637320
 31
-0.000000
  0
LINE
  8
Layer 1
 62
     7
  6
CONTINUOUS
 10
32.298271
 20
10.637320
 30
-0.000000
 11
32.298271
 21
10.632961
 31
-0.000000
  0
LINE
  8
Layer 1
 62
     7
  6
CONTINUOUS
 10
32.298271
 20
10.632961
 30
-0.000000
 11
32.298271
 21
10.632575
 31
-0.000000
  0
LINE
  8
Layer 1
 62
     7
  6
CONTINUOUS
 10
32.298271
 20
10.632575
 30
-0.000000
 11
32.298271
 21
10.632491
 31
-0.000000
  0
LINE
  8
Layer 1
 62
     7
  6
CONTINUOUS
 10
32.298271
 20
10.632491
 30
-0.000000
 11
32.298271
 21
10.632478
 31
-0.000000
  0
LINE
  8
Layer 1
 62
     7
  6
CONTINUOUS
 10
32.298271
 20
10.632478
 30
-0.000000
 11
32.298271
 21
10.632477
 31
-0.000000
  0
LINE
  8
Layer 1
 62
     7
  6
CONTINUOUS
 10
32.298271
 20
10.632477
 30
-0.000000
 11
32.316045
 21
10.422953
 31
-0.000000
  0
LINE
  8
Layer 1
 62
     7
  6
CONTINUOUS
 10
32.316045
 20
10.422953
 30
-0.000000
 11
32.367406
 21
10.214095
 31
-0.000000
  0
LINE
  8
Layer 1
 62
     7
  6
CONTINUOUS
 10
32.367406
 20
10.214095
 30
-0.000000
 11
32.449417
 21
10.009124
 31
-0.000000
  0
LINE
  8
Layer 1
 62
     7
  6
CONTINUOUS
 10
32.449417
 20
10.009124
 30
-0.000000
 11
32.559138
 21
9.811261
 31
-0.000000
  0
LINE
  8
Layer 1
 62
     7
  6
CONTINUOUS
 10
32.559138
 20
9.811261
 30
-0.000000
 11
32.693633
 21
9.623727
 31
-0.000000
  0
LINE
  8
Layer 1
 62
     7
  6
CONTINUOUS
 10
32.693633
 20
9.623727
 30
-0.000000
 11
32.849962
 21
9.449742
 31
-0.000000
  0
LINE
  8
Layer 1
 62
     7
  6
CONTINUOUS
 10
32.849962
 20
9.449742
 30
-0.000000
 11
33.025187
 21
9.292527
 31
-0.000000
  0
LINE
  8
Layer 1
 62
     7
  6
CONTINUOUS
 10
33.025187
 20
9.292527
 30
-0.000000
 11
33.216370
 21
9.155304
 31
-0.000000
  0
LINE
  8
Layer 1
 62
     7
  6
CONTINUOUS
 10
33.216370
 20
9.155304
 30
-0.000000
 11
33.420573
 21
9.041292
 31
-0.000000
  0
LINE
  8
Layer 1
 62
     7
  6
CONTINUOUS
 10
33.420573
 20
9.041292
 30
-0.000000
 11
33.634857
 21
8.953712
 31
-0.000000
  0
LINE
  8
Layer 1
 62
     7
  6
CONTINUOUS
 10
33.634857
 20
8.953712
 30
-0.000000
 11
33.856284
 21
8.895786
 31
-0.000000
  0
LINE
  8
Layer 1
 62
     7
  6
CONTINUOUS
 10
33.856284
 20
8.895786
 30
-0.000000
 11
34.081915
 21
8.870733
 31
-0.000000
  0
LINE
  8
Layer 1
 62
     7
  6
CONTINUOUS
 10
34.081915
 20
8.870733
 30
-0.000000
 11
34.128904
 21
8.869950
 31
-0.000000
  0
LINE
  8
Layer 1
 62
     7
  6
CONTINUOUS
 10
34.128904
 20
8.869950
 30
-0.000000
 11
34.129004
 21
8.869950
 31
-0.000000
  0
LINE
  8
Layer 1
 62
     7
  6
CONTINUOUS
 10
34.129004
 20
8.869950
 30
-0.000000
 11
34.129456
 21
8.869950
 31
-0.000000
  0
LINE
  8
Layer 1
 62
     7
  6
CONTINUOUS
 10
34.129456
 20
8.869950
 30
-0.000000
 11
34.131338
 21
8.869950
 31
-0.000000
  0
LINE
  8
Layer 1
 62
     7
  6
CONTINUOUS
 10
34.131338
 20
8.869950
 30
-0.000000
 11
34.150881
 21
8.869950
 31
-0.000000
  0
LINE
  8
Layer 1
 62
     7
  6
CONTINUOUS
 10
34.150881
 20
8.869950
 30
-0.000000
 11
34.671243
 21
8.869950
 31
-0.000000
  0
LINE
  8
Layer 1
 62
     7
  6
CONTINUOUS
 10
31.552458
 20
7.143391
 30
-0.000000
 11
31.552458
 21
7.500276
 31
-0.000000
  0
LINE
  8
Layer 1
 62
     7
  6
CONTINUOUS
 10
31.552458
 20
7.013140
 30
-0.000000
 11
31.552458
 21
7.143391
 31
-0.000000
  0
LINE
  8
Layer 1
 62
     7
  6
CONTINUOUS
 10
31.552458
 20
7.001950
 30
-0.000000
 11
31.552458
 21
7.013140
 31
-0.000000
  0
LINE
  8
Layer 1
 62
     7
  6
CONTINUOUS
 10
31.552458
 20
7.000901
 30
-0.000000
 11
31.552458
 21
7.001950
 31
-0.000000
  0
LINE
  8
Layer 1
 62
     7
  6
CONTINUOUS
 10
31.551975
 20
6.979260
 30
-0.000000
 11
31.552458
 21
7.000901
 31
-0.000000
  0
LINE
  8
Layer 1
 62
     7
  6
CONTINUOUS
 10
31.542433
 20
6.900704
 30
-0.000000
 11
31.551975
 21
6.979260
 31
-0.000000
  0
LINE
  8
Layer 1
 62
     7
  6
CONTINUOUS
 10
31.521531
 20
6.820916
 30
-0.000000
 11
31.542433
 21
6.900704
 31
-0.000000
  0
LINE
  8
Layer 1
 62
     7
  6
CONTINUOUS
 10
31.490405
 20
6.740626
 30
-0.000000
 11
31.521531
 21
6.820916
 31
-0.000000
  0
LINE
  8
Layer 1
 62
     7
  6
CONTINUOUS
 10
31.450188
 20
6.660566
 30
-0.000000
 11
31.490405
 21
6.740626
 31
-0.000000
  0
LINE
  8
Layer 1
 62
     7
  6
CONTINUOUS
 10
31.347014
 20
6.504056
 30
-0.000000
 11
31.450188
 21
6.660566
 31
-0.000000
  0
LINE
  8
Layer 1
 62
     7
  6
CONTINUOUS
 10
31.221081
 20
6.357233
 30
-0.000000
 11
31.347014
 21
6.504056
 31
-0.000000
  0
LINE
  8
Layer 1
 62
     7
  6
CONTINUOUS
 10
31.081457
 20
6.225943
 30
-0.000000
 11
31.221081
 21
6.357233
 31
-0.000000
  0
LINE
  8
Layer 1
 62
     7
  6
CONTINUOUS
 10
30.937213
 20
6.116031
 30
-0.000000
 11
31.081457
 21
6.225943
 31
-0.000000
  0
ARC
  8
Default
 62
     7
  6
CONTINUOUS
 10
29.520817
 20
7.835584
 30
-0.000000
 40
2.227788
 50
280.459846
 51
309.478271
  0
LINE
  8
Layer 1
 62
     7
  6
CONTINUOUS
 10
29.925264
 20
5.644817
 30
-0.000000
 11
29.925153
 21
5.644817
 31
-0.000000
  0
LINE
  8
Layer 1
 62
     7
  6
CONTINUOUS
 10
29.925153
 20
5.644817
 30
-0.000000
 11
29.923975
 21
5.644817
 31
-0.000000
  0
LINE
  8
Layer 1
 62
     7
  6
CONTINUOUS
 10
29.923975
 20
5.644817
 30
-0.000000
 11
29.918187
 21
5.644817
 31
-0.000000
  0
LINE
  8
Layer 1
 62
     7
  6
CONTINUOUS
 10
29.918187
 20
5.644817
 30
-0.000000
 11
29.893750
 21
5.644817
 31
-0.000000
  0
LINE
  8
Layer 1
 62
     7
  6
CONTINUOUS
 10
29.893750
 20
5.644817
 30
-0.000000
 11
29.660538
 21
5.644817
 31
-0.000000
  0
LINE
  8
Layer 1
 62
     7
  6
CONTINUOUS
 10
29.660538
 20
5.644817
 30
-0.000000
 11
28.952745
 21
5.644817
 31
-0.000000
  0
LINE
  8
Layer 1
 62
     7
  6
CONTINUOUS
 10
8.833959
 20
7.009534
 30
-0.000000
 11
8.848682
 21
6.996034
 31
-0.000000
  0
LINE
  8
Layer 1
 62
     7
  6
CONTINUOUS
 10
8.848682
 20
6.996034
 30
-0.000000
 11
8.860718
 21
6.980328
 31
-0.000000
  0
LINE
  8
Layer 1
 62
     7
  6
CONTINUOUS
 10
8.860718
 20
6.980328
 30
-0.000000
 11
8.870267
 21
6.962197
 31
-0.000000
  0
LINE
  8
Layer 1
 62
     7
  6
CONTINUOUS
 10
8.870267
 20
6.962197
 30
-0.000000
 11
8.877526
 21
6.941425
 31
-0.000000
  0
LINE
  8
Layer 1
 62
     7
  6
CONTINUOUS
 10
8.877526
 20
6.941425
 30
-0.000000
 11
8.882694
 21
6.917796
 31
-0.000000
  0
LINE
  8
Layer 1
 62
     7
  6
CONTINUOUS
 10
8.882694
 20
6.917796
 30
-0.000000
 11
8.887554
 21
6.861095
 31
-0.000000
  0
LINE
  8
Layer 1
 62
     7
  6
CONTINUOUS
 10
8.887554
 20
6.861095
 30
-0.000000
 11
8.880930
 21
6.703860
 31
-0.000000
  0
LINE
  8
Layer 1
 62
     7
  6
CONTINUOUS
 10
8.880930
 20
6.703860
 30
-0.000000
 11
8.846809
 21
6.165477
 31
-0.000000
  0
LINE
  8
Layer 1
 62
     7
  6
CONTINUOUS
 10
8.846809
 20
6.165477
 30
-0.000000
 11
8.843202
 21
5.974114
 31
-0.000000
  0
LINE
  8
Layer 1
 62
     7
  6
CONTINUOUS
 10
8.843202
 20
5.974114
 30
-0.000000
 11
8.842991
 21
5.905289
 31
-0.000000
  0
LINE
  8
Layer 1
 62
     7
  6
CONTINUOUS
 10
8.842991
 20
5.905289
 30
-0.000000
 11
8.525068
 21
5.951397
 31
-0.000000
  0
LINE
  8
Default
 62
     7
  6
CONTINUOUS
 10
8.525068
 20
5.951397
 30
0.000000
 11
8.752028
 21
6.127770
 31
0.000000
  0
LINE
  8
Default
 62
     7
  6
CONTINUOUS
 10
8.752028
 20
6.127770
 30
0.000000
 11
8.810447
 21
6.249788
 31
0.000000
  0
LINE
  8
Default
 62
     7
  6
CONTINUOUS
 10
8.810447
 20
6.249788
 30
0.000000
 11
8.677781
 21
6.223313
 31
0.000000
  0
LINE
  8
Default
 62
     7
  6
CONTINUOUS
 10
8.447596
 20
6.044434
 30
0.000000
 11
8.677781
 21
6.223313
 31
0.000000
  0
ARC
  8
Default
 62
     7
  6
CONTINUOUS
 10
8.104785
 20
5.708457
 30
0.000000
 40
0.480000
 50
44.423205
 51
136.260238
  0
LINE
  8
Default
 62
     7
  6
CONTINUOUS
 10
7.757991
 20
6.040321
 30
0.000000
 11
7.463041
 21
6.289488
 31
0.000000
  0
LINE
  8
Default
 62
     7
  6
CONTINUOUS
 10
7.331566
 20
6.321357
 30
0.000000
 11
7.463041
 21
6.289488
 31
0.000000
  0
LINE
  8
Default
 62
     7
  6
CONTINUOUS
 10
7.331566
 20
6.321357
 30
0.000000
 11
7.384956
 21
6.197056
 31
0.000000
  0
LINE
  8
Default
 62
     7
  6
CONTINUOUS
 10
7.685895
 20
5.942830
 30
0.000000
 11
7.384956
 21
6.197056
 31
0.000000
  0
ARC
  8
Default
 62
     7
  6
CONTINUOUS
 10
8.104785
 20
5.708457
 30
0.000000
 40
0.480000
 50
150.772589
 51
211.007905
  0
LINE
  8
Default
 62
     7
  6
CONTINUOUS
 10
7.390999
 20
5.226199
 30
0.000000
 11
7.693379
 21
5.461182
 31
0.000000
  0
LINE
  8
Default
 62
     7
  6
CONTINUOUS
 10
7.332580
 20
5.104181
 30
0.000000
 11
7.390999
 21
5.226199
 31
0.000000
  0
LINE
  8
Default
 62
     7
  6
CONTINUOUS
 10
7.332580
 20
5.104181
 30
0.000000
 11
7.465246
 21
5.130657
 31
0.000000
  0
LINE
  8
Default
 62
     7
  6
CONTINUOUS
 10
7.465246
 20
5.130657
 30
0.000000
 11
7.768290
 21
5.366155
 31
0.000000
  0
ARC
  8
Default
 62
     7
  6
CONTINUOUS
 10
8.104785
 20
5.708457
 30
0.000000
 40
0.480000
 50
225.490086
 51
309.031451
  0
LINE
  8
Default
 62
     7
  6
CONTINUOUS
 10
8.407064
 20
5.335592
 30
0.000000
 11
8.700961
 21
5.087315
 31
0.000000
  0
LINE
  8
Layer 1
 62
     7
  6
CONTINUOUS
 10
26.611401
 20
9.866997
 30
-0.000000
 11
26.668330
 21
10.015627
 31
-0.000000
  0
LINE
  8
Layer 1
 62
     7
  6
CONTINUOUS
 10
26.668330
 20
10.015627
 30
-0.000000
 11
26.670315
 21
10.020810
 31
-0.000000
  0
LINE
  8
Layer 1
 62
     7
  6
CONTINUOUS
 10
26.670315
 20
10.020810
 30
-0.000000
 11
26.670787
 21
10.022042
 31
-0.000000
  0
LINE
  8
Layer 1
 62
     7
  6
CONTINUOUS
 10
26.670787
 20
10.022042
 30
-0.000000
 11
26.670888
 21
10.022308
 31
-0.000000
  0
LINE
  8
Layer 1
 62
     7
  6
CONTINUOUS
 10
26.670888
 20
10.022308
 30
-0.000000
 11
26.670905
 21
10.022351
 31
-0.000000
  0
LINE
  8
Layer 1
 62
     7
  6
CONTINUOUS
 10
26.670905
 20
10.022351
 30
-0.000000
 11
26.670906
 21
10.022353
 31
-0.000000
  0
LINE
  8
Layer 1
 62
     7
  6
CONTINUOUS
 10
26.670906
 20
10.022353
 30
-0.000000
 11
26.670906
 21
10.022353
 31
-0.000000
  0
LINE
  8
Layer 1
 62
     7
  6
CONTINUOUS
 10
26.670906
 20
10.022353
 30
-0.000000
 11
26.670910
 21
10.022353
 31
-0.000000
  0
LINE
  8
Layer 1
 62
     7
  6
CONTINUOUS
 10
26.670910
 20
10.022353
 30
-0.000000
 11
26.670927
 21
10.022353
 31
-0.000000
  0
LINE
  8
Layer 1
 62
     7
  6
CONTINUOUS
 10
26.670927
 20
10.022353
 30
-0.000000
 11
26.671001
 21
10.022353
 31
-0.000000
  0
LINE
  8
Layer 1
 62
     7
  6
CONTINUOUS
 10
26.671001
 20
10.022353
 30
-0.000000
 11
26.671305
 21
10.022353
 31
-0.000000
  0
LINE
  8
Layer 1
 62
     7
  6
CONTINUOUS
 10
26.671305
 20
10.022353
 30
-0.000000
 11
26.674506
 21
10.022353
 31
-0.000000
  0
LINE
  8
Layer 1
 62
     7
  6
CONTINUOUS
 10
26.674506
 20
10.022353
 30
-0.000000
 11
26.689241
 21
10.022353
 31
-0.000000
  0
LINE
  8
Layer 1
 62
     7
  6
CONTINUOUS
 10
26.689241
 20
10.022353
 30
-0.000000
 11
26.805644
 21
10.022353
 31
-0.000000
  0
LINE
  8
Layer 1
 62
     7
  6
CONTINUOUS
 10
26.874280
 20
8.124216
 30
-0.000000
 11
24.931947
 21
8.124216
 31
-0.000000
  0
LINE
  8
Default
 62
     7
  6
CONTINUOUS
 10
8.700961
 20
5.087315
 30
0.000000
 11
8.832435
 21
5.055447
 31
0.000000
  0
LINE
  8
Default
 62
     7
  6
CONTINUOUS
 10
8.779045
 20
5.179748
 30
0.000000
 11
8.832435
 21
5.055447
 31
0.000000
  0
LINE
  8
Default
 62
     7
  6
CONTINUOUS
 10
8.490840
 20
5.423217
 30
0.000000
 11
8.779045
 21
5.179748
 31
0.000000
  0
ARC
  8
Default
 62
     7
  6
CONTINUOUS
 10
8.104785
 20
5.708457
 30
0.000000
 40
0.480000
 50
323.540855
 51
352.199498
  0
LINE
  8
Layer 1
 62
     7
  6
CONTINUOUS
 10
8.580344
 20
5.643309
 30
-0.000000
 11
8.608037
 21
5.609246
 31
-0.000000
  0
LINE
  8
Layer 1
 62
     7
  6
CONTINUOUS
 10
8.608037
 20
5.609246
 30
-0.000000
 11
8.623750
 21
5.594062
 31
-0.000000
  0
LINE
  8
Layer 1
 62
     7
  6
CONTINUOUS
 10
8.623750
 20
5.594062
 30
-0.000000
 11
8.641545
 21
5.580821
 31
-0.000000
  0
LINE
  8
Layer 1
 62
     7
  6
CONTINUOUS
 10
8.641545
 20
5.580821
 30
-0.000000
 11
8.661610
 21
5.569650
 31
-0.000000
  0
LINE
  8
Layer 1
 62
     7
  6
CONTINUOUS
 10
8.661610
 20
5.569650
 30
-0.000000
 11
8.684134
 21
5.560676
 31
-0.000000
  0
LINE
  8
Layer 1
 62
     7
  6
CONTINUOUS
 10
8.684134
 20
5.560676
 30
-0.000000
 11
8.709308
 21
5.554026
 31
-0.000000
  0
LINE
  8
Layer 1
 62
     7
  6
CONTINUOUS
 10
8.709308
 20
5.554026
 30
-0.000000
 11
8.737318
 21
5.549827
 31
-0.000000
  0
LINE
  8
Layer 1
 62
     7
  6
CONTINUOUS
 10
8.737318
 20
5.549827
 30
-0.000000
 11
8.768356
 21
5.548207
 31
-0.000000
  0
LINE
  8
Layer 1
 62
     7
  6
CONTINUOUS
 10
8.768356
 20
5.548207
 30
-0.000000
 11
8.771857
 21
5.548191
 31
-0.000000
  0
LINE
  8
Layer 1
 62
     7
  6
CONTINUOUS
 10
8.771857
 20
5.548191
 30
-0.000000
 11
8.771870
 21
5.548191
 31
-0.000000
  0
LINE
  8
Layer 1
 62
     7
  6
CONTINUOUS
 10
8.771870
 20
5.548191
 30
-0.000000
 11
8.771928
 21
5.548192
 31
-0.000000
  0
LINE
  8
Layer 1
 62
     7
  6
CONTINUOUS
 10
8.771928
 20
5.548192
 30
-0.000000
 11
8.772181
 21
5.548193
 31
-0.000000
  0
LINE
  8
Layer 1
 62
     7
  6
CONTINUOUS
 10
8.772181
 20
5.548193
 30
-0.000000
 11
8.773222
 21
5.548198
 31
-0.000000
  0
LINE
  8
Layer 1
 62
     7
  6
CONTINUOUS
 10
8.773222
 20
5.548198
 30
-0.000000
 11
8.784186
 21
5.548249
 31
-0.000000
  0
LINE
  8
Layer 1
 62
     7
  6
CONTINUOUS
 10
8.784186
 20
5.548249
 30
-0.000000
 11
8.835169
 21
5.548489
 31
-0.000000
  0
LINE
  8
Layer 1
 62
     7
  6
CONTINUOUS
 10
8.835169
 20
5.548489
 30
-0.000000
 11
9.660279
 21
5.552365
 31
-0.000000
  0
ARC
  8
Default
 62
     7
  6
CONTINUOUS
 10
10.130565
 20
5.648446
 30
0.000000
 40
0.480000
 50
191.546800
 51
210.776715
  0
LINE
  8
Default
 62
     7
  6
CONTINUOUS
 10
9.441106
 20
5.187529
 30
0.000000
 11
9.718164
 21
5.402833
 31
0.000000
  0
LINE
  8
Default
 62
     7
  6
CONTINUOUS
 10
9.382687
 20
5.065511
 30
0.000000
 11
9.441106
 21
5.187529
 31
0.000000
  0
LINE
  8
Default
 62
     7
  6
CONTINUOUS
 10
9.382687
 20
5.065511
 30
0.000000
 11
9.515353
 21
5.091986
 31
0.000000
  0
LINE
  8
Default
 62
     7
  6
CONTINUOUS
 10
9.515353
 20
5.091986
 30
0.000000
 11
9.792689
 21
5.307506
 31
0.000000
  0
ARC
  8
Default
 62
     7
  6
CONTINUOUS
 10
10.130565
 20
5.648446
 30
0.000000
 40
0.480000
 50
225.258606
 51
312.898091
  0
LINE
  8
Default
 62
     7
  6
CONTINUOUS
 10
10.457299
 20
5.296814
 30
0.000000
 11
10.751068
 21
5.048645
 31
0.000000
  0
LINE
  8
Default
 62
     7
  6
CONTINUOUS
 10
10.751068
 20
5.048645
 30
0.000000
 11
10.882543
 21
5.016776
 31
0.000000
  0
LINE
  8
Default
 62
     7
  6
CONTINUOUS
 10
10.829153
 20
5.141077
 30
0.000000
 11
10.882543
 21
5.016776
 31
0.000000
  0
LINE
  8
Default
 62
     7
  6
CONTINUOUS
 10
10.534852
 20
5.389696
 30
0.000000
 11
10.829153
 21
5.141077
 31
0.000000
  0
ARC
  8
Default
 62
     7
  6
CONTINUOUS
 10
10.130565
 20
5.648446
 30
0.000000
 40
0.480000
 50
327.380161
 51
360.000000
  0
ARC
  8
Default
 62
     7
  6
CONTINUOUS
 10
10.130565
 20
5.648446
 30
0.000000
 40
0.480000
 50
0.000000
 51
30.023928
  0
LINE
  8
Default
 62
     7
  6
CONTINUOUS
 10
10.546157
 20
5.888619
 30
0.000000
 11
10.825193
 21
6.105461
 31
0.000000
  0
LINE
  8
Default
 62
     7
  6
CONTINUOUS
 10
10.825193
 20
6.105461
 30
0.000000
 11
10.883612
 21
6.227479
 31
0.000000
  0
LINE
  8
Default
 62
     7
  6
CONTINUOUS
 10
10.883612
 20
6.227479
 30
0.000000
 11
10.750946
 21
6.201003
 31
0.000000
  0
LINE
  8
Default
 62
     7
  6
CONTINUOUS
 10
10.472887
 20
5.984921
 30
0.000000
 11
10.750946
 21
6.201003
 31
0.000000
  0
ARC
  8
Default
 62
     7
  6
CONTINUOUS
 10
10.130565
 20
5.648446
 30
0.000000
 40
0.480000
 50
44.506519
 51
132.231463
  0
LINE
  8
Default
 62
     7
  6
CONTINUOUS
 10
9.807944
 20
6.003855
 30
0.000000
 11
9.563882
 21
6.210032
 31
0.000000
  0
LINE
  8
Default
 62
     7
  6
CONTINUOUS
 10
9.432407
 20
6.241901
 30
0.000000
 11
9.563882
 21
6.210032
 31
0.000000
  0
LINE
  8
Default
 62
     7
  6
CONTINUOUS
 10
9.432407
 20
6.241901
 30
0.000000
 11
9.485797
 21
6.117600
 31
0.000000
  0
LINE
  8
Default
 62
     7
  6
CONTINUOUS
 10
9.729315
 20
5.911882
 30
0.000000
 11
9.485797
 21
6.117600
 31
0.000000
  0
ARC
  8
Default
 62
     7
  6
CONTINUOUS
 10
10.130565
 20
5.648446
 30
0.000000
 40
0.480000
 50
146.713545
 51
152.895358
  0
LINE
  8
Layer 1
 62
     7
  6
CONTINUOUS
 10
9.382063
 20
5.820556
 30
0.000000
 11
9.703280
 21
5.867142
 31
0.000000
  0
LINE
  8
Layer 1
 62
     7
  6
CONTINUOUS
 10
9.382063
 20
5.820556
 30
-0.000000
 11
9.382108
 21
5.835113
 31
-0.000000
  0
LINE
  8
Layer 1
 62
     7
  6
CONTINUOUS
 10
9.382108
 20
5.835113
 30
-0.000000
 11
9.382310
 21
5.900419
 31
-0.000000
  0
LINE
  8
Layer 1
 62
     7
  6
CONTINUOUS
 10
9.382310
 20
5.900419
 30
-0.000000
 11
9.385504
 21
6.933526
 31
-0.000000
  0
LINE
  8
Layer 1
 62
     7
  6
CONTINUOUS
 10
9.385504
 20
6.933526
 30
-0.000000
 11
10.001428
 21
6.866511
 31
-0.000000
  0
LINE
  8
Layer 1
 62
     7
  6
CONTINUOUS
 10
10.001428
 20
6.866511
 30
-0.000000
 11
11.822579
 21
6.668363
 31
-0.000000
  0
LINE
  8
Layer 1
 62
     7
  6
CONTINUOUS
 10
11.822579
 20
6.668363
 30
-0.000000
 11
12.540913
 21
6.590206
 31
-0.000000
  0
LINE
  8
Layer 1
 62
     7
  6
CONTINUOUS
 10
12.540913
 20
6.590206
 30
-0.000000
 11
12.771984
 21
6.565064
 31
-0.000000
  0
LINE
  8
Layer 1
 62
     7
  6
CONTINUOUS
 10
12.771984
 20
6.565064
 30
-0.000000
 11
12.772346
 21
6.466901
 31
-0.000000
  0
LINE
  8
Layer 1
 62
     7
  6
CONTINUOUS
 10
12.772346
 20
6.466901
 30
-0.000000
 11
12.776950
 21
5.219620
 31
-0.000000
  0
LINE
  8
Layer 1
 62
     7
  6
CONTINUOUS
 10
12.776950
 20
5.219620
 30
-0.000000
 11
12.407373
 21
5.354144
 31
-0.000000
  0
ARC
  8
Default
 62
     7
  6
CONTINUOUS
 10
11.895359
 20
5.041347
 30
0.000000
 40
0.600000
 50
31.421387
 51
356.719008
  0
LINE
  8
Layer 1
 62
     7
  6
CONTINUOUS
 10
12.494376
 20
5.007008
 30
-0.000000
 11
12.518810
 21
4.965975
 31
-0.000000
  0
LINE
  8
Layer 1
 62
     7
  6
CONTINUOUS
 10
12.518810
 20
4.965975
 30
-0.000000
 11
12.534016
 21
4.945328
 31
-0.000000
  0
LINE
  8
Layer 1
 62
     7
  6
CONTINUOUS
 10
12.534016
 20
4.945328
 30
-0.000000
 11
12.551114
 21
4.926798
 31
-0.000000
  0
LINE
  8
Layer 1
 62
     7
  6
CONTINUOUS
 10
12.551114
 20
4.926798
 30
-0.000000
 11
12.570235
 21
4.910567
 31
-0.000000
  0
LINE
  8
Layer 1
 62
     7
  6
CONTINUOUS
 10
12.570235
 20
4.910567
 30
-0.000000
 11
12.591511
 21
4.896815
 31
-0.000000
  0
LINE
  8
Layer 1
 62
     7
  6
CONTINUOUS
 10
12.591511
 20
4.896815
 30
-0.000000
 11
12.615076
 21
4.885726
 31
-0.000000
  0
LINE
  8
Layer 1
 62
     7
  6
CONTINUOUS
 10
12.615076
 20
4.885726
 30
-0.000000
 11
12.641061
 21
4.877479
 31
-0.000000
  0
LINE
  8
Layer 1
 62
     7
  6
CONTINUOUS
 10
12.641061
 20
4.877479
 30
-0.000000
 11
12.669598
 21
4.872257
 31
-0.000000
  0
LINE
  8
Layer 1
 62
     7
  6
CONTINUOUS
 10
12.669598
 20
4.872257
 30
-0.000000
 11
12.700820
 21
4.870241
 31
-0.000000
  0
LINE
  8
Layer 1
 62
     7
  6
CONTINUOUS
 10
12.700820
 20
4.870241
 30
-0.000000
 11
12.704221
 21
4.870222
 31
-0.000000
  0
LINE
  8
Layer 1
 62
     7
  6
CONTINUOUS
 10
12.704235
 20
4.870222
 30
-0.000000
 11
12.704295
 21
4.870223
 31
-0.000000
  0
LINE
  8
Layer 1
 62
     7
  6
CONTINUOUS
 10
12.704295
 20
4.870223
 30
-0.000000
 11
12.704548
 21
4.870226
 31
-0.000000
  0
LINE
  8
Layer 1
 62
     7
  6
CONTINUOUS
 10
12.704548
 20
4.870226
 30
-0.000000
 11
12.705582
 21
4.870236
 31
-0.000000
  0
LINE
  8
Layer 1
 62
     7
  6
CONTINUOUS
 10
12.705582
 20
4.870236
 30
-0.000000
 11
12.716423
 21
4.870347
 31
-0.000000
  0
LINE
  8
Layer 1
 62
     7
  6
CONTINUOUS
 10
12.716423
 20
4.870347
 30
-0.000000
 11
12.790061
 21
4.871097
 31
-0.000000
  0
ARC
  8
Default
 62
     7
  6
CONTINUOUS
 10
13.043158
 20
4.327091
 30
0.000000
 40
0.600000
 50
114.950038
 51
360.000000
  0
ARC
  8
Default
 62
     7
  6
CONTINUOUS
 10
13.043158
 20
4.327091
 30
0.000000
 40
0.600000
 50
0.000000
 51
66.216929
  0
LINE
  8
Layer 1
 62
     7
  6
CONTINUOUS
 10
13.285123
 20
4.876138
 30
-0.000000
 11
13.547082
 21
4.878806
 31
-0.000000
  0
LINE
  8
Layer 1
 62
     7
  6
CONTINUOUS
 10
13.547082
 20
4.878806
 30
-0.000000
 11
13.601556
 21
4.879361
 31
-0.000000
  0
ARC
  8
Default
 62
     7
  6
CONTINUOUS
 10
14.187409
 20
5.008882
 30
0.000000
 40
0.600000
 50
192.466500
 51
360.000000
  0
ARC
  8
Default
 62
     7
  6
CONTINUOUS
 10
14.187409
 20
5.008882
 30
0.000000
 40
0.600000
 50
0.000000
 51
141.637485
  0
LINE
  8
Layer 1
 62
     7
  6
CONTINUOUS
 10
13.716950
 20
5.381263
 30
-0.000000
 11
13.637336
 21
5.347233
 31
-0.000000
  0
LINE
  8
Layer 1
 62
     7
  6
CONTINUOUS
 10
13.637336
 20
5.347233
 30
-0.000000
 11
13.425108
 21
5.256518
 31
-0.000000
  0
LINE
  8
Layer 1
 62
     7
  6
CONTINUOUS
 10
13.425108
 20
5.256518
 30
-0.000000
 11
13.314423
 21
5.209207
 31
-0.000000
  0
LINE
  8
Layer 1
 62
     7
  6
CONTINUOUS
 10
13.314423
 20
5.209207
 30
-0.000000
 11
13.312340
 21
6.480238
 31
-0.000000
  0
LINE
  8
Layer 1
 62
     7
  6
CONTINUOUS
 10
13.312340
 20
6.480238
 30
-0.000000
 11
13.941052
 21
6.406522
 31
-0.000000
  0
LINE
  8
Layer 1
 62
     7
  6
CONTINUOUS
 10
13.941052
 20
6.406522
 30
-0.000000
 11
15.731975
 21
6.196536
 31
-0.000000
  0
LINE
  8
Layer 1
 62
     7
  6
CONTINUOUS
 10
15.731975
 20
6.196536
 30
-0.000000
 11
16.425714
 21
6.115194
 31
-0.000000
  0
LINE
  8
Layer 1
 62
     7
  6
CONTINUOUS
 10
16.425714
 20
6.115194
 30
-0.000000
 11
16.636582
 21
6.090470
 31
-0.000000
  0
LINE
  8
Layer 1
 62
     7
  6
CONTINUOUS
 10
16.636582
 20
6.090470
 30
-0.000000
 11
16.637208
 21
5.822738
 31
-0.000000
  0
LINE
  8
Layer 1
 62
     7
  6
CONTINUOUS
 10
16.637208
 20
5.822738
 30
-0.000000
 11
16.639060
 21
5.030522
 31
-0.000000
  0
LINE
  8
Layer 1
 62
     7
  6
CONTINUOUS
 10
16.639060
 20
5.030522
 30
-0.000000
 11
16.639791
 21
4.717929
 31
-0.000000
  0
LINE
  8
Layer 1
 62
     7
  6
CONTINUOUS
 10
16.639791
 20
4.717929
 30
-0.000000
 11
16.640027
 21
4.617266
 31
-0.000000
  0
LINE
  8
Layer 1
 62
     7
  6
CONTINUOUS
 10
16.640027
 20
4.617266
 30
-0.000000
 11
16.287265
 21
4.664605
 31
-0.000000
  0
LINE
  8
Layer 1
 62
     7
  6
CONTINUOUS
 10
16.287265
 20
4.664605
 30
-0.000000
 11
16.344106
 21
4.370196
 31
-0.000000
  0
LINE
  8
Layer 1
 62
     7
  6
CONTINUOUS
 10
16.344106
 20
4.370196
 30
-0.000000
 11
16.360406
 21
4.285770
 31
-0.000000
  0
LINE
  8
Layer 1
 62
     7
  6
CONTINUOUS
 10
16.360406
 20
4.285770
 30
-0.000000
 11
16.365363
 21
4.260098
 31
-0.000000
  0
LINE
  8
Layer 1
 62
     7
  6
CONTINUOUS
 10
16.365363
 20
4.260098
 30
-0.000000
 11
16.490613
 21
4.260369
 31
-0.000000
  0
ARC
  8
Default
 62
     7
  6
CONTINUOUS
 10
16.899302
 20
3.458513
 30
0.000000
 40
0.900000
 50
117.006977
 51
137.576671
  0
LINE
  8
Default
 62
     7
  6
CONTINUOUS
 10
16.234939
 20
4.065656
 30
0.000000
 11
15.818286
 21
4.417634
 31
0.000000
  0
LINE
  8
Default
 62
     7
  6
CONTINUOUS
 10
15.686811
 20
4.449503
 30
0.000000
 11
15.818286
 21
4.417634
 31
0.000000
  0
LINE
  8
Default
 62
     7
  6
CONTINUOUS
 10
15.686811
 20
4.449503
 30
0.000000
 11
15.740202
 21
4.325202
 31
0.000000
  0
LINE
  8
Default
 62
     7
  6
CONTINUOUS
 10
16.159473
 20
3.971011
 30
0.000000
 11
15.740202
 21
4.325202
 31
0.000000
  0
ARC
  8
Default
 62
     7
  6
CONTINUOUS
 10
16.899302
 20
3.458513
 30
0.000000
 40
0.900000
 50
145.288682
 51
215.037976
  0
LINE
  8
Default
 62
     7
  6
CONTINUOUS
 10
15.733464
 20
2.608470
 30
0.000000
 11
16.162407
 21
2.941806
 31
0.000000
  0
LINE
  8
Default
 62
     7
  6
CONTINUOUS
 10
15.675045
 20
2.486452
 30
0.000000
 11
15.733464
 21
2.608470
 31
0.000000
  0
LINE
  8
Default
 62
     7
  6
CONTINUOUS
 10
15.675045
 20
2.486452
 30
0.000000
 11
15.807711
 21
2.512928
 31
0.000000
  0
LINE
  8
Default
 62
     7
  6
CONTINUOUS
 10
15.807711
 20
2.512928
 30
0.000000
 11
16.238392
 21
2.847614
 31
0.000000
  0
ARC
  8
Default
 62
     7
  6
CONTINUOUS
 10
16.899302
 20
3.458513
 30
0.000000
 40
0.900000
 50
222.748165
 51
314.392015
  0
LINE
  8
Default
 62
     7
  6
CONTINUOUS
 10
17.528909
 20
2.815400
 30
0.000000
 11
17.936608
 21
2.470986
 31
0.000000
  0
LINE
  8
Default
 62
     7
  6
CONTINUOUS
 10
17.936608
 20
2.470986
 30
0.000000
 11
18.068083
 21
2.439117
 31
0.000000
  0
LINE
  8
Default
 62
     7
  6
CONTINUOUS
 10
18.014693
 20
2.563418
 30
0.000000
 11
18.068083
 21
2.439117
 31
0.000000
  0
LINE
  8
Default
 62
     7
  6
CONTINUOUS
 10
17.609514
 20
2.905703
 30
0.000000
 11
18.014693
 21
2.563418
 31
0.000000
  0
ARC
  8
Default
 62
     7
  6
CONTINUOUS
 10
16.899302
 20
3.458513
 30
0.000000
 40
0.900000
 50
322.103797
 51
360.000000
  0
ARC
  8
Default
 62
     7
  6
CONTINUOUS
 10
16.899302
 20
3.458513
 30
0.000000
 40
0.900000
 50
0.000000
 51
32.969320
  0
LINE
  8
Default
 62
     7
  6
CONTINUOUS
 10
17.654368
 20
3.948284
 30
0.000000
 11
18.081972
 21
4.280579
 31
0.000000
  0
LINE
  8
Default
 62
     7
  6
CONTINUOUS
 10
18.081972
 20
4.280579
 30
0.000000
 11
18.140391
 21
4.402597
 31
0.000000
  0
LINE
  8
Default
 62
     7
  6
CONTINUOUS
 10
18.140391
 20
4.402597
 30
0.000000
 11
18.007725
 21
4.376122
 31
0.000000
  0
LINE
  8
Default
 62
     7
  6
CONTINUOUS
 10
17.581833
 20
4.045157
 30
0.000000
 11
18.007725
 21
4.376122
 31
0.000000
  0
ARC
  8
Default
 62
     7
  6
CONTINUOUS
 10
16.899302
 20
3.458513
 30
0.000000
 40
0.900000
 50
40.679473
 51
63.240742
  0
LINE
  8
Layer 1
 62
     7
  6
CONTINUOUS
 10
17.304520
 20
4.262129
 30
-0.000000
 11
17.439908
 21
4.262421
 31
-0.000000
  0
LINE
  8
Layer 1
 62
     7
  6
CONTINUOUS
 10
17.439908
 20
4.262421
 30
-0.000000
 11
17.445380
 21
4.292989
 31
-0.000000
  0
LINE
  8
Layer 1
 62
     7
  6
CONTINUOUS
 10
17.445380
 20
4.292989
 30
-0.000000
 11
17.515042
 21
4.682147
 31
-0.000000
  0
LINE
  8
Layer 1
 62
     7
  6
CONTINUOUS
 10
17.515042
 20
4.682147
 30
-0.000000
 11
17.273140
 21
4.622363
 31
-0.000000
  0
LINE
  8
Layer 1
 62
     7
  6
CONTINUOUS
 10
17.273140
 20
4.622363
 30
-0.000000
 11
17.178941
 21
4.599083
 31
-0.000000
  0
LINE
  8
Layer 1
 62
     7
  6
CONTINUOUS
 10
17.178941
 20
4.599083
 30
-0.000000
 11
17.179021
 21
6.022785
 31
-0.000000
  0
LINE
  8
Layer 1
 62
     7
  6
CONTINUOUS
 10
17.179021
 20
6.022785
 30
-0.000000
 11
19.280753
 21
5.751568
 31
-0.000000
  0
LINE
  8
Layer 1
 62
     7
  6
CONTINUOUS
 10
19.280753
 20
5.751568
 30
-0.000000
 11
19.280867
 21
5.119397
 31
-0.000000
  0
LINE
  8
Layer 1
 62
     7
  6
CONTINUOUS
 10
19.280867
 20
5.119397
 30
-0.000000
 11
19.286095
 21
4.998827
 31
-0.000000
  0
LINE
  8
Layer 1
 62
     7
  6
CONTINUOUS
 10
19.286095
 20
4.998827
 30
-0.000000
 11
19.300271
 21
4.904028
 31
-0.000000
  0
LINE
  8
Layer 1
 62
     7
  6
CONTINUOUS
 10
19.300271
 20
4.904028
 30
-0.000000
 11
19.324700
 21
4.825247
 31
-0.000000
  0
LINE
  8
Layer 1
 62
     7
  6
CONTINUOUS
 10
19.324700
 20
4.825247
 30
-0.000000
 11
19.360691
 21
4.752732
 31
-0.000000
  0
LINE
  8
Layer 1
 62
     7
  6
CONTINUOUS
 10
19.360691
 20
4.752732
 30
-0.000000
 11
19.409550
 21
4.676728
 31
-0.000000
  0
LINE
  8
Layer 1
 62
     7
  6
CONTINUOUS
 10
19.409550
 20
4.676728
 30
-0.000000
 11
19.413061
 21
4.671639
 31
-0.000000
  0
LINE
  8
Layer 1
 62
     7
  6
CONTINUOUS
 10
19.413061
 20
4.671639
 30
-0.000000
 11
19.414837
 21
4.669074
 31
-0.000000
  0
LINE
  8
Layer 1
 62
     7
  6
CONTINUOUS
 10
19.414837
 20
4.669074
 30
-0.000000
 11
19.415730
 21
4.667787
 31
-0.000000
  0
LINE
  8
Layer 1
 62
     7
  6
CONTINUOUS
 10
19.415730
 20
4.667787
 30
-0.000000
 11
19.416178
 21
4.667142
 31
-0.000000
  0
LINE
  8
Layer 1
 62
     7
  6
CONTINUOUS
 10
19.416178
 20
4.667142
 30
-0.000000
 11
19.416383
 21
4.666918
 31
-0.000000
  0
ARC
  8
Default
 62
     7
  6
CONTINUOUS
 10
20.019390
 20
4.961955
 30
-0.000000
 40
0.671315
 50
206.071343
 51
243.234268
  0
LINE
  8
Layer 1
 62
     7
  6
CONTINUOUS
 10
19.717067
 20
4.362567
 30
-0.000000
 11
19.775137
 21
4.325216
 31
-0.000000
  0
LINE
  8
Layer 1
 62
     7
  6
CONTINUOUS
 10
19.775137
 20
4.325216
 30
-0.000000
 11
19.841040
 21
4.296401
 31
-0.000000
  0
LINE
  8
Layer 1
 62
     7
  6
CONTINUOUS
 10
19.841040
 20
4.296401
 30
-0.000000
 11
19.915915
 21
4.276015
 31
-0.000000
  0
LINE
  8
Layer 1
 62
     7
  6
CONTINUOUS
 10
19.915915
 20
4.276015
 30
-0.000000
 11
20.000901
 21
4.263951
 31
-0.000000
  0
LINE
  8
Layer 1
 62
     7
  6
CONTINUOUS
 10
20.000901
 20
4.263951
 30
-0.000000
 11
20.095410
 21
4.260103
 31
-0.000000
  0
LINE
  8
Layer 1
 62
     7
  6
CONTINUOUS
 10
20.095410
 20
4.260103
 30
-0.000000
 11
20.117238
 21
4.261783
 31
-0.000000
  0
LINE
  8
Layer 1
 62
     7
  6
CONTINUOUS
 10
20.117238
 20
4.261783
 30
-0.000000
 11
20.172476
 21
4.273048
 31
-0.000000
  0
LINE
  8
Layer 1
 62
     7
  6
CONTINUOUS
 10
20.172476
 20
4.273048
 30
-0.000000
 11
20.308332
 21
4.316543
 31
-0.000000
  0
LINE
  8
Layer 1
 62
     7
  6
CONTINUOUS
 10
20.308332
 20
4.316543
 30
-0.000000
 11
20.438125
 21
4.367695
 31
-0.000000
  0
LINE
  8
Layer 1
 62
     7
  6
CONTINUOUS
 10
20.438125
 20
4.367695
 30
-0.000000
 11
20.501203
 21
4.395272
 31
-0.000000
  0
LINE
  8
Layer 1
 62
     7
  6
CONTINUOUS
 10
20.501203
 20
4.395272
 30
-0.000000
 11
20.568946
 21
3.039930
 31
-0.000000
  0
LINE
  8
Layer 1
 62
     7
  6
CONTINUOUS
 10
20.568946
 20
3.039930
 30
-0.000000
 11
20.423738
 21
3.083253
 31
-0.000000
  0
LINE
  8
Layer 1
 62
     7
  6
CONTINUOUS
 10
20.423738
 20
3.083253
 30
-0.000000
 11
20.362665
 21
3.098494
 31
-0.000000
  0
LINE
  8
Layer 1
 62
     7
  6
CONTINUOUS
 10
20.362665
 20
3.098494
 30
-0.000000
 11
20.279324
 21
3.106775
 31
-0.000000
  0
LINE
  8
Layer 1
 62
     7
  6
CONTINUOUS
 10
20.279324
 20
3.106775
 30
-0.000000
 11
20.219302
 21
3.107581
 31
-0.000000
  0
LINE
  8
Layer 1
 62
     7
  6
CONTINUOUS
 10
20.219302
 20
3.107581
 30
-0.000000
 11
20.177101
 21
3.104780
 31
-0.000000
  0
LINE
  8
Layer 1
 62
     7
  6
CONTINUOUS
 10
20.177101
 20
3.104780
 30
-0.000000
 11
20.137071
 21
3.098328
 31
-0.000000
  0
LINE
  8
Layer 1
 62
     7
  6
CONTINUOUS
 10
20.137071
 20
3.098328
 30
-0.000000
 11
20.099252
 21
3.088363
 31
-0.000000
  0
LINE
  8
Layer 1
 62
     7
  6
CONTINUOUS
 10
20.099252
 20
3.088363
 30
-0.000000
 11
20.063682
 21
3.075022
 31
-0.000000
  0
LINE
  8
Layer 1
 62
     7
  6
CONTINUOUS
 10
20.063682
 20
3.075022
 30
-0.000000
 11
20.030399
 21
3.058442
 31
-0.000000
  0
LINE
  8
Layer 1
 62
     7
  6
CONTINUOUS
 10
20.030399
 20
3.058442
 30
-0.000000
 11
19.999442
 21
3.038759
 31
-0.000000
  0
LINE
  8
Layer 1
 62
     7
  6
CONTINUOUS
 10
19.999442
 20
3.038759
 30
-0.000000
 11
19.970850
 21
3.016111
 31
-0.000000
  0
LINE
  8
Layer 1
 62
     7
  6
CONTINUOUS
 10
19.970850
 20
3.016111
 30
-0.000000
 11
19.944662
 21
2.990634
 31
-0.000000
  0
LINE
  8
Layer 1
 62
     7
  6
CONTINUOUS
 10
28.553712
 20
3.923420
 30
-0.000000
 11
28.517993
 21
3.973122
 31
-0.000000
  0
LINE
  8
Layer 1
 62
     7
  6
CONTINUOUS
 10
19.944662
 20
2.990634
 30
-0.000000
 11
19.920916
 21
2.962465
 31
-0.000000
  0
LINE
  8
Layer 1
 62
     7
  6
CONTINUOUS
 10
19.920916
 20
2.962465
 30
-0.000000
 11
19.899650
 21
2.931741
 31
-0.000000
  0
LINE
  8
Layer 1
 62
     7
  6
CONTINUOUS
 10
19.899650
 20
2.931741
 30
-0.000000
 11
19.880904
 21
2.898598
 31
-0.000000
  0
LINE
  8
Layer 1
 62
     7
  6
CONTINUOUS
 10
19.880904
 20
2.898598
 30
-0.000000
 11
19.851125
 21
2.825607
 31
-0.000000
  0
LINE
  8
Layer 1
 62
     7
  6
CONTINUOUS
 10
19.851125
 20
2.825607
 30
-0.000000
 11
19.831886
 21
2.744585
 31
-0.000000
  0
LINE
  8
Layer 1
 62
     7
  6
CONTINUOUS
 10
31.694918
 20
8.124150
 30
-0.000000
 11
31.688546
 21
8.124212
 31
-0.000000
  0
LINE
  8
Layer 1
 62
     7
  6
CONTINUOUS
 10
31.688546
 20
8.124212
 30
-0.000000
 11
31.688110
 21
8.124216
 31
-0.000000
  0
LINE
  8
Layer 1
 62
     7
  6
CONTINUOUS
 10
31.688110
 20
8.124216
 30
-0.000000
 11
31.688075
 21
8.124216
 31
-0.000000
  0
LINE
  8
Layer 1
 62
     7
  6
CONTINUOUS
 10
31.688075
 20
8.124216
 30
-0.000000
 11
31.688067
 21
8.124217
 31
-0.000000
  0
LINE
  8
Layer 1
 62
     7
  6
CONTINUOUS
 10
31.688067
 20
8.124217
 30
-0.000000
 11
31.688067
 21
8.124217
 31
-0.000000
  0
LINE
  8
Layer 1
 62
     7
  6
CONTINUOUS
 10
31.688067
 20
8.124217
 30
-0.000000
 11
31.688067
 21
8.124221
 31
-0.000000
  0
LINE
  8
Layer 1
 62
     7
  6
CONTINUOUS
 10
31.688067
 20
8.124221
 30
-0.000000
 11
31.688067
 21
8.124239
 31
-0.000000
  0
LINE
  8
Layer 1
 62
     7
  6
CONTINUOUS
 10
31.688067
 20
8.124239
 30
-0.000000
 11
31.688067
 21
8.124314
 31
-0.000000
  0
LINE
  8
Layer 1
 62
     7
  6
CONTINUOUS
 10
31.688067
 20
8.124314
 30
-0.000000
 11
31.688067
 21
8.124621
 31
-0.000000
  0
LINE
  8
Layer 1
 62
     7
  6
CONTINUOUS
 10
31.688067
 20
8.124621
 30
-0.000000
 11
31.688067
 21
8.127832
 31
-0.000000
  0
LINE
  8
Layer 1
 62
     7
  6
CONTINUOUS
 10
31.688067
 20
8.127832
 30
-0.000000
 11
31.688067
 21
8.142584
 31
-0.000000
  0
LINE
  8
Layer 1
 62
     7
  6
CONTINUOUS
 10
31.688067
 20
8.142584
 30
-0.000000
 11
31.688067
 21
8.333761
 31
-0.000000
  0
LINE
  8
Layer 1
 62
     7
  6
CONTINUOUS
 10
31.688067
 20
8.333761
 30
-0.000000
 11
31.688067
 21
8.364957
 31
-0.000000
  0
LINE
  8
Layer 1
 62
     7
  6
CONTINUOUS
 10
31.688067
 20
8.364957
 30
-0.000000
 11
31.688067
 21
8.695479
 31
-0.000000
  0
LINE
  8
Layer 1
 62
     7
  6
CONTINUOUS
 10
31.688067
 20
8.695479
 30
-0.000000
 11
31.688067
 21
9.709988
 31
-0.000000
  0
LINE
  8
Layer 1
 62
     7
  6
CONTINUOUS
 10
31.688067
 20
9.709988
 30
-0.000000
 11
31.688067
 21
10.003789
 31
-0.000000
  0
LINE
  8
Layer 1
 62
     7
  6
CONTINUOUS
 10
22.263948
 20
11.106991
 30
-0.000000
 11
22.274742
 21
11.261546
 31
-0.000000
  0
LINE
  8
Layer 1
 62
     7
  6
CONTINUOUS
 10
22.274742
 20
11.261546
 30
-0.000000
 11
22.306083
 21
11.417510
 31
-0.000000
  0
LINE
  8
Layer 1
 62
     7
  6
CONTINUOUS
 10
22.306083
 20
11.417510
 30
-0.000000
 11
22.356406
 21
11.573313
 31
-0.000000
  0
LINE
  8
Layer 1
 62
     7
  6
CONTINUOUS
 10
22.356406
 20
11.573313
 30
-0.000000
 11
22.424149
 21
11.727384
 31
-0.000000
  0
LINE
  8
Layer 1
 62
     7
  6
CONTINUOUS
 10
22.424149
 20
11.727384
 30
-0.000000
 11
22.507747
 21
11.878154
 31
-0.000000
  0
LINE
  8
Layer 1
 62
     7
  6
CONTINUOUS
 10
22.507747
 20
11.878154
 30
-0.000000
 11
22.716260
 21
12.163506
 31
-0.000000
  0
LINE
  8
Layer 1
 62
     7
  6
CONTINUOUS
 10
22.716260
 20
12.163506
 30
-0.000000
 11
22.969436
 21
12.416808
 31
-0.000000
  0
LINE
  8
Layer 1
 62
     7
  6
CONTINUOUS
 10
22.969436
 20
12.416808
 30
-0.000000
 11
23.254770
 21
12.625497
 31
-0.000000
  0
LINE
  8
Layer 1
 62
     7
  6
CONTINUOUS
 10
23.254770
 20
12.625497
 30
-0.000000
 11
23.405587
 21
12.709186
 31
-0.000000
  0
LINE
  8
Layer 1
 62
     7
  6
CONTINUOUS
 10
23.405587
 20
12.709186
 30
-0.000000
 11
23.559754
 21
12.777011
 31
-0.000000
  0
LINE
  8
Layer 1
 62
     7
  6
CONTINUOUS
 10
23.559754
 20
12.777011
 30
-0.000000
 11
23.715706
 21
12.827401
 31
-0.000000
  0
LINE
  8
Layer 1
 62
     7
  6
CONTINUOUS
 10
23.715706
 20
12.827401
 30
-0.000000
 11
23.871881
 21
12.858787
 31
-0.000000
  0
LINE
  8
Layer 1
 62
     7
  6
CONTINUOUS
 10
23.871881
 20
12.858787
 30
-0.000000
 11
24.026715
 21
12.869598
 31
-0.000000
  0
LINE
  8
Layer 1
 62
     7
  6
CONTINUOUS
 10
24.026715
 20
12.869598
 30
-0.000000
 11
24.026715
 21
12.869598
 31
-0.000000
  0
LINE
  8
Layer 1
 62
     7
  6
CONTINUOUS
 10
24.026715
 20
12.869598
 30
-0.000000
 11
24.026715
 21
12.869598
 31
-0.000000
  0
LINE
  8
Layer 1
 62
     7
  6
CONTINUOUS
 10
24.026715
 20
12.869598
 30
-0.000000
 11
24.026716
 21
12.869598
 31
-0.000000
  0
LINE
  8
Layer 1
 62
     7
  6
CONTINUOUS
 10
24.026716
 20
12.869598
 30
-0.000000
 11
24.026717
 21
12.869598
 31
-0.000000
  0
LINE
  8
Layer 1
 62
     7
  6
CONTINUOUS
 10
24.026717
 20
12.869598
 30
-0.000000
 11
24.026725
 21
12.869598
 31
-0.000000
  0
LINE
  8
Layer 1
 62
     7
  6
CONTINUOUS
 10
24.026725
 20
12.869598
 30
-0.000000
 11
24.026756
 21
12.869598
 31
-0.000000
  0
LINE
  8
Layer 1
 62
     7
  6
CONTINUOUS
 10
24.026756
 20
12.869598
 30
-0.000000
 11
24.026882
 21
12.869598
 31
-0.000000
  0
LINE
  8
Layer 1
 62
     7
  6
CONTINUOUS
 10
24.026882
 20
12.869598
 30
-0.000000
 11
24.028212
 21
12.869598
 31
-0.000000
  0
LINE
  8
Layer 1
 62
     7
  6
CONTINUOUS
 10
24.028212
 20
12.869598
 30
-0.000000
 11
24.034659
 21
12.869598
 31
-0.000000
  0
LINE
  8
Layer 1
 62
     7
  6
CONTINUOUS
 10
24.034659
 20
12.869598
 30
-0.000000
 11
24.102762
 21
12.869598
 31
-0.000000
  0
LINE
  8
Layer 1
 62
     7
  6
CONTINUOUS
 10
24.102762
 20
12.869598
 30
-0.000000
 11
24.551162
 21
12.869598
 31
-0.000000
  0
LINE
  8
Layer 1
 62
     7
  6
CONTINUOUS
 10
24.551162
 20
12.869598
 30
-0.000000
 11
24.567965
 21
12.869598
 31
-0.000000
  0
LINE
  8
Layer 1
 62
     7
  6
CONTINUOUS
 10
24.567965
 20
12.869598
 30
-0.000000
 11
24.569079
 21
12.869598
 31
-0.000000
  0
LINE
  8
Layer 1
 62
     7
  6
CONTINUOUS
 10
24.569079
 20
12.869598
 30
-0.000000
 11
24.569150
 21
12.869598
 31
-0.000000
  0
LINE
  8
Layer 1
 62
     7
  6
CONTINUOUS
 10
24.569150
 20
12.869598
 30
-0.000000
 11
24.569154
 21
12.869598
 31
-0.000000
  0
LINE
  8
Layer 1
 62
     7
  6
CONTINUOUS
 10
24.569154
 20
12.869598
 30
-0.000000
 11
24.569154
 21
12.869598
 31
-0.000000
  0
LINE
  8
Layer 1
 62
     7
  6
CONTINUOUS
 10
24.569154
 20
12.869598
 30
-0.000000
 11
24.569154
 21
12.869598
 31
-0.000000
  0
LINE
  8
Layer 1
 62
     7
  6
CONTINUOUS
 10
24.569154
 20
12.869598
 30
-0.000000
 11
24.660105
 21
12.864756
 31
-0.000000
  0
LINE
  8
Layer 1
 62
     7
  6
CONTINUOUS
 10
24.660105
 20
12.864756
 30
-0.000000
 11
24.752902
 21
12.850552
 31
-0.000000
  0
LINE
  8
Layer 1
 62
     7
  6
CONTINUOUS
 10
24.752902
 20
12.850552
 30
-0.000000
 11
24.942057
 21
12.795989
 31
-0.000000
  0
LINE
  8
Layer 1
 62
     7
  6
CONTINUOUS
 10
24.942057
 20
12.795989
 30
-0.000000
 11
25.132677
 21
12.709774
 31
-0.000000
  0
LINE
  8
Layer 1
 62
     7
  6
CONTINUOUS
 10
25.132677
 20
12.709774
 30
-0.000000
 11
25.320816
 21
12.595772
 31
-0.000000
  0
LINE
  8
Layer 1
 62
     7
  6
CONTINUOUS
 10
25.320816
 20
12.595772
 30
-0.000000
 11
25.502529
 21
12.457845
 31
-0.000000
  0
LINE
  8
Layer 1
 62
     7
  6
CONTINUOUS
 10
25.502529
 20
12.457845
 30
-0.000000
 11
25.673872
 21
12.299858
 31
-0.000000
  0
LINE
  8
Layer 1
 62
     7
  6
CONTINUOUS
 10
25.673872
 20
12.299858
 30
-0.000000
 11
25.830900
 21
12.125676
 31
-0.000000
  0
LINE
  8
Layer 1
 62
     7
  6
CONTINUOUS
 10
25.830900
 20
12.125676
 30
-0.000000
 11
25.969669
 21
11.939161
 31
-0.000000
  0
LINE
  8
Layer 1
 62
     7
  6
CONTINUOUS
 10
25.969669
 20
11.939161
 30
-0.000000
 11
26.086232
 21
11.744180
 31
-0.000000
  0
LINE
  8
Layer 1
 62
     7
  6
CONTINUOUS
 10
26.086232
 20
11.744180
 30
-0.000000
 11
26.176647
 21
11.544595
 31
-0.000000
  0
LINE
  8
Layer 1
 62
     7
  6
CONTINUOUS
 10
26.176647
 20
11.544595
 30
-0.000000
 11
26.236968
 21
11.344271
 31
-0.000000
  0
LINE
  8
Layer 1
 62
     7
  6
CONTINUOUS
 10
26.236968
 20
11.344271
 30
-0.000000
 11
26.254611
 21
11.245039
 31
-0.000000
  0
LINE
  8
Layer 1
 62
     7
  6
CONTINUOUS
 10
26.254611
 20
11.245039
 30
-0.000000
 11
26.263251
 21
11.147072
 31
-0.000000
  0
LINE
  8
Layer 1
 62
     7
  6
CONTINUOUS
 10
26.263251
 20
11.147072
 30
-0.000000
 11
26.264076
 21
11.106973
 31
-0.000000
  0
LINE
  8
Layer 1
 62
     7
  6
CONTINUOUS
 10
26.264076
 20
11.106973
 30
-0.000000
 11
26.264076
 21
11.106885
 31
-0.000000
  0
LINE
  8
Layer 1
 62
     7
  6
CONTINUOUS
 10
26.264076
 20
11.106885
 30
-0.000000
 11
26.264076
 21
11.106490
 31
-0.000000
  0
LINE
  8
Layer 1
 62
     7
  6
CONTINUOUS
 10
26.264076
 20
11.106490
 30
-0.000000
 11
26.264076
 21
11.104844
 31
-0.000000
  0
LINE
  8
Layer 1
 62
     7
  6
CONTINUOUS
 10
26.264076
 20
11.104844
 30
-0.000000
 11
26.264076
 21
11.087745
 31
-0.000000
  0
LINE
  8
Layer 1
 62
     7
  6
CONTINUOUS
 10
26.264076
 20
11.087745
 30
-0.000000
 11
26.264076
 21
10.692922
 31
-0.000000
  0
LINE
  8
Layer 1
 62
     7
  6
CONTINUOUS
 10
26.264076
 20
10.692922
 30
-0.000000
 11
26.264076
 21
10.637320
 31
-0.000000
  0
LINE
  8
Layer 1
 62
     7
  6
CONTINUOUS
 10
26.264076
 20
10.637320
 30
-0.000000
 11
26.264076
 21
10.632961
 31
-0.000000
  0
LINE
  8
Layer 1
 62
     7
  6
CONTINUOUS
 10
26.264076
 20
10.632961
 30
-0.000000
 11
26.264076
 21
10.632575
 31
-0.000000
  0
LINE
  8
Layer 1
 62
     7
  6
CONTINUOUS
 10
26.264076
 20
10.632575
 30
-0.000000
 11
26.264076
 21
10.632491
 31
-0.000000
  0
LINE
  8
Layer 1
 62
     7
  6
CONTINUOUS
 10
26.264076
 20
10.632491
 30
-0.000000
 11
26.264076
 21
10.632478
 31
-0.000000
  0
LINE
  8
Layer 1
 62
     7
  6
CONTINUOUS
 10
26.264076
 20
10.632478
 30
-0.000000
 11
26.264076
 21
10.632477
 31
-0.000000
  0
LINE
  8
Layer 1
 62
     7
  6
CONTINUOUS
 10
26.264076
 20
10.632477
 30
-0.000000
 11
26.246305
 21
10.422953
 31
-0.000000
  0
LINE
  8
Layer 1
 62
     7
  6
CONTINUOUS
 10
26.246305
 20
10.422953
 30
-0.000000
 11
26.194948
 21
10.214095
 31
-0.000000
  0
LINE
  8
Layer 1
 62
     7
  6
CONTINUOUS
 10
26.194948
 20
10.214095
 30
-0.000000
 11
26.112943
 21
10.009124
 31
-0.000000
  0
LINE
  8
Layer 1
 62
     7
  6
CONTINUOUS
 10
26.112943
 20
10.009124
 30
-0.000000
 11
26.003230
 21
9.811261
 31
-0.000000
  0
LINE
  8
Layer 1
 62
     7
  6
CONTINUOUS
 10
26.003230
 20
9.811261
 30
-0.000000
 11
25.868744
 21
9.623727
 31
-0.000000
  0
LINE
  8
Layer 1
 62
     7
  6
CONTINUOUS
 10
25.868744
 20
9.623727
 30
-0.000000
 11
25.712425
 21
9.449742
 31
-0.000000
  0
LINE
  8
Layer 1
 62
     7
  6
CONTINUOUS
 10
25.712425
 20
9.449742
 30
-0.000000
 11
25.537209
 21
9.292527
 31
-0.000000
  0
LINE
  8
Layer 1
 62
     7
  6
CONTINUOUS
 10
25.537209
 20
9.292527
 30
-0.000000
 11
25.346035
 21
9.155304
 31
-0.000000
  0
LINE
  8
Layer 1
 62
     7
  6
CONTINUOUS
 10
25.346035
 20
9.155304
 30
-0.000000
 11
25.141841
 21
9.041292
 31
-0.000000
  0
LINE
  8
Layer 1
 62
     7
  6
CONTINUOUS
 10
25.141841
 20
9.041292
 30
-0.000000
 11
24.927564
 21
8.953712
 31
-0.000000
  0
LINE
  8
Layer 1
 62
     7
  6
CONTINUOUS
 10
24.927564
 20
8.953712
 30
-0.000000
 11
24.706142
 21
8.895786
 31
-0.000000
  0
LINE
  8
Layer 1
 62
     7
  6
CONTINUOUS
 10
24.706142
 20
8.895786
 30
-0.000000
 11
24.480512
 21
8.870733
 31
-0.000000
  0
LINE
  8
Layer 1
 62
     7
  6
CONTINUOUS
 10
24.480512
 20
8.870733
 30
-0.000000
 11
24.433524
 21
8.869950
 31
-0.000000
  0
LINE
  8
Layer 1
 62
     7
  6
CONTINUOUS
 10
24.433524
 20
8.869950
 30
-0.000000
 11
24.433424
 21
8.869950
 31
-0.000000
  0
LINE
  8
Layer 1
 62
     7
  6
CONTINUOUS
 10
24.433424
 20
8.869950
 30
-0.000000
 11
24.432972
 21
8.869950
 31
-0.000000
  0
LINE
  8
Layer 1
 62
     7
  6
CONTINUOUS
 10
24.432972
 20
8.869950
 30
-0.000000
 11
24.431090
 21
8.869950
 31
-0.000000
  0
LINE
  8
Layer 1
 62
     7
  6
CONTINUOUS
 10
24.431090
 20
8.869950
 30
-0.000000
 11
24.411544
 21
8.869950
 31
-0.000000
  0
LINE
  8
Layer 1
 62
     7
  6
CONTINUOUS
 10
24.411544
 20
8.869950
 30
-0.000000
 11
23.960202
 21
8.869950
 31
-0.000000
  0
LINE
  8
Layer 1
 62
     7
  6
CONTINUOUS
 10
23.960202
 20
8.869950
 30
-0.000000
 11
23.896641
 21
8.869950
 31
-0.000000
  0
LINE
  8
Layer 1
 62
     7
  6
CONTINUOUS
 10
23.896641
 20
8.869950
 30
-0.000000
 11
23.891659
 21
8.869950
 31
-0.000000
  0
LINE
  8
Layer 1
 62
     7
  6
CONTINUOUS
 10
23.891659
 20
8.869950
 30
-0.000000
 11
23.891217
 21
8.869950
 31
-0.000000
  0
LINE
  8
Layer 1
 62
     7
  6
CONTINUOUS
 10
23.891217
 20
8.869950
 30
-0.000000
 11
23.891122
 21
8.869950
 31
-0.000000
  0
LINE
  8
Layer 1
 62
     7
  6
CONTINUOUS
 10
23.891122
 20
8.869950
 30
-0.000000
 11
23.891106
 21
8.869950
 31
-0.000000
  0
LINE
  8
Layer 1
 62
     7
  6
CONTINUOUS
 10
23.891106
 20
8.869950
 30
-0.000000
 11
23.891105
 21
8.869950
 31
-0.000000
  0
LINE
  8
Layer 1
 62
     7
  6
CONTINUOUS
 10
23.891105
 20
8.869950
 30
-0.000000
 11
23.793968
 21
8.874875
 31
-0.000000
  0
LINE
  8
Layer 1
 62
     7
  6
CONTINUOUS
 10
23.793968
 20
8.874875
 30
-0.000000
 11
23.696701
 21
8.889351
 31
-0.000000
  0
LINE
  8
Layer 1
 62
     7
  6
CONTINUOUS
 10
23.696701
 20
8.889351
 30
-0.000000
 11
23.599671
 21
8.912933
 31
-0.000000
  0
LINE
  8
Layer 1
 62
     7
  6
CONTINUOUS
 10
23.599671
 20
8.912933
 30
-0.000000
 11
23.407785
 21
8.985630
 31
-0.000000
  0
LINE
  8
Layer 1
 62
     7
  6
CONTINUOUS
 10
23.407785
 20
8.985630
 30
-0.000000
 11
23.221236
 21
9.089401
 31
-0.000000
  0
LINE
  8
Layer 1
 62
     7
  6
CONTINUOUS
 10
23.221236
 20
9.089401
 30
-0.000000
 11
23.042950
 21
9.220677
 31
-0.000000
  0
LINE
  8
Layer 1
 62
     7
  6
CONTINUOUS
 10
23.042950
 20
9.220677
 30
-0.000000
 11
22.875856
 21
9.375893
 31
-0.000000
  0
LINE
  8
Layer 1
 62
     7
  6
CONTINUOUS
 10
22.875856
 20
9.375893
 30
-0.000000
 11
22.722880
 21
9.551481
 31
-0.000000
  0
LINE
  8
Layer 1
 62
     7
  6
CONTINUOUS
 10
22.722880
 20
9.551481
 30
-0.000000
 11
22.586948
 21
9.743874
 31
-0.000000
  0
LINE
  8
Layer 1
 62
     7
  6
CONTINUOUS
 10
22.586948
 20
9.743874
 30
-0.000000
 11
22.470989
 21
9.949505
 31
-0.000000
  0
LINE
  8
Layer 1
 62
     7
  6
CONTINUOUS
 10
22.470989
 20
9.949505
 30
-0.000000
 11
22.377928
 21
10.164808
 31
-0.000000
  0
LINE
  8
Layer 1
 62
     7
  6
CONTINUOUS
 10
22.377928
 20
10.164808
 30
-0.000000
 11
22.310693
 21
10.386216
 31
-0.000000
  0
LINE
  8
Layer 1
 62
     7
  6
CONTINUOUS
 10
22.310693
 20
10.386216
 30
-0.000000
 11
22.272211
 21
10.610161
 31
-0.000000
  0
LINE
  8
Layer 1
 62
     7
  6
CONTINUOUS
 10
22.272211
 20
10.610161
 30
-0.000000
 11
22.263948
 21
10.768663
 31
-0.000000
  0
LINE
  8
Layer 1
 62
     7
  6
CONTINUOUS
 10
22.263948
 20
10.768663
 30
-0.000000
 11
22.263948
 21
10.772191
 31
-0.000000
  0
LINE
  8
Layer 1
 62
     7
  6
CONTINUOUS
 10
22.263948
 20
10.772191
 30
-0.000000
 11
22.263948
 21
10.787873
 31
-0.000000
  0
LINE
  8
Layer 1
 62
     7
  6
CONTINUOUS
 10
22.263948
 20
10.787873
 30
-0.000000
 11
22.263948
 21
11.106991
 31
-0.000000
  0
LINE
  8
Layer 1
 62
     7
  6
CONTINUOUS
 10
26.874280
 20
8.152711
 30
-0.000000
 11
26.874280
 21
8.320836
 31
-0.000000
  0
LINE
  8
Layer 1
 62
     7
  6
CONTINUOUS
 10
26.874280
 20
8.320836
 30
-0.000000
 11
26.874280
 21
8.342175
 31
-0.000000
  0
LINE
  8
Layer 1
 62
     7
  6
CONTINUOUS
 10
26.874280
 20
8.342175
 30
-0.000000
 11
26.874280
 21
8.413678
 31
-0.000000
  0
LINE
  8
Layer 1
 62
     7
  6
CONTINUOUS
 10
26.874280
 20
8.413678
 30
-0.000000
 11
26.874280
 21
9.832620
 31
-0.000000
  0
LINE
  8
Layer 1
 62
     7
  6
CONTINUOUS
 10
26.874280
 20
10.022353
 30
-0.000000
 11
26.677661
 21
10.022353
 31
-0.000000
  0
LINE
  8
Layer 1
 62
     7
  6
CONTINUOUS
 10
26.677661
 20
10.022353
 30
-0.000000
 11
26.671354
 21
10.022353
 31
-0.000000
  0
LINE
  8
Layer 1
 62
     7
  6
CONTINUOUS
 10
26.671354
 20
10.022353
 30
-0.000000
 11
26.670934
 21
10.022353
 31
-0.000000
  0
LINE
  8
Layer 1
 62
     7
  6
CONTINUOUS
 10
26.670934
 20
10.022353
 30
-0.000000
 11
26.670908
 21
10.022353
 31
-0.000000
  0
LINE
  8
Layer 1
 62
     7
  6
CONTINUOUS
 10
26.670908
 20
10.022353
 30
-0.000000
 11
26.670906
 21
10.022353
 31
-0.000000
  0
LINE
  8
Layer 1
 62
     7
  6
CONTINUOUS
 10
26.670906
 20
10.022353
 30
-0.000000
 11
26.670906
 21
10.022353
 31
-0.000000
  0
LINE
  8
Layer 1
 62
     7
  6
CONTINUOUS
 10
26.670906
 20
10.022353
 30
-0.000000
 11
26.670906
 21
10.022353
 31
-0.000000
  0
LINE
  8
Layer 1
 62
     7
  6
CONTINUOUS
 10
26.670906
 20
10.022353
 30
-0.000000
 11
26.670906
 21
10.022353
 31
-0.000000
  0
LINE
  8
Layer 1
 62
     7
  6
CONTINUOUS
 10
26.670906
 20
10.022353
 30
-0.000000
 11
26.670905
 21
10.022352
 31
-0.000000
  0
LINE
  8
Layer 1
 62
     7
  6
CONTINUOUS
 10
26.670905
 20
10.022352
 30
-0.000000
 11
26.670904
 21
10.022350
 31
-0.000000
  0
LINE
  8
Layer 1
 62
     7
  6
CONTINUOUS
 10
26.670904
 20
10.022350
 30
-0.000000
 11
26.670900
 21
10.022337
 31
-0.000000
  0
LINE
  8
Layer 1
 62
     7
  6
CONTINUOUS
 10
26.670900
 20
10.022337
 30
-0.000000
 11
26.670880
 21
10.022286
 31
-0.000000
  0
LINE
  8
Layer 1
 62
     7
  6
CONTINUOUS
 10
26.670880
 20
10.022286
 30
-0.000000
 11
26.670800
 21
10.022078
 31
-0.000000
  0
LINE
  8
Layer 1
 62
     7
  6
CONTINUOUS
 10
26.670800
 20
10.022078
 30
-0.000000
 11
26.669952
 21
10.019862
 31
-0.000000
  0
LINE
  8
Layer 1
 62
     7
  6
CONTINUOUS
 10
26.669952
 20
10.019862
 30
-0.000000
 11
26.665825
 21
10.009089
 31
-0.000000
  0
LINE
  8
Layer 1
 62
     7
  6
CONTINUOUS
 10
26.665825
 20
10.009089
 30
-0.000000
 11
26.622199
 21
9.895189
 31
-0.000000
  0
LINE
  8
Layer 1
 62
     7
  6
CONTINUOUS
 10
19.831886
 20
2.744585
 30
-0.000000
 11
19.823498
 21
2.656627
 31
-0.000000
  0
LINE
  8
Layer 1
 62
     7
  6
CONTINUOUS
 10
19.823498
 20
2.656627
 30
-0.000000
 11
19.823132
 21
2.421619
 31
-0.000000
  0
LINE
  8
Layer 1
 62
     7
  6
CONTINUOUS
 10
19.823132
 20
2.421619
 30
-0.000000
 11
19.828560
 21
0.456954
 31
-0.000000
  0
LINE
  8
Layer 1
 62
     7
  6
CONTINUOUS
 10
19.828560
 20
0.456954
 30
-0.000000
 11
19.847412
 21
0.375222
 31
-0.000000
  0
LINE
  8
Layer 1
 62
     7
  6
CONTINUOUS
 10
19.847412
 20
0.375222
 30
-0.000000
 11
19.878276
 21
0.299663
 31
-0.000000
  0
LINE
  8
Layer 1
 62
     7
  6
CONTINUOUS
 10
19.878276
 20
0.299663
 30
-0.000000
 11
19.919607
 21
0.231726
 31
-0.000000
  0
LINE
  8
Layer 1
 62
     7
  6
CONTINUOUS
 10
19.919607
 20
0.231726
 30
-0.000000
 11
19.969859
 21
0.172860
 31
-0.000000
  0
LINE
  8
Layer 1
 62
     7
  6
CONTINUOUS
 10
19.969859
 20
0.172860
 30
-0.000000
 11
20.027487
 21
0.124514
 31
-0.000000
  0
LINE
  8
Layer 1
 62
     7
  6
CONTINUOUS
 10
20.027487
 20
0.124514
 30
-0.000000
 11
20.058584
 21
0.104738
 31
-0.000000
  0
LINE
  8
Layer 1
 62
     7
  6
CONTINUOUS
 10
20.058584
 20
0.104738
 30
-0.000000
 11
20.090945
 21
0.088135
 31
-0.000000
  0
LINE
  8
Layer 1
 62
     7
  6
CONTINUOUS
 10
20.090945
 20
0.088135
 30
-0.000000
 11
20.124377
 21
0.074887
 31
-0.000000
  0
LINE
  8
Layer 1
 62
     7
  6
CONTINUOUS
 10
20.124377
 20
0.074887
 30
-0.000000
 11
20.158687
 21
0.065174
 31
-0.000000
  0
LINE
  8
Layer 1
 62
     7
  6
CONTINUOUS
 10
20.158687
 20
0.065174
 30
-0.000000
 11
20.193683
 21
0.059177
 31
-0.000000
  0
LINE
  8
Layer 1
 62
     7
  6
CONTINUOUS
 10
20.193683
 20
0.059177
 30
-0.000000
 11
20.229170
 21
0.057077
 31
-0.000000
  0
LINE
  8
Layer 1
 62
     7
  6
CONTINUOUS
 10
20.229170
 20
0.057077
 30
-0.000000
 11
20.335181
 21
0.064918
 31
-0.000000
  0
LINE
  8
Layer 1
 62
     7
  6
CONTINUOUS
 10
8.582098
 20
5.644935
 30
-0.000000
 11
8.594216
 21
5.626246
 31
-0.000000
  0
LINE
  8
Layer 1
 62
     7
  6
CONTINUOUS
 10
20.335181
 20
0.064918
 30
-0.000000
 11
20.432136
 21
0.088227
 31
-0.000000
  0
LINE
  8
Layer 1
 62
     7
  6
CONTINUOUS
 10
20.432136
 20
0.088227
 30
-0.000000
 11
20.476781
 21
0.105412
 31
-0.000000
  0
LINE
  8
Layer 1
 62
     7
  6
CONTINUOUS
 10
20.476781
 20
0.105412
 30
-0.000000
 11
20.518728
 21
0.126139
 31
-0.000000
  0
LINE
  8
Layer 1
 62
     7
  6
CONTINUOUS
 10
20.518728
 20
0.126139
 30
-0.000000
 11
20.557868
 21
0.150300
 31
-0.000000
  0
LINE
  8
Layer 1
 62
     7
  6
CONTINUOUS
 10
20.557868
 20
0.150300
 30
-0.000000
 11
20.594093
 21
0.177787
 31
-0.000000
  0
LINE
  8
Layer 1
 62
     7
  6
CONTINUOUS
 10
20.594093
 20
0.177787
 30
-0.000000
 11
20.627295
 21
0.208493
 31
-0.000000
  0
LINE
  8
Layer 1
 62
     7
  6
CONTINUOUS
 10
20.627295
 20
0.208493
 30
-0.000000
 11
20.657365
 21
0.242308
 31
-0.000000
  0
LINE
  8
Layer 1
 62
     7
  6
CONTINUOUS
 10
20.657365
 20
0.242308
 30
-0.000000
 11
20.684196
 21
0.279124
 31
-0.000000
  0
LINE
  8
Layer 1
 62
     7
  6
CONTINUOUS
 10
20.684196
 20
0.279124
 30
-0.000000
 11
20.707680
 21
0.318834
 31
-0.000000
  0
LINE
  8
Layer 1
 62
     7
  6
CONTINUOUS
 10
20.707680
 20
0.318834
 30
-0.000000
 11
20.727707
 21
0.361329
 31
-0.000000
  0
LINE
  8
Layer 1
 62
     7
  6
CONTINUOUS
 10
20.727707
 20
0.361329
 30
-0.000000
 11
20.744170
 21
0.406501
 31
-0.000000
  0
LINE
  8
Layer 1
 62
     7
  6
CONTINUOUS
 10
20.744170
 20
0.406501
 30
-0.000000
 11
20.765972
 21
0.504443
 31
-0.000000
  0
LINE
  8
Layer 1
 62
     7
  6
CONTINUOUS
 10
20.765972
 20
0.504443
 30
-0.000000
 11
20.772320
 21
0.599656
 31
-0.000000
  0
LINE
  8
Layer 1
 62
     7
  6
CONTINUOUS
 10
20.772320
 20
0.599656
 30
-0.000000
 11
20.772320
 21
0.600424
 31
-0.000000
  0
LINE
  8
Layer 1
 62
     7
  6
CONTINUOUS
 10
20.772320
 20
0.600424
 30
-0.000000
 11
20.772320
 21
0.608680
 31
-0.000000
  0
LINE
  8
Layer 1
 62
     7
  6
CONTINUOUS
 10
20.772320
 20
0.608680
 30
-0.000000
 11
20.772320
 21
0.646774
 31
-0.000000
  0
LINE
  8
Layer 1
 62
     7
  6
CONTINUOUS
 10
20.772320
 20
0.646774
 30
-0.000000
 11
20.772320
 21
0.937729
 31
-0.000000
  0
LINE
  8
Layer 1
 62
     7
  6
CONTINUOUS
 10
20.772320
 20
0.937729
 30
-0.000000
 11
20.772320
 21
1.073949
 31
-0.000000
  0
LINE
  8
Layer 1
 62
     7
  6
CONTINUOUS
 10
20.772320
 20
1.073949
 30
-0.000000
 11
20.975775
 21
1.073949
 31
-0.000000
  0
LINE
  8
Layer 1
 62
     7
  6
CONTINUOUS
 10
20.975775
 20
1.073949
 30
-0.000000
 11
20.975775
 21
1.345089
 31
-0.000000
  0
LINE
  8
Layer 1
 62
     7
  6
CONTINUOUS
 10
20.975775
 20
1.345089
 30
-0.000000
 11
21.179150
 21
1.345089
 31
-0.000000
  0
LINE
  8
Layer 1
 62
     7
  6
CONTINUOUS
 10
21.179150
 20
1.345089
 30
-0.000000
 11
21.179150
 21
1.955213
 31
-0.000000
  0
LINE
  8
Layer 1
 62
     7
  6
CONTINUOUS
 10
21.179150
 20
1.955213
 30
-0.000000
 11
21.314760
 21
1.955213
 31
-0.000000
  0
LINE
  8
Layer 1
 62
     7
  6
CONTINUOUS
 10
21.314760
 20
1.955213
 30
-0.000000
 11
21.314760
 21
2.432373
 31
-0.000000
  0
LINE
  8
Layer 1
 62
     7
  6
CONTINUOUS
 10
13.707639
 20
5.377283
 30
-0.000000
 11
13.701439
 21
5.374633
 31
-0.000000
  0
LINE
  8
Layer 1
 62
     7
  6
CONTINUOUS
 10
13.708919
 20
5.377831
 30
-0.000000
 11
13.707639
 21
5.377283
 31
-0.000000
  0
LINE
  8
Layer 1
 62
     7
  6
CONTINUOUS
 10
13.709039
 20
5.377882
 30
-0.000000
 11
13.708919
 21
5.377831
 31
-0.000000
  0
LINE
  8
Layer 1
 62
     7
  6
CONTINUOUS
 10
13.709068
 20
5.377894
 30
-0.000000
 11
13.709039
 21
5.377882
 31
-0.000000
  0
LINE
  8
Layer 1
 62
     7
  6
CONTINUOUS
 10
13.709075
 20
5.377897
 30
-0.000000
 11
13.709068
 21
5.377894
 31
-0.000000
  0
LINE
  8
Layer 1
 62
     7
  6
CONTINUOUS
 10
13.709077
 20
5.377898
 30
-0.000000
 11
13.709075
 21
5.377897
 31
-0.000000
  0
LINE
  8
Layer 1
 62
     7
  6
CONTINUOUS
 10
13.709077
 20
5.377898
 30
-0.000000
 11
13.709077
 21
5.377898
 31
-0.000000
  0
LINE
  8
Layer 1
 62
     7
  6
CONTINUOUS
 10
13.709060
 20
5.377841
 30
-0.000000
 11
13.709077
 21
5.377898
 31
-0.000000
  0
LINE
  8
Layer 1
 62
     7
  6
CONTINUOUS
 10
13.708690
 20
5.376590
 30
-0.000000
 11
13.709060
 21
5.377841
 31
-0.000000
  0
LINE
  8
Layer 1
 62
     7
  6
CONTINUOUS
 10
21.314760
 20
2.432373
 30
-0.000000
 11
21.314760
 21
2.565336
 31
-0.000000
  0
LINE
  8
Layer 1
 62
     7
  6
CONTINUOUS
 10
21.314760
 20
2.565336
 30
-0.000000
 11
21.450369
 21
2.565336
 31
-0.000000
  0
LINE
  8
Layer 1
 62
     7
  6
CONTINUOUS
 10
21.450369
 20
2.565336
 30
-0.000000
 11
21.450369
 21
2.980849
 31
-0.000000
  0
LINE
  8
Layer 1
 62
     7
  6
CONTINUOUS
 10
21.450369
 20
2.980849
 30
-0.000000
 11
21.450369
 21
3.039931
 31
-0.000000
  0
LINE
  8
Layer 1
 62
     7
  6
CONTINUOUS
 10
21.450369
 20
3.039931
 30
-0.000000
 11
21.653749
 21
3.039931
 31
-0.000000
  0
LINE
  8
Layer 1
 62
     7
  6
CONTINUOUS
 10
21.653749
 20
3.039931
 30
-0.000000
 11
21.641518
 21
4.068957
 31
-0.000000
  0
LINE
  8
Layer 1
 62
     7
  6
CONTINUOUS
 10
21.641518
 20
4.068957
 30
-0.000000
 11
21.664512
 21
4.281140
 31
-0.000000
  0
LINE
  8
Layer 1
 62
     7
  6
CONTINUOUS
 10
21.664512
 20
4.281140
 30
-0.000000
 11
21.684841
 21
4.368812
 31
-0.000000
  0
LINE
  8
Layer 1
 62
     7
  6
CONTINUOUS
 10
21.684841
 20
4.368812
 30
-0.000000
 11
21.712253
 21
4.441376
 31
-0.000000
  0
LINE
  8
Layer 1
 62
     7
  6
CONTINUOUS
 10
21.712253
 20
4.441376
 30
-0.000000
 11
21.728894
 21
4.471329
 31
-0.000000
  0
LINE
  8
Layer 1
 62
     7
  6
CONTINUOUS
 10
21.728894
 20
4.471329
 30
-0.000000
 11
21.747642
 21
4.496708
 31
-0.000000
  0
LINE
  8
Layer 1
 62
     7
  6
CONTINUOUS
 10
21.747642
 20
4.496708
 30
-0.000000
 11
21.757841
 21
4.507600
 31
-0.000000
  0
LINE
  8
Layer 1
 62
     7
  6
CONTINUOUS
 10
21.757841
 20
4.507600
 30
-0.000000
 11
21.768608
 21
4.517249
 31
-0.000000
  0
LINE
  8
Layer 1
 62
     7
  6
CONTINUOUS
 10
21.768608
 20
4.517249
 30
-0.000000
 11
21.779958
 21
4.525623
 31
-0.000000
  0
LINE
  8
Layer 1
 62
     7
  6
CONTINUOUS
 10
21.779958
 20
4.525623
 30
-0.000000
 11
21.785856
 21
4.529321
 31
-0.000000
  0
LINE
  8
Layer 1
 62
     7
  6
CONTINUOUS
 10
21.785856
 20
4.529321
 30
-0.000000
 11
21.788862
 21
4.531045
 31
-0.000000
  0
LINE
  8
Layer 1
 62
     7
  6
CONTINUOUS
 10
21.788862
 20
4.531045
 30
-0.000000
 11
21.789240
 21
4.531255
 31
-0.000000
  0
LINE
  8
Layer 1
 62
     7
  6
CONTINUOUS
 10
21.789240
 20
4.531255
 30
-0.000000
 11
21.789354
 21
4.531318
 31
-0.000000
  0
LINE
  8
Layer 1
 62
     7
  6
CONTINUOUS
 10
21.789351
 20
4.531321
 30
-0.000000
 11
21.789342
 21
4.531333
 31
-0.000000
  0
LINE
  8
Layer 1
 62
     7
  6
CONTINUOUS
 10
21.789342
 20
4.531333
 30
-0.000000
 11
21.789304
 21
4.531378
 31
-0.000000
  0
LINE
  8
Layer 1
 62
     7
  6
CONTINUOUS
 10
21.789304
 20
4.531378
 30
-0.000000
 11
21.788902
 21
4.531866
 31
-0.000000
  0
LINE
  8
Layer 1
 62
     7
  6
CONTINUOUS
 10
21.788902
 20
4.531866
 30
-0.000000
 11
21.786935
 21
4.534251
 31
-0.000000
  0
LINE
  8
Layer 1
 62
     7
  6
CONTINUOUS
 10
21.786935
 20
4.534251
 30
-0.000000
 11
21.765761
 21
4.559930
 31
-0.000000
  0
LINE
  8
Layer 1
 62
     7
  6
CONTINUOUS
 10
21.765761
 20
4.559930
 30
-0.000000
 11
21.574365
 21
4.792044
 31
-0.000000
  0
LINE
  8
Layer 1
 62
     7
  6
CONTINUOUS
 10
21.574365
 20
4.792044
 30
-0.000000
 11
21.647570
 21
4.795590
 31
-0.000000
  0
LINE
  8
Layer 1
 62
     7
  6
CONTINUOUS
 10
21.647570
 20
4.795590
 30
-0.000000
 11
21.789354
 21
4.802457
 31
-0.000000
  0
LINE
  8
Layer 1
 62
     7
  6
CONTINUOUS
 10
21.789354
 20
4.802457
 30
-0.000000
 11
21.789354
 21
5.544728
 31
-0.000000
  0
LINE
  8
Layer 1
 62
     7
  6
CONTINUOUS
 10
21.789354
 20
5.544728
 30
-0.000000
 11
21.789354
 21
5.751566
 31
-0.000000
  0
LINE
  8
Layer 1
 62
     7
  6
CONTINUOUS
 10
21.789354
 20
5.751566
 30
-0.000000
 11
21.868243
 21
5.751566
 31
-0.000000
  0
LINE
  8
Layer 1
 62
     7
  6
CONTINUOUS
 10
21.868243
 20
5.751566
 30
-0.000000
 11
23.221393
 21
5.751566
 31
-0.000000
  0
LINE
  8
Layer 1
 62
     7
  6
CONTINUOUS
 10
23.221393
 20
5.751566
 30
-0.000000
 11
23.619966
 21
5.751566
 31
-0.000000
  0
LINE
  8
Layer 1
 62
     7
  6
CONTINUOUS
 10
23.619966
 20
5.751566
 30
-0.000000
 11
23.619966
 21
5.625004
 31
-0.000000
  0
LINE
  8
Layer 1
 62
     7
  6
CONTINUOUS
 10
23.619966
 20
5.625004
 30
-0.000000
 11
23.619966
 21
4.742555
 31
-0.000000
  0
LINE
  8
Layer 1
 62
     7
  6
CONTINUOUS
 10
23.619966
 20
4.742555
 30
-0.000000
 11
23.619966
 21
4.599083
 31
-0.000000
  0
LINE
  8
Layer 1
 62
     7
  6
CONTINUOUS
 10
23.619966
 20
4.599083
 30
-0.000000
 11
23.279148
 21
4.683313
 31
-0.000000
  0
ARC
  8
Default
 62
     7
  6
CONTINUOUS
 10
22.758248
 20
4.385548
 30
0.000000
 40
0.600000
 50
29.753781
 51
348.160954
  0
LINE
  8
Layer 1
 62
     7
  6
CONTINUOUS
 10
23.345485
 20
4.262451
 30
-0.000000
 11
23.656463
 21
4.261778
 31
-0.000000
  0
ARC
  8
Default
 62
     7
  6
CONTINUOUS
 10
23.907055
 20
3.716614
 30
0.000000
 40
0.600000
 50
114.686477
 51
360.000000
  0
ARC
  8
Default
 62
     7
  6
CONTINUOUS
 10
23.907055
 20
3.716614
 30
0.000000
 40
0.600000
 50
0.000000
 51
65.065804
  0
LINE
  8
Layer 1
 62
     7
  6
CONTINUOUS
 10
24.160001
 20
4.260690
 30
-0.000000
 11
24.299686
 21
4.260388
 31
-0.000000
  0
LINE
  8
Layer 1
 62
     7
  6
CONTINUOUS
 10
24.299686
 20
4.260388
 30
-0.000000
 11
24.472732
 21
4.260014
 31
-0.000000
  0
ARC
  8
Default
 62
     7
  6
CONTINUOUS
 10
25.063284
 20
4.366069
 30
0.000000
 40
0.600000
 50
190.181048
 51
360.000000
  0
ARC
  8
Default
 62
     7
  6
CONTINUOUS
 10
25.063284
 20
4.366069
 30
0.000000
 40
0.600000
 50
0.000000
 51
149.871583
  0
LINE
  8
Layer 1
 62
     7
  6
CONTINUOUS
 10
24.544343
 20
4.667233
 30
-0.000000
 11
24.239023
 21
4.592593
 31
-0.000000
  0
LINE
  8
Layer 1
 62
     7
  6
CONTINUOUS
 10
24.239023
 20
4.592593
 30
-0.000000
 11
24.149909
 21
4.570807
 31
-0.000000
  0
LINE
  8
Layer 1
 62
     7
  6
CONTINUOUS
 10
24.149909
 20
4.570807
 30
-0.000000
 11
24.159622
 21
5.494484
 31
-0.000000
  0
LINE
  8
Layer 1
 62
     7
  6
CONTINUOUS
 10
24.159622
 20
5.494484
 30
-0.000000
 11
24.162325
 21
5.751566
 31
-0.000000
  0
LINE
  8
Layer 1
 62
     7
  6
CONTINUOUS
 10
24.162325
 20
5.751566
 30
-0.000000
 11
24.385690
 21
5.751566
 31
-0.000000
  0
LINE
  8
Layer 1
 62
     7
  6
CONTINUOUS
 10
24.385690
 20
5.751566
 30
-0.000000
 11
25.943101
 21
5.751566
 31
-0.000000
  0
LINE
  8
Layer 1
 62
     7
  6
CONTINUOUS
 10
26.874280
 20
10.022353
 30
-0.000000
 11
26.874280
 21
8.124216
 31
-0.000000
  0
LINE
  8
Layer 1
 62
     7
  6
CONTINUOUS
 10
25.943101
 20
5.751566
 30
-0.000000
 11
26.161809
 21
5.751566
 31
-0.000000
  0
LINE
  8
Layer 1
 62
     7
  6
CONTINUOUS
 10
26.161809
 20
5.751566
 30
-0.000000
 11
26.196126
 21
5.751566
 31
-0.000000
  0
LINE
  8
Layer 1
 62
     7
  6
CONTINUOUS
 10
26.196126
 20
5.751566
 30
-0.000000
 11
26.196305
 21
5.751566
 31
-0.000000
  0
LINE
  8
Layer 1
 62
     7
  6
CONTINUOUS
 10
26.196305
 20
5.751566
 30
-0.000000
 11
26.503180
 21
5.751566
 31
-0.000000
  0
LINE
  8
Layer 1
 62
     7
  6
CONTINUOUS
 10
26.503180
 20
5.751566
 30
-0.000000
 11
26.399227
 21
5.532102
 31
-0.000000
  0
LINE
  8
Layer 1
 62
     7
  6
CONTINUOUS
 10
26.399227
 20
5.532102
 30
-0.000000
 11
26.356086
 21
5.399389
 31
-0.000000
  0
LINE
  8
Layer 1
 62
     7
  6
CONTINUOUS
 10
26.356086
 20
5.399389
 30
-0.000000
 11
26.334064
 21
5.264640
 31
-0.000000
  0
LINE
  8
Layer 1
 62
     7
  6
CONTINUOUS
 10
26.334064
 20
5.264640
 30
-0.000000
 11
26.331921
 21
5.209170
 31
-0.000000
  0
LINE
  8
Layer 1
 62
     7
  6
CONTINUOUS
 10
26.331921
 20
5.209170
 30
-0.000000
 11
26.331921
 21
5.208999
 31
-0.000000
  0
LINE
  8
Layer 1
 62
     7
  6
CONTINUOUS
 10
26.331921
 20
5.208999
 30
-0.000000
 11
26.331921
 21
5.208249
 31
-0.000000
  0
LINE
  8
Layer 1
 62
     7
  6
CONTINUOUS
 10
26.331921
 20
5.208249
 30
-0.000000
 11
26.331921
 21
5.200382
 31
-0.000000
  0
LINE
  8
Layer 1
 62
     7
  6
CONTINUOUS
 10
26.331921
 20
5.200382
 30
-0.000000
 11
26.331930
 21
5.067196
 31
-0.000000
  0
LINE
  8
Layer 1
 62
     7
  6
CONTINUOUS
 10
26.331930
 20
5.067196
 30
-0.000000
 11
26.347119
 21
4.803969
 31
-0.000000
  0
LINE
  8
Layer 1
 62
     7
  6
CONTINUOUS
 10
26.347119
 20
4.803969
 30
-0.000000
 11
26.396061
 21
4.534956
 31
-0.000000
  0
LINE
  8
Layer 1
 62
     7
  6
CONTINUOUS
 10
26.396061
 20
4.534956
 30
-0.000000
 11
26.435414
 21
4.409633
 31
-0.000000
  0
LINE
  8
Layer 1
 62
     7
  6
CONTINUOUS
 10
26.435414
 20
4.409633
 30
-0.000000
 11
26.485874
 21
4.296485
 31
-0.000000
  0
LINE
  8
Layer 1
 62
     7
  6
CONTINUOUS
 10
26.485874
 20
4.296485
 30
-0.000000
 11
26.515547
 21
4.245896
 31
-0.000000
  0
LINE
  8
Layer 1
 62
     7
  6
CONTINUOUS
 10
26.515547
 20
4.245896
 30
-0.000000
 11
26.548331
 21
4.200053
 31
-0.000000
  0
LINE
  8
Layer 1
 62
     7
  6
CONTINUOUS
 10
26.548331
 20
4.200053
 30
-0.000000
 11
26.584337
 21
4.159525
 31
-0.000000
  0
LINE
  8
Layer 1
 62
     7
  6
CONTINUOUS
 10
26.584337
 20
4.159525
 30
-0.000000
 11
26.623676
 21
4.124879
 31
-0.000000
  0
LINE
  8
Layer 1
 62
     7
  6
CONTINUOUS
 10
26.623676
 20
4.124879
 30
-0.000000
 11
26.781138
 21
4.021101
 31
-0.000000
  0
LINE
  8
Layer 1
 62
     7
  6
CONTINUOUS
 10
26.781138
 20
4.021101
 30
-0.000000
 11
26.603100
 21
4.260153
 31
-0.000000
  0
LINE
  8
Layer 1
 62
     7
  6
CONTINUOUS
 10
26.603100
 20
4.260153
 30
-0.000000
 11
27.002116
 21
4.921397
 31
-0.000000
  0
LINE
  8
Layer 1
 62
     7
  6
CONTINUOUS
 10
27.002116
 20
4.921397
 30
-0.000000
 11
27.267558
 21
5.260561
 31
-0.000000
  0
LINE
  8
Layer 1
 62
     7
  6
CONTINUOUS
 10
27.267558
 20
5.260561
 30
-0.000000
 11
27.408907
 21
5.403781
 31
-0.000000
  0
LINE
  8
Layer 1
 62
     7
  6
CONTINUOUS
 10
27.408907
 20
5.403781
 30
-0.000000
 11
27.552989
 21
5.518526
 31
-0.000000
  0
LINE
  8
Layer 1
 62
     7
  6
CONTINUOUS
 10
27.552989
 20
5.518526
 30
-0.000000
 11
27.625348
 21
5.562665
 31
-0.000000
  0
LINE
  8
Layer 1
 62
     7
  6
CONTINUOUS
 10
27.625348
 20
5.562665
 30
-0.000000
 11
27.755704
 21
5.623975
 31
-0.000000
  0
LINE
  8
Layer 1
 62
     7
  6
CONTINUOUS
 10
27.755704
 20
5.623975
 30
-0.000000
 11
27.755704
 21
5.456955
 31
-0.000000
  0
LINE
  8
Layer 1
 62
     7
  6
CONTINUOUS
 10
27.755704
 20
5.456955
 30
-0.000000
 11
27.755704
 21
4.448112
 31
-0.000000
  0
LINE
  8
Layer 1
 62
     7
  6
CONTINUOUS
 10
27.755704
 20
4.448112
 30
-0.000000
 11
27.755704
 21
4.000059
 31
-0.000000
  0
LINE
  8
Layer 1
 62
     7
  6
CONTINUOUS
 10
27.755704
 20
4.000059
 30
-0.000000
 11
27.755704
 21
3.853429
 31
-0.000000
  0
LINE
  8
Layer 1
 62
     7
  6
CONTINUOUS
 10
27.755704
 20
3.853429
 30
-0.000000
 11
27.518367
 21
3.819467
 31
-0.000000
  0
LINE
  8
Layer 1
 62
     7
  6
CONTINUOUS
 10
27.518367
 20
3.819467
 30
-0.000000
 11
27.740725
 21
3.605999
 31
-0.000000
  0
LINE
  8
Layer 1
 62
     7
  6
CONTINUOUS
 10
27.740725
 20
3.605999
 30
-0.000000
 11
27.531984
 21
3.420407
 31
-0.000000
  0
LINE
  8
Layer 1
 62
     7
  6
CONTINUOUS
 10
27.531984
 20
3.420407
 30
-0.000000
 11
27.823469
 21
3.243305
 31
-0.000000
  0
LINE
  8
Layer 1
 62
     7
  6
CONTINUOUS
 10
27.823469
 20
3.243305
 30
-0.000000
 11
27.823469
 21
2.972090
 31
-0.000000
  0
LINE
  8
Layer 1
 62
     7
  6
CONTINUOUS
 10
27.823469
 20
2.972090
 30
-0.000000
 11
27.672271
 21
2.964180
 31
-0.000000
  0
LINE
  8
Layer 1
 62
     7
  6
CONTINUOUS
 10
27.672271
 20
2.964180
 30
-0.000000
 11
27.601800
 21
2.954733
 31
-0.000000
  0
LINE
  8
Layer 1
 62
     7
  6
CONTINUOUS
 10
27.601800
 20
2.954733
 30
-0.000000
 11
27.536826
 21
2.939722
 31
-0.000000
  0
LINE
  8
Layer 1
 62
     7
  6
CONTINUOUS
 10
27.536826
 20
2.939722
 30
-0.000000
 11
27.478941
 21
2.917723
 31
-0.000000
  0
LINE
  8
Layer 1
 62
     7
  6
CONTINUOUS
 10
27.478941
 20
2.917723
 30
-0.000000
 11
27.453156
 21
2.903656
 31
-0.000000
  0
LINE
  8
Layer 1
 62
     7
  6
CONTINUOUS
 10
27.453156
 20
2.903656
 30
-0.000000
 11
27.429741
 21
2.887309
 31
-0.000000
  0
LINE
  8
Layer 1
 62
     7
  6
CONTINUOUS
 10
27.429741
 20
2.887309
 30
-0.000000
 11
27.408895
 21
2.868501
 31
-0.000000
  0
LINE
  8
Layer 1
 62
     7
  6
CONTINUOUS
 10
27.408895
 20
2.868501
 30
-0.000000
 11
27.390818
 21
2.847055
 31
-0.000000
  0
LINE
  8
Layer 1
 62
     7
  6
CONTINUOUS
 10
27.390818
 20
2.847055
 30
-0.000000
 11
27.375709
 21
2.822793
 31
-0.000000
  0
LINE
  8
Layer 1
 62
     7
  6
CONTINUOUS
 10
27.375709
 20
2.822793
 30
-0.000000
 11
27.363767
 21
2.795537
 31
-0.000000
  0
LINE
  8
Layer 1
 62
     7
  6
CONTINUOUS
 10
27.363767
 20
2.795537
 30
-0.000000
 11
27.355191
 21
2.765108
 31
-0.000000
  0
LINE
  8
Layer 1
 62
     7
  6
CONTINUOUS
 10
27.355191
 20
2.765108
 30
-0.000000
 11
27.350182
 21
2.731329
 31
-0.000000
  0
LINE
  8
Layer 1
 62
     7
  6
CONTINUOUS
 10
27.350182
 20
2.731329
 30
-0.000000
 11
27.348875
 21
2.700928
 31
-0.000000
  0
LINE
  8
Layer 1
 62
     7
  6
CONTINUOUS
 10
27.348875
 20
2.700928
 30
-0.000000
 11
27.348875
 21
2.700843
 31
-0.000000
  0
LINE
  8
Layer 1
 62
     7
  6
CONTINUOUS
 10
27.348875
 20
2.700843
 30
-0.000000
 11
27.348875
 21
2.700468
 31
-0.000000
  0
LINE
  8
Layer 1
 62
     7
  6
CONTINUOUS
 10
27.348875
 20
2.700468
 30
-0.000000
 11
27.348875
 21
2.696537
 31
-0.000000
  0
LINE
  8
Layer 1
 62
     7
  6
CONTINUOUS
 10
27.348875
 20
2.696537
 30
-0.000000
 11
27.348885
 21
2.629810
 31
-0.000000
  0
LINE
  8
Layer 1
 62
     7
  6
CONTINUOUS
 10
27.348885
 20
2.629810
 30
-0.000000
 11
27.353167
 21
2.570663
 31
-0.000000
  0
LINE
  8
Layer 1
 62
     7
  6
CONTINUOUS
 10
27.353167
 20
2.570663
 30
-0.000000
 11
27.358100
 21
2.545233
 31
-0.000000
  0
LINE
  8
Layer 1
 62
     7
  6
CONTINUOUS
 10
27.358100
 20
2.545233
 30
-0.000000
 11
27.364798
 21
2.522327
 31
-0.000000
  0
LINE
  8
Layer 1
 62
     7
  6
CONTINUOUS
 10
27.364798
 20
2.522327
 30
-0.000000
 11
27.373186
 21
2.501766
 31
-0.000000
  0
LINE
  8
Layer 1
 62
     7
  6
CONTINUOUS
 10
27.373186
 20
2.501766
 30
-0.000000
 11
27.383191
 21
2.483372
 31
-0.000000
  0
LINE
  8
Layer 1
 62
     7
  6
CONTINUOUS
 10
27.383191
 20
2.483372
 30
-0.000000
 11
27.394739
 21
2.466966
 31
-0.000000
  0
LINE
  8
Layer 1
 62
     7
  6
CONTINUOUS
 10
27.394739
 20
2.466966
 30
-0.000000
 11
27.407756
 21
2.452370
 31
-0.000000
  0
LINE
  8
Layer 1
 62
     7
  6
CONTINUOUS
 10
27.407756
 20
2.452370
 30
-0.000000
 11
27.422170
 21
2.439404
 31
-0.000000
  0
LINE
  8
Layer 1
 62
     7
  6
CONTINUOUS
 10
27.422170
 20
2.439404
 30
-0.000000
 11
27.437907
 21
2.427890
 31
-0.000000
  0
LINE
  8
Layer 1
 62
     7
  6
CONTINUOUS
 10
27.437907
 20
2.427890
 30
-0.000000
 11
27.473053
 21
2.408505
 31
-0.000000
  0
LINE
  8
Layer 1
 62
     7
  6
CONTINUOUS
 10
27.473053
 20
2.408505
 30
-0.000000
 11
27.512608
 21
2.392784
 31
-0.000000
  0
LINE
  8
Layer 1
 62
     7
  6
CONTINUOUS
 10
27.512608
 20
2.392784
 30
-0.000000
 11
27.620094
 21
2.361527
 31
-0.000000
  0
LINE
  8
Layer 1
 62
     7
  6
CONTINUOUS
 10
27.620094
 20
2.361527
 30
-0.000000
 11
27.620094
 21
2.158585
 31
-0.000000
  0
LINE
  8
Layer 1
 62
     7
  6
CONTINUOUS
 10
27.620094
 20
2.158585
 30
-0.000000
 11
27.521975
 21
2.098162
 31
-0.000000
  0
LINE
  8
Layer 1
 62
     7
  6
CONTINUOUS
 10
27.521975
 20
2.098162
 30
-0.000000
 11
27.480738
 21
2.066300
 31
-0.000000
  0
LINE
  8
Layer 1
 62
     7
  6
CONTINUOUS
 10
27.480738
 20
2.066300
 30
-0.000000
 11
27.463111
 21
2.047487
 31
-0.000000
  0
LINE
  8
Layer 1
 62
     7
  6
CONTINUOUS
 10
27.463111
 20
2.047487
 30
-0.000000
 11
27.447875
 21
2.025815
 31
-0.000000
  0
LINE
  8
Layer 1
 62
     7
  6
CONTINUOUS
 10
27.447875
 20
2.025815
 30
-0.000000
 11
27.435329
 21
2.000579
 31
-0.000000
  0
LINE
  8
Layer 1
 62
     7
  6
CONTINUOUS
 10
27.435329
 20
2.000579
 30
-0.000000
 11
27.425769
 21
1.971075
 31
-0.000000
  0
LINE
  8
Layer 1
 62
     7
  6
CONTINUOUS
 10
27.425769
 20
1.971075
 30
-0.000000
 11
27.419494
 21
1.936600
 31
-0.000000
  0
LINE
  8
Layer 1
 62
     7
  6
CONTINUOUS
 10
27.419494
 20
1.936600
 30
-0.000000
 11
27.416802
 21
1.896447
 31
-0.000000
  0
LINE
  8
Layer 1
 62
     7
  6
CONTINUOUS
 10
27.416802
 20
1.896447
 30
-0.000000
 11
27.416720
 21
1.887431
 31
-0.000000
  0
LINE
  8
Layer 1
 62
     7
  6
CONTINUOUS
 10
27.416720
 20
1.887431
 30
-0.000000
 11
27.416720
 21
1.887354
 31
-0.000000
  0
LINE
  8
Layer 1
 62
     7
  6
CONTINUOUS
 10
27.416720
 20
1.887354
 30
-0.000000
 11
27.416720
 21
1.887011
 31
-0.000000
  0
LINE
  8
Layer 1
 62
     7
  6
CONTINUOUS
 10
27.416720
 20
1.887011
 30
-0.000000
 11
27.416720
 21
1.885592
 31
-0.000000
  0
LINE
  8
Layer 1
 62
     7
  6
CONTINUOUS
 10
27.416720
 20
1.885592
 30
-0.000000
 11
27.416720
 21
1.870909
 31
-0.000000
  0
LINE
  8
Layer 1
 62
     7
  6
CONTINUOUS
 10
27.416720
 20
1.870909
 30
-0.000000
 11
27.416720
 21
1.532443
 31
-0.000000
  0
LINE
  8
Layer 1
 62
     7
  6
CONTINUOUS
 10
27.416720
 20
1.532443
 30
-0.000000
 11
27.447582
 21
1.183763
 31
-0.000000
  0
LINE
  8
Layer 1
 62
     7
  6
CONTINUOUS
 10
27.447582
 20
1.183763
 30
-0.000000
 11
27.482851
 21
0.844435
 31
-0.000000
  0
LINE
  8
Layer 1
 62
     7
  6
CONTINUOUS
 10
27.482851
 20
0.844435
 30
-0.000000
 11
27.494096
 21
0.736246
 31
-0.000000
  0
LINE
  8
Layer 1
 62
     7
  6
CONTINUOUS
 10
27.494096
 20
0.736246
 30
-0.000000
 11
27.755704
 21
0.735045
 31
-0.000000
  0
LINE
  8
Layer 1
 62
     7
  6
CONTINUOUS
 10
27.755704
 20
0.735045
 30
-0.000000
 11
27.823469
 21
0.260451
 31
-0.000000
  0
LINE
  8
Layer 1
 62
     7
  6
CONTINUOUS
 10
27.823469
 20
0.260451
 30
-0.000000
 11
27.856121
 21
0.129714
 31
-0.000000
  0
LINE
  8
Layer 1
 62
     7
  6
CONTINUOUS
 10
27.856121
 20
0.129714
 30
-0.000000
 11
27.860718
 21
0.118499
 31
-0.000000
  0
LINE
  8
Layer 1
 62
     7
  6
CONTINUOUS
 10
27.860718
 20
0.118499
 30
-0.000000
 11
27.866000
 21
0.108328
 31
-0.000000
  0
LINE
  8
Layer 1
 62
     7
  6
CONTINUOUS
 10
27.866000
 20
0.108328
 30
-0.000000
 11
27.872139
 21
0.099171
 31
-0.000000
  0
LINE
  8
Layer 1
 62
     7
  6
CONTINUOUS
 10
27.872139
 20
0.099171
 30
-0.000000
 11
27.879305
 21
0.091001
 31
-0.000000
  0
LINE
  8
Layer 1
 62
     7
  6
CONTINUOUS
 10
27.879305
 20
0.091001
 30
-0.000000
 11
27.887670
 21
0.083789
 31
-0.000000
  0
LINE
  8
Layer 1
 62
     7
  6
CONTINUOUS
 10
27.887670
 20
0.083789
 30
-0.000000
 11
27.897405
 21
0.077505
 31
-0.000000
  0
LINE
  8
Layer 1
 62
     7
  6
CONTINUOUS
 10
27.897405
 20
0.077505
 30
-0.000000
 11
27.908681
 21
0.072121
 31
-0.000000
  0
LINE
  8
Layer 1
 62
     7
  6
CONTINUOUS
 10
27.908681
 20
0.072121
 30
-0.000000
 11
27.921669
 21
0.067609
 31
-0.000000
  0
LINE
  8
Layer 1
 62
     7
  6
CONTINUOUS
 10
27.921669
 20
0.067609
 30
-0.000000
 11
27.953467
 21
0.061084
 31
-0.000000
  0
LINE
  8
Layer 1
 62
     7
  6
CONTINUOUS
 10
27.953467
 20
0.061084
 30
-0.000000
 11
27.994167
 21
0.057700
 31
-0.000000
  0
LINE
  8
Layer 1
 62
     7
  6
CONTINUOUS
 10
27.994167
 20
0.057700
 30
-0.000000
 11
28.027313
 21
0.057076
 31
-0.000000
  0
LINE
  8
Layer 1
 62
     7
  6
CONTINUOUS
 10
28.027313
 20
0.057076
 30
-0.000000
 11
28.029277
 21
0.057076
 31
-0.000000
  0
LINE
  8
Layer 1
 62
     7
  6
CONTINUOUS
 10
28.029277
 20
0.057076
 30
-0.000000
 11
28.050545
 21
0.057076
 31
-0.000000
  0
LINE
  8
Layer 1
 62
     7
  6
CONTINUOUS
 10
28.050545
 20
0.057076
 30
-0.000000
 11
28.171169
 21
0.057115
 31
-0.000000
  0
LINE
  8
Layer 1
 62
     7
  6
CONTINUOUS
 10
28.171169
 20
0.057115
 30
-0.000000
 11
28.216815
 21
0.059014
 31
-0.000000
  0
LINE
  8
Layer 1
 62
     7
  6
CONTINUOUS
 10
28.216815
 20
0.059014
 30
-0.000000
 11
28.252876
 21
0.063940
 31
-0.000000
  0
LINE
  8
Layer 1
 62
     7
  6
CONTINUOUS
 10
28.252876
 20
0.063940
 30
-0.000000
 11
28.267741
 21
0.067609
 31
-0.000000
  0
LINE
  8
Layer 1
 62
     7
  6
CONTINUOUS
 10
28.267741
 20
0.067609
 30
-0.000000
 11
28.280723
 21
0.072121
 31
-0.000000
  0
LINE
  8
Layer 1
 62
     7
  6
CONTINUOUS
 10
28.280723
 20
0.072121
 30
-0.000000
 11
28.291994
 21
0.077505
 31
-0.000000
  0
LINE
  8
Layer 1
 62
     7
  6
CONTINUOUS
 10
28.291994
 20
0.077505
 30
-0.000000
 11
28.301725
 21
0.083789
 31
-0.000000
  0
LINE
  8
Layer 1
 62
     7
  6
CONTINUOUS
 10
28.301725
 20
0.083789
 30
-0.000000
 11
28.310086
 21
0.091001
 31
-0.000000
  0
LINE
  8
Layer 1
 62
     7
  6
CONTINUOUS
 10
28.310086
 20
0.091001
 30
-0.000000
 11
28.317249
 21
0.099171
 31
-0.000000
  0
LINE
  8
Layer 1
 62
     7
  6
CONTINUOUS
 10
28.317249
 20
0.099171
 30
-0.000000
 11
28.323385
 21
0.108328
 31
-0.000000
  0
LINE
  8
Layer 1
 62
     7
  6
CONTINUOUS
 10
28.323385
 20
0.108328
 30
-0.000000
 11
28.328665
 21
0.118499
 31
-0.000000
  0
LINE
  8
Layer 1
 62
     7
  6
CONTINUOUS
 10
28.328665
 20
0.118499
 30
-0.000000
 11
28.337342
 21
0.142001
 31
-0.000000
  0
LINE
  8
Layer 1
 62
     7
  6
CONTINUOUS
 10
28.337342
 20
0.142001
 30
-0.000000
 11
28.365770
 21
0.259590
 31
-0.000000
  0
LINE
  8
Layer 1
 62
     7
  6
CONTINUOUS
 10
28.365770
 20
0.259590
 30
-0.000000
 11
28.441843
 21
0.734564
 31
-0.000000
  0
LINE
  8
Layer 1
 62
     7
  6
CONTINUOUS
 10
28.441843
 20
0.734564
 30
-0.000000
 11
28.706498
 21
0.735048
 31
-0.000000
  0
LINE
  8
Layer 1
 62
     7
  6
CONTINUOUS
 10
28.706498
 20
0.735048
 30
-0.000000
 11
28.781228
 21
1.577481
 31
-0.000000
  0
LINE
  8
Layer 1
 62
     7
  6
CONTINUOUS
 10
28.781228
 20
1.577481
 30
-0.000000
 11
28.768898
 21
1.936581
 31
-0.000000
  0
LINE
  8
Layer 1
 62
     7
  6
CONTINUOUS
 10
28.768898
 20
1.936581
 30
-0.000000
 11
28.761512
 21
1.968599
 31
-0.000000
  0
LINE
  8
Layer 1
 62
     7
  6
CONTINUOUS
 10
28.761512
 20
1.968599
 30
-0.000000
 11
28.750675
 21
1.997284
 31
-0.000000
  0
LINE
  8
Layer 1
 62
     7
  6
CONTINUOUS
 10
29.551891
 20
10.129639
 30
-0.000000
 11
29.532102
 21
10.129639
 31
-0.000000
  0
LINE
  8
Layer 1
 62
     7
  6
CONTINUOUS
 10
29.553797
 20
10.129639
 30
-0.000000
 11
29.551891
 21
10.129639
 31
-0.000000
  0
LINE
  8
Layer 1
 62
     7
  6
CONTINUOUS
 10
29.554254
 20
10.129639
 30
-0.000000
 11
29.553797
 21
10.129639
 31
-0.000000
  0
LINE
  8
Layer 1
 62
     7
  6
CONTINUOUS
 10
29.554356
 20
10.129639
 30
-0.000000
 11
29.554254
 21
10.129639
 31
-0.000000
  0
LINE
  8
Layer 1
 62
     7
  6
CONTINUOUS
 10
29.569761
 20
10.130188
 30
-0.000000
 11
29.554356
 21
10.129639
 31
-0.000000
  0
LINE
  8
Layer 1
 62
     7
  6
CONTINUOUS
 10
29.587777
 20
10.132288
 30
-0.000000
 11
29.569761
 21
10.130188
 31
-0.000000
  0
LINE
  8
Layer 1
 62
     7
  6
CONTINUOUS
 10
29.605190
 20
10.135912
 30
-0.000000
 11
29.587777
 21
10.132288
 31
-0.000000
  0
LINE
  8
Layer 1
 62
     7
  6
CONTINUOUS
 10
29.622008
 20
10.141013
 30
-0.000000
 11
29.605190
 21
10.135912
 31
-0.000000
  0
LINE
  8
Layer 1
 62
     7
  6
CONTINUOUS
 10
29.638242
 20
10.147542
 30
-0.000000
 11
29.622008
 21
10.141013
 31
-0.000000
  0
LINE
  8
Layer 1
 62
     7
  6
CONTINUOUS
 10
29.668994
 20
10.164685
 30
-0.000000
 11
29.638242
 21
10.147542
 31
-0.000000
  0
LINE
  8
Layer 1
 62
     7
  6
CONTINUOUS
 10
29.697525
 20
10.186952
 30
-0.000000
 11
29.668994
 21
10.164685
 31
-0.000000
  0
LINE
  8
Layer 1
 62
     7
  6
CONTINUOUS
 10
29.723910
 20
10.213951
 30
-0.000000
 11
29.697525
 21
10.186952
 31
-0.000000
  0
LINE
  8
Layer 1
 62
     7
  6
CONTINUOUS
 10
29.748227
 20
10.245291
 30
-0.000000
 11
29.723910
 21
10.213951
 31
-0.000000
  0
LINE
  8
Layer 1
 62
     7
  6
CONTINUOUS
 10
29.790968
 20
10.319429
 30
-0.000000
 11
29.748227
 21
10.245291
 31
-0.000000
  0
LINE
  8
Layer 1
 62
     7
  6
CONTINUOUS
 10
29.826364
 20
10.406238
 30
-0.000000
 11
29.790968
 21
10.319429
 31
-0.000000
  0
LINE
  8
Layer 1
 62
     7
  6
CONTINUOUS
 10
29.855036
 20
10.502587
 30
-0.000000
 11
29.826364
 21
10.406238
 31
-0.000000
  0
LINE
  8
Layer 1
 62
     7
  6
CONTINUOUS
 10
29.894675
 20
10.711392
 30
-0.000000
 11
29.855036
 21
10.502587
 31
-0.000000
  0
LINE
  8
Layer 1
 62
     7
  6
CONTINUOUS
 10
29.920451
 20
11.105814
 30
-0.000000
 11
29.894675
 21
10.711392
 31
-0.000000
  0
LINE
  8
Layer 1
 62
     7
  6
CONTINUOUS
 10
29.920451
 20
11.105814
 30
-0.000000
 11
29.920451
 21
11.105814
 31
-0.000000
  0
LINE
  8
Layer 1
 62
     7
  6
CONTINUOUS
 10
29.920451
 20
11.105821
 30
-0.000000
 11
29.920451
 21
11.105814
 31
-0.000000
  0
LINE
  8
Layer 1
 62
     7
  6
CONTINUOUS
 10
29.920451
 20
11.105945
 30
-0.000000
 11
29.920451
 21
11.105821
 31
-0.000000
  0
LINE
  8
Layer 1
 62
     7
  6
CONTINUOUS
 10
29.920451
 20
11.106637
 30
-0.000000
 11
29.920451
 21
11.105945
 31
-0.000000
  0
LINE
  8
Layer 1
 62
     7
  6
CONTINUOUS
 10
29.920451
 20
11.130677
 30
-0.000000
 11
29.920451
 21
11.106637
 31
-0.000000
  0
LINE
  8
Layer 1
 62
     7
  6
CONTINUOUS
 10
29.920451
 20
11.335660
 30
-0.000000
 11
29.920451
 21
11.130677
 31
-0.000000
  0
LINE
  8
Layer 1
 62
     7
  6
CONTINUOUS
 10
29.920451
 20
11.346955
 30
-0.000000
 11
29.920451
 21
11.335660
 31
-0.000000
  0
LINE
  8
Layer 1
 62
     7
  6
CONTINUOUS
 10
29.920451
 20
11.349496
 30
-0.000000
 11
29.920451
 21
11.346955
 31
-0.000000
  0
LINE
  8
Layer 1
 62
     7
  6
CONTINUOUS
 10
29.918034
 20
11.395772
 30
-0.000000
 11
29.920451
 21
11.349496
 31
-0.000000
  0
LINE
  8
Layer 1
 62
     7
  6
CONTINUOUS
 10
29.906759
 20
11.466904
 30
-0.000000
 11
29.918034
 21
11.395772
 31
-0.000000
  0
LINE
  8
Layer 1
 62
     7
  6
CONTINUOUS
 10
29.887010
 20
11.543266
 30
-0.000000
 11
29.906759
 21
11.466904
 31
-0.000000
  0
LINE
  8
Layer 1
 62
     7
  6
CONTINUOUS
 10
29.825350
 20
11.702320
 30
-0.000000
 11
29.887010
 21
11.543266
 31
-0.000000
  0
LINE
  8
Layer 1
 62
     7
  6
CONTINUOUS
 10
29.739559
 20
11.854203
 30
-0.000000
 11
29.825350
 21
11.702320
 31
-0.000000
  0
LINE
  8
Layer 1
 62
     7
  6
CONTINUOUS
 10
29.689648
 20
11.921602
 30
-0.000000
 11
29.739559
 21
11.854203
 31
-0.000000
  0
LINE
  8
Layer 1
 62
     7
  6
CONTINUOUS
 10
29.636144
 20
11.980184
 30
-0.000000
 11
29.689648
 21
11.921602
 31
-0.000000
  0
LINE
  8
Layer 1
 62
     7
  6
CONTINUOUS
 10
29.579861
 20
12.027608
 30
-0.000000
 11
29.636144
 21
11.980184
 31
-0.000000
  0
LINE
  8
Layer 1
 62
     7
  6
CONTINUOUS
 10
29.550931
 20
12.046404
 30
-0.000000
 11
29.579861
 21
12.027608
 31
-0.000000
  0
LINE
  8
Layer 1
 62
     7
  6
CONTINUOUS
 10
29.521611
 20
12.061533
 30
-0.000000
 11
29.550931
 21
12.046404
 31
-0.000000
  0
LINE
  8
Layer 1
 62
     7
  6
CONTINUOUS
 10
29.492003
 20
12.072702
 30
-0.000000
 11
29.521611
 21
12.061533
 31
-0.000000
  0
LINE
  8
Layer 1
 62
     7
  6
CONTINUOUS
 10
29.462208
 20
12.079618
 30
-0.000000
 11
29.492003
 21
12.072702
 31
-0.000000
  0
LINE
  8
Layer 1
 62
     7
  6
CONTINUOUS
 10
29.432328
 20
12.081988
 30
-0.000000
 11
29.462208
 21
12.079618
 31
-0.000000
  0
LINE
  8
Layer 1
 62
     7
  6
CONTINUOUS
 10
29.432328
 20
12.081988
 30
-0.000000
 11
29.432328
 21
12.081988
 31
-0.000000
  0
LINE
  8
Layer 1
 62
     7
  6
CONTINUOUS
 10
29.432328
 20
12.081988
 30
-0.000000
 11
29.432328
 21
12.081988
 31
-0.000000
  0
LINE
  8
Layer 1
 62
     7
  6
CONTINUOUS
 10
29.432325
 20
12.081988
 30
-0.000000
 11
29.432328
 21
12.081988
 31
-0.000000
  0
LINE
  8
Layer 1
 62
     7
  6
CONTINUOUS
 10
29.432286
 20
12.081988
 30
-0.000000
 11
29.432325
 21
12.081988
 31
-0.000000
  0
LINE
  8
Layer 1
 62
     7
  6
CONTINUOUS
 10
29.431659
 20
12.081988
 30
-0.000000
 11
29.432286
 21
12.081988
 31
-0.000000
  0
LINE
  8
Layer 1
 62
     7
  6
CONTINUOUS
 10
29.422208
 20
12.081988
 30
-0.000000
 11
29.431659
 21
12.081988
 31
-0.000000
  0
LINE
  8
Layer 1
 62
     7
  6
CONTINUOUS
 10
29.170013
 20
12.081988
 30
-0.000000
 11
29.422208
 21
12.081988
 31
-0.000000
  0
LINE
  8
Layer 1
 62
     7
  6
CONTINUOUS
 10
29.131710
 20
12.081988
 30
-0.000000
 11
29.170013
 21
12.081988
 31
-0.000000
  0
LINE
  8
Layer 1
 62
     7
  6
CONTINUOUS
 10
29.128084
 20
12.081988
 30
-0.000000
 11
29.131710
 21
12.081988
 31
-0.000000
  0
LINE
  8
Layer 1
 62
     7
  6
CONTINUOUS
 10
29.127336
 20
12.081988
 30
-0.000000
 11
29.128084
 21
12.081988
 31
-0.000000
  0
LINE
  8
Layer 1
 62
     7
  6
CONTINUOUS
 10
29.127265
 20
12.081988
 30
-0.000000
 11
29.127336
 21
12.081988
 31
-0.000000
  0
LINE
  8
Layer 1
 62
     7
  6
CONTINUOUS
 10
29.127247
 20
12.081988
 30
-0.000000
 11
29.127265
 21
12.081988
 31
-0.000000
  0
LINE
  8
Layer 1
 62
     7
  6
CONTINUOUS
 10
29.127243
 20
12.081988
 30
-0.000000
 11
29.127247
 21
12.081988
 31
-0.000000
  0
LINE
  8
Layer 1
 62
     7
  6
CONTINUOUS
 10
29.127242
 20
12.081988
 30
-0.000000
 11
29.127243
 21
12.081988
 31
-0.000000
  0
LINE
  8
Layer 1
 62
     7
  6
CONTINUOUS
 10
29.127242
 20
12.081988
 30
-0.000000
 11
29.127242
 21
12.081988
 31
-0.000000
  0
LINE
  8
Layer 1
 62
     7
  6
CONTINUOUS
 10
29.127242
 20
12.081988
 30
-0.000000
 11
29.127242
 21
12.081988
 31
-0.000000
  0
LINE
  8
Layer 1
 62
     7
  6
CONTINUOUS
 10
29.127242
 20
12.081988
 30
-0.000000
 11
29.127242
 21
12.081988
 31
-0.000000
  0
LINE
  8
Layer 1
 62
     7
  6
CONTINUOUS
 10
29.093830
 20
12.080189
 30
-0.000000
 11
29.127242
 21
12.081988
 31
-0.000000
  0
LINE
  8
Layer 1
 62
     7
  6
CONTINUOUS
 10
29.061800
 20
12.074893
 30
-0.000000
 11
29.093830
 21
12.080189
 31
-0.000000
  0
LINE
  8
Layer 1
 62
     7
  6
CONTINUOUS
 10
29.031132
 20
12.066253
 30
-0.000000
 11
29.061800
 21
12.074893
 31
-0.000000
  0
LINE
  8
Layer 1
 62
     7
  6
CONTINUOUS
 10
29.001803
 20
12.054421
 30
-0.000000
 11
29.031132
 21
12.066253
 31
-0.000000
  0
LINE
  8
Layer 1
 62
     7
  6
CONTINUOUS
 10
28.973793
 20
12.039549
 30
-0.000000
 11
29.001803
 21
12.054421
 31
-0.000000
  0
LINE
  8
Layer 1
 62
     7
  6
CONTINUOUS
 10
28.947081
 20
12.021788
 30
-0.000000
 11
28.973793
 21
12.039549
 31
-0.000000
  0
LINE
  8
Layer 1
 62
     7
  6
CONTINUOUS
 10
28.897467
 20
11.978213
 30
-0.000000
 11
28.947081
 21
12.021788
 31
-0.000000
  0
LINE
  8
Layer 1
 62
     7
  6
CONTINUOUS
 10
28.852790
 20
11.924911
 30
-0.000000
 11
28.897467
 21
11.978213
 31
-0.000000
  0
LINE
  8
Layer 1
 62
     7
  6
CONTINUOUS
 10
28.812883
 20
11.863101
 30
-0.000000
 11
28.852790
 21
11.924911
 31
-0.000000
  0
LINE
  8
Layer 1
 62
     7
  6
CONTINUOUS
 10
28.746704
 20
11.718824
 30
-0.000000
 11
28.812883
 21
11.863101
 31
-0.000000
  0
LINE
  8
Layer 1
 62
     7
  6
CONTINUOUS
 10
28.697580
 20
11.555120
 30
-0.000000
 11
28.746704
 21
11.718824
 31
-0.000000
  0
LINE
  8
Layer 1
 62
     7
  6
CONTINUOUS
 10
28.664162
 20
11.381727
 30
-0.000000
 11
28.697580
 21
11.555120
 31
-0.000000
  0
LINE
  8
Layer 1
 62
     7
  6
CONTINUOUS
 10
28.639047
 20
11.044825
 30
-0.000000
 11
28.664162
 21
11.381727
 31
-0.000000
  0
LINE
  8
Layer 1
 62
     7
  6
CONTINUOUS
 10
28.639047
 20
10.993449
 30
-0.000000
 11
28.639047
 21
11.044825
 31
-0.000000
  0
LINE
  8
Layer 1
 62
     7
  6
CONTINUOUS
 10
28.639047
 20
10.985152
 30
-0.000000
 11
28.639047
 21
10.993449
 31
-0.000000
  0
LINE
  8
Layer 1
 62
     7
  6
CONTINUOUS
 10
28.655439
 20
10.734980
 30
-0.000000
 11
28.639047
 21
10.985152
 31
-0.000000
  0
LINE
  8
Layer 1
 62
     7
  6
CONTINUOUS
 10
28.688309
 20
10.549158
 30
-0.000000
 11
28.655439
 21
10.734980
 31
-0.000000
  0
LINE
  8
Layer 1
 62
     7
  6
CONTINUOUS
 10
28.742073
 20
10.374939
 30
-0.000000
 11
28.688309
 21
10.549158
 31
-0.000000
  0
LINE
  8
Layer 1
 62
     7
  6
CONTINUOUS
 10
28.777683
 20
10.298862
 30
-0.000000
 11
28.742073
 21
10.374939
 31
-0.000000
  0
LINE
  8
Layer 1
 62
     7
  6
CONTINUOUS
 10
28.819589
 20
10.233704
 30
-0.000000
 11
28.777683
 21
10.298862
 31
-0.000000
  0
LINE
  8
Layer 1
 62
     7
  6
CONTINUOUS
 10
28.843014
 20
10.206054
 30
-0.000000
 11
28.819589
 21
10.233704
 31
-0.000000
  0
LINE
  8
Layer 1
 62
     7
  6
CONTINUOUS
 10
28.868148
 20
10.182136
 30
-0.000000
 11
28.843014
 21
10.206054
 31
-0.000000
  0
LINE
  8
Layer 1
 62
     7
  6
CONTINUOUS
 10
28.895034
 20
10.162285
 30
-0.000000
 11
28.868148
 21
10.182136
 31
-0.000000
  0
LINE
  8
Layer 1
 62
     7
  6
CONTINUOUS
 10
28.923717
 20
10.146833
 30
-0.000000
 11
28.895034
 21
10.162285
 31
-0.000000
  0
LINE
  8
Layer 1
 62
     7
  6
CONTINUOUS
 10
28.954242
 20
10.136115
 30
-0.000000
 11
28.923717
 21
10.146833
 31
-0.000000
  0
LINE
  8
Layer 1
 62
     7
  6
CONTINUOUS
 10
28.986654
 20
10.130465
 30
-0.000000
 11
28.954242
 21
10.136115
 31
-0.000000
  0
LINE
  8
Layer 1
 62
     7
  6
CONTINUOUS
 10
29.010798
 20
10.129639
 30
-0.000000
 11
28.986654
 21
10.130465
 31
-0.000000
  0
LINE
  8
Layer 1
 62
     7
  6
CONTINUOUS
 10
29.075149
 20
10.129639
 30
-0.000000
 11
29.010798
 21
10.129639
 31
-0.000000
  0
LINE
  8
Layer 1
 62
     7
  6
CONTINUOUS
 10
29.532102
 20
10.129639
 30
-0.000000
 11
29.075149
 21
10.129639
 31
-0.000000
  0
LINE
  8
Layer 1
 62
     7
  6
CONTINUOUS
 10
28.182710
 20
10.171067
 30
-0.000000
 11
28.126819
 21
10.216591
 31
-0.000000
  0
LINE
  8
Layer 1
 62
     7
  6
CONTINUOUS
 10
28.126819
 20
10.216591
 30
-0.000000
 11
28.011155
 21
10.333867
 31
-0.000000
  0
LINE
  8
Layer 1
 62
     7
  6
CONTINUOUS
 10
28.011155
 20
10.333867
 30
-0.000000
 11
27.793948
 21
10.613079
 31
-0.000000
  0
LINE
  8
Layer 1
 62
     7
  6
CONTINUOUS
 10
27.793948
 20
10.613079
 30
-0.000000
 11
27.580501
 21
10.950000
 31
-0.000000
  0
LINE
  8
Layer 1
 62
     7
  6
CONTINUOUS
 10
27.803639
 20
11.457636
 30
-0.000000
 11
27.580501
 21
10.950000
 31
-0.000000
  0
LINE
  8
Layer 1
 62
     7
  6
CONTINUOUS
 10
27.875116
 20
11.602317
 30
-0.000000
 11
27.803639
 21
11.457636
 31
-0.000000
  0
LINE
  8
Layer 1
 62
     7
  6
CONTINUOUS
 10
27.959480
 20
11.732195
 30
-0.000000
 11
27.875116
 21
11.602317
 31
-0.000000
  0
LINE
  8
Layer 1
 62
     7
  6
CONTINUOUS
 10
28.007997
 20
11.789224
 30
-0.000000
 11
27.959480
 21
11.732195
 31
-0.000000
  0
LINE
  8
Layer 1
 62
     7
  6
CONTINUOUS
 10
28.061537
 20
11.839721
 30
-0.000000
 11
28.007997
 21
11.789224
 31
-0.000000
  0
LINE
  8
Layer 1
 62
     7
  6
CONTINUOUS
 10
28.120700
 20
11.882745
 30
-0.000000
 11
28.061537
 21
11.839721
 31
-0.000000
  0
LINE
  8
Layer 1
 62
     7
  6
CONTINUOUS
 10
28.186089
 20
11.917350
 30
-0.000000
 11
28.120700
 21
11.882745
 31
-0.000000
  0
LINE
  8
Layer 1
 62
     7
  6
CONTINUOUS
 10
28.258302
 20
11.942594
 30
-0.000000
 11
28.186089
 21
11.917350
 31
-0.000000
  0
LINE
  8
Layer 1
 62
     7
  6
CONTINUOUS
 10
28.258373
 20
11.942611
 30
-0.000000
 11
28.258941
 21
11.942749
 31
-0.000000
  0
LINE
  8
Layer 1
 62
     7
  6
CONTINUOUS
 10
28.258941
 20
11.942749
 30
-0.000000
 11
28.261709
 21
11.943423
 31
-0.000000
  0
LINE
  8
Layer 1
 62
     7
  6
CONTINUOUS
 10
28.261709
 20
11.943423
 30
-0.000000
 11
28.291470
 21
11.950662
 31
-0.000000
  0
LINE
  8
Layer 1
 62
     7
  6
CONTINUOUS
 10
28.291470
 20
11.950662
 30
-0.000000
 11
28.522699
 21
12.006910
 31
-0.000000
  0
LINE
  8
Layer 1
 62
     7
  6
CONTINUOUS
 10
28.522699
 20
12.006910
 30
-0.000000
 11
28.555168
 21
12.014808
 31
-0.000000
  0
LINE
  8
Layer 1
 62
     7
  6
CONTINUOUS
 10
28.555168
 20
12.014808
 30
-0.000000
 11
28.560260
 21
12.016047
 31
-0.000000
  0
LINE
  8
Layer 1
 62
     7
  6
CONTINUOUS
 10
28.560260
 20
12.016047
 30
-0.000000
 11
28.560287
 21
12.016054
 31
-0.000000
  0
LINE
  8
Layer 1
 62
     7
  6
CONTINUOUS
 10
28.560287
 20
12.016054
 30
-0.000000
 11
28.560288
 21
12.016054
 31
-0.000000
  0
LINE
  8
Layer 1
 62
     7
  6
CONTINUOUS
 10
28.560288
 20
12.016054
 30
-0.000000
 11
28.560288
 21
12.016054
 31
-0.000000
  0
LINE
  8
Layer 1
 62
     7
  6
CONTINUOUS
 10
28.560288
 20
12.016054
 30
-0.000000
 11
28.560288
 21
12.016054
 31
-0.000000
  0
LINE
  8
Layer 1
 62
     7
  6
CONTINUOUS
 10
28.560288
 20
12.016054
 30
-0.000000
 11
28.560281
 21
12.016039
 31
-0.000000
  0
LINE
  8
Layer 1
 62
     7
  6
CONTINUOUS
 10
28.560281
 20
12.016039
 30
-0.000000
 11
28.459394
 21
11.786338
 31
-0.000000
  0
LINE
  8
Layer 1
 62
     7
  6
CONTINUOUS
 10
28.459394
 20
11.786338
 30
-0.000000
 11
28.375652
 21
11.524715
 31
-0.000000
  0
LINE
  8
Layer 1
 62
     7
  6
CONTINUOUS
 10
28.375652
 20
11.524715
 30
-0.000000
 11
28.326019
 21
11.236727
 31
-0.000000
  0
LINE
  8
Layer 1
 62
     7
  6
CONTINUOUS
 10
28.326019
 20
11.236727
 30
-0.000000
 11
28.319290
 21
11.070584
 31
-0.000000
  0
LINE
  8
Layer 1
 62
     7
  6
CONTINUOUS
 10
28.319290
 20
11.070584
 30
-0.000000
 11
28.319290
 21
10.841605
 31
-0.000000
  0
LINE
  8
Layer 1
 62
     7
  6
CONTINUOUS
 10
28.319290
 20
10.841605
 30
-0.000000
 11
28.319308
 21
10.776285
 31
-0.000000
  0
LINE
  8
Layer 1
 62
     7
  6
CONTINUOUS
 10
28.319308
 20
10.776285
 30
-0.000000
 11
28.326935
 21
10.647815
 31
-0.000000
  0
LINE
  8
Layer 1
 62
     7
  6
CONTINUOUS
 10
28.326935
 20
10.647815
 30
-0.000000
 11
28.346197
 21
10.543630
 31
-0.000000
  0
LINE
  8
Layer 1
 62
     7
  6
CONTINUOUS
 10
28.346197
 20
10.543630
 30
-0.000000
 11
28.373875
 21
10.455641
 31
-0.000000
  0
LINE
  8
Layer 1
 62
     7
  6
CONTINUOUS
 10
28.373875
 20
10.455641
 30
-0.000000
 11
28.441593
 21
10.295882
 31
-0.000000
  0
LINE
  8
Layer 1
 62
     7
  6
CONTINUOUS
 10
28.441593
 20
10.295882
 30
-0.000000
 11
28.475193
 21
10.207930
 31
-0.000000
  0
LINE
  8
Layer 1
 62
     7
  6
CONTINUOUS
 10
28.475193
 20
10.207930
 30
-0.000000
 11
28.490519
 21
10.158396
 31
-0.000000
  0
LINE
  8
Layer 1
 62
     7
  6
CONTINUOUS
 10
28.490519
 20
10.158396
 30
-0.000000
 11
28.497638
 21
10.131797
 31
-0.000000
  0
LINE
  8
Layer 1
 62
     7
  6
CONTINUOUS
 10
28.497638
 20
10.131797
 30
-0.000000
 11
28.501039
 21
10.117984
 31
-0.000000
  0
LINE
  8
Layer 1
 62
     7
  6
CONTINUOUS
 10
28.501039
 20
10.117984
 30
-0.000000
 11
28.501872
 21
10.114474
 31
-0.000000
  0
LINE
  8
Layer 1
 62
     7
  6
CONTINUOUS
 10
28.501872
 20
10.114474
 30
-0.000000
 11
28.502285
 21
10.112711
 31
-0.000000
  0
LINE
  8
Layer 1
 62
     7
  6
CONTINUOUS
 10
28.502285
 20
10.112711
 30
-0.000000
 11
28.502388
 21
10.112269
 31
-0.000000
  0
LINE
  8
Layer 1
 62
     7
  6
CONTINUOUS
 10
28.502388
 20
10.112269
 30
-0.000000
 11
28.502399
 21
10.112222
 31
-0.000000
  0
LINE
  8
Layer 1
 62
     7
  6
CONTINUOUS
 10
28.502399
 20
10.112222
 30
-0.000000
 11
28.502399
 21
10.112222
 31
-0.000000
  0
LINE
  8
Layer 1
 62
     7
  6
CONTINUOUS
 10
28.502399
 20
10.112222
 30
-0.000000
 11
28.502399
 21
10.112222
 31
-0.000000
  0
LINE
  8
Layer 1
 62
     7
  6
CONTINUOUS
 10
28.502399
 20
10.112222
 30
-0.000000
 11
28.502399
 21
10.112222
 31
-0.000000
  0
LINE
  8
Layer 1
 62
     7
  6
CONTINUOUS
 10
28.502399
 20
10.112222
 30
-0.000000
 11
28.502399
 21
10.112222
 31
-0.000000
  0
LINE
  8
Layer 1
 62
     7
  6
CONTINUOUS
 10
28.502399
 20
10.112222
 30
-0.000000
 11
28.502397
 21
10.112222
 31
-0.000000
  0
LINE
  8
Layer 1
 62
     7
  6
CONTINUOUS
 10
28.502397
 20
10.112222
 30
-0.000000
 11
28.502389
 21
10.112222
 31
-0.000000
  0
LINE
  8
Layer 1
 62
     7
  6
CONTINUOUS
 10
28.502389
 20
10.112222
 30
-0.000000
 11
28.502356
 21
10.112222
 31
-0.000000
  0
LINE
  8
Layer 1
 62
     7
  6
CONTINUOUS
 10
28.502356
 20
10.112222
 30
-0.000000
 11
28.502011
 21
10.112222
 31
-0.000000
  0
LINE
  8
Layer 1
 62
     7
  6
CONTINUOUS
 10
28.502011
 20
10.112222
 30
-0.000000
 11
28.500333
 21
10.112222
 31
-0.000000
  0
LINE
  8
Layer 1
 62
     7
  6
CONTINUOUS
 10
28.500333
 20
10.112222
 30
-0.000000
 11
28.482286
 21
10.112222
 31
-0.000000
  0
LINE
  8
Layer 1
 62
     7
  6
CONTINUOUS
 10
28.482286
 20
10.112222
 30
-0.000000
 11
28.342080
 21
10.112222
 31
-0.000000
  0
LINE
  8
Layer 1
 62
     7
  6
CONTINUOUS
 10
28.342080
 20
10.112222
 30
-0.000000
 11
28.322394
 21
10.112222
 31
-0.000000
  0
LINE
  8
Layer 1
 62
     7
  6
CONTINUOUS
 10
28.322394
 20
10.112222
 30
-0.000000
 11
28.319307
 21
10.112222
 31
-0.000000
  0
LINE
  8
Layer 1
 62
     7
  6
CONTINUOUS
 10
28.319307
 20
10.112222
 30
-0.000000
 11
28.319291
 21
10.112222
 31
-0.000000
  0
LINE
  8
Layer 1
 62
     7
  6
CONTINUOUS
 10
28.319291
 20
10.112222
 30
-0.000000
 11
28.319290
 21
10.112222
 31
-0.000000
  0
LINE
  8
Layer 1
 62
     7
  6
CONTINUOUS
 10
28.319290
 20
10.112222
 30
-0.000000
 11
28.319290
 21
10.112222
 31
-0.000000
  0
LINE
  8
Layer 1
 62
     7
  6
CONTINUOUS
 10
28.319290
 20
10.112222
 30
-0.000000
 11
28.319290
 21
10.112222
 31
-0.000000
  0
LINE
  8
Layer 1
 62
     7
  6
CONTINUOUS
 10
28.319290
 20
10.112222
 30
-0.000000
 11
28.319272
 21
10.112222
 31
-0.000000
  0
LINE
  8
Layer 1
 62
     7
  6
CONTINUOUS
 10
28.319272
 20
10.112222
 30
-0.000000
 11
28.308282
 21
10.112766
 31
-0.000000
  0
LINE
  8
Layer 1
 62
     7
  6
CONTINUOUS
 10
28.308282
 20
10.112766
 30
-0.000000
 11
28.285315
 21
10.117006
 31
-0.000000
  0
LINE
  8
Layer 1
 62
     7
  6
CONTINUOUS
 10
28.285315
 20
10.117006
 30
-0.000000
 11
28.261141
 21
10.125226
 31
-0.000000
  0
LINE
  8
Layer 1
 62
     7
  6
CONTINUOUS
 10
28.261141
 20
10.125226
 30
-0.000000
 11
28.235894
 21
10.137155
 31
-0.000000
  0
LINE
  8
Layer 1
 62
     7
  6
CONTINUOUS
 10
28.235894
 20
10.137155
 30
-0.000000
 11
28.182710
 21
10.171067
 31
-0.000000
  0
LINE
  8
Layer 1
 62
     7
  6
CONTINUOUS
 10
30.563843
 20
10.322749
 30
-0.000000
 11
30.447984
 21
10.202637
 31
-0.000000
  0
LINE
  8
Layer 1
 62
     7
  6
CONTINUOUS
 10
30.447984
 20
10.202637
 30
-0.000000
 11
30.391675
 21
10.155050
 31
-0.000000
  0
LINE
  8
Layer 1
 62
     7
  6
CONTINUOUS
 10
30.391675
 20
10.155050
 30
-0.000000
 11
30.337858
 21
10.118644
 31
-0.000000
  0
LINE
  8
Layer 1
 62
     7
  6
CONTINUOUS
 10
30.337858
 20
10.118644
 30
-0.000000
 11
30.312214
 21
10.105307
 31
-0.000000
  0
LINE
  8
Layer 1
 62
     7
  6
CONTINUOUS
 10
30.312214
 20
10.105307
 30
-0.000000
 11
30.287591
 21
10.095572
 31
-0.000000
  0
LINE
  8
Layer 1
 62
     7
  6
CONTINUOUS
 10
30.287591
 20
10.095572
 30
-0.000000
 11
30.264119
 21
10.089709
 31
-0.000000
  0
LINE
  8
Layer 1
 62
     7
  6
CONTINUOUS
 10
30.264119
 20
10.089709
 30
-0.000000
 11
30.244067
 21
10.087964
 31
-0.000000
  0
LINE
  8
Layer 1
 62
     7
  6
CONTINUOUS
 10
30.244067
 20
10.087964
 30
-0.000000
 11
30.244038
 21
10.087964
 31
-0.000000
  0
LINE
  8
Layer 1
 62
     7
  6
CONTINUOUS
 10
30.244038
 20
10.087964
 30
-0.000000
 11
30.243917
 21
10.087964
 31
-0.000000
  0
LINE
  8
Layer 1
 62
     7
  6
CONTINUOUS
 10
30.243917
 20
10.087964
 30
-0.000000
 11
30.243420
 21
10.087964
 31
-0.000000
  0
LINE
  8
Layer 1
 62
     7
  6
CONTINUOUS
 10
30.243420
 20
10.087964
 30
-0.000000
 11
30.238277
 21
10.087964
 31
-0.000000
  0
LINE
  8
Layer 1
 62
     7
  6
CONTINUOUS
 10
30.238277
 20
10.087964
 30
-0.000000
 11
30.181400
 21
10.087964
 31
-0.000000
  0
LINE
  8
Layer 1
 62
     7
  6
CONTINUOUS
 10
30.181400
 20
10.087964
 30
-0.000000
 11
30.061630
 21
10.087964
 31
-0.000000
  0
LINE
  8
Layer 1
 62
     7
  6
CONTINUOUS
 10
30.061630
 20
10.087964
 30
-0.000000
 11
30.061164
 21
10.087964
 31
-0.000000
  0
LINE
  8
Layer 1
 62
     7
  6
CONTINUOUS
 10
30.061164
 20
10.087964
 30
-0.000000
 11
30.061059
 21
10.087964
 31
-0.000000
  0
LINE
  8
Layer 1
 62
     7
  6
CONTINUOUS
 10
30.061039
 20
10.087964
 30
-0.000000
 11
30.061037
 21
10.087964
 31
-0.000000
  0
LINE
  8
Layer 1
 62
     7
  6
CONTINUOUS
 10
30.061037
 20
10.087964
 30
-0.000000
 11
30.061037
 21
10.087964
 31
-0.000000
  0
LINE
  8
Layer 1
 62
     7
  6
CONTINUOUS
 10
30.061037
 20
10.087964
 30
-0.000000
 11
30.061037
 21
10.087964
 31
-0.000000
  0
LINE
  8
Layer 1
 62
     7
  6
CONTINUOUS
 10
30.061037
 20
10.087964
 30
-0.000000
 11
30.061038
 21
10.087971
 31
-0.000000
  0
LINE
  8
Layer 1
 62
     7
  6
CONTINUOUS
 10
30.061038
 20
10.087971
 30
-0.000000
 11
30.090585
 21
10.190622
 31
-0.000000
  0
LINE
  8
Layer 1
 62
     7
  6
CONTINUOUS
 10
30.090585
 20
10.190622
 30
-0.000000
 11
30.218918
 21
10.526414
 31
-0.000000
  0
LINE
  8
Layer 1
 62
     7
  6
CONTINUOUS
 10
30.218918
 20
10.526414
 30
-0.000000
 11
30.237430
 21
10.632116
 31
-0.000000
  0
LINE
  8
Layer 1
 62
     7
  6
CONTINUOUS
 10
30.237430
 20
10.632116
 30
-0.000000
 11
30.244074
 21
10.759135
 31
-0.000000
  0
LINE
  8
Layer 1
 62
     7
  6
CONTINUOUS
 10
30.244074
 20
10.759135
 30
-0.000000
 11
30.244074
 21
10.759182
 31
-0.000000
  0
LINE
  8
Layer 1
 62
     7
  6
CONTINUOUS
 10
30.244074
 20
10.759182
 30
-0.000000
 11
30.244074
 21
10.759385
 31
-0.000000
  0
LINE
  8
Layer 1
 62
     7
  6
CONTINUOUS
 10
30.244074
 20
10.759385
 30
-0.000000
 11
30.244074
 21
10.760212
 31
-0.000000
  0
LINE
  8
Layer 1
 62
     7
  6
CONTINUOUS
 10
30.244074
 20
10.760212
 30
-0.000000
 11
30.244074
 21
10.768778
 31
-0.000000
  0
LINE
  8
Layer 1
 62
     7
  6
CONTINUOUS
 10
30.244074
 20
10.768778
 30
-0.000000
 11
30.244074
 21
10.863550
 31
-0.000000
  0
LINE
  8
Layer 1
 62
     7
  6
CONTINUOUS
 10
30.244074
 20
10.863550
 30
-0.000000
 11
30.244074
 21
11.063148
 31
-0.000000
  0
LINE
  8
Layer 1
 62
     7
  6
CONTINUOUS
 10
30.244074
 20
11.063148
 30
-0.000000
 11
30.244074
 21
11.063925
 31
-0.000000
  0
LINE
  8
Layer 1
 62
     7
  6
CONTINUOUS
 10
30.244074
 20
11.063925
 30
-0.000000
 11
30.244074
 21
11.064101
 31
-0.000000
  0
LINE
  8
Layer 1
 62
     7
  6
CONTINUOUS
 10
30.244074
 20
11.064101
 30
-0.000000
 11
30.244074
 21
11.064135
 31
-0.000000
  0
LINE
  8
Layer 1
 62
     7
  6
CONTINUOUS
 10
30.244074
 20
11.064135
 30
-0.000000
 11
30.244074
 21
11.064137
 31
-0.000000
  0
LINE
  8
Layer 1
 62
     7
  6
CONTINUOUS
 10
30.244074
 20
11.064137
 30
-0.000000
 11
30.244074
 21
11.064138
 31
-0.000000
  0
LINE
  8
Layer 1
 62
     7
  6
CONTINUOUS
 10
30.244074
 20
11.064138
 30
-0.000000
 11
30.244074
 21
11.064138
 31
-0.000000
  0
LINE
  8
Layer 1
 62
     7
  6
CONTINUOUS
 10
30.244074
 20
11.064138
 30
-0.000000
 11
30.244074
 21
11.064138
 31
-0.000000
  0
LINE
  8
Layer 1
 62
     7
  6
CONTINUOUS
 10
30.244074
 20
11.064138
 30
-0.000000
 11
30.244074
 21
11.064205
 31
-0.000000
  0
LINE
  8
Layer 1
 62
     7
  6
CONTINUOUS
 10
30.244074
 20
11.064205
 30
-0.000000
 11
30.236605
 21
11.250061
 31
-0.000000
  0
LINE
  8
Layer 1
 62
     7
  6
CONTINUOUS
 10
30.236605
 20
11.250061
 30
-0.000000
 11
30.214168
 21
11.419289
 31
-0.000000
  0
LINE
  8
Layer 1
 62
     7
  6
CONTINUOUS
 10
30.214168
 20
11.419289
 30
-0.000000
 11
30.176703
 21
11.572649
 31
-0.000000
  0
LINE
  8
Layer 1
 62
     7
  6
CONTINUOUS
 10
30.176703
 20
11.572649
 30
-0.000000
 11
30.124151
 21
11.710899
 31
-0.000000
  0
LINE
  8
Layer 1
 62
     7
  6
CONTINUOUS
 10
30.124151
 20
11.710899
 30
-0.000000
 11
30.056451
 21
11.834799
 31
-0.000000
  0
LINE
  8
Layer 1
 62
     7
  6
CONTINUOUS
 10
30.056451
 20
11.834799
 30
-0.000000
 11
29.973544
 21
11.945110
 31
-0.000000
  0
LINE
  8
Layer 1
 62
     7
  6
CONTINUOUS
 10
29.973544
 20
11.945110
 30
-0.000000
 11
29.926369
 21
11.995406
 31
-0.000000
  0
LINE
  8
Layer 1
 62
     7
  6
CONTINUOUS
 10
29.926369
 20
11.995406
 30
-0.000000
 11
29.901347
 21
12.019381
 31
-0.000000
  0
LINE
  8
Layer 1
 62
     7
  6
CONTINUOUS
 10
29.901347
 20
12.019381
 30
-0.000000
 11
29.888478
 21
12.031080
 31
-0.000000
  0
LINE
  8
Layer 1
 62
     7
  6
CONTINUOUS
 10
29.888478
 20
12.031080
 30
-0.000000
 11
29.881954
 21
12.036859
 31
-0.000000
  0
LINE
  8
Layer 1
 62
     7
  6
CONTINUOUS
 10
29.881954
 20
12.036859
 30
-0.000000
 11
29.878669
 21
12.039730
 31
-0.000000
  0
LINE
  8
Layer 1
 62
     7
  6
CONTINUOUS
 10
29.878669
 20
12.039730
 30
-0.000000
 11
29.878257
 21
12.040088
 31
-0.000000
  0
LINE
  8
Layer 1
 62
     7
  6
CONTINUOUS
 10
29.878257
 20
12.040088
 30
-0.000000
 11
29.878051
 21
12.040267
 31
-0.000000
  0
LINE
  8
Layer 1
 62
     7
  6
CONTINUOUS
 10
29.878051
 20
12.040267
 30
-0.000000
 11
29.878000
 21
12.040312
 31
-0.000000
  0
LINE
  8
Layer 1
 62
     7
  6
CONTINUOUS
 10
29.878000
 20
12.040312
 30
-0.000000
 11
29.877999
 21
12.040312
 31
-0.000000
  0
LINE
  8
Layer 1
 62
     7
  6
CONTINUOUS
 10
29.877999
 20
12.040312
 30
-0.000000
 11
29.877999
 21
12.040312
 31
-0.000000
  0
LINE
  8
Layer 1
 62
     7
  6
CONTINUOUS
 10
29.877999
 20
12.040312
 30
-0.000000
 11
29.878000
 21
12.040312
 31
-0.000000
  0
LINE
  8
Layer 1
 62
     7
  6
CONTINUOUS
 10
29.878000
 20
12.040312
 30
-0.000000
 11
29.878000
 21
12.040312
 31
-0.000000
  0
LINE
  8
Layer 1
 62
     7
  6
CONTINUOUS
 10
29.878000
 20
12.040312
 30
-0.000000
 11
29.878003
 21
12.040311
 31
-0.000000
  0
LINE
  8
Layer 1
 62
     7
  6
CONTINUOUS
 10
29.878003
 20
12.040311
 30
-0.000000
 11
29.878019
 21
12.040307
 31
-0.000000
  0
LINE
  8
Layer 1
 62
     7
  6
CONTINUOUS
 10
29.878019
 20
12.040307
 30
-0.000000
 11
29.878089
 21
12.040286
 31
-0.000000
  0
LINE
  8
Layer 1
 62
     7
  6
CONTINUOUS
 10
29.878089
 20
12.040286
 30
-0.000000
 11
29.878381
 21
12.040203
 31
-0.000000
  0
LINE
  8
Layer 1
 62
     7
  6
CONTINUOUS
 10
29.878381
 20
12.040203
 30
-0.000000
 11
29.881497
 21
12.039313
 31
-0.000000
  0
LINE
  8
Layer 1
 62
     7
  6
CONTINUOUS
 10
29.881497
 20
12.039313
 30
-0.000000
 11
29.896319
 21
12.035081
 31
-0.000000
  0
LINE
  8
Layer 1
 62
     7
  6
CONTINUOUS
 10
29.896319
 20
12.035081
 30
-0.000000
 11
30.305134
 21
11.918335
 31
-0.000000
  0
LINE
  8
Layer 1
 62
     7
  6
CONTINUOUS
 10
30.305211
 20
11.918315
 30
-0.000000
 11
30.305066
 21
11.918428
 31
-0.000000
  0
LINE
  8
Layer 1
 62
     7
  6
CONTINUOUS
 10
30.308095
 20
11.917535
 30
-0.000000
 11
30.305211
 21
11.918315
 31
-0.000000
  0
LINE
  8
Layer 1
 62
     7
  6
CONTINUOUS
 10
30.313836
 20
11.915926
 30
-0.000000
 11
30.308095
 21
11.917535
 31
-0.000000
  0
LINE
  8
Layer 1
 62
     7
  6
CONTINUOUS
 10
30.325214
 20
11.912514
 30
-0.000000
 11
30.313836
 21
11.915926
 31
-0.000000
  0
LINE
  8
Layer 1
 62
     7
  6
CONTINUOUS
 10
30.347553
 20
11.904923
 30
-0.000000
 11
30.325214
 21
11.912514
 31
-0.000000
  0
LINE
  8
Layer 1
 62
     7
  6
CONTINUOUS
 10
30.390612
 20
11.886775
 30
-0.000000
 11
30.347553
 21
11.904923
 31
-0.000000
  0
LINE
  8
Layer 1
 62
     7
  6
CONTINUOUS
 10
27.687965
 20
10.835803
 30
-0.000000
 11
27.687945
 21
10.835841
 31
-0.000000
  0
LINE
  8
Layer 1
 62
     7
  6
CONTINUOUS
 10
30.431589
 20
11.864871
 30
-0.000000
 11
30.390612
 21
11.886775
 31
-0.000000
  0
LINE
  8
Layer 1
 62
     7
  6
CONTINUOUS
 10
30.507679
 20
11.810725
 30
-0.000000
 11
30.431589
 21
11.864871
 31
-0.000000
  0
LINE
  8
Layer 1
 62
     7
  6
CONTINUOUS
 10
30.576586
 20
11.744354
 30
-0.000000
 11
30.507679
 21
11.810725
 31
-0.000000
  0
LINE
  8
Layer 1
 62
     7
  6
CONTINUOUS
 10
30.639071
 20
11.667628
 30
-0.000000
 11
30.576586
 21
11.744354
 31
-0.000000
  0
LINE
  8
Layer 1
 62
     7
  6
CONTINUOUS
 10
30.695895
 20
11.582418
 30
-0.000000
 11
30.639071
 21
11.667628
 31
-0.000000
  0
LINE
  8
Layer 1
 62
     7
  6
CONTINUOUS
 10
30.986747
 20
10.934093
 30
-0.000000
 11
30.695895
 21
11.582418
 31
-0.000000
  0
LINE
  8
Layer 1
 62
     7
  6
CONTINUOUS
 10
30.986747
 20
10.934093
 30
-0.000000
 11
30.778898
 21
10.602472
 31
-0.000000
  0
LINE
  8
Layer 1
 62
     7
  6
CONTINUOUS
 10
30.778898
 20
10.602472
 30
-0.000000
 11
30.563843
 21
10.322749
 31
-0.000000
  0
LINE
  8
Layer 1
 62
     7
  6
CONTINUOUS
 10
31.691283
 20
8.124243
 30
-0.000000
 11
31.688071
 21
8.124217
 31
-0.000000
  0
LINE
  8
Layer 1
 62
     7
  6
CONTINUOUS
 10
31.688071
 20
8.124217
 30
-0.000000
 11
31.688067
 21
8.124216
 31
-0.000000
  0
LINE
  8
Layer 1
 62
     7
  6
CONTINUOUS
 10
31.688067
 20
8.124216
 30
-0.000000
 11
31.688076
 21
8.124216
 31
-0.000000
  0
LINE
  8
Layer 1
 62
     7
  6
CONTINUOUS
 10
31.688076
 20
8.124216
 30
-0.000000
 11
31.688106
 21
8.124216
 31
-0.000000
  0
LINE
  8
Layer 1
 62
     7
  6
CONTINUOUS
 10
31.688106
 20
8.124216
 30
-0.000000
 11
31.688231
 21
8.124215
 31
-0.000000
  0
LINE
  8
Layer 1
 62
     7
  6
CONTINUOUS
 10
31.688231
 20
8.124215
 30
-0.000000
 11
31.688738
 21
8.124210
 31
-0.000000
  0
LINE
  8
Layer 1
 62
     7
  6
CONTINUOUS
 10
31.688738
 20
8.124210
 30
-0.000000
 11
31.694150
 21
8.124158
 31
-0.000000
  0
LINE
  8
Layer 1
 62
     7
  6
CONTINUOUS
 10
31.694150
 20
8.124158
 30
-0.000000
 11
31.720825
 21
8.123899
 31
-0.000000
  0
LINE
  8
Layer 1
 62
     7
  6
CONTINUOUS
 10
28.750675
 20
1.997284
 30
-0.000000
 11
28.736801
 21
2.023397
 31
-0.000000
  0
LINE
  8
Layer 1
 62
     7
  6
CONTINUOUS
 10
28.736801
 20
2.023397
 30
-0.000000
 11
28.720307
 21
2.047695
 31
-0.000000
  0
LINE
  8
Layer 1
 62
     7
  6
CONTINUOUS
 10
28.720307
 20
2.047695
 30
-0.000000
 11
28.681121
 21
2.093887
 31
-0.000000
  0
LINE
  8
Layer 1
 62
     7
  6
CONTINUOUS
 10
28.681121
 20
2.093887
 30
-0.000000
 11
28.567549
 21
2.222970
 31
-0.000000
  0
LINE
  8
Layer 1
 62
     7
  6
CONTINUOUS
 10
28.567549
 20
2.222970
 30
-0.000000
 11
28.637134
 21
2.361974
 31
-0.000000
  0
LINE
  8
Layer 1
 62
     7
  6
CONTINUOUS
 10
28.637134
 20
2.361974
 30
-0.000000
 11
28.760765
 21
2.440716
 31
-0.000000
  0
LINE
  8
Layer 1
 62
     7
  6
CONTINUOUS
 10
28.760765
 20
2.440716
 30
-0.000000
 11
28.785440
 21
2.463208
 31
-0.000000
  0
LINE
  8
Layer 1
 62
     7
  6
CONTINUOUS
 10
28.785440
 20
2.463208
 30
-0.000000
 11
28.796405
 21
2.475937
 31
-0.000000
  0
LINE
  8
Layer 1
 62
     7
  6
CONTINUOUS
 10
28.796405
 20
2.475937
 30
-0.000000
 11
28.806346
 21
2.489911
 31
-0.000000
  0
LINE
  8
Layer 1
 62
     7
  6
CONTINUOUS
 10
28.806346
 20
2.489911
 30
-0.000000
 11
28.815184
 21
2.505321
 31
-0.000000
  0
LINE
  8
Layer 1
 62
     7
  6
CONTINUOUS
 10
28.815184
 20
2.505321
 30
-0.000000
 11
28.822836
 21
2.522361
 31
-0.000000
  0
LINE
  8
Layer 1
 62
     7
  6
CONTINUOUS
 10
28.822836
 20
2.522361
 30
-0.000000
 11
28.829221
 21
2.541222
 31
-0.000000
  0
LINE
  8
Layer 1
 62
     7
  6
CONTINUOUS
 10
28.829221
 20
2.541222
 30
-0.000000
 11
28.837867
 21
2.585174
 31
-0.000000
  0
LINE
  8
Layer 1
 62
     7
  6
CONTINUOUS
 10
28.837867
 20
2.585174
 30
-0.000000
 11
28.840502
 21
2.633202
 31
-0.000000
  0
LINE
  8
Layer 1
 62
     7
  6
CONTINUOUS
 10
28.840502
 20
2.633202
 30
-0.000000
 11
28.840502
 21
2.633291
 31
-0.000000
  0
LINE
  8
Layer 1
 62
     7
  6
CONTINUOUS
 10
28.840502
 20
2.633291
 30
-0.000000
 11
28.840502
 21
2.633671
 31
-0.000000
  0
LINE
  8
Layer 1
 62
     7
  6
CONTINUOUS
 10
28.840502
 20
2.633671
 30
-0.000000
 11
28.840502
 21
2.637623
 31
-0.000000
  0
LINE
  8
Layer 1
 62
     7
  6
CONTINUOUS
 10
28.840502
 20
2.637623
 30
-0.000000
 11
28.840490
 21
2.703836
 31
-0.000000
  0
LINE
  8
Layer 1
 62
     7
  6
CONTINUOUS
 10
28.840490
 20
2.703836
 30
-0.000000
 11
28.836337
 21
2.752572
 31
-0.000000
  0
LINE
  8
Layer 1
 62
     7
  6
CONTINUOUS
 10
28.836337
 20
2.752572
 30
-0.000000
 11
28.825068
 21
2.797674
 31
-0.000000
  0
LINE
  8
Layer 1
 62
     7
  6
CONTINUOUS
 10
28.825068
 20
2.797674
 30
-0.000000
 11
28.807160
 21
2.838666
 31
-0.000000
  0
LINE
  8
Layer 1
 62
     7
  6
CONTINUOUS
 10
28.807160
 20
2.838666
 30
-0.000000
 11
28.783091
 21
2.875071
 31
-0.000000
  0
LINE
  8
Layer 1
 62
     7
  6
CONTINUOUS
 10
28.783091
 20
2.875071
 30
-0.000000
 11
28.768896
 21
2.891404
 31
-0.000000
  0
LINE
  8
Layer 1
 62
     7
  6
CONTINUOUS
 10
28.768896
 20
2.891404
 30
-0.000000
 11
28.753339
 21
2.906412
 31
-0.000000
  0
LINE
  8
Layer 1
 62
     7
  6
CONTINUOUS
 10
28.753339
 20
2.906412
 30
-0.000000
 11
28.736481
 21
2.920035
 31
-0.000000
  0
LINE
  8
Layer 1
 62
     7
  6
CONTINUOUS
 10
28.736481
 20
2.920035
 30
-0.000000
 11
28.699101
 21
2.942887
 31
-0.000000
  0
LINE
  8
Layer 1
 62
     7
  6
CONTINUOUS
 10
28.699101
 20
2.942887
 30
-0.000000
 11
28.657231
 21
2.959484
 31
-0.000000
  0
LINE
  8
Layer 1
 62
     7
  6
CONTINUOUS
 10
28.657231
 20
2.959484
 30
-0.000000
 11
28.611351
 21
2.969349
 31
-0.000000
  0
LINE
  8
Layer 1
 62
     7
  6
CONTINUOUS
 10
28.611351
 20
2.969349
 30
-0.000000
 11
28.569140
 21
2.972086
 31
-0.000000
  0
LINE
  8
Layer 1
 62
     7
  6
CONTINUOUS
 10
28.569140
 20
2.972086
 30
-0.000000
 11
28.568240
 21
2.972086
 31
-0.000000
  0
LINE
  8
Layer 1
 62
     7
  6
CONTINUOUS
 10
28.568240
 20
2.972086
 30
-0.000000
 11
28.564121
 21
2.972086
 31
-0.000000
  0
LINE
  8
Layer 1
 62
     7
  6
CONTINUOUS
 10
28.564121
 20
2.972086
 30
-0.000000
 11
28.523413
 21
2.972086
 31
-0.000000
  0
LINE
  8
Layer 1
 62
     7
  6
CONTINUOUS
 10
28.523413
 20
2.972086
 30
-0.000000
 11
28.365908
 21
2.972086
 31
-0.000000
  0
LINE
  8
Layer 1
 62
     7
  6
CONTINUOUS
 10
28.365908
 20
2.972086
 30
-0.000000
 11
28.308396
 21
3.014619
 31
-0.000000
  0
LINE
  8
Layer 1
 62
     7
  6
CONTINUOUS
 10
28.308396
 20
3.014619
 30
-0.000000
 11
28.654109
 21
3.469909
 31
-0.000000
  0
LINE
  8
Layer 1
 62
     7
  6
CONTINUOUS
 10
28.654109
 20
3.469909
 30
-0.000000
 11
28.448652
 21
3.626265
 31
-0.000000
  0
LINE
  8
Layer 1
 62
     7
  6
CONTINUOUS
 10
28.448652
 20
3.626265
 30
-0.000000
 11
28.646900
 21
3.793755
 31
-0.000000
  0
LINE
  8
Layer 1
 62
     7
  6
CONTINUOUS
 10
28.646900
 20
3.793755
 30
-0.000000
 11
28.506324
 21
3.989359
 31
-0.000000
  0
LINE
  8
Layer 1
 62
     7
  6
CONTINUOUS
 10
28.506324
 20
3.989359
 30
-0.000000
 11
28.490162
 21
4.260725
 31
-0.000000
  0
LINE
  8
Layer 1
 62
     7
  6
CONTINUOUS
 10
28.490162
 20
4.260725
 30
-0.000000
 11
28.446696
 21
4.990535
 31
-0.000000
  0
LINE
  8
Layer 1
 62
     7
  6
CONTINUOUS
 10
28.446696
 20
4.990535
 30
-0.000000
 11
28.433673
 21
5.209207
 31
-0.000000
  0
LINE
  8
Layer 1
 62
     7
  6
CONTINUOUS
 10
28.433673
 20
5.209207
 30
-0.000000
 11
28.614833
 21
5.209207
 31
-0.000000
  0
LINE
  8
Layer 1
 62
     7
  6
CONTINUOUS
 10
28.614833
 20
5.209207
 30
-0.000000
 11
29.101618
 21
5.209207
 31
-0.000000
  0
LINE
  8
Layer 1
 62
     7
  6
CONTINUOUS
 10
29.101618
 20
5.209207
 30
-0.000000
 11
29.239621
 21
5.209207
 31
-0.000000
  0
LINE
  8
Default
 62
     7
  6
CONTINUOUS
 10
29.563767
 20
5.209207
 30
-0.000000
 11
29.239621
 21
5.209207
 31
-0.000000
  0
LINE
  8
Layer 1
 62
     7
  6
CONTINUOUS
 10
29.563767
 20
5.209207
 30
-0.000000
 11
29.935505
 21
5.220781
 31
-0.000000
  0
LINE
  8
Layer 1
 62
     7
  6
CONTINUOUS
 10
29.935505
 20
5.220781
 30
-0.000000
 11
30.187864
 21
5.269367
 31
-0.000000
  0
LINE
  8
Layer 1
 62
     7
  6
CONTINUOUS
 10
30.187864
 20
5.269367
 30
-0.000000
 11
30.407783
 21
5.347001
 31
-0.000000
  0
LINE
  8
Layer 1
 62
     7
  6
CONTINUOUS
 10
30.407783
 20
5.347001
 30
-0.000000
 11
30.806644
 21
5.548194
 31
-0.000000
  0
LINE
  8
Layer 1
 62
     7
  6
CONTINUOUS
 10
30.806644
 20
5.548194
 30
-0.000000
 11
30.880416
 21
4.599243
 31
-0.000000
  0
LINE
  8
Default
 62
     7
  6
CONTINUOUS
 10
30.880416
 20
4.599243
 30
-0.000000
 11
30.538401
 21
4.682081
 31
-0.000000
  0
LINE
  8
Layer 1
 62
     7
  6
CONTINUOUS
 10
30.538401
 20
4.682081
 30
-0.000000
 11
30.579540
 21
4.460960
 31
-0.000000
  0
LINE
  8
Layer 1
 62
     7
  6
CONTINUOUS
 10
30.579540
 20
4.460960
 30
-0.000000
 11
30.592922
 21
4.413797
 31
-0.000000
  0
LINE
  8
Layer 1
 62
     7
  6
CONTINUOUS
 10
30.592922
 20
4.413797
 30
-0.000000
 11
30.610078
 21
4.371471
 31
-0.000000
  0
LINE
  8
Layer 1
 62
     7
  6
CONTINUOUS
 10
30.610078
 20
4.371471
 30
-0.000000
 11
30.620467
 21
4.352370
 31
-0.000000
  0
LINE
  8
Layer 1
 62
     7
  6
CONTINUOUS
 10
30.620467
 20
4.352370
 30
-0.000000
 11
30.632275
 21
4.334776
 31
-0.000000
  0
LINE
  8
Layer 1
 62
     7
  6
CONTINUOUS
 10
30.632275
 20
4.334776
 30
-0.000000
 11
30.645661
 21
4.318789
 31
-0.000000
  0
LINE
  8
Layer 1
 62
     7
  6
CONTINUOUS
 10
30.645661
 20
4.318789
 30
-0.000000
 11
30.660783
 21
4.304509
 31
-0.000000
  0
LINE
  8
Layer 1
 62
     7
  6
CONTINUOUS
 10
30.660783
 20
4.304509
 30
-0.000000
 11
30.677798
 21
4.292034
 31
-0.000000
  0
LINE
  8
Layer 1
 62
     7
  6
CONTINUOUS
 10
30.677798
 20
4.292034
 30
-0.000000
 11
30.696867
 21
4.281464
 31
-0.000000
  0
LINE
  8
Layer 1
 62
     7
  6
CONTINUOUS
 10
30.696867
 20
4.281464
 30
-0.000000
 11
30.718147
 21
4.272899
 31
-0.000000
  0
LINE
  8
Layer 1
 62
     7
  6
CONTINUOUS
 10
30.718147
 20
4.272899
 30
-0.000000
 11
30.741797
 21
4.266437
 31
-0.000000
  0
LINE
  8
Layer 1
 62
     7
  6
CONTINUOUS
 10
30.741797
 20
4.266437
 30
-0.000000
 11
30.767975
 21
4.262178
 31
-0.000000
  0
LINE
  8
Layer 1
 62
     7
  6
CONTINUOUS
 10
30.767975
 20
4.262178
 30
-0.000000
 11
30.796839
 21
4.260222
 31
-0.000000
  0
LINE
  8
Layer 1
 62
     7
  6
CONTINUOUS
 10
30.796839
 20
4.260222
 30
-0.000000
 11
30.806816
 21
4.260098
 31
-0.000000
  0
LINE
  8
Layer 1
 62
     7
  6
CONTINUOUS
 10
30.806816
 20
4.260098
 30
-0.000000
 11
30.807616
 21
4.260098
 31
-0.000000
  0
LINE
  8
Layer 1
 62
     7
  6
CONTINUOUS
 10
30.807616
 20
4.260098
 30
-0.000000
 11
30.811114
 21
4.260098
 31
-0.000000
  0
LINE
  8
Layer 1
 62
     7
  6
CONTINUOUS
 10
30.811114
 20
4.260098
 30
-0.000000
 11
30.916545
 21
4.260098
 31
-0.000000
  0
ARC
  8
Default
 62
     7
  6
CONTINUOUS
 10
31.193399
 20
3.727791
 30
0.000000
 40
0.600000
 50
117.479031
 51
360.000000
  0
ARC
  8
Default
 62
     7
  6
CONTINUOUS
 10
31.193399
 20
3.727791
 30
0.000000
 40
0.600000
 50
0.000000
 51
62.520969
  0
LINE
  8
Layer 1
 62
     7
  6
CONTINUOUS
 10
31.470253
 20
4.260098
 30
-0.000000
 11
31.688067
 21
4.260098
 31
-0.000000
  0
LINE
  8
Layer 1
 62
     7
  6
CONTINUOUS
 10
31.688067
 20
4.260098
 30
-0.000000
 11
31.833129
 21
4.731569
 31
-0.000000
  0
LINE
  8
Layer 1
 62
     7
  6
CONTINUOUS
 10
31.833129
 20
4.731569
 30
-0.000000
 11
31.484705
 21
4.734693
 31
-0.000000
  0
LINE
  8
Layer 1
 62
     7
  6
CONTINUOUS
 10
31.484705
 20
4.734693
 30
-0.000000
 11
31.456937
 21
4.910011
 31
-0.000000
  0
LINE
  8
Layer 1
 62
     7
  6
CONTINUOUS
 10
31.456937
 20
4.910011
 30
-0.000000
 11
31.427020
 21
5.051240
 31
-0.000000
  0
LINE
  8
Layer 1
 62
     7
  6
CONTINUOUS
 10
31.427020
 20
5.051240
 30
-0.000000
 11
31.416848
 21
5.218003
 31
-0.000000
  0
LINE
  8
Layer 1
 62
     7
  6
CONTINUOUS
 10
31.416848
 20
5.218003
 30
-0.000000
 11
31.416848
 21
5.296805
 31
-0.000000
  0
LINE
  8
Layer 1
 62
     7
  6
CONTINUOUS
 10
31.416848
 20
5.296805
 30
-0.000000
 11
31.416848
 21
5.751566
 31
-0.000000
  0
LINE
  8
Layer 1
 62
     7
  6
CONTINUOUS
 10
31.416848
 20
5.751566
 30
-0.000000
 11
31.908047
 21
5.751566
 31
-0.000000
  0
LINE
  8
Layer 1
 62
     7
  6
CONTINUOUS
 10
31.908047
 20
5.751566
 30
-0.000000
 11
34.400023
 21
5.751566
 31
-0.000000
  0
LINE
  8
Layer 1
 62
     7
  6
CONTINUOUS
 10
34.400023
 20
5.751566
 30
-0.000000
 11
34.400023
 21
5.550714
 31
-0.000000
  0
LINE
  8
Layer 1
 62
     7
  6
CONTINUOUS
 10
34.400023
 20
5.550714
 30
-0.000000
 11
34.400023
 21
4.531318
 31
-0.000000
  0
LINE
  8
Layer 1
 62
     7
  6
CONTINUOUS
 10
34.400023
 20
4.531318
 30
-0.000000
 11
34.020896
 21
4.692083
 31
-0.000000
  0
ARC
  8
Default
 62
     7
  6
CONTINUOUS
 10
33.549713
 20
4.320618
 30
0.000000
 40
0.600000
 50
38.251074
 51
355.162431
  0
LINE
  8
Layer 1
 62
     7
  6
CONTINUOUS
 10
34.147576
 20
4.270019
 30
-0.000000
 11
34.382091
 21
4.267837
 31
-0.000000
  0
ARC
  8
Default
 62
     7
  6
CONTINUOUS
 10
34.695803
 20
3.756383
 30
0.000000
 40
0.600000
 50
121.523807
 51
360.000000
  0
ARC
  8
Default
 62
     7
  6
CONTINUOUS
 10
34.695803
 20
3.756383
 30
0.000000
 40
0.600000
 50
0.000000
 51
57.409893
  0
LINE
  8
Layer 1
 62
     7
  6
CONTINUOUS
 10
35.018978
 20
4.261910
 30
-0.000000
 11
35.226448
 21
4.259980
 31
-0.000000
  0
ARC
  8
Default
 62
     7
  6
CONTINUOUS
 10
35.815791
 20
4.372562
 30
0.000000
 40
0.600000
 50
190.814958
 51
360.000000
  0
ARC
  8
Default
 62
     7
  6
CONTINUOUS
 10
35.815791
 20
4.372562
 30
0.000000
 40
0.600000
 50
0.000000
 51
150.874209
  0
LINE
  8
Layer 1
 62
     7
  6
CONTINUOUS
 10
35.291659
 20
4.664599
 30
-0.000000
 11
34.939018
 21
4.617266
 31
-0.000000
  0
LINE
  8
Layer 1
 62
     7
  6
CONTINUOUS
 10
34.939018
 20
4.617266
 30
-0.000000
 11
34.939585
 21
4.804035
 31
-0.000000
  0
LINE
  8
Layer 1
 62
     7
  6
CONTINUOUS
 10
34.939585
 20
4.804035
 30
-0.000000
 11
34.942462
 21
5.751566
 31
-0.000000
  0
LINE
  8
Layer 1
 62
     7
  6
CONTINUOUS
 10
34.942462
 20
5.751566
 30
-0.000000
 11
35.243779
 21
5.751566
 31
-0.000000
  0
LINE
  8
Layer 1
 62
     7
  6
CONTINUOUS
 10
28.952745
 20
5.644817
 30
-0.000000
 11
28.729760
 21
5.644817
 31
-0.000000
  0
LINE
  8
Default
 62
     7
  6
CONTINUOUS
 10
28.729760
 20
5.644817
 30
-0.000000
 11
28.637128
 21
5.644817
 31
-0.000000
  0
ARC
  8
Default
 62
     7
  6
CONTINUOUS
 10
29.270757
 20
8.331286
 30
-0.000000
 40
2.760182
 50
233.093185
 51
256.728778
  0
LINE
  8
Layer 1
 62
     7
  6
CONTINUOUS
 10
27.613226
 20
6.124208
 30
-0.000000
 11
27.492914
 21
6.215858
 31
-0.000000
  0
LINE
  8
Layer 1
 62
     7
  6
CONTINUOUS
 10
27.492914
 20
6.215858
 30
-0.000000
 11
27.375288
 21
6.322694
 31
-0.000000
  0
LINE
  8
Layer 1
 62
     7
  6
CONTINUOUS
 10
27.375288
 20
6.322694
 30
-0.000000
 11
27.265596
 21
6.441333
 31
-0.000000
  0
LINE
  8
Layer 1
 62
     7
  6
CONTINUOUS
 10
27.265596
 20
6.441333
 30
-0.000000
 11
27.169086
 21
6.568391
 31
-0.000000
  0
LINE
  8
Layer 1
 62
     7
  6
CONTINUOUS
 10
27.169086
 20
6.568391
 30
-0.000000
 11
27.091006
 21
6.700484
 31
-0.000000
  0
LINE
  8
Layer 1
 62
     7
  6
CONTINUOUS
 10
27.091006
 20
6.700484
 30
-0.000000
 11
27.036604
 21
6.834231
 31
-0.000000
  0
LINE
  8
Layer 1
 62
     7
  6
CONTINUOUS
 10
27.036604
 20
6.834231
 30
-0.000000
 11
27.019922
 21
6.900667
 31
-0.000000
  0
LINE
  8
Layer 1
 62
     7
  6
CONTINUOUS
 10
27.019922
 20
6.900667
 30
-0.000000
 11
27.011129
 21
6.966247
 31
-0.000000
  0
LINE
  8
Layer 1
 62
     7
  6
CONTINUOUS
 10
35.243779
 20
5.751566
 30
-0.000000
 11
36.773074
 21
5.751566
 31
-0.000000
  0
LINE
  8
Layer 1
 62
     7
  6
CONTINUOUS
 10
36.773074
 20
5.751566
 30
-0.000000
 11
36.773074
 21
4.938067
 31
-0.000000
  0
LINE
  8
Layer 1
 62
     7
  6
CONTINUOUS
 10
36.773074
 20
4.938067
 30
-0.000000
 11
36.840839
 21
4.734693
 31
-0.000000
  0
LINE
  8
Layer 1
 62
     7
  6
CONTINUOUS
 10
36.840839
 20
4.734693
 30
-0.000000
 11
36.783166
 21
4.550357
 31
-0.000000
  0
LINE
  8
Layer 1
 62
     7
  6
CONTINUOUS
 10
36.783166
 20
4.550357
 30
-0.000000
 11
36.843419
 21
4.458074
 31
-0.000000
  0
LINE
  8
Layer 1
 62
     7
  6
CONTINUOUS
 10
36.843419
 20
4.458074
 30
-0.000000
 11
36.860439
 21
4.422710
 31
-0.000000
  0
LINE
  8
Layer 1
 62
     7
  6
CONTINUOUS
 10
36.860439
 20
4.422710
 30
-0.000000
 11
36.875116
 21
4.382228
 31
-0.000000
  0
LINE
  8
Layer 1
 62
     7
  6
CONTINUOUS
 10
36.875116
 20
4.382228
 30
-0.000000
 11
36.898046
 21
4.287352
 31
-0.000000
  0
LINE
  8
Layer 1
 62
     7
  6
CONTINUOUS
 10
36.898046
 20
4.287352
 30
-0.000000
 11
36.922419
 21
4.052050
 31
-0.000000
  0
LINE
  8
Layer 1
 62
     7
  6
CONTINUOUS
 10
36.922419
 20
4.052050
 30
-0.000000
 11
36.918956
 21
3.480008
 31
-0.000000
  0
LINE
  8
Layer 1
 62
     7
  6
CONTINUOUS
 10
36.918956
 20
3.480008
 30
-0.000000
 11
36.910393
 21
3.189420
 31
-0.000000
  0
LINE
  8
Layer 1
 62
     7
  6
CONTINUOUS
 10
36.910393
 20
3.189420
 30
-0.000000
 11
36.908450
 21
3.039931
 31
-0.000000
  0
LINE
  8
Layer 1
 62
     7
  6
CONTINUOUS
 10
36.908450
 20
3.039931
 30
-0.000000
 11
37.112059
 21
3.039931
 31
-0.000000
  0
LINE
  8
Layer 1
 62
     7
  6
CONTINUOUS
 10
37.112059
 20
3.039931
 30
-0.000000
 11
37.112059
 21
2.565336
 31
-0.000000
  0
LINE
  8
Layer 1
 62
     7
  6
CONTINUOUS
 10
37.112059
 20
2.565336
 30
-0.000000
 11
37.247668
 21
2.565336
 31
-0.000000
  0
LINE
  8
Layer 1
 62
     7
  6
CONTINUOUS
 10
37.247668
 20
2.565336
 30
-0.000000
 11
37.247668
 21
2.320335
 31
-0.000000
  0
LINE
  8
Layer 1
 62
     7
  6
CONTINUOUS
 10
37.247668
 20
2.320335
 30
-0.000000
 11
37.247668
 21
1.955213
 31
-0.000000
  0
LINE
  8
Layer 1
 62
     7
  6
CONTINUOUS
 10
37.247668
 20
1.955213
 30
-0.000000
 11
37.383198
 21
1.955213
 31
-0.000000
  0
LINE
  8
Layer 1
 62
     7
  6
CONTINUOUS
 10
37.383198
 20
1.955213
 30
-0.000000
 11
37.383198
 21
1.345089
 31
-0.000000
  0
LINE
  8
Layer 1
 62
     7
  6
CONTINUOUS
 10
37.383198
 20
1.345089
 30
-0.000000
 11
37.586653
 21
1.345089
 31
-0.000000
  0
LINE
  8
Layer 1
 62
     7
  6
CONTINUOUS
 10
37.586653
 20
1.345089
 30
-0.000000
 11
37.586653
 21
1.073949
 31
-0.000000
  0
LINE
  8
Layer 1
 62
     7
  6
CONTINUOUS
 10
37.586653
 20
1.073949
 30
-0.000000
 11
37.790027
 21
1.073949
 31
-0.000000
  0
LINE
  8
Layer 1
 62
     7
  6
CONTINUOUS
 10
37.790027
 20
1.073949
 30
-0.000000
 11
37.790027
 21
0.661443
 31
-0.000000
  0
LINE
  8
Layer 1
 62
     7
  6
CONTINUOUS
 10
37.790027
 20
0.661443
 30
-0.000000
 11
37.795270
 21
0.512870
 31
-0.000000
  0
LINE
  8
Layer 1
 62
     7
  6
CONTINUOUS
 10
37.795270
 20
0.512870
 30
-0.000000
 11
37.808184
 21
0.442278
 31
-0.000000
  0
LINE
  8
Layer 1
 62
     7
  6
CONTINUOUS
 10
37.808184
 20
0.442278
 30
-0.000000
 11
37.828551
 21
0.376624
 31
-0.000000
  0
LINE
  8
Layer 1
 62
     7
  6
CONTINUOUS
 10
37.828551
 20
0.376624
 30
-0.000000
 11
37.856070
 21
0.316211
 31
-0.000000
  0
LINE
  8
Layer 1
 62
     7
  6
CONTINUOUS
 10
37.856070
 20
0.316211
 30
-0.000000
 11
37.890438
 21
0.261342
 31
-0.000000
  0
LINE
  8
Layer 1
 62
     7
  6
CONTINUOUS
 10
37.890438
 20
0.261342
 30
-0.000000
 11
37.931352
 21
0.212320
 31
-0.000000
  0
LINE
  8
Layer 1
 62
     7
  6
CONTINUOUS
 10
37.931352
 20
0.212320
 30
-0.000000
 11
37.978511
 21
0.169446
 31
-0.000000
  0
LINE
  8
Layer 1
 62
     7
  6
CONTINUOUS
 10
37.978511
 20
0.169446
 30
-0.000000
 11
38.031611
 21
0.133025
 31
-0.000000
  0
LINE
  8
Layer 1
 62
     7
  6
CONTINUOUS
 10
38.031611
 20
0.133025
 30
-0.000000
 11
38.090351
 21
0.103358
 31
-0.000000
  0
LINE
  8
Layer 1
 62
     7
  6
CONTINUOUS
 10
38.090351
 20
0.103358
 30
-0.000000
 11
38.154428
 21
0.080748
 31
-0.000000
  0
LINE
  8
Layer 1
 62
     7
  6
CONTINUOUS
 10
38.154428
 20
0.080748
 30
-0.000000
 11
38.223539
 21
0.065498
 31
-0.000000
  0
LINE
  8
Layer 1
 62
     7
  6
CONTINUOUS
 10
38.223539
 20
0.065498
 30
-0.000000
 11
38.297382
 21
0.057910
 31
-0.000000
  0
LINE
  8
Layer 1
 62
     7
  6
CONTINUOUS
 10
38.297382
 20
0.057910
 30
-0.000000
 11
38.359761
 21
0.058266
 31
-0.000000
  0
LINE
  8
Layer 1
 62
     7
  6
CONTINUOUS
 10
38.359761
 20
0.058266
 30
-0.000000
 11
38.409099
 21
0.066439
 31
-0.000000
  0
LINE
  8
Layer 1
 62
     7
  6
CONTINUOUS
 10
38.409099
 20
0.066439
 30
-0.000000
 11
38.457016
 21
0.081935
 31
-0.000000
  0
LINE
  8
Layer 1
 62
     7
  6
CONTINUOUS
 10
38.457016
 20
0.081935
 30
-0.000000
 11
38.502971
 21
0.104247
 31
-0.000000
  0
LINE
  8
Layer 1
 62
     7
  6
CONTINUOUS
 10
38.502971
 20
0.104247
 30
-0.000000
 11
38.546425
 21
0.132870
 31
-0.000000
  0
LINE
  8
Layer 1
 62
     7
  6
CONTINUOUS
 10
38.546425
 20
0.132870
 30
-0.000000
 11
38.586837
 21
0.167296
 31
-0.000000
  0
LINE
  8
Layer 1
 62
     7
  6
CONTINUOUS
 10
38.586837
 20
0.167296
 30
-0.000000
 11
38.623668
 21
0.207018
 31
-0.000000
  0
LINE
  8
Layer 1
 62
     7
  6
CONTINUOUS
 10
38.623668
 20
0.207018
 30
-0.000000
 11
38.656378
 21
0.251531
 31
-0.000000
  0
LINE
  8
Layer 1
 62
     7
  6
CONTINUOUS
 10
38.656378
 20
0.251531
 30
-0.000000
 11
38.684426
 21
0.300328
 31
-0.000000
  0
LINE
  8
Layer 1
 62
     7
  6
CONTINUOUS
 10
38.684426
 20
0.300328
 30
-0.000000
 11
38.707273
 21
0.352901
 31
-0.000000
  0
LINE
  8
Layer 1
 62
     7
  6
CONTINUOUS
 10
38.707273
 20
0.352901
 30
-0.000000
 11
38.739216
 21
0.457186
 31
-0.000000
  0
LINE
  8
Layer 1
 62
     7
  6
CONTINUOUS
 10
38.739216
 20
0.457186
 30
-0.000000
 11
38.739216
 21
0.809745
 31
-0.000000
  0
LINE
  8
Layer 1
 62
     7
  6
CONTINUOUS
 10
38.739216
 20
0.809745
 30
-0.000000
 11
38.739216
 21
2.525585
 31
-0.000000
  0
LINE
  8
Layer 1
 62
     7
  6
CONTINUOUS
 10
38.739216
 20
2.525585
 30
-0.000000
 11
38.738993
 21
2.653532
 31
-0.000000
  0
LINE
  8
Layer 1
 62
     7
  6
CONTINUOUS
 10
38.738993
 20
2.653532
 30
-0.000000
 11
38.734374
 21
2.724251
 31
-0.000000
  0
LINE
  8
Layer 1
 62
     7
  6
CONTINUOUS
 10
38.734374
 20
2.724251
 30
-0.000000
 11
38.723779
 21
2.788984
 31
-0.000000
  0
LINE
  8
Layer 1
 62
     7
  6
CONTINUOUS
 10
38.723779
 20
2.788984
 30
-0.000000
 11
38.707207
 21
2.847733
 31
-0.000000
  0
LINE
  8
Layer 1
 62
     7
  6
CONTINUOUS
 10
38.707207
 20
2.847733
 30
-0.000000
 11
38.684658
 21
2.900499
 31
-0.000000
  0
LINE
  8
Layer 1
 62
     7
  6
CONTINUOUS
 10
38.684658
 20
2.900499
 30
-0.000000
 11
38.656131
 21
2.947282
 31
-0.000000
  0
LINE
  8
Layer 1
 62
     7
  6
CONTINUOUS
 10
38.656131
 20
2.947282
 30
-0.000000
 11
38.621625
 21
2.988085
 31
-0.000000
  0
LINE
  8
Layer 1
 62
     7
  6
CONTINUOUS
 10
38.621625
 20
2.988085
 30
-0.000000
 11
38.581139
 21
3.022909
 31
-0.000000
  0
LINE
  8
Layer 1
 62
     7
  6
CONTINUOUS
 10
38.581139
 20
3.022909
 30
-0.000000
 11
38.534674
 21
3.051754
 31
-0.000000
  0
LINE
  8
Layer 1
 62
     7
  6
CONTINUOUS
 10
38.534674
 20
3.051754
 30
-0.000000
 11
38.482227
 21
3.074622
 31
-0.000000
  0
LINE
  8
Layer 1
 62
     7
  6
CONTINUOUS
 10
38.482227
 20
3.074622
 30
-0.000000
 11
38.423799
 21
3.091514
 31
-0.000000
  0
LINE
  8
Layer 1
 62
     7
  6
CONTINUOUS
 10
38.423799
 20
3.091514
 30
-0.000000
 11
38.359389
 21
3.102431
 31
-0.000000
  0
LINE
  8
Layer 1
 62
     7
  6
CONTINUOUS
 10
38.359389
 20
3.102431
 30
-0.000000
 11
38.288995
 21
3.107375
 31
-0.000000
  0
LINE
  8
Layer 1
 62
     7
  6
CONTINUOUS
 10
38.288995
 20
3.107375
 30
-0.000000
 11
38.264509
 21
3.107696
 31
-0.000000
  0
LINE
  8
Layer 1
 62
     7
  6
CONTINUOUS
 10
38.264509
 20
3.107696
 30
-0.000000
 11
38.263952
 21
3.107696
 31
-0.000000
  0
LINE
  8
Layer 1
 62
     7
  6
CONTINUOUS
 10
38.263952
 20
3.107696
 30
-0.000000
 11
38.261513
 21
3.107696
 31
-0.000000
  0
LINE
  8
Layer 1
 62
     7
  6
CONTINUOUS
 10
38.261513
 20
3.107696
 30
-0.000000
 11
38.236881
 21
3.107696
 31
-0.000000
  0
LINE
  8
Layer 1
 62
     7
  6
CONTINUOUS
 10
34.154293
 20
4.271717
 30
-0.000000
 11
34.154814
 21
4.270242
 31
-0.000000
  0
LINE
  8
Layer 1
 62
     7
  6
CONTINUOUS
 10
34.154814
 20
4.270242
 30
-0.000000
 11
34.154909
 21
4.269970
 31
-0.000000
  0
LINE
  8
Layer 1
 62
     7
  6
CONTINUOUS
 10
34.154909
 20
4.269970
 30
-0.000000
 11
34.154916
 21
4.269952
 31
-0.000000
  0
LINE
  8
Layer 1
 62
     7
  6
CONTINUOUS
 10
34.154916
 20
4.269952
 30
-0.000000
 11
34.154916
 21
4.269951
 31
-0.000000
  0
LINE
  8
Layer 1
 62
     7
  6
CONTINUOUS
 10
34.154916
 20
4.269951
 30
-0.000000
 11
34.154916
 21
4.269951
 31
-0.000000
  0
LINE
  8
Layer 1
 62
     7
  6
CONTINUOUS
 10
34.154916
 20
4.269951
 30
-0.000000
 11
34.154916
 21
4.269951
 31
-0.000000
  0
LINE
  8
Layer 1
 62
     7
  6
CONTINUOUS
 10
34.154916
 20
4.269951
 30
-0.000000
 11
34.154917
 21
4.269951
 31
-0.000000
  0
LINE
  8
Layer 1
 62
     7
  6
CONTINUOUS
 10
34.154917
 20
4.269951
 30
-0.000000
 11
34.154922
 21
4.269951
 31
-0.000000
  0
LINE
  8
Layer 1
 62
     7
  6
CONTINUOUS
 10
34.154922
 20
4.269951
 30
-0.000000
 11
34.154940
 21
4.269951
 31
-0.000000
  0
LINE
  8
Layer 1
 62
     7
  6
CONTINUOUS
 10
34.154940
 20
4.269951
 30
-0.000000
 11
34.155014
 21
4.269950
 31
-0.000000
  0
LINE
  8
Layer 1
 62
     7
  6
CONTINUOUS
 10
34.155014
 20
4.269950
 30
-0.000000
 11
34.155797
 21
4.269943
 31
-0.000000
  0
LINE
  8
Layer 1
 62
     7
  6
CONTINUOUS
 10
34.155797
 20
4.269943
 30
-0.000000
 11
34.159657
 21
4.269907
 31
-0.000000
  0
LINE
  8
Layer 1
 62
     7
  6
CONTINUOUS
 10
34.159657
 20
4.269907
 30
-0.000000
 11
34.176049
 21
4.269754
 31
-0.000000
  0
LINE
  8
Layer 1
 62
     7
  6
CONTINUOUS
 10
38.236881
 20
3.107696
 30
-0.000000
 11
38.061247
 21
3.107696
 31
-0.000000
  0
LINE
  8
Layer 1
 62
     7
  6
CONTINUOUS
 10
38.061247
 20
3.107696
 30
-0.000000
 11
38.061247
 21
4.381456
 31
-0.000000
  0
LINE
  8
Layer 1
 62
     7
  6
CONTINUOUS
 10
38.061247
 20
4.381456
 30
-0.000000
 11
38.345411
 21
4.286774
 31
-0.000000
  0
LINE
  8
Layer 1
 62
     7
  6
CONTINUOUS
 10
38.345411
 20
4.286774
 30
-0.000000
 11
38.427730
 21
4.269305
 31
-0.000000
  0
LINE
  8
Layer 1
 62
     7
  6
CONTINUOUS
 10
38.427730
 20
4.269305
 30
-0.000000
 11
38.510991
 21
4.260624
 31
-0.000000
  0
LINE
  8
Layer 1
 62
     7
  6
CONTINUOUS
 10
38.510991
 20
4.260624
 30
-0.000000
 11
38.582960
 21
4.262849
 31
-0.000000
  0
LINE
  8
Layer 1
 62
     7
  6
CONTINUOUS
 10
38.582960
 20
4.262849
 30
-0.000000
 11
38.612616
 21
4.267894
 31
-0.000000
  0
LINE
  8
Layer 1
 62
     7
  6
CONTINUOUS
 10
38.612616
 20
4.267894
 30
-0.000000
 11
38.639344
 21
4.275175
 31
-0.000000
  0
LINE
  8
Layer 1
 62
     7
  6
CONTINUOUS
 10
38.639344
 20
4.275175
 30
-0.000000
 11
38.663484
 21
4.284399
 31
-0.000000
  0
ARC
  8
Default
 62
     7
  6
CONTINUOUS
 10
38.446685
 20
5.053444
 30
-0.000000
 40
0.799019
 50
285.743486
 51
331.077313
  0
LINE
  8
Layer 1
 62
     7
  6
CONTINUOUS
 10
39.146045
 20
4.667015
 30
-0.000000
 11
39.146228
 21
4.667111
 31
-0.000000
  0
LINE
  8
Layer 1
 62
     7
  6
CONTINUOUS
 10
39.146228
 20
4.667111
 30
-0.000000
 11
39.194902
 21
4.741197
 31
-0.000000
  0
LINE
  8
Layer 1
 62
     7
  6
CONTINUOUS
 10
39.194902
 20
4.741197
 30
-0.000000
 11
39.231540
 21
4.810654
 31
-0.000000
  0
LINE
  8
Layer 1
 62
     7
  6
CONTINUOUS
 10
39.231540
 20
4.810654
 30
-0.000000
 11
39.257296
 21
4.884094
 31
-0.000000
  0
LINE
  8
Layer 1
 62
     7
  6
CONTINUOUS
 10
39.257296
 20
4.884094
 30
-0.000000
 11
39.273325
 21
4.970132
 31
-0.000000
  0
LINE
  8
Layer 1
 62
     7
  6
CONTINUOUS
 10
39.273325
 20
4.970132
 30
-0.000000
 11
39.280781
 21
5.077382
 31
-0.000000
  0
LINE
  8
Layer 1
 62
     7
  6
CONTINUOUS
 10
39.280781
 20
5.077382
 30
-0.000000
 11
39.280981
 21
5.759862
 31
-0.000000
  0
LINE
  8
Layer 1
 62
     7
  6
CONTINUOUS
 10
39.280981
 20
5.759862
 30
-0.000000
 11
39.650091
 21
5.806008
 31
-0.000000
  0
LINE
  8
Layer 1
 62
     7
  6
CONTINUOUS
 10
39.650091
 20
5.806008
 30
-0.000000
 11
41.383406
 21
6.022705
 31
-0.000000
  0
LINE
  8
Layer 1
 62
     7
  6
CONTINUOUS
 10
41.383406
 20
6.022705
 30
-0.000000
 11
41.386851
 21
4.617266
 31
-0.000000
  0
LINE
  8
Layer 1
 62
     7
  6
CONTINUOUS
 10
41.386851
 20
4.617266
 30
-0.000000
 11
41.034169
 21
4.664605
 31
-0.000000
  0
LINE
  8
Layer 1
 62
     7
  6
CONTINUOUS
 10
41.034169
 20
4.664605
 30
-0.000000
 11
41.112187
 21
4.260098
 31
-0.000000
  0
LINE
  8
Layer 1
 62
     7
  6
CONTINUOUS
 10
41.112187
 20
4.260098
 30
-0.000000
 11
41.202680
 21
4.260294
 31
-0.000000
  0
ARC
  8
Default
 62
     7
  6
CONTINUOUS
 10
41.644524
 20
3.476219
 30
0.000000
 40
0.900000
 50
119.402207
 51
137.576671
  0
LINE
  8
Default
 62
     7
  6
CONTINUOUS
 10
40.980161
 20
4.083361
 30
0.000000
 11
40.563508
 21
4.435340
 31
0.000000
  0
LINE
  8
Default
 62
     7
  6
CONTINUOUS
 10
40.432033
 20
4.467208
 30
0.000000
 11
40.563508
 21
4.435340
 31
0.000000
  0
LINE
  8
Default
 62
     7
  6
CONTINUOUS
 10
40.432033
 20
4.467208
 30
0.000000
 11
40.485423
 21
4.342907
 31
0.000000
  0
LINE
  8
Default
 62
     7
  6
CONTINUOUS
 10
40.904695
 20
3.988716
 30
0.000000
 11
40.485423
 21
4.342907
 31
0.000000
  0
ARC
  8
Default
 62
     7
  6
CONTINUOUS
 10
41.644524
 20
3.476219
 30
0.000000
 40
0.900000
 50
145.288682
 51
215.037976
  0
LINE
  8
Default
 62
     7
  6
CONTINUOUS
 10
40.478686
 20
2.626176
 30
0.000000
 11
40.907629
 21
2.959511
 31
0.000000
  0
LINE
  8
Default
 62
     7
  6
CONTINUOUS
 10
40.420266
 20
2.504157
 30
0.000000
 11
40.478686
 21
2.626176
 31
0.000000
  0
LINE
  8
Default
 62
     7
  6
CONTINUOUS
 10
40.420266
 20
2.504157
 30
0.000000
 11
40.552933
 21
2.530633
 31
0.000000
  0
LINE
  8
Default
 62
     7
  6
CONTINUOUS
 10
40.552933
 20
2.530633
 30
0.000000
 11
40.983614
 21
2.865319
 31
0.000000
  0
ARC
  8
Default
 62
     7
  6
CONTINUOUS
 10
41.644524
 20
3.476219
 30
0.000000
 40
0.900000
 50
222.748165
 51
314.392015
  0
LINE
  8
Default
 62
     7
  6
CONTINUOUS
 10
42.274131
 20
2.833105
 30
0.000000
 11
42.681830
 21
2.488691
 31
0.000000
  0
LINE
  8
Default
 62
     7
  6
CONTINUOUS
 10
42.681830
 20
2.488691
 30
0.000000
 11
42.813305
 21
2.456823
 31
0.000000
  0
LINE
  8
Default
 62
     7
  6
CONTINUOUS
 10
42.759914
 20
2.581124
 30
0.000000
 11
42.813305
 21
2.456823
 31
0.000000
  0
LINE
  8
Default
 62
     7
  6
CONTINUOUS
 10
42.354736
 20
2.923409
 30
0.000000
 11
42.759914
 21
2.581124
 31
0.000000
  0
ARC
  8
Default
 62
     7
  6
CONTINUOUS
 10
41.644524
 20
3.476219
 30
0.000000
 40
0.900000
 50
322.103797
 51
360.000000
  0
ARC
  8
Default
 62
     7
  6
CONTINUOUS
 10
41.644524
 20
3.476219
 30
0.000000
 40
0.900000
 50
0.000000
 51
32.969320
  0
LINE
  8
Default
 62
     7
  6
CONTINUOUS
 10
42.399589
 20
3.965990
 30
0.000000
 11
42.827194
 21
4.298285
 31
0.000000
  0
LINE
  8
Default
 62
     7
  6
CONTINUOUS
 10
42.827194
 20
4.298285
 30
0.000000
 11
42.885613
 21
4.420303
 31
0.000000
  0
LINE
  8
Default
 62
     7
  6
CONTINUOUS
 10
42.885613
 20
4.420303
 30
0.000000
 11
42.752947
 21
4.393827
 31
0.000000
  0
LINE
  8
Default
 62
     7
  6
CONTINUOUS
 10
42.327055
 20
4.062863
 30
0.000000
 11
42.752947
 21
4.393827
 31
0.000000
  0
ARC
  8
Default
 62
     7
  6
CONTINUOUS
 10
41.644524
 20
3.476219
 30
0.000000
 40
0.900000
 50
40.679473
 51
60.845512
  0
LINE
  8
Layer 1
 62
     7
  6
CONTINUOUS
 10
42.082973
 20
4.262197
 30
-0.000000
 11
42.186732
 21
4.262421
 31
-0.000000
  0
LINE
  8
Layer 1
 62
     7
  6
CONTINUOUS
 10
42.186732
 20
4.262421
 30
-0.000000
 11
42.261866
 21
4.682147
 31
-0.000000
  0
LINE
  8
Layer 1
 62
     7
  6
CONTINUOUS
 10
42.261866
 20
4.682147
 30
-0.000000
 11
41.925766
 21
4.599083
 31
-0.000000
  0
LINE
  8
Layer 1
 62
     7
  6
CONTINUOUS
 10
41.925766
 20
4.599083
 30
-0.000000
 11
41.925969
 21
4.849413
 31
-0.000000
  0
LINE
  8
Layer 1
 62
     7
  6
CONTINUOUS
 10
41.925969
 20
4.849413
 30
-0.000000
 11
41.926967
 21
6.080698
 31
-0.000000
  0
LINE
  8
Layer 1
 62
     7
  6
CONTINUOUS
 10
41.926967
 20
6.080698
 30
-0.000000
 11
42.151008
 21
6.108797
 31
-0.000000
  0
LINE
  8
Layer 1
 62
     7
  6
CONTINUOUS
 10
42.151008
 20
6.108797
 30
-0.000000
 11
45.248005
 21
6.497219
 31
-0.000000
  0
LINE
  8
Layer 1
 62
     7
  6
CONTINUOUS
 10
45.248005
 20
6.497219
 30
-0.000000
 11
45.249319
 21
6.283097
 31
-0.000000
  0
LINE
  8
Layer 1
 62
     7
  6
CONTINUOUS
 10
45.249319
 20
6.283097
 30
-0.000000
 11
45.255775
 21
5.230513
 31
-0.000000
  0
LINE
  8
Layer 1
 62
     7
  6
CONTINUOUS
 10
45.255775
 20
5.230513
 30
-0.000000
 11
44.832423
 21
5.342272
 31
-0.000000
  0
ARC
  8
Default
 62
     7
  6
CONTINUOUS
 10
44.367150
 20
4.963431
 30
0.000000
 40
0.600000
 50
39.153700
 51
351.063062
  0
LINE
  8
Layer 1
 62
     7
  6
CONTINUOUS
 10
44.959866
 20
4.870222
 30
-0.000000
 11
45.203558
 21
4.870222
 31
-0.000000
  0
ARC
  8
Default
 62
     7
  6
CONTINUOUS
 10
45.500267
 20
4.348721
 30
0.000000
 40
0.600000
 50
119.637756
 51
360.000000
  0
ARC
  8
Default
 62
     7
  6
CONTINUOUS
 10
45.500267
 20
4.348721
 30
0.000000
 40
0.600000
 50
0.000000
 51
60.128963
  0
LINE
  8
Layer 1
 62
     7
  6
CONTINUOUS
 10
45.799097
 20
4.869010
 30
-0.000000
 11
45.902293
 21
4.873605
 31
-0.000000
  0
LINE
  8
Layer 1
 62
     7
  6
CONTINUOUS
 10
45.902293
 20
4.873605
 30
-0.000000
 11
45.928903
 21
4.879544
 31
-0.000000
  0
LINE
  8
Layer 1
 62
     7
  6
CONTINUOUS
 10
45.928903
 20
4.879544
 30
-0.000000
 11
45.953177
 21
4.888262
 31
-0.000000
  0
LINE
  8
Layer 1
 62
     7
  6
CONTINUOUS
 10
45.953177
 20
4.888262
 30
-0.000000
 11
45.975223
 21
4.899617
 31
-0.000000
  0
LINE
  8
Layer 1
 62
     7
  6
CONTINUOUS
 10
45.975223
 20
4.899617
 30
-0.000000
 11
46.022921
 21
4.932764
 31
-0.000000
  0
ARC
  8
Default
 62
     7
  6
CONTINUOUS
 10
46.620242
 20
4.989403
 30
0.000000
 40
0.600000
 50
185.416681
 51
360.000000
  0
ARC
  8
Default
 62
     7
  6
CONTINUOUS
 10
46.620242
 20
4.989403
 30
0.000000
 40
0.600000
 50
0.000000
 51
134.180530
  0
LINE
  8
Layer 1
 62
     7
  6
CONTINUOUS
 10
46.202089
 20
5.419691
 30
-0.000000
 11
45.790364
 21
5.209207
 31
-0.000000
  0
LINE
  8
Layer 1
 62
     7
  6
CONTINUOUS
 10
45.790364
 20
5.209207
 30
-0.000000
 11
45.790602
 21
5.298564
 31
-0.000000
  0
LINE
  8
Layer 1
 62
     7
  6
CONTINUOUS
 10
45.790602
 20
5.298564
 30
-0.000000
 11
45.793889
 21
6.535507
 31
-0.000000
  0
LINE
  8
Layer 1
 62
     7
  6
CONTINUOUS
 10
45.793889
 20
6.535507
 30
-0.000000
 11
46.365903
 21
6.597745
 31
-0.000000
  0
LINE
  8
Layer 1
 62
     7
  6
CONTINUOUS
 10
46.365903
 20
6.597745
 30
-0.000000
 11
49.180369
 21
6.903969
 31
-0.000000
  0
LINE
  8
Layer 1
 62
     7
  6
CONTINUOUS
 10
49.180369
 20
6.903969
 30
-0.000000
 11
49.188138
 21
5.840637
 31
-0.000000
  0
LINE
  8
Layer 1
 62
     7
  6
CONTINUOUS
 10
49.188138
 20
5.840637
 30
-0.000000
 11
48.909658
 21
5.920078
 31
-0.000000
  0
LINE
  8
Default
 62
     7
  6
CONTINUOUS
 10
48.909658
 20
5.920078
 30
0.000000
 11
49.095074
 21
6.064167
 31
0.000000
  0
LINE
  8
Default
 62
     7
  6
CONTINUOUS
 10
49.095074
 20
6.064167
 30
0.000000
 11
49.153493
 21
6.186185
 31
0.000000
  0
LINE
  8
Default
 62
     7
  6
CONTINUOUS
 10
49.153493
 20
6.186185
 30
0.000000
 11
49.020827
 21
6.159709
 31
0.000000
  0
LINE
  8
Default
 62
     7
  6
CONTINUOUS
 10
48.774518
 20
5.968300
 30
0.000000
 11
49.020827
 21
6.159709
 31
0.000000
  0
ARC
  8
Default
 62
     7
  6
CONTINUOUS
 10
48.431616
 20
5.632416
 30
0.000000
 40
0.480000
 50
44.407709
 51
133.665447
  0
LINE
  8
Default
 62
     7
  6
CONTINUOUS
 10
48.100202
 20
5.979640
 30
0.000000
 11
47.806239
 21
6.227973
 31
0.000000
  0
LINE
  8
Default
 62
     7
  6
CONTINUOUS
 10
47.674764
 20
6.259842
 30
0.000000
 11
47.806239
 21
6.227973
 31
0.000000
  0
LINE
  8
Default
 62
     7
  6
CONTINUOUS
 10
47.674764
 20
6.259842
 30
0.000000
 11
47.728154
 21
6.135541
 31
0.000000
  0
LINE
  8
Default
 62
     7
  6
CONTINUOUS
 10
48.023889
 20
5.885711
 30
0.000000
 11
47.728154
 21
6.135541
 31
0.000000
  0
ARC
  8
Default
 62
     7
  6
CONTINUOUS
 10
48.431616
 20
5.632416
 30
0.000000
 40
0.480000
 50
148.149950
 51
210.836375
  0
LINE
  8
Default
 62
     7
  6
CONTINUOUS
 10
47.734197
 20
5.164684
 30
0.000000
 11
48.019472
 21
5.386374
 31
0.000000
  0
LINE
  8
Default
 62
     7
  6
CONTINUOUS
 10
47.675778
 20
5.042666
 30
0.000000
 11
47.734197
 21
5.164684
 31
0.000000
  0
LINE
  8
Default
 62
     7
  6
CONTINUOUS
 10
47.675778
 20
5.042666
 30
0.000000
 11
47.808444
 21
5.069142
 31
0.000000
  0
LINE
  8
Default
 62
     7
  6
CONTINUOUS
 10
47.808444
 20
5.069142
 30
0.000000
 11
48.094096
 21
5.291124
 31
0.000000
  0
ARC
  8
Default
 62
     7
  6
CONTINUOUS
 10
48.431616
 20
5.632416
 30
0.000000
 40
0.480000
 50
225.318318
 51
311.652672
  0
LINE
  8
Default
 62
     7
  6
CONTINUOUS
 10
48.750631
 20
5.273766
 30
0.000000
 11
49.044159
 21
5.025800
 31
0.000000
  0
LINE
  8
Default
 62
     7
  6
CONTINUOUS
 10
49.044159
 20
5.025800
 30
0.000000
 11
49.175634
 21
4.993932
 31
0.000000
  0
LINE
  8
Default
 62
     7
  6
CONTINUOUS
 10
49.122243
 20
5.118233
 30
0.000000
 11
49.175634
 21
4.993932
 31
0.000000
  0
LINE
  8
Default
 62
     7
  6
CONTINUOUS
 10
48.830192
 20
5.364951
 30
0.000000
 11
49.122243
 21
5.118233
 31
0.000000
  0
ARC
  8
Default
 62
     7
  6
CONTINUOUS
 10
48.431616
 20
5.632416
 30
0.000000
 40
0.480000
 50
326.136359
 51
349.894095
  0
LINE
  8
Layer 1
 62
     7
  6
CONTINUOUS
 10
48.904169
 20
5.548191
 30
-0.000000
 11
49.064012
 21
5.548191
 31
-0.000000
  0
LINE
  8
Layer 1
 62
     7
  6
CONTINUOUS
 10
49.064012
 20
5.548191
 30
-0.000000
 11
49.790476
 21
5.548191
 31
-0.000000
  0
LINE
  8
Layer 1
 62
     7
  6
CONTINUOUS
 10
49.790476
 20
5.548191
 30
-0.000000
 11
49.790572
 21
5.548191
 31
-0.000000
  0
LINE
  8
Layer 1
 62
     7
  6
CONTINUOUS
 10
49.790572
 20
5.548191
 30
-0.000000
 11
49.790811
 21
5.548191
 31
-0.000000
  0
LINE
  8
Layer 1
 62
     7
  6
CONTINUOUS
 10
49.790811
 20
5.548191
 30
-0.000000
 11
49.820949
 21
5.549444
 31
-0.000000
  0
LINE
  8
Layer 1
 62
     7
  6
CONTINUOUS
 10
49.820949
 20
5.549444
 30
-0.000000
 11
49.848275
 21
5.553095
 31
-0.000000
  0
LINE
  8
Layer 1
 62
     7
  6
CONTINUOUS
 10
49.848275
 20
5.553095
 30
-0.000000
 11
49.872954
 21
5.559040
 31
-0.000000
  0
LINE
  8
Layer 1
 62
     7
  6
CONTINUOUS
 10
49.872954
 20
5.559040
 30
-0.000000
 11
49.895152
 21
5.567177
 31
-0.000000
  0
LINE
  8
Layer 1
 62
     7
  6
CONTINUOUS
 10
49.895152
 20
5.567177
 30
-0.000000
 11
49.935834
 21
5.588098
 31
-0.000000
  0
ARC
  8
Default
 62
     7
  6
CONTINUOUS
 10
50.411999
 20
5.648649
 30
0.000000
 40
0.480000
 50
187.247002
 51
211.054956
  0
LINE
  8
Default
 62
     7
  6
CONTINUOUS
 10
49.727465
 20
5.188627
 30
0.000000
 11
50.000796
 21
5.401036
 31
0.000000
  0
LINE
  8
Default
 62
     7
  6
CONTINUOUS
 10
49.669046
 20
5.066609
 30
0.000000
 11
49.727465
 21
5.188627
 31
0.000000
  0
LINE
  8
Default
 62
     7
  6
CONTINUOUS
 10
49.669046
 20
5.066609
 30
0.000000
 11
49.801712
 21
5.093085
 31
0.000000
  0
LINE
  8
Default
 62
     7
  6
CONTINUOUS
 10
49.801712
 20
5.093085
 30
0.000000
 11
50.075785
 21
5.306070
 31
0.000000
  0
ARC
  8
Default
 62
     7
  6
CONTINUOUS
 10
50.411999
 20
5.648649
 30
0.000000
 40
0.480000
 50
225.537224
 51
313.362190
  0
LINE
  8
Default
 62
     7
  6
CONTINUOUS
 10
50.741571
 20
5.299675
 30
0.000000
 11
51.037427
 21
5.049744
 31
0.000000
  0
LINE
  8
Default
 62
     7
  6
CONTINUOUS
 10
51.037427
 20
5.049744
 30
0.000000
 11
51.168901
 21
5.017875
 31
0.000000
  0
LINE
  8
Layer 1
 62
     7
  6
CONTINUOUS
 10
21.789354
 20
4.531318
 30
-0.000000
 11
21.789353
 21
4.531319
 31
-0.000000
  0
LINE
  8
Layer 1
 62
     7
  6
CONTINUOUS
 10
21.789353
 20
4.531319
 30
-0.000000
 11
21.789351
 21
4.531321
 31
-0.000000
  0
LINE
  8
Default
 62
     7
  6
CONTINUOUS
 10
51.115511
 20
5.142176
 30
0.000000
 11
51.168901
 21
5.017875
 31
0.000000
  0
LINE
  8
Default
 62
     7
  6
CONTINUOUS
 10
50.818375
 20
5.393190
 30
0.000000
 11
51.115511
 21
5.142176
 31
0.000000
  0
ARC
  8
Default
 62
     7
  6
CONTINUOUS
 10
50.411999
 20
5.648649
 30
0.000000
 40
0.480000
 50
327.845418
 51
360.000000
  0
ARC
  8
Default
 62
     7
  6
CONTINUOUS
 10
50.411999
 20
5.648649
 30
0.000000
 40
0.480000
 50
0.000000
 51
29.745032
  0
LINE
  8
Default
 62
     7
  6
CONTINUOUS
 10
50.828755
 20
5.886796
 30
0.000000
 11
51.111551
 21
6.106559
 31
0.000000
  0
LINE
  8
Default
 62
     7
  6
CONTINUOUS
 10
51.111551
 20
6.106559
 30
0.000000
 11
51.169970
 21
6.228578
 31
0.000000
  0
LINE
  8
Default
 62
     7
  6
CONTINUOUS
 10
51.169970
 20
6.228578
 30
0.000000
 11
51.037304
 21
6.202102
 31
0.000000
  0
LINE
  8
Default
 62
     7
  6
CONTINUOUS
 10
50.755950
 20
5.983459
 30
0.000000
 11
51.037304
 21
6.202102
 31
0.000000
  0
ARC
  8
Default
 62
     7
  6
CONTINUOUS
 10
50.411999
 20
5.648649
 30
0.000000
 40
0.480000
 50
44.228518
 51
131.276993
  0
LINE
  8
Default
 62
     7
  6
CONTINUOUS
 10
50.095343
 20
6.009383
 30
0.000000
 11
49.870697
 21
6.199159
 31
0.000000
  0
LINE
  8
Default
 62
     7
  6
CONTINUOUS
 10
49.739222
 20
6.231027
 30
0.000000
 11
49.870697
 21
6.199159
 31
0.000000
  0
LINE
  8
Default
 62
     7
  6
CONTINUOUS
 10
49.739222
 20
6.231027
 30
0.000000
 11
49.792612
 21
6.106726
 31
0.000000
  0
LINE
  8
Default
 62
     7
  6
CONTINUOUS
 10
49.977937
 20
5.950168
 30
0.000000
 11
49.792612
 21
6.106726
 31
0.000000
  0
LINE
  8
Layer 1
 62
     7
  6
CONTINUOUS
 10
49.977937
 20
5.950168
 30
-0.000000
 11
49.722809
 21
5.887116
 31
-0.000000
  0
LINE
  8
Layer 1
 62
     7
  6
CONTINUOUS
 10
49.722809
 20
5.887116
 30
-0.000000
 11
49.679210
 21
6.880385
 31
-0.000000
  0
LINE
  8
Layer 1
 62
     7
  6
CONTINUOUS
 10
49.679210
 20
6.880385
 30
-0.000000
 11
49.686399
 21
6.931595
 31
-0.000000
  0
LINE
  8
Layer 1
 62
     7
  6
CONTINUOUS
 10
49.686399
 20
6.931595
 30
-0.000000
 11
49.692689
 21
6.952978
 31
-0.000000
  0
LINE
  8
Layer 1
 62
     7
  6
CONTINUOUS
 10
49.692689
 20
6.952978
 30
-0.000000
 11
49.701009
 21
6.971804
 31
-0.000000
  0
LINE
  8
Layer 1
 62
     7
  6
CONTINUOUS
 10
49.701009
 20
6.971804
 30
-0.000000
 11
49.711530
 21
6.988267
 31
-0.000000
  0
LINE
  8
Layer 1
 62
     7
  6
CONTINUOUS
 10
49.711530
 20
6.988267
 30
-0.000000
 11
49.724427
 21
7.002560
 31
-0.000000
  0
LINE
  8
Layer 1
 62
     7
  6
CONTINUOUS
 10
49.724427
 20
7.002560
 30
-0.000000
 11
49.739871
 21
7.014876
 31
-0.000000
  0
LINE
  8
Layer 1
 62
     7
  6
CONTINUOUS
 10
49.739871
 20
7.014876
 30
-0.000000
 11
49.758037
 21
7.025409
 31
-0.000000
  0
LINE
  8
Layer 1
 62
     7
  6
CONTINUOUS
 10
49.758037
 20
7.025409
 30
-0.000000
 11
49.779096
 21
7.034352
 31
-0.000000
  0
LINE
  8
Layer 1
 62
     7
  6
CONTINUOUS
 10
49.779096
 20
7.034352
 30
-0.000000
 11
49.830591
 21
7.048243
 31
-0.000000
  0
LINE
  8
Layer 1
 62
     7
  6
CONTINUOUS
 10
49.830591
 20
7.048243
 30
-0.000000
 11
49.975928
 21
7.065459
 31
-0.000000
  0
LINE
  8
Layer 1
 62
     7
  6
CONTINUOUS
 10
49.975928
 20
7.065459
 30
-0.000000
 11
53.911885
 21
7.513865
 31
-0.000000
  0
LINE
  8
Layer 1
 62
     7
  6
CONTINUOUS
 10
53.911885
 20
7.513865
 30
-0.000000
 11
57.744124
 21
7.883540
 31
-0.000000
  0
LINE
  8
Layer 1
 62
     7
  6
CONTINUOUS
 10
57.744124
 20
7.883540
 30
-0.000000
 11
57.995368
 21
7.864165
 31
-0.000000
  0
ARC
  8
Default
 62
     7
  6
CONTINUOUS
 10
56.525185
 20
3.615981
 30
0.000000
 40
4.495387
 50
63.268328
 51
70.910635
  0
ARC
  8
Default
 62
     7
  6
CONTINUOUS
 10
56.957615
 20
7.647267
 30
0.000000
 40
1.589737
 50
359.410610
 51
405.903296
  0
LINE
  8
Default
 62
     7
  6
CONTINUOUS
 10
58.063867
 20
8.788963
 30
-0.000000
 11
58.010312
 21
8.842953
 31
-0.000000
  0
LINE
  8
Layer 1
 62
     7
  6
CONTINUOUS
 10
58.010312
 20
8.842953
 30
-0.000000
 11
57.892702
 21
8.913393
 31
-0.000000
  0
LINE
  8
Layer 1
 62
     7
  6
CONTINUOUS
 10
57.892702
 20
8.913393
 30
-0.000000
 11
57.755760
 21
8.971389
 31
-0.000000
  0
LINE
  8
Layer 1
 62
     7
  6
CONTINUOUS
 10
57.755760
 20
8.971389
 30
-0.000000
 11
57.601182
 21
9.017819
 31
-0.000000
  0
LINE
  8
Layer 1
 62
     7
  6
CONTINUOUS
 10
57.601182
 20
9.017819
 30
-0.000000
 11
57.245910
 21
9.079491
 31
-0.000000
  0
LINE
  8
Layer 1
 62
     7
  6
CONTINUOUS
 10
57.245910
 20
9.079491
 30
-0.000000
 11
56.398424
 21
9.102659
 31
-0.000000
  0
LINE
  8
Layer 1
 62
     7
  6
CONTINUOUS
 10
56.398424
 20
9.102659
 30
-0.000000
 11
49.461951
 21
8.523275
 31
-0.000000
  0
LINE
  8
Layer 1
 62
     7
  6
CONTINUOUS
 10
49.461951
 20
8.523275
 30
-0.000000
 11
42.704026
 21
7.944760
 31
-0.000000
  0
LINE
  8
Layer 1
 62
     7
  6
CONTINUOUS
 10
42.704026
 20
7.944760
 30
-0.000000
 11
40.868142
 21
7.774606
 31
-0.000000
  0
LINE
  8
Layer 1
 62
     7
  6
CONTINUOUS
 10
40.868142
 20
7.774606
 30
-0.000000
 11
40.022596
 21
7.726847
 31
-0.000000
  0
LINE
  8
Layer 1
 62
     7
  6
CONTINUOUS
 10
40.022596
 20
7.726847
 30
-0.000000
 11
39.552794
 21
7.715703
 31
-0.000000
  0
LINE
  8
Layer 1
 62
     7
  6
CONTINUOUS
 10
39.552794
 20
7.715703
 30
-0.000000
 11
39.552794
 21
8.851000
 31
-0.000000
  0
LINE
  8
Layer 1
 62
     7
  6
CONTINUOUS
 10
39.552794
 20
8.851000
 30
-0.000000
 11
39.552794
 21
14.425932
 31
-0.000000
  0
LINE
  8
Layer 1
 62
     7
  6
CONTINUOUS
 10
39.552794
 20
14.425932
 30
-0.000000
 11
39.552794
 21
14.428745
 31
-0.000000
  0
LINE
  8
Layer 1
 62
     7
  6
CONTINUOUS
 10
39.552794
 20
14.428745
 30
-0.000000
 11
39.552794
 21
14.429117
 31
-0.000000
  0
LINE
  8
Layer 1
 62
     7
  6
CONTINUOUS
 10
39.552794
 20
14.429117
 30
-0.000000
 11
39.515347
 21
15.101762
 31
-0.000000
  0
LINE
  8
Layer 1
 62
     7
  6
CONTINUOUS
 10
39.515347
 20
15.101762
 30
-0.000000
 11
39.463816
 21
15.412651
 31
-0.000000
  0
LINE
  8
Layer 1
 62
     7
  6
CONTINUOUS
 10
39.463816
 20
15.412651
 30
-0.000000
 11
39.386193
 21
15.696595
 31
-0.000000
  0
LINE
  8
Layer 1
 62
     7
  6
CONTINUOUS
 10
39.386193
 20
15.696595
 30
-0.000000
 11
39.279310
 21
15.946103
 31
-0.000000
  0
LINE
  8
Layer 1
 62
     7
  6
CONTINUOUS
 10
12.704221
 20
4.870222
 30
-0.000000
 11
12.704235
 21
4.870222
 31
-0.000000
  0
LINE
  8
Layer 1
 62
     7
  6
CONTINUOUS
 10
39.219641
 20
16.046003
 30
-0.000000
 11
39.279310
 21
15.946103
 31
-0.000000
  0
ARC
  8
Default
 62
     7
  6
CONTINUOUS
 10
39.202470
 20
16.035747
 30
-0.000000
 40
0.020000
 50
30.849449
 51
90.000000
  0
LINE
  8
Layer 1
 62
     7
  6
CONTINUOUS
 10
39.202470
 20
16.055747
 30
-0.000000
 11
39.156738
 21
16.055747
 31
-0.000000
  0
ARC
  8
Default
 62
     7
  6
CONTINUOUS
 10
39.156738
 20
16.035747
 30
-0.000000
 40
0.020000
 50
90.000000
 51
146.263682
  0
LINE
  8
Layer 1
 62
     7
  6
CONTINUOUS
 10
39.140106
 20
16.046855
 30
-0.000000
 11
39.089276
 21
15.970742
 31
-0.000000
  0
ARC
  8
Default
 62
     7
  6
CONTINUOUS
 10
42.063985
 20
14.640901
 30
-0.000000
 40
3.258431
 50
155.913025
 51
181.742331
  0
LINE
  8
Layer 1
 62
     7
  6
CONTINUOUS
 10
38.807061
 20
14.541830
 30
-0.000000
 11
38.807061
 21
14.002833
 31
-0.000000
  0
LINE
  8
Layer 1
 62
     7
  6
CONTINUOUS
 10
38.807061
 20
14.002833
 30
-0.000000
 11
38.807061
 21
8.352359
 31
-0.000000
  0
LINE
  8
Layer 1
 62
     7
  6
CONTINUOUS
 10
38.807061
 20
8.352359
 30
-0.000000
 11
38.807061
 21
8.124216
 31
-0.000000
  0
LINE
  8
Layer 1
 62
     7
  6
CONTINUOUS
 10
38.807061
 20
8.124216
 30
-0.000000
 11
35.007542
 21
8.124216
 31
-0.000000
  0
ARC
  8
Default
 62
     7
  6
CONTINUOUS
 10
34.298558
 20
10.531347
 30
0.000000
 40
2.509369
 50
286.411529
 51
319.646522
  0
LINE
  8
Default
 62
     7
  6
CONTINUOUS
 10
36.227156
 20
8.929782
 30
-0.000000
 11
36.210859
 21
8.906527
 31
-0.000000
  0
LINE
  8
Layer 1
 62
     7
  6
CONTINUOUS
 10
36.227156
 20
8.929782
 30
-0.000000
 11
36.274216
 21
8.989285
 31
-0.000000
  0
LINE
  8
Layer 1
 62
     7
  6
CONTINUOUS
 10
36.274216
 20
8.989285
 30
-0.000000
 11
36.398487
 21
9.182686
 31
-0.000000
  0
LINE
  8
Layer 1
 62
     7
  6
CONTINUOUS
 10
36.398487
 20
9.182686
 30
-0.000000
 11
36.608423
 21
9.619779
 31
-0.000000
  0
LINE
  8
Layer 1
 62
     7
  6
CONTINUOUS
 10
36.608423
 20
9.619779
 30
-0.000000
 11
36.757234
 21
10.095534
 31
-0.000000
  0
LINE
  8
Layer 1
 62
     7
  6
CONTINUOUS
 10
36.757234
 20
10.095534
 30
-0.000000
 11
36.833340
 21
10.575878
 31
-0.000000
  0
LINE
  8
Layer 1
 62
     7
  6
CONTINUOUS
 10
36.833340
 20
10.575878
 30
-0.000000
 11
36.840193
 21
10.820775
 31
-0.000000
  0
LINE
  8
Layer 1
 62
     7
  6
CONTINUOUS
 10
36.840193
 20
10.820775
 30
-0.000000
 11
36.811552
 21
11.128073
 31
-0.000000
  0
LINE
  8
Layer 1
 62
     7
  6
CONTINUOUS
 10
36.811552
 20
11.128073
 30
-0.000000
 11
36.742746
 21
11.433268
 31
-0.000000
  0
LINE
  8
Layer 1
 62
     7
  6
CONTINUOUS
 10
36.742746
 20
11.433268
 30
-0.000000
 11
36.636960
 21
11.731700
 31
-0.000000
  0
LINE
  8
Layer 1
 62
     7
  6
CONTINUOUS
 10
36.636960
 20
11.731700
 30
-0.000000
 11
36.497377
 21
12.018707
 31
-0.000000
  0
LINE
  8
Layer 1
 62
     7
  6
CONTINUOUS
 10
36.497377
 20
12.018707
 30
-0.000000
 11
36.327182
 21
12.289628
 31
-0.000000
  0
LINE
  8
Layer 1
 62
     7
  6
CONTINUOUS
 10
36.327182
 20
12.289628
 30
-0.000000
 11
36.129559
 21
12.539800
 31
-0.000000
  0
LINE
  8
Layer 1
 62
     7
  6
CONTINUOUS
 10
36.129559
 20
12.539800
 30
-0.000000
 11
35.907691
 21
12.764563
 31
-0.000000
  0
LINE
  8
Layer 1
 62
     7
  6
CONTINUOUS
 10
35.907691
 20
12.764563
 30
-0.000000
 11
35.664763
 21
12.959254
 31
-0.000000
  0
LINE
  8
Layer 1
 62
     7
  6
CONTINUOUS
 10
35.664763
 20
12.959254
 30
-0.000000
 11
35.403958
 21
13.119213
 31
-0.000000
  0
LINE
  8
Layer 1
 62
     7
  6
CONTINUOUS
 10
35.403958
 20
13.119213
 30
-0.000000
 11
35.128462
 21
13.239778
 31
-0.000000
  0
LINE
  8
Layer 1
 62
     7
  6
CONTINUOUS
 10
35.128462
 20
13.239778
 30
-0.000000
 11
34.841457
 21
13.316287
 31
-0.000000
  0
LINE
  8
Layer 1
 62
     7
  6
CONTINUOUS
 10
34.841457
 20
13.316287
 30
-0.000000
 11
34.546128
 21
13.344079
 31
-0.000000
  0
LINE
  8
Layer 1
 62
     7
  6
CONTINUOUS
 10
34.546128
 20
13.344079
 30
-0.000000
 11
34.535625
 21
13.344112
 31
-0.000000
  0
LINE
  8
Layer 1
 62
     7
  6
CONTINUOUS
 10
34.535625
 20
13.344112
 30
-0.000000
 11
34.535595
 21
13.344112
 31
-0.000000
  0
LINE
  8
Layer 1
 62
     7
  6
CONTINUOUS
 10
34.535595
 20
13.344112
 30
-0.000000
 11
34.535474
 21
13.344112
 31
-0.000000
  0
LINE
  8
Layer 1
 62
     7
  6
CONTINUOUS
 10
34.535474
 20
13.344112
 30
-0.000000
 11
34.534980
 21
13.344112
 31
-0.000000
  0
LINE
  8
Layer 1
 62
     7
  6
CONTINUOUS
 10
34.534980
 20
13.344112
 30
-0.000000
 11
34.529802
 21
13.344112
 31
-0.000000
  0
LINE
  8
Layer 1
 62
     7
  6
CONTINUOUS
 10
34.529802
 20
13.344112
 30
-0.000000
 11
34.505517
 21
13.344112
 31
-0.000000
  0
LINE
  8
Layer 1
 62
     7
  6
CONTINUOUS
 10
34.505517
 20
13.344112
 30
-0.000000
 11
34.050515
 21
13.344112
 31
-0.000000
  0
LINE
  8
Layer 1
 62
     7
  6
CONTINUOUS
 10
34.050515
 20
13.344112
 30
-0.000000
 11
33.997425
 21
13.344112
 31
-0.000000
  0
LINE
  8
Layer 1
 62
     7
  6
CONTINUOUS
 10
33.997425
 20
13.344112
 30
-0.000000
 11
33.993583
 21
13.344112
 31
-0.000000
  0
LINE
  8
Layer 1
 62
     7
  6
CONTINUOUS
 10
33.993583
 20
13.344112
 30
-0.000000
 11
33.993306
 21
13.344112
 31
-0.000000
  0
LINE
  8
Layer 1
 62
     7
  6
CONTINUOUS
 10
33.993274
 20
13.344112
 30
-0.000000
 11
33.993060
 21
13.344112
 31
-0.000000
  0
LINE
  8
Layer 1
 62
     7
  6
CONTINUOUS
 10
33.993060
 20
13.344112
 30
-0.000000
 11
33.811055
 21
13.329379
 31
-0.000000
  0
ARC
  8
Default
 62
     7
  6
CONTINUOUS
 10
34.434769
 20
10.772840
 30
-0.000000
 40
2.631522
 50
103.710527
 51
161.457558
  0
ARC
  8
Default
 62
     7
  6
CONTINUOUS
 10
31.505844
 20
11.755258
 30
-0.000000
 40
0.457773
 50
198.908704
 51
341.457558
  0
LINE
  8
Layer 1
 62
     7
  6
CONTINUOUS
 10
31.072774
 20
11.606912
 30
-0.000000
 11
31.045323
 21
11.687052
 31
-0.000000
  0
LINE
  8
Layer 1
 62
     7
  6
CONTINUOUS
 10
31.045323
 20
11.687052
 30
-0.000000
 11
30.896352
 21
11.977713
 31
-0.000000
  0
LINE
  8
Layer 1
 62
     7
  6
CONTINUOUS
 10
30.896352
 20
11.977713
 30
-0.000000
 11
30.709793
 21
12.243874
 31
-0.000000
  0
LINE
  8
Layer 1
 62
     7
  6
CONTINUOUS
 10
30.709793
 20
12.243874
 30
-0.000000
 11
30.491716
 21
12.477819
 31
-0.000000
  0
LINE
  8
Layer 1
 62
     7
  6
CONTINUOUS
 10
30.491716
 20
12.477819
 30
-0.000000
 11
30.248188
 21
12.671831
 31
-0.000000
  0
LINE
  8
Layer 1
 62
     7
  6
CONTINUOUS
 10
30.248188
 20
12.671831
 30
-0.000000
 11
30.118776
 21
12.751450
 31
-0.000000
  0
LINE
  8
Layer 1
 62
     7
  6
CONTINUOUS
 10
30.118776
 20
12.751450
 30
-0.000000
 11
29.985279
 21
12.818191
 31
-0.000000
  0
LINE
  8
Layer 1
 62
     7
  6
CONTINUOUS
 10
29.985279
 20
12.818191
 30
-0.000000
 11
29.848453
 21
12.871091
 31
-0.000000
  0
LINE
  8
Layer 1
 62
     7
  6
CONTINUOUS
 10
29.848453
 20
12.871091
 30
-0.000000
 11
29.709058
 21
12.909183
 31
-0.000000
  0
LINE
  8
Layer 1
 62
     7
  6
CONTINUOUS
 10
29.709058
 20
12.909183
 30
-0.000000
 11
29.567852
 21
12.931504
 31
-0.000000
  0
LINE
  8
Layer 1
 62
     7
  6
CONTINUOUS
 10
29.567852
 20
12.931504
 30
-0.000000
 11
29.450671
 21
12.937363
 31
-0.000000
  0
LINE
  8
Layer 1
 62
     7
  6
CONTINUOUS
 10
29.450671
 20
12.937363
 30
-0.000000
 11
29.450501
 21
12.937363
 31
-0.000000
  0
LINE
  8
Layer 1
 62
     7
  6
CONTINUOUS
 10
29.450501
 20
12.937363
 30
-0.000000
 11
29.449754
 21
12.937363
 31
-0.000000
  0
LINE
  8
Layer 1
 62
     7
  6
CONTINUOUS
 10
29.449754
 20
12.937363
 30
-0.000000
 11
29.441895
 21
12.937363
 31
-0.000000
  0
LINE
  8
Layer 1
 62
     7
  6
CONTINUOUS
 10
29.441895
 20
12.937363
 30
-0.000000
 11
29.366687
 21
12.937363
 31
-0.000000
  0
LINE
  8
Layer 1
 62
     7
  6
CONTINUOUS
 10
29.366687
 20
12.937363
 30
-0.000000
 11
29.330139
 21
12.937363
 31
-0.000000
  0
LINE
  8
Default
 62
     7
  6
CONTINUOUS
 10
23.104734
 20
12.104499
 30
0.000000
 11
23.236026
 21
11.981040
 31
0.000000
  0
ARC
  8
Default
 62
     7
  6
CONTINUOUS
 10
23.113687
 20
12.114019
 30
0.000000
 40
0.013068
 50
131.392773
 51
226.761033
  0
ARC
  8
WHITE
 62
     7
  6
CONTINUOUS
 10
24.208097
 20
10.872338
 30
0.000000
 40
1.668213
 50
131.243164
 51
131.392773
  0
ARC
  8
WHITE
 62
     7
  6
CONTINUOUS
 10
24.208097
 20
10.872338
 30
0.000000
 40
1.668213
 50
127.966528
 51
131.243164
  0
LINE
  8
Default
 62
     7
  6
CONTINUOUS
 10
23.181811
 20
12.187508
 30
0.000000
 11
23.193148
 21
12.195691
 31
0.000000
  0
ARC
  8
WHITE
 62
     7
  6
CONTINUOUS
 10
24.208097
 20
10.872338
 30
0.000000
 40
1.667748
 50
119.994817
 51
127.486500
  0
ARC
  8
WHITE
 62
     7
  6
CONTINUOUS
 10
24.599266
 20
12.227054
 30
0.000000
 40
1.228190
 50
175.813054
 51
244.179322
  0
ARC
  8
WHITE
 62
     7
  6
CONTINUOUS
 10
24.208097
 20
10.872338
 30
0.000000
 40
0.287656
 50
119.988238
 51
135.078979
  0
ARC
  8
WHITE
 62
     7
  6
CONTINUOUS
 10
24.235975
 20
12.281940
 30
0.000000
 40
1.228500
 50
190.762354
 51
259.135237
  0
ARC
  8
WHITE
 62
     7
  6
CONTINUOUS
 10
24.208097
 20
10.872338
 30
0.000000
 40
1.668213
 50
131.093554
 51
134.971243
  0
ARC
  8
Default
 62
     7
  6
CONTINUOUS
 10
23.120186
 20
12.119717
 30
0.000000
 40
0.013068
 50
35.725295
 51
131.093554
  0
LINE
  8
Default
 62
     7
  6
CONTINUOUS
 10
23.130795
 20
12.127348
 30
0.000000
 11
23.236026
 21
11.981040
 31
0.000000
  0
LINE
  8
Default
 62
     7
  6
CONTINUOUS
 10
22.630896
 20
11.385441
 30
0.000000
 11
22.806327
 21
11.344168
 31
0.000000
  0
ARC
  8
Default
 62
     7
  6
CONTINUOUS
 10
22.633888
 20
11.398161
 30
0.000000
 40
0.013068
 50
161.392773
 51
256.761033
  0
ARC
  8
WHITE
 62
     7
  6
CONTINUOUS
 10
24.202516
 20
10.870040
 30
0.000000
 40
1.668213
 50
161.243164
 51
161.392773
  0
ARC
  8
WHITE
 62
     7
  6
CONTINUOUS
 10
24.202516
 20
10.870040
 30
0.000000
 40
1.668213
 50
157.966528
 51
161.243164
  0
LINE
  8
Default
 62
     7
  6
CONTINUOUS
 10
22.656141
 20
11.495867
 30
0.000000
 11
22.661868
 21
11.508622
 31
0.000000
  0
ARC
  8
WHITE
 62
     7
  6
CONTINUOUS
 10
24.202516
 20
10.870040
 30
0.000000
 40
1.667748
 50
149.994817
 51
157.486500
  0
ARC
  8
WHITE
 62
     7
  6
CONTINUOUS
 10
23.863920
 20
12.238842
 30
0.000000
 40
1.228190
 50
205.813054
 51
274.179322
  0
ARC
  8
WHITE
 62
     7
  6
CONTINUOUS
 10
24.202516
 20
10.870040
 30
0.000000
 40
0.287656
 50
149.988238
 51
165.078979
  0
ARC
  8
WHITE
 62
     7
  6
CONTINUOUS
 10
23.521859
 20
12.104730
 30
0.000000
 40
1.228500
 50
220.762354
 51
289.135237
  0
ARC
  8
WHITE
 62
     7
  6
CONTINUOUS
 10
24.202516
 20
10.870040
 30
0.000000
 40
1.668213
 50
161.093554
 51
164.971243
  0
ARC
  8
Default
 62
     7
  6
CONTINUOUS
 10
22.636668
 20
11.406346
 30
0.000000
 40
0.013068
 50
65.725295
 51
161.093554
  0
LINE
  8
Default
 62
     7
  6
CONTINUOUS
 10
22.642040
 20
11.418259
 30
0.000000
 11
22.806327
 21
11.344168
 31
0.000000
  0
LINE
  8
Default
 62
     7
  6
CONTINUOUS
 10
22.580068
 20
10.525799
 30
0.000000
 11
22.752632
 21
10.577771
 31
0.000000
  0
ARC
  8
Default
 62
     7
  6
CONTINUOUS
 10
22.576300
 20
10.538311
 30
0.000000
 40
0.013068
 50
191.392773
 51
286.761033
  0
ARC
  8
WHITE
 62
     7
  6
CONTINUOUS
 10
24.198832
 20
10.865258
 30
0.000000
 40
1.668213
 50
191.243164
 51
191.392773
  0
ARC
  8
WHITE
 62
     7
  6
CONTINUOUS
 10
24.198832
 20
10.865258
 30
0.000000
 40
1.668213
 50
187.966528
 51
191.243164
  0
LINE
  8
Default
 62
     7
  6
CONTINUOUS
 10
22.546719
 20
10.634053
 30
0.000000
 11
22.545301
 21
10.647963
 31
0.000000
  0
ARC
  8
WHITE
 62
     7
  6
CONTINUOUS
 10
24.198832
 20
10.865258
 30
0.000000
 40
1.667748
 50
179.994817
 51
187.486500
  0
ARC
  8
WHITE
 62
     7
  6
CONTINUOUS
 10
23.221198
 20
11.881378
 30
0.000000
 40
1.228190
 50
235.813054
 51
304.179322
  0
ARC
  8
WHITE
 62
     7
  6
CONTINUOUS
 10
24.198832
 20
10.865258
 30
0.000000
 40
0.287656
 50
179.988238
 51
195.078979
  0
ARC
  8
WHITE
 62
     7
  6
CONTINUOUS
 10
22.992020
 20
11.594202
 30
0.000000
 40
1.228500
 50
250.762354
 51
319.135237
  0
ARC
  8
WHITE
 62
     7
  6
CONTINUOUS
 10
24.198832
 20
10.865258
 30
0.000000
 40
1.668213
 50
191.093554
 51
194.971243
  0
ARC
  8
Default
 62
     7
  6
CONTINUOUS
 10
22.574615
 20
10.546789
 30
0.000000
 40
0.013068
 50
95.725295
 51
191.093554
  0
LINE
  8
Default
 62
     7
  6
CONTINUOUS
 10
22.573311
 20
10.559792
 30
0.000000
 11
22.752632
 21
10.577771
 31
0.000000
  0
LINE
  8
Default
 62
     7
  6
CONTINUOUS
 10
22.965872
 20
9.755913
 30
0.000000
 11
23.089331
 21
9.887204
 31
0.000000
  0
ARC
  8
Default
 62
     7
  6
CONTINUOUS
 10
22.956352
 20
9.764865
 30
0.000000
 40
0.013068
 50
221.392773
 51
316.761033
  0
ARC
  8
WHITE
 62
     7
  6
CONTINUOUS
 10
24.198032
 20
10.859276
 30
0.000000
 40
1.668213
 50
221.243164
 51
221.392773
  0
ARC
  8
WHITE
 62
     7
  6
CONTINUOUS
 10
24.198032
 20
10.859276
 30
0.000000
 40
1.668213
 50
217.966528
 51
221.243164
  0
LINE
  8
Default
 62
     7
  6
CONTINUOUS
 10
22.882863
 20
9.832989
 30
0.000000
 11
22.874680
 21
9.844327
 31
0.000000
  0
ARC
  8
WHITE
 62
     7
  6
CONTINUOUS
 10
24.198032
 20
10.859276
 30
0.000000
 40
1.667748
 50
209.994817
 51
217.486500
  0
ARC
  8
WHITE
 62
     7
  6
CONTINUOUS
 10
22.843316
 20
11.250444
 30
0.000000
 40
1.228190
 50
265.813054
 51
334.179322
  0
ARC
  8
WHITE
 62
     7
  6
CONTINUOUS
 10
24.198032
 20
10.859276
 30
0.000000
 40
0.287656
 50
209.988238
 51
225.078979
  0
ARC
  8
WHITE
 62
     7
  6
CONTINUOUS
 10
22.788431
 20
10.887154
 30
0.000000
 40
1.228500
 50
280.762354
 51
349.135237
  0
ARC
  8
WHITE
 62
     7
  6
CONTINUOUS
 10
24.198032
 20
10.859276
 30
0.000000
 40
1.668213
 50
221.093554
 51
224.971243
  0
ARC
  8
Default
 62
     7
  6
CONTINUOUS
 10
22.950653
 20
9.771365
 30
0.000000
 40
0.013068
 50
125.725295
 51
221.093554
  0
LINE
  8
Default
 62
     7
  6
CONTINUOUS
 10
22.943023
 20
9.781973
 30
0.000000
 11
23.089331
 21
9.887204
 31
0.000000
  0
LINE
  8
Default
 62
     7
  6
CONTINUOUS
 10
23.684930
 20
9.282074
 30
0.000000
 11
23.726203
 21
9.457505
 31
0.000000
  0
ARC
  8
Default
 62
     7
  6
CONTINUOUS
 10
23.672209
 20
9.285067
 30
0.000000
 40
0.013068
 50
251.392773
 51
346.761033
  0
ARC
  8
WHITE
 62
     7
  6
CONTINUOUS
 10
24.200331
 20
10.853694
 30
0.000000
 40
1.668213
 50
251.243164
 51
251.392773
  0
ARC
  8
WHITE
 62
     7
  6
CONTINUOUS
 10
24.200331
 20
10.853694
 30
0.000000
 40
1.668213
 50
247.966528
 51
251.243164
  0
LINE
  8
Default
 62
     7
  6
CONTINUOUS
 10
23.574504
 20
9.307320
 30
0.000000
 11
23.561749
 21
9.313047
 31
0.000000
  0
ARC
  8
WHITE
 62
     7
  6
CONTINUOUS
 10
24.200331
 20
10.853694
 30
0.000000
 40
1.667748
 50
239.994817
 51
247.486500
  0
ARC
  8
WHITE
 62
     7
  6
CONTINUOUS
 10
22.831528
 20
10.515099
 30
0.000000
 40
1.228190
 50
295.813054
 51
364.179322
  0
ARC
  8
WHITE
 62
     7
  6
CONTINUOUS
 10
24.200331
 20
10.853694
 30
0.000000
 40
0.287656
 50
239.988238
 51
255.078979
  0
ARC
  8
WHITE
 62
     7
  6
CONTINUOUS
 10
22.965641
 20
10.173037
 30
0.000000
 40
1.228500
 50
310.762354
 51
379.135237
  0
ARC
  8
WHITE
 62
     7
  6
CONTINUOUS
 10
24.200331
 20
10.853694
 30
0.000000
 40
1.668213
 50
251.093554
 51
254.971243
  0
ARC
  8
Default
 62
     7
  6
CONTINUOUS
 10
23.664025
 20
9.287846
 30
0.000000
 40
0.013068
 50
155.725295
 51
251.093554
  0
LINE
  8
Default
 62
     7
  6
CONTINUOUS
 10
23.652112
 20
9.293219
 30
0.000000
 11
23.726203
 21
9.457505
 31
0.000000
  0
LINE
  8
Default
 62
     7
  6
CONTINUOUS
 10
24.544572
 20
9.231247
 30
0.000000
 11
24.492600
 21
9.403811
 31
0.000000
  0
ARC
  8
Default
 62
     7
  6
CONTINUOUS
 10
24.532059
 20
9.227478
 30
0.000000
 40
0.013068
 50
281.392773
 51
376.761033
  0
ARC
  8
WHITE
 62
     7
  6
CONTINUOUS
 10
24.205113
 20
10.850011
 30
0.000000
 40
1.668213
 50
281.243164
 51
281.392773
  0
ARC
  8
WHITE
 62
     7
  6
CONTINUOUS
 10
24.205113
 20
10.850011
 30
0.000000
 40
1.668213
 50
277.966528
 51
281.243164
  0
LINE
  8
Default
 62
     7
  6
CONTINUOUS
 10
24.436318
 20
9.197897
 30
0.000000
 11
24.422408
 21
9.196479
 31
0.000000
  0
ARC
  8
WHITE
 62
     7
  6
CONTINUOUS
 10
24.205113
 20
10.850011
 30
0.000000
 40
1.667748
 50
269.994817
 51
277.486500
  0
ARC
  8
WHITE
 62
     7
  6
CONTINUOUS
 10
23.188992
 20
9.872376
 30
0.000000
 40
1.228190
 50
325.813054
 51
394.179322
  0
ARC
  8
WHITE
 62
     7
  6
CONTINUOUS
 10
24.205113
 20
10.850011
 30
0.000000
 40
0.287656
 50
269.988238
 51
285.078979
  0
ARC
  8
WHITE
 62
     7
  6
CONTINUOUS
 10
23.476168
 20
9.643199
 30
0.000000
 40
1.228500
 50
340.762354
 51
409.135237
  0
ARC
  8
WHITE
 62
     7
  6
CONTINUOUS
 10
24.205113
 20
10.850011
 30
0.000000
 40
1.668213
 50
281.093554
 51
284.971243
  0
ARC
  8
Default
 62
     7
  6
CONTINUOUS
 10
24.523582
 20
9.225793
 30
0.000000
 40
0.013068
 50
185.725295
 51
281.093554
  0
LINE
  8
Default
 62
     7
  6
CONTINUOUS
 10
24.510579
 20
9.224489
 30
0.000000
 11
24.492600
 21
9.403811
 31
0.000000
  0
LINE
  8
Default
 62
     7
  6
CONTINUOUS
 10
25.314458
 20
9.617050
 30
0.000000
 11
25.183167
 21
9.740509
 31
0.000000
  0
ARC
  8
Default
 62
     7
  6
CONTINUOUS
 10
25.305506
 20
9.607530
 30
0.000000
 40
0.013068
 50
311.392773
 51
406.761033
  0
ARC
  8
WHITE
 62
     7
  6
CONTINUOUS
 10
24.211095
 20
10.849211
 30
0.000000
 40
1.668213
 50
311.243164
 51
311.392773
  0
ARC
  8
WHITE
 62
     7
  6
CONTINUOUS
 10
24.211095
 20
10.849211
 30
0.000000
 40
1.668213
 50
307.966528
 51
311.243164
  0
LINE
  8
Default
 62
     7
  6
CONTINUOUS
 10
25.237382
 20
9.534041
 30
0.000000
 11
25.226044
 21
9.525858
 31
0.000000
  0
ARC
  8
WHITE
 62
     7
  6
CONTINUOUS
 10
24.211095
 20
10.849211
 30
0.000000
 40
1.667748
 50
299.994817
 51
307.486500
  0
ARC
  8
WHITE
 62
     7
  6
CONTINUOUS
 10
23.819926
 20
9.494495
 30
0.000000
 40
1.228190
 50
355.813054
 51
424.179322
  0
ARC
  8
WHITE
 62
     7
  6
CONTINUOUS
 10
24.211095
 20
10.849211
 30
0.000000
 40
0.287656
 50
299.988238
 51
315.078979
  0
ARC
  8
WHITE
 62
     7
  6
CONTINUOUS
 10
24.183217
 20
9.439609
 30
0.000000
 40
1.228500
 50
10.762354
 51
79.135237
  0
ARC
  8
WHITE
 62
     7
  6
CONTINUOUS
 10
24.211095
 20
10.849211
 30
0.000000
 40
1.668213
 50
311.093554
 51
314.971243
  0
ARC
  8
Default
 62
     7
  6
CONTINUOUS
 10
25.299006
 20
9.601832
 30
0.000000
 40
0.013068
 50
215.725295
 51
311.093554
  0
LINE
  8
Default
 62
     7
  6
CONTINUOUS
 10
25.288397
 20
9.594201
 30
0.000000
 11
25.183167
 21
9.740509
 31
0.000000
  0
LINE
  8
Default
 62
     7
  6
CONTINUOUS
 10
25.788297
 20
10.336109
 30
0.000000
 11
25.612866
 21
10.377381
 31
0.000000
  0
ARC
  8
Default
 62
     7
  6
CONTINUOUS
 10
25.785304
 20
10.323388
 30
0.000000
 40
0.013068
 50
341.392773
 51
436.761033
  0
ARC
  8
WHITE
 62
     7
  6
CONTINUOUS
 10
24.216676
 20
10.851510
 30
0.000000
 40
1.668213
 50
341.243164
 51
341.392773
  0
ARC
  8
WHITE
 62
     7
  6
CONTINUOUS
 10
24.216676
 20
10.851510
 30
0.000000
 40
1.668213
 50
337.966528
 51
341.243164
  0
LINE
  8
Default
 62
     7
  6
CONTINUOUS
 10
25.763051
 20
10.225683
 30
0.000000
 11
25.757324
 21
10.212927
 31
0.000000
  0
ARC
  8
WHITE
 62
     7
  6
CONTINUOUS
 10
24.216676
 20
10.851510
 30
0.000000
 40
1.667748
 50
329.994817
 51
337.486500
  0
ARC
  8
WHITE
 62
     7
  6
CONTINUOUS
 10
24.555272
 20
9.482707
 30
0.000000
 40
1.228190
 50
25.813054
 51
94.179322
  0
ARC
  8
WHITE
 62
     7
  6
CONTINUOUS
 10
24.216676
 20
10.851510
 30
0.000000
 40
0.287656
 50
329.988238
 51
345.078979
  0
ARC
  8
WHITE
 62
     7
  6
CONTINUOUS
 10
24.897334
 20
9.616820
 30
0.000000
 40
1.228500
 50
40.762354
 51
109.135237
  0
ARC
  8
WHITE
 62
     7
  6
CONTINUOUS
 10
24.216676
 20
10.851510
 30
0.000000
 40
1.668213
 50
341.093554
 51
344.971243
  0
ARC
  8
Default
 62
     7
  6
CONTINUOUS
 10
25.782524
 20
10.315203
 30
0.000000
 40
0.013068
 50
245.725295
 51
341.093554
  0
LINE
  8
Default
 62
     7
  6
CONTINUOUS
 10
25.777152
 20
10.303291
 30
0.000000
 11
25.612866
 21
10.377381
 31
0.000000
  0
LINE
  8
Default
 62
     7
  6
CONTINUOUS
 10
25.839124
 20
11.195751
 30
0.000000
 11
25.666560
 21
11.143779
 31
0.000000
  0
ARC
  8
Default
 62
     7
  6
CONTINUOUS
 10
25.842892
 20
11.183238
 30
0.000000
 40
0.013068
 50
11.392773
 51
106.761033
  0
ARC
  8
WHITE
 62
     7
  6
CONTINUOUS
 10
24.220360
 20
10.856291
 30
0.000000
 40
1.668213
 50
11.243164
 51
11.392773
  0
ARC
  8
WHITE
 62
     7
  6
CONTINUOUS
 10
24.220360
 20
10.856291
 30
0.000000
 40
1.668213
 50
7.966528
 51
11.243164
  0
LINE
  8
Default
 62
     7
  6
CONTINUOUS
 10
25.872474
 20
11.087496
 30
0.000000
 11
25.873891
 21
11.073586
 31
0.000000
  0
ARC
  8
WHITE
 62
     7
  6
CONTINUOUS
 10
24.220360
 20
10.856291
 30
0.000000
 40
1.667748
 50
359.994817
 51
367.486500
  0
ARC
  8
WHITE
 62
     7
  6
CONTINUOUS
 10
25.197994
 20
9.840171
 30
0.000000
 40
1.228190
 50
55.813054
 51
124.179322
  0
ARC
  8
WHITE
 62
     7
  6
CONTINUOUS
 10
24.220360
 20
10.856291
 30
0.000000
 40
0.287656
 50
359.988238
 51
375.078979
  0
ARC
  8
WHITE
 62
     7
  6
CONTINUOUS
 10
25.427172
 20
10.127347
 30
0.000000
 40
1.228500
 50
70.762354
 51
139.135237
  0
ARC
  8
WHITE
 62
     7
  6
CONTINUOUS
 10
24.220360
 20
10.856291
 30
0.000000
 40
1.668213
 50
11.093554
 51
14.971243
  0
ARC
  8
Default
 62
     7
  6
CONTINUOUS
 10
25.844578
 20
11.174760
 30
0.000000
 40
0.013068
 50
275.725295
 51
371.093554
  0
LINE
  8
Default
 62
     7
  6
CONTINUOUS
 10
25.845881
 20
11.161757
 30
0.000000
 11
25.666560
 21
11.143779
 31
0.000000
  0
LINE
  8
Default
 62
     7
  6
CONTINUOUS
 10
25.453320
 20
11.965636
 30
0.000000
 11
25.329862
 21
11.834345
 31
0.000000
  0
ARC
  8
Default
 62
     7
  6
CONTINUOUS
 10
25.462841
 20
11.956684
 30
0.000000
 40
0.013068
 50
41.392773
 51
136.761033
  0
ARC
  8
WHITE
 62
     7
  6
CONTINUOUS
 10
24.221160
 20
10.862274
 30
0.000000
 40
1.668213
 50
41.243164
 51
41.392773
  0
ARC
  8
WHITE
 62
     7
  6
CONTINUOUS
 10
24.221160
 20
10.862274
 30
0.000000
 40
1.668213
 50
37.966528
 51
41.243164
  0
LINE
  8
Default
 62
     7
  6
CONTINUOUS
 10
25.536329
 20
11.888560
 30
0.000000
 11
25.544512
 21
11.877222
 31
0.000000
  0
ARC
  8
WHITE
 62
     7
  6
CONTINUOUS
 10
24.221160
 20
10.862274
 30
0.000000
 40
1.667748
 50
29.994817
 51
37.486500
  0
ARC
  8
WHITE
 62
     7
  6
CONTINUOUS
 10
25.575876
 20
10.471105
 30
0.000000
 40
1.228190
 50
85.813054
 51
154.179322
  0
ARC
  8
WHITE
 62
     7
  6
CONTINUOUS
 10
24.221160
 20
10.862274
 30
0.000000
 40
0.287656
 50
29.988238
 51
45.078979
  0
ARC
  8
WHITE
 62
     7
  6
CONTINUOUS
 10
25.630761
 20
10.834395
 30
0.000000
 40
1.228500
 50
100.762354
 51
169.135237
  0
ARC
  8
WHITE
 62
     7
  6
CONTINUOUS
 10
24.221160
 20
10.862274
 30
0.000000
 40
1.668213
 50
41.093554
 51
44.971243
  0
ARC
  8
Default
 62
     7
  6
CONTINUOUS
 10
25.468539
 20
11.950185
 30
0.000000
 40
0.013068
 50
305.725295
 51
401.093554
  0
LINE
  8
Default
 62
     7
  6
CONTINUOUS
 10
25.476169
 20
11.939576
 30
0.000000
 11
25.329862
 21
11.834345
 31
0.000000
  0
LINE
  8
Default
 62
     7
  6
CONTINUOUS
 10
24.734262
 20
12.439475
 30
0.000000
 11
24.692989
 21
12.264044
 31
0.000000
  0
ARC
  8
Default
 62
     7
  6
CONTINUOUS
 10
24.746983
 20
12.436482
 30
0.000000
 40
0.013068
 50
71.392773
 51
166.761033
  0
ARC
  8
WHITE
 62
     7
  6
CONTINUOUS
 10
24.218861
 20
10.867855
 30
0.000000
 40
1.668213
 50
71.243164
 51
71.392773
  0
ARC
  8
WHITE
 62
     7
  6
CONTINUOUS
 10
24.218861
 20
10.867855
 30
0.000000
 40
1.668213
 50
67.966528
 51
71.243164
  0
LINE
  8
Default
 62
     7
  6
CONTINUOUS
 10
24.844688
 20
12.414230
 30
0.000000
 11
24.857444
 21
12.408502
 31
0.000000
  0
ARC
  8
WHITE
 62
     7
  6
CONTINUOUS
 10
24.218861
 20
10.867855
 30
0.000000
 40
1.667748
 50
59.994817
 51
67.486500
  0
ARC
  8
WHITE
 62
     7
  6
CONTINUOUS
 10
25.587664
 20
11.206451
 30
0.000000
 40
1.228190
 50
115.813054
 51
184.179322
  0
ARC
  8
WHITE
 62
     7
  6
CONTINUOUS
 10
24.218861
 20
10.867855
 30
0.000000
 40
0.287656
 50
59.988238
 51
75.078979
  0
ARC
  8
WHITE
 62
     7
  6
CONTINUOUS
 10
25.453551
 20
11.548512
 30
0.000000
 40
1.228500
 50
130.762354
 51
199.135237
  0
ARC
  8
WHITE
 62
     7
  6
CONTINUOUS
 10
24.218861
 20
10.867855
 30
0.000000
 40
1.668213
 50
71.093554
 51
74.971243
  0
ARC
  8
Default
 62
     7
  6
CONTINUOUS
 10
24.755168
 20
12.433703
 30
0.000000
 40
0.013068
 50
335.725295
 51
431.093554
  0
LINE
  8
Default
 62
     7
  6
CONTINUOUS
 10
24.767080
 20
12.428330
 30
0.000000
 11
24.692989
 21
12.264044
 31
0.000000
  0
LINE
  8
Default
 62
     7
  6
CONTINUOUS
 10
23.874620
 20
12.490302
 30
0.000000
 11
23.926592
 21
12.317738
 31
0.000000
  0
ARC
  8
Default
 62
     7
  6
CONTINUOUS
 10
23.887133
 20
12.494071
 30
0.000000
 40
0.013068
 50
101.392773
 51
196.761033
  0
ARC
  8
WHITE
 62
     7
  6
CONTINUOUS
 10
24.214080
 20
10.871539
 30
0.000000
 40
1.668213
 50
101.243164
 51
101.392773
  0
ARC
  8
WHITE
 62
     7
  6
CONTINUOUS
 10
24.214080
 20
10.871539
 30
0.000000
 40
1.668213
 50
97.966528
 51
101.243164
  0
LINE
  8
Default
 62
     7
  6
CONTINUOUS
 10
23.982874
 20
12.523652
 30
0.000000
 11
23.996785
 21
12.525070
 31
0.000000
  0
ARC
  8
WHITE
 62
     7
  6
CONTINUOUS
 10
24.214080
 20
10.871539
 30
0.000000
 40
1.667748
 50
89.994817
 51
97.486500
  0
ARC
  8
WHITE
 62
     7
  6
CONTINUOUS
 10
25.230200
 20
11.849173
 30
0.000000
 40
1.228190
 50
145.813054
 51
214.179322
  0
ARC
  8
WHITE
 62
     7
  6
CONTINUOUS
 10
24.214080
 20
10.871539
 30
0.000000
 40
0.287656
 50
89.988238
 51
105.078979
  0
ARC
  8
WHITE
 62
     7
  6
CONTINUOUS
 10
24.943024
 20
12.078350
 30
0.000000
 40
1.228500
 50
160.762354
 51
229.135237
  0
ARC
  8
WHITE
 62
     7
  6
CONTINUOUS
 10
24.214080
 20
10.871539
 30
0.000000
 40
1.668213
 50
101.093554
 51
104.971243
  0
ARC
  8
Default
 62
     7
  6
CONTINUOUS
 10
23.895611
 20
12.495756
 30
0.000000
 40
0.013068
 50
5.725295
 51
101.093554
  0
LINE
  8
Default
 62
     7
  6
CONTINUOUS
 10
23.908614
 20
12.497060
 30
0.000000
 11
23.926592
 21
12.317738
 31
0.000000
  0
LINE
  8
Default
 62
     7
  6
CONTINUOUS
 10
23.104734
 20
12.104499
 30
0.000000
 11
23.236026
 21
11.981040
 31
0.000000
  0
ARC
  8
Default
 62
     7
  6
CONTINUOUS
 10
23.113687
 20
12.114019
 30
0.000000
 40
0.013068
 50
131.392773
 51
226.761033
  0
ARC
  8
WHITE
 62
     7
  6
CONTINUOUS
 10
24.208097
 20
10.872338
 30
0.000000
 40
1.668213
 50
131.243164
 51
131.392773
  0
ARC
  8
WHITE
 62
     7
  6
CONTINUOUS
 10
24.208097
 20
10.872338
 30
0.000000
 40
1.668213
 50
127.966528
 51
131.243164
  0
LINE
  8
Default
 62
     7
  6
CONTINUOUS
 10
23.181811
 20
12.187508
 30
0.000000
 11
23.193148
 21
12.195691
 31
0.000000
  0
ARC
  8
WHITE
 62
     7
  6
CONTINUOUS
 10
24.208097
 20
10.872338
 30
0.000000
 40
1.667748
 50
119.994817
 51
127.486500
  0
ARC
  8
WHITE
 62
     7
  6
CONTINUOUS
 10
24.599266
 20
12.227054
 30
0.000000
 40
1.228190
 50
175.813054
 51
244.179322
  0
ARC
  8
WHITE
 62
     7
  6
CONTINUOUS
 10
24.208097
 20
10.872338
 30
0.000000
 40
0.287656
 50
119.988238
 51
135.078979
  0
ARC
  8
WHITE
 62
     7
  6
CONTINUOUS
 10
24.235975
 20
12.281940
 30
0.000000
 40
1.228500
 50
190.762354
 51
259.135237
  0
ARC
  8
WHITE
 62
     7
  6
CONTINUOUS
 10
24.208097
 20
10.872338
 30
0.000000
 40
1.668213
 50
131.093554
 51
134.971243
  0
ARC
  8
Default
 62
     7
  6
CONTINUOUS
 10
23.120186
 20
12.119717
 30
0.000000
 40
0.013068
 50
35.725295
 51
131.093554
  0
LINE
  8
Default
 62
     7
  6
CONTINUOUS
 10
23.130795
 20
12.127348
 30
0.000000
 11
23.236026
 21
11.981040
 31
0.000000
  0
LINE
  8
Default
 62
     7
  6
CONTINUOUS
 10
33.204451
 20
12.095259
 30
0.000000
 11
33.335742
 21
11.971800
 31
0.000000
  0
ARC
  8
Default
 62
     7
  6
CONTINUOUS
 10
33.213403
 20
12.104779
 30
0.000000
 40
0.013068
 50
131.392773
 51
226.761033
  0
ARC
  8
WHITE
 62
     7
  6
CONTINUOUS
 10
34.307814
 20
10.863098
 30
0.000000
 40
1.668213
 50
131.243164
 51
131.392773
  0
ARC
  8
WHITE
 62
     7
  6
CONTINUOUS
 10
34.307814
 20
10.863098
 30
0.000000
 40
1.668213
 50
127.966528
 51
131.243164
  0
LINE
  8
Default
 62
     7
  6
CONTINUOUS
 10
33.281527
 20
12.178268
 30
0.000000
 11
33.292865
 21
12.186450
 31
0.000000
  0
ARC
  8
WHITE
 62
     7
  6
CONTINUOUS
 10
34.307814
 20
10.863098
 30
0.000000
 40
1.667748
 50
119.994817
 51
127.486500
  0
ARC
  8
WHITE
 62
     7
  6
CONTINUOUS
 10
34.698983
 20
12.217814
 30
0.000000
 40
1.228190
 50
175.813054
 51
244.179322
  0
ARC
  8
WHITE
 62
     7
  6
CONTINUOUS
 10
34.307814
 20
10.863098
 30
0.000000
 40
0.287656
 50
119.988238
 51
135.078979
  0
ARC
  8
WHITE
 62
     7
  6
CONTINUOUS
 10
34.335692
 20
12.272700
 30
0.000000
 40
1.228500
 50
190.762354
 51
259.135237
  0
ARC
  8
WHITE
 62
     7
  6
CONTINUOUS
 10
34.307814
 20
10.863098
 30
0.000000
 40
1.668213
 50
131.093554
 51
134.971243
  0
ARC
  8
Default
 62
     7
  6
CONTINUOUS
 10
33.219903
 20
12.110477
 30
0.000000
 40
0.013068
 50
35.725295
 51
131.093554
  0
LINE
  8
Default
 62
     7
  6
CONTINUOUS
 10
33.230512
 20
12.118107
 30
0.000000
 11
33.335742
 21
11.971800
 31
0.000000
  0
LINE
  8
Default
 62
     7
  6
CONTINUOUS
 10
32.730612
 20
11.376200
 30
0.000000
 11
32.906043
 21
11.334927
 31
0.000000
  0
ARC
  8
Default
 62
     7
  6
CONTINUOUS
 10
32.733605
 20
11.388921
 30
0.000000
 40
0.013068
 50
161.392773
 51
256.761033
  0
ARC
  8
WHITE
 62
     7
  6
CONTINUOUS
 10
34.302233
 20
10.860799
 30
0.000000
 40
1.668213
 50
161.243164
 51
161.392773
  0
ARC
  8
WHITE
 62
     7
  6
CONTINUOUS
 10
34.302233
 20
10.860799
 30
0.000000
 40
1.668213
 50
157.966528
 51
161.243164
  0
LINE
  8
Default
 62
     7
  6
CONTINUOUS
 10
32.755858
 20
11.486626
 30
0.000000
 11
32.761585
 21
11.499382
 31
0.000000
  0
ARC
  8
WHITE
 62
     7
  6
CONTINUOUS
 10
34.302233
 20
10.860799
 30
0.000000
 40
1.667748
 50
149.994817
 51
157.486500
  0
ARC
  8
WHITE
 62
     7
  6
CONTINUOUS
 10
33.963637
 20
12.229602
 30
0.000000
 40
1.228190
 50
205.813054
 51
274.179322
  0
ARC
  8
WHITE
 62
     7
  6
CONTINUOUS
 10
34.302233
 20
10.860799
 30
0.000000
 40
0.287656
 50
149.988238
 51
165.078979
  0
ARC
  8
WHITE
 62
     7
  6
CONTINUOUS
 10
33.621575
 20
12.095489
 30
0.000000
 40
1.228500
 50
220.762354
 51
289.135237
  0
ARC
  8
WHITE
 62
     7
  6
CONTINUOUS
 10
34.302233
 20
10.860799
 30
0.000000
 40
1.668213
 50
161.093554
 51
164.971243
  0
ARC
  8
Default
 62
     7
  6
CONTINUOUS
 10
32.736385
 20
11.397106
 30
0.000000
 40
0.013068
 50
65.725295
 51
161.093554
  0
LINE
  8
Default
 62
     7
  6
CONTINUOUS
 10
32.741757
 20
11.409018
 30
0.000000
 11
32.906043
 21
11.334927
 31
0.000000
  0
LINE
  8
Default
 62
     7
  6
CONTINUOUS
 10
32.679785
 20
10.516558
 30
0.000000
 11
32.852349
 21
10.568530
 31
0.000000
  0
ARC
  8
Default
 62
     7
  6
CONTINUOUS
 10
32.676017
 20
10.529071
 30
0.000000
 40
0.013068
 50
191.392773
 51
286.761033
  0
ARC
  8
WHITE
 62
     7
  6
CONTINUOUS
 10
34.298549
 20
10.856018
 30
0.000000
 40
1.668213
 50
191.243164
 51
191.392773
  0
ARC
  8
WHITE
 62
     7
  6
CONTINUOUS
 10
34.298549
 20
10.856018
 30
0.000000
 40
1.668213
 50
187.966528
 51
191.243164
  0
LINE
  8
Default
 62
     7
  6
CONTINUOUS
 10
32.646435
 20
10.624813
 30
0.000000
 11
32.645018
 21
10.638723
 31
0.000000
  0
ARC
  8
WHITE
 62
     7
  6
CONTINUOUS
 10
34.298549
 20
10.856018
 30
0.000000
 40
1.667748
 50
179.994817
 51
187.486500
  0
ARC
  8
WHITE
 62
     7
  6
CONTINUOUS
 10
33.320915
 20
11.872138
 30
0.000000
 40
1.228190
 50
235.813054
 51
304.179322
  0
ARC
  8
WHITE
 62
     7
  6
CONTINUOUS
 10
34.298549
 20
10.856018
 30
0.000000
 40
0.287656
 50
179.988238
 51
195.078979
  0
ARC
  8
WHITE
 62
     7
  6
CONTINUOUS
 10
33.091737
 20
11.584962
 30
0.000000
 40
1.228500
 50
250.762354
 51
319.135237
  0
ARC
  8
WHITE
 62
     7
  6
CONTINUOUS
 10
34.298549
 20
10.856018
 30
0.000000
 40
1.668213
 50
191.093554
 51
194.971243
  0
ARC
  8
Default
 62
     7
  6
CONTINUOUS
 10
32.674331
 20
10.537549
 30
0.000000
 40
0.013068
 50
95.725295
 51
191.093554
  0
LINE
  8
Default
 62
     7
  6
CONTINUOUS
 10
32.673028
 20
10.550552
 30
0.000000
 11
32.852349
 21
10.568530
 31
0.000000
  0
LINE
  8
Default
 62
     7
  6
CONTINUOUS
 10
33.065589
 20
9.746673
 30
0.000000
 11
33.189047
 21
9.877964
 31
0.000000
  0
ARC
  8
Default
 62
     7
  6
CONTINUOUS
 10
33.056069
 20
9.755625
 30
0.000000
 40
0.013068
 50
221.392773
 51
316.761033
  0
ARC
  8
WHITE
 62
     7
  6
CONTINUOUS
 10
34.297749
 20
10.850035
 30
0.000000
 40
1.668213
 50
221.243164
 51
221.392773
  0
ARC
  8
WHITE
 62
     7
  6
CONTINUOUS
 10
34.297749
 20
10.850035
 30
0.000000
 40
1.668213
 50
217.966528
 51
221.243164
  0
LINE
  8
Default
 62
     7
  6
CONTINUOUS
 10
32.982580
 20
9.823749
 30
0.000000
 11
32.974397
 21
9.835086
 31
0.000000
  0
ARC
  8
WHITE
 62
     7
  6
CONTINUOUS
 10
34.297749
 20
10.850035
 30
0.000000
 40
1.667748
 50
209.994817
 51
217.486500
  0
ARC
  8
WHITE
 62
     7
  6
CONTINUOUS
 10
32.943033
 20
11.241204
 30
0.000000
 40
1.228190
 50
265.813054
 51
334.179322
  0
ARC
  8
WHITE
 62
     7
  6
CONTINUOUS
 10
34.297749
 20
10.850035
 30
0.000000
 40
0.287656
 50
209.988238
 51
225.078979
  0
ARC
  8
WHITE
 62
     7
  6
CONTINUOUS
 10
32.888148
 20
10.877914
 30
0.000000
 40
1.228500
 50
280.762354
 51
349.135237
  0
ARC
  8
WHITE
 62
     7
  6
CONTINUOUS
 10
34.297749
 20
10.850035
 30
0.000000
 40
1.668213
 50
221.093554
 51
224.971243
  0
ARC
  8
Default
 62
     7
  6
CONTINUOUS
 10
33.050370
 20
9.762124
 30
0.000000
 40
0.013068
 50
125.725295
 51
221.093554
  0
LINE
  8
Default
 62
     7
  6
CONTINUOUS
 10
33.042740
 20
9.772733
 30
0.000000
 11
33.189047
 21
9.877964
 31
0.000000
  0
LINE
  8
Default
 62
     7
  6
CONTINUOUS
 10
33.784647
 20
9.272834
 30
0.000000
 11
33.825920
 21
9.448265
 31
0.000000
  0
ARC
  8
Default
 62
     7
  6
CONTINUOUS
 10
33.771926
 20
9.275827
 30
0.000000
 40
0.013068
 50
251.392773
 51
346.761033
  0
ARC
  8
WHITE
 62
     7
  6
CONTINUOUS
 10
34.300048
 20
10.844454
 30
0.000000
 40
1.668213
 50
251.243164
 51
251.392773
  0
ARC
  8
WHITE
 62
     7
  6
CONTINUOUS
 10
34.300048
 20
10.844454
 30
0.000000
 40
1.668213
 50
247.966528
 51
251.243164
  0
LINE
  8
Default
 62
     7
  6
CONTINUOUS
 10
33.674221
 20
9.298079
 30
0.000000
 11
33.661466
 21
9.303807
 31
0.000000
  0
ARC
  8
WHITE
 62
     7
  6
CONTINUOUS
 10
34.300048
 20
10.844454
 30
0.000000
 40
1.667748
 50
239.994817
 51
247.486500
  0
ARC
  8
WHITE
 62
     7
  6
CONTINUOUS
 10
32.931245
 20
10.505858
 30
0.000000
 40
1.228190
 50
295.813054
 51
364.179322
  0
ARC
  8
WHITE
 62
     7
  6
CONTINUOUS
 10
34.300048
 20
10.844454
 30
0.000000
 40
0.287656
 50
239.988238
 51
255.078979
  0
ARC
  8
WHITE
 62
     7
  6
CONTINUOUS
 10
33.065358
 20
10.163797
 30
0.000000
 40
1.228500
 50
310.762354
 51
379.135237
  0
ARC
  8
WHITE
 62
     7
  6
CONTINUOUS
 10
34.300048
 20
10.844454
 30
0.000000
 40
1.668213
 50
251.093554
 51
254.971243
  0
ARC
  8
Default
 62
     7
  6
CONTINUOUS
 10
33.763742
 20
9.278606
 30
0.000000
 40
0.013068
 50
155.725295
 51
251.093554
  0
LINE
  8
Default
 62
     7
  6
CONTINUOUS
 10
33.751829
 20
9.283978
 30
0.000000
 11
33.825920
 21
9.448265
 31
0.000000
  0
LINE
  8
Default
 62
     7
  6
CONTINUOUS
 10
34.644289
 20
9.222007
 30
0.000000
 11
34.592317
 21
9.394571
 31
0.000000
  0
ARC
  8
Default
 62
     7
  6
CONTINUOUS
 10
34.631776
 20
9.218238
 30
0.000000
 40
0.013068
 50
281.392773
 51
376.761033
  0
ARC
  8
WHITE
 62
     7
  6
CONTINUOUS
 10
34.304829
 20
10.840770
 30
0.000000
 40
1.668213
 50
281.243164
 51
281.392773
  0
ARC
  8
WHITE
 62
     7
  6
CONTINUOUS
 10
34.304829
 20
10.840770
 30
0.000000
 40
1.668213
 50
277.966528
 51
281.243164
  0
LINE
  8
Default
 62
     7
  6
CONTINUOUS
 10
34.536035
 20
9.188657
 30
0.000000
 11
34.522124
 21
9.187239
 31
0.000000
  0
ARC
  8
WHITE
 62
     7
  6
CONTINUOUS
 10
34.304829
 20
10.840770
 30
0.000000
 40
1.667748
 50
269.994817
 51
277.486500
  0
ARC
  8
WHITE
 62
     7
  6
CONTINUOUS
 10
33.288709
 20
9.863136
 30
0.000000
 40
1.228190
 50
325.813054
 51
394.179322
  0
ARC
  8
WHITE
 62
     7
  6
CONTINUOUS
 10
34.304829
 20
10.840770
 30
0.000000
 40
0.287656
 50
269.988238
 51
285.078979
  0
ARC
  8
WHITE
 62
     7
  6
CONTINUOUS
 10
33.575885
 20
9.633959
 30
0.000000
 40
1.228500
 50
340.762354
 51
409.135237
  0
ARC
  8
WHITE
 62
     7
  6
CONTINUOUS
 10
34.304829
 20
10.840770
 30
0.000000
 40
1.668213
 50
281.093554
 51
284.971243
  0
ARC
  8
Default
 62
     7
  6
CONTINUOUS
 10
34.623298
 20
9.216553
 30
0.000000
 40
0.013068
 50
185.725295
 51
281.093554
  0
LINE
  8
Default
 62
     7
  6
CONTINUOUS
 10
34.610296
 20
9.215249
 30
0.000000
 11
34.592317
 21
9.394571
 31
0.000000
  0
LINE
  8
Default
 62
     7
  6
CONTINUOUS
 10
35.414175
 20
9.607810
 30
0.000000
 11
35.282883
 21
9.731269
 31
0.000000
  0
ARC
  8
Default
 62
     7
  6
CONTINUOUS
 10
35.405222
 20
9.598290
 30
0.000000
 40
0.013068
 50
311.392773
 51
406.761033
  0
ARC
  8
WHITE
 62
     7
  6
CONTINUOUS
 10
34.310812
 20
10.839971
 30
0.000000
 40
1.668213
 50
311.243164
 51
311.392773
  0
ARC
  8
WHITE
 62
     7
  6
CONTINUOUS
 10
34.310812
 20
10.839971
 30
0.000000
 40
1.668213
 50
307.966528
 51
311.243164
  0
LINE
  8
Default
 62
     7
  6
CONTINUOUS
 10
35.337098
 20
9.524801
 30
0.000000
 11
35.325761
 21
9.516618
 31
0.000000
  0
ARC
  8
WHITE
 62
     7
  6
CONTINUOUS
 10
34.310812
 20
10.839971
 30
0.000000
 40
1.667748
 50
299.994817
 51
307.486500
  0
ARC
  8
WHITE
 62
     7
  6
CONTINUOUS
 10
33.919643
 20
9.485255
 30
0.000000
 40
1.228190
 50
355.813054
 51
424.179322
  0
ARC
  8
WHITE
 62
     7
  6
CONTINUOUS
 10
34.310812
 20
10.839971
 30
0.000000
 40
0.287656
 50
299.988238
 51
315.078979
  0
ARC
  8
WHITE
 62
     7
  6
CONTINUOUS
 10
34.282934
 20
9.430369
 30
0.000000
 40
1.228500
 50
10.762354
 51
79.135237
  0
ARC
  8
WHITE
 62
     7
  6
CONTINUOUS
 10
34.310812
 20
10.839971
 30
0.000000
 40
1.668213
 50
311.093554
 51
314.971243
  0
ARC
  8
Default
 62
     7
  6
CONTINUOUS
 10
35.398723
 20
9.592591
 30
0.000000
 40
0.013068
 50
215.725295
 51
311.093554
  0
LINE
  8
Default
 62
     7
  6
CONTINUOUS
 10
35.388114
 20
9.584961
 30
0.000000
 11
35.282883
 21
9.731269
 31
0.000000
  0
LINE
  8
Default
 62
     7
  6
CONTINUOUS
 10
35.888013
 20
10.326868
 30
0.000000
 11
35.712582
 21
10.368141
 31
0.000000
  0
ARC
  8
Default
 62
     7
  6
CONTINUOUS
 10
35.885021
 20
10.314148
 30
0.000000
 40
0.013068
 50
341.392773
 51
436.761033
  0
ARC
  8
WHITE
 62
     7
  6
CONTINUOUS
 10
34.316393
 20
10.842269
 30
0.000000
 40
1.668213
 50
341.243164
 51
341.392773
  0
ARC
  8
WHITE
 62
     7
  6
CONTINUOUS
 10
34.316393
 20
10.842269
 30
0.000000
 40
1.668213
 50
337.966528
 51
341.243164
  0
LINE
  8
Default
 62
     7
  6
CONTINUOUS
 10
35.862768
 20
10.216442
 30
0.000000
 11
35.857041
 21
10.203687
 31
0.000000
  0
ARC
  8
WHITE
 62
     7
  6
CONTINUOUS
 10
34.316393
 20
10.842269
 30
0.000000
 40
1.667748
 50
329.994817
 51
337.486500
  0
ARC
  8
WHITE
 62
     7
  6
CONTINUOUS
 10
34.654989
 20
9.473466
 30
0.000000
 40
1.228190
 50
25.813054
 51
94.179322
  0
ARC
  8
WHITE
 62
     7
  6
CONTINUOUS
 10
34.316393
 20
10.842269
 30
0.000000
 40
0.287656
 50
329.988238
 51
345.078979
  0
ARC
  8
WHITE
 62
     7
  6
CONTINUOUS
 10
34.997050
 20
9.607579
 30
0.000000
 40
1.228500
 50
40.762354
 51
109.135237
  0
ARC
  8
WHITE
 62
     7
  6
CONTINUOUS
 10
34.316393
 20
10.842269
 30
0.000000
 40
1.668213
 50
341.093554
 51
344.971243
  0
ARC
  8
Default
 62
     7
  6
CONTINUOUS
 10
35.882241
 20
10.305963
 30
0.000000
 40
0.013068
 50
245.725295
 51
341.093554
  0
LINE
  8
Default
 62
     7
  6
CONTINUOUS
 10
35.876869
 20
10.294050
 30
0.000000
 11
35.712582
 21
10.368141
 31
0.000000
  0
LINE
  8
Default
 62
     7
  6
CONTINUOUS
 10
35.938841
 20
11.186510
 30
0.000000
 11
35.766277
 21
11.134538
 31
0.000000
  0
ARC
  8
Default
 62
     7
  6
CONTINUOUS
 10
35.942609
 20
11.173998
 30
0.000000
 40
0.013068
 50
11.392773
 51
106.761033
  0
ARC
  8
WHITE
 62
     7
  6
CONTINUOUS
 10
34.320077
 20
10.847051
 30
0.000000
 40
1.668213
 50
11.243164
 51
11.392773
  0
ARC
  8
WHITE
 62
     7
  6
CONTINUOUS
 10
34.320077
 20
10.847051
 30
0.000000
 40
1.668213
 50
7.966528
 51
11.243164
  0
LINE
  8
Default
 62
     7
  6
CONTINUOUS
 10
35.972190
 20
11.078256
 30
0.000000
 11
35.973608
 21
11.064346
 31
0.000000
  0
ARC
  8
WHITE
 62
     7
  6
CONTINUOUS
 10
34.320077
 20
10.847051
 30
0.000000
 40
1.667748
 50
359.994817
 51
367.486500
  0
ARC
  8
WHITE
 62
     7
  6
CONTINUOUS
 10
35.297711
 20
9.830931
 30
0.000000
 40
1.228190
 50
55.813054
 51
124.179322
  0
ARC
  8
WHITE
 62
     7
  6
CONTINUOUS
 10
34.320077
 20
10.847051
 30
0.000000
 40
0.287656
 50
359.988238
 51
375.078979
  0
ARC
  8
WHITE
 62
     7
  6
CONTINUOUS
 10
35.526889
 20
10.118106
 30
0.000000
 40
1.228500
 50
70.762354
 51
139.135237
  0
ARC
  8
WHITE
 62
     7
  6
CONTINUOUS
 10
34.320077
 20
10.847051
 30
0.000000
 40
1.668213
 50
11.093554
 51
14.971243
  0
ARC
  8
Default
 62
     7
  6
CONTINUOUS
 10
35.944294
 20
11.165520
 30
0.000000
 40
0.013068
 50
275.725295
 51
371.093554
  0
LINE
  8
Default
 62
     7
  6
CONTINUOUS
 10
35.945598
 20
11.152517
 30
0.000000
 11
35.766277
 21
11.134538
 31
0.000000
  0
LINE
  8
Default
 62
     7
  6
CONTINUOUS
 10
35.553037
 20
11.956396
 30
0.000000
 11
35.429578
 21
11.825105
 31
0.000000
  0
ARC
  8
Default
 62
     7
  6
CONTINUOUS
 10
35.562557
 20
11.947444
 30
0.000000
 40
0.013068
 50
41.392773
 51
136.761033
  0
ARC
  8
WHITE
 62
     7
  6
CONTINUOUS
 10
34.320877
 20
10.853033
 30
0.000000
 40
1.668213
 50
41.243164
 51
41.392773
  0
ARC
  8
WHITE
 62
     7
  6
CONTINUOUS
 10
34.320877
 20
10.853033
 30
0.000000
 40
1.668213
 50
37.966528
 51
41.243164
  0
LINE
  8
Default
 62
     7
  6
CONTINUOUS
 10
35.636046
 20
11.879320
 30
0.000000
 11
35.644229
 21
11.867982
 31
0.000000
  0
ARC
  8
WHITE
 62
     7
  6
CONTINUOUS
 10
34.320877
 20
10.853033
 30
0.000000
 40
1.667748
 50
29.994817
 51
37.486500
  0
ARC
  8
WHITE
 62
     7
  6
CONTINUOUS
 10
35.675593
 20
10.461865
 30
0.000000
 40
1.228190
 50
85.813054
 51
154.179322
  0
ARC
  8
WHITE
 62
     7
  6
CONTINUOUS
 10
34.320877
 20
10.853033
 30
0.000000
 40
0.287656
 50
29.988238
 51
45.078979
  0
ARC
  8
WHITE
 62
     7
  6
CONTINUOUS
 10
35.730478
 20
10.825155
 30
0.000000
 40
1.228500
 50
100.762354
 51
169.135237
  0
ARC
  8
WHITE
 62
     7
  6
CONTINUOUS
 10
34.320877
 20
10.853033
 30
0.000000
 40
1.668213
 50
41.093554
 51
44.971243
  0
ARC
  8
Default
 62
     7
  6
CONTINUOUS
 10
35.568256
 20
11.940944
 30
0.000000
 40
0.013068
 50
305.725295
 51
401.093554
  0
LINE
  8
Default
 62
     7
  6
CONTINUOUS
 10
35.575886
 20
11.930335
 30
0.000000
 11
35.429578
 21
11.825105
 31
0.000000
  0
LINE
  8
Default
 62
     7
  6
CONTINUOUS
 10
34.833979
 20
12.430235
 30
0.000000
 11
34.792706
 21
12.254804
 31
0.000000
  0
ARC
  8
Default
 62
     7
  6
CONTINUOUS
 10
34.846700
 20
12.427242
 30
0.000000
 40
0.013068
 50
71.392773
 51
166.761033
  0
ARC
  8
WHITE
 62
     7
  6
CONTINUOUS
 10
34.318578
 20
10.858614
 30
0.000000
 40
1.668213
 50
71.243164
 51
71.392773
  0
ARC
  8
WHITE
 62
     7
  6
CONTINUOUS
 10
34.318578
 20
10.858614
 30
0.000000
 40
1.668213
 50
67.966528
 51
71.243164
  0
LINE
  8
Default
 62
     7
  6
CONTINUOUS
 10
34.944405
 20
12.404989
 30
0.000000
 11
34.957160
 21
12.399262
 31
0.000000
  0
ARC
  8
WHITE
 62
     7
  6
CONTINUOUS
 10
34.318578
 20
10.858614
 30
0.000000
 40
1.667748
 50
59.994817
 51
67.486500
  0
ARC
  8
WHITE
 62
     7
  6
CONTINUOUS
 10
35.687381
 20
11.197210
 30
0.000000
 40
1.228190
 50
115.813054
 51
184.179322
  0
ARC
  8
WHITE
 62
     7
  6
CONTINUOUS
 10
34.318578
 20
10.858614
 30
0.000000
 40
0.287656
 50
59.988238
 51
75.078979
  0
ARC
  8
WHITE
 62
     7
  6
CONTINUOUS
 10
35.553268
 20
11.539272
 30
0.000000
 40
1.228500
 50
130.762354
 51
199.135237
  0
ARC
  8
WHITE
 62
     7
  6
CONTINUOUS
 10
34.318578
 20
10.858614
 30
0.000000
 40
1.668213
 50
71.093554
 51
74.971243
  0
ARC
  8
Default
 62
     7
  6
CONTINUOUS
 10
34.854884
 20
12.424463
 30
0.000000
 40
0.013068
 50
335.725295
 51
431.093554
  0
LINE
  8
Default
 62
     7
  6
CONTINUOUS
 10
34.866797
 20
12.419090
 30
0.000000
 11
34.792706
 21
12.254804
 31
0.000000
  0
LINE
  8
Default
 62
     7
  6
CONTINUOUS
 10
33.974337
 20
12.481062
 30
0.000000
 11
34.026309
 21
12.308498
 31
0.000000
  0
ARC
  8
Default
 62
     7
  6
CONTINUOUS
 10
33.986850
 20
12.484830
 30
0.000000
 40
0.013068
 50
101.392773
 51
196.761033
  0
ARC
  8
WHITE
 62
     7
  6
CONTINUOUS
 10
34.313797
 20
10.862298
 30
0.000000
 40
1.668213
 50
101.243164
 51
101.392773
  0
ARC
  8
WHITE
 62
     7
  6
CONTINUOUS
 10
34.313797
 20
10.862298
 30
0.000000
 40
1.668213
 50
97.966528
 51
101.243164
  0
LINE
  8
Default
 62
     7
  6
CONTINUOUS
 10
34.082591
 20
12.514412
 30
0.000000
 11
34.096501
 21
12.515830
 31
0.000000
  0
ARC
  8
WHITE
 62
     7
  6
CONTINUOUS
 10
34.313797
 20
10.862298
 30
0.000000
 40
1.667748
 50
89.994817
 51
97.486500
  0
ARC
  8
WHITE
 62
     7
  6
CONTINUOUS
 10
35.329917
 20
11.839932
 30
0.000000
 40
1.228190
 50
145.813054
 51
214.179322
  0
ARC
  8
WHITE
 62
     7
  6
CONTINUOUS
 10
34.313797
 20
10.862298
 30
0.000000
 40
0.287656
 50
89.988238
 51
105.078979
  0
ARC
  8
WHITE
 62
     7
  6
CONTINUOUS
 10
35.042741
 20
12.069110
 30
0.000000
 40
1.228500
 50
160.762354
 51
229.135237
  0
ARC
  8
WHITE
 62
     7
  6
CONTINUOUS
 10
34.313797
 20
10.862298
 30
0.000000
 40
1.668213
 50
101.093554
 51
104.971243
  0
ARC
  8
Default
 62
     7
  6
CONTINUOUS
 10
33.995327
 20
12.486516
 30
0.000000
 40
0.013068
 50
5.725295
 51
101.093554
  0
LINE
  8
Default
 62
     7
  6
CONTINUOUS
 10
34.008330
 20
12.487819
 30
0.000000
 11
34.026309
 21
12.308498
 31
0.000000
  0
LINE
  8
Default
 62
     7
  6
CONTINUOUS
 10
33.204451
 20
12.095259
 30
0.000000
 11
33.335742
 21
11.971800
 31
0.000000
  0
ARC
  8
Default
 62
     7
  6
CONTINUOUS
 10
33.213403
 20
12.104779
 30
0.000000
 40
0.013068
 50
131.392773
 51
226.761033
  0
ARC
  8
WHITE
 62
     7
  6
CONTINUOUS
 10
34.307814
 20
10.863098
 30
0.000000
 40
1.668213
 50
131.243164
 51
131.392773
  0
ARC
  8
WHITE
 62
     7
  6
CONTINUOUS
 10
34.307814
 20
10.863098
 30
0.000000
 40
1.668213
 50
127.966528
 51
131.243164
  0
LINE
  8
Default
 62
     7
  6
CONTINUOUS
 10
33.281527
 20
12.178268
 30
0.000000
 11
33.292865
 21
12.186450
 31
0.000000
  0
ARC
  8
WHITE
 62
     7
  6
CONTINUOUS
 10
34.307814
 20
10.863098
 30
0.000000
 40
1.667748
 50
119.994817
 51
127.486500
  0
ARC
  8
WHITE
 62
     7
  6
CONTINUOUS
 10
34.698983
 20
12.217814
 30
0.000000
 40
1.228190
 50
175.813054
 51
244.179322
  0
ARC
  8
WHITE
 62
     7
  6
CONTINUOUS
 10
34.307814
 20
10.863098
 30
0.000000
 40
0.287656
 50
119.988238
 51
135.078979
  0
ARC
  8
WHITE
 62
     7
  6
CONTINUOUS
 10
34.335692
 20
12.272700
 30
0.000000
 40
1.228500
 50
190.762354
 51
259.135237
  0
ARC
  8
WHITE
 62
     7
  6
CONTINUOUS
 10
34.307814
 20
10.863098
 30
0.000000
 40
1.668213
 50
131.093554
 51
134.971243
  0
ARC
  8
Default
 62
     7
  6
CONTINUOUS
 10
33.219903
 20
12.110477
 30
0.000000
 40
0.013068
 50
35.725295
 51
131.093554
  0
LINE
  8
Default
 62
     7
  6
CONTINUOUS
 10
33.230512
 20
12.118107
 30
0.000000
 11
33.335742
 21
11.971800
 31
0.000000
  0
ARC
  8
Default
 62
     7
  6
CONTINUOUS
 10
24.202745
 20
10.507526
 30
-0.000000
 40
2.492368
 50
287.012108
 51
345.108097
  0
LINE
  8
Default
 62
     7
  6
CONTINUOUS
 10
31.691444
 20
8.124184
 30
-0.000000
 11
33.575616
 21
8.123512
 31
-0.000000
  0
LINE
  8
Layer 1
 62
     7
  6
CONTINUOUS
 10
31.950986
 20
9.848824
 30
0.000000
 11
31.891517
 21
10.004085
 31
0.000000
  0
LINE
  8
Layer 1
 62
     7
  6
CONTINUOUS
 10
31.688067
 20
10.004085
 30
-0.000000
 11
31.688067
 21
9.784904
 31
-0.000000
  0
ARC
  8
Default
 62
     7
  6
CONTINUOUS
 10
34.359642
 20
10.489353
 30
-0.000000
 40
2.492368
 50
194.891903
 51
251.665122
  0
POINT
  8
Default
 62
     7
 10
34.695803
 20
3.756383
 30
0.000000
  0
POINT
  8
Default
 62
     7
 10
45.500267
 20
4.348721
 30
0.000000
  0
POINT
  8
Default
 62
     7
 10
8.104785
 20
5.708457
 30
0.000000
  0
POINT
  8
Default
 62
     7
 10
50.411999
 20
5.648649
 30
0.000000
  0
POINT
  8
Default
 62
     7
 10
41.649691
 20
3.498590
 30
0.000000
  0
POINT
  8
Default
 62
     7
 10
16.899302
 20
3.458513
 30
0.000000
  0
LINE
  8
Layer 1
 62
     7
  6
CONTINUOUS
 10
29.330139
 20
12.937363
 30
-0.000000
 11
29.297592
 21
12.937283
 31
-0.000000
  0
LINE
  8
Layer 1
 62
     7
  6
CONTINUOUS
 10
29.297592
 20
12.937283
 30
-0.000000
 11
29.126253
 21
12.928004
 31
-0.000000
  0
LINE
  8
Layer 1
 62
     7
  6
CONTINUOUS
 10
29.126253
 20
12.928004
 30
-0.000000
 11
28.959129
 21
12.903792
 31
-0.000000
  0
LINE
  8
Layer 1
 62
     7
  6
CONTINUOUS
 10
28.959129
 20
12.903792
 30
-0.000000
 11
28.796772
 21
12.865347
 31
-0.000000
  0
LINE
  8
Layer 1
 62
     7
  6
CONTINUOUS
 10
28.796772
 20
12.865347
 30
-0.000000
 11
28.488580
 21
12.748546
 31
-0.000000
  0
LINE
  8
Layer 1
 62
     7
  6
CONTINUOUS
 10
28.488580
 20
12.748546
 30
-0.000000
 11
28.206110
 21
12.583182
 31
-0.000000
  0
LINE
  8
Layer 1
 62
     7
  6
CONTINUOUS
 10
28.206110
 20
12.583182
 30
-0.000000
 11
27.953799
 21
12.374837
 31
-0.000000
  0
LINE
  8
Layer 1
 62
     7
  6
CONTINUOUS
 10
27.953799
 20
12.374837
 30
-0.000000
 11
27.736080
 21
12.129093
 31
-0.000000
  0
LINE
  8
Layer 1
 62
     7
  6
CONTINUOUS
 10
27.736080
 20
12.129093
 30
-0.000000
 11
27.557389
 21
11.851533
 31
-0.000000
  0
LINE
  8
Layer 1
 62
     7
  6
CONTINUOUS
 10
27.557389
 20
11.851533
 30
-0.000000
 11
27.484364
 21
11.687481
 31
-0.000000
  0
LINE
  8
Default
 62
     7
  6
CONTINUOUS
 10
27.484364
 20
11.687481
 30
-0.000000
 11
27.462245
 21
11.638587
 31
-0.000000
  0
ARC
  8
Default
 62
     7
  6
CONTINUOUS
 10
27.043662
 20
11.823911
 30
-0.000000
 40
0.457773
 50
198.908704
 51
336.119111
  0
LINE
  8
Layer 1
 62
     7
  6
CONTINUOUS
 10
26.610592
 20
11.675564
 30
-0.000000
 11
26.583141
 21
11.755705
 31
-0.000000
  0
LINE
  8
Layer 1
 62
     7
  6
CONTINUOUS
 10
26.583141
 20
11.755705
 30
-0.000000
 11
26.434170
 21
12.046365
 31
-0.000000
  0
LINE
  8
Layer 1
 62
     7
  6
CONTINUOUS
 10
26.434170
 20
12.046365
 30
-0.000000
 11
26.247611
 21
12.312527
 31
-0.000000
  0
LINE
  8
Default
 62
     7
  6
CONTINUOUS
 10
26.247611
 20
12.312527
 30
-0.000000
 11
26.229667
 21
12.343047
 31
-0.000000
  0
LINE
  8
Layer 1
 62
     7
  6
CONTINUOUS
 10
26.229667
 20
12.343047
 30
-0.000000
 11
26.135134
 21
12.474589
 31
-0.000000
  0
LINE
  8
Layer 1
 62
     7
  6
CONTINUOUS
 10
26.135134
 20
12.474589
 30
-0.000000
 11
26.017806
 21
12.608383
 31
-0.000000
  0
LINE
  8
Layer 1
 62
     7
  6
CONTINUOUS
 10
26.017806
 20
12.608383
 30
-0.000000
 11
25.727604
 21
12.868781
 31
-0.000000
  0
LINE
  8
Layer 1
 62
     7
  6
CONTINUOUS
 10
25.727604
 20
12.868781
 30
-0.000000
 11
25.384744
 21
13.096361
 31
-0.000000
  0
LINE
  8
Layer 1
 62
     7
  6
CONTINUOUS
 10
25.384744
 20
13.096361
 30
-0.000000
 11
25.201594
 21
13.189130
 31
-0.000000
  0
LINE
  8
Layer 1
 62
     7
  6
CONTINUOUS
 10
25.201594
 20
13.189130
 30
-0.000000
 11
25.014911
 21
13.263239
 31
-0.000000
  0
LINE
  8
Layer 1
 62
     7
  6
CONTINUOUS
 10
25.014911
 20
13.263239
 30
-0.000000
 11
24.827906
 21
13.315202
 31
-0.000000
  0
LINE
  8
Layer 1
 62
     7
  6
CONTINUOUS
 10
24.827906
 20
13.315202
 30
-0.000000
 11
24.643789
 21
13.341534
 31
-0.000000
  0
LINE
  8
Layer 1
 62
     7
  6
CONTINUOUS
 10
24.643789
 20
13.341534
 30
-0.000000
 11
24.569074
 21
13.344112
 31
-0.000000
  0
LINE
  8
Layer 1
 62
     7
  6
CONTINUOUS
 10
24.569074
 20
13.344112
 30
-0.000000
 11
24.568674
 21
13.344112
 31
-0.000000
  0
LINE
  8
Layer 1
 62
     7
  6
CONTINUOUS
 10
24.568674
 20
13.344112
 30
-0.000000
 11
24.566892
 21
13.344112
 31
-0.000000
  0
LINE
  8
Layer 1
 62
     7
  6
CONTINUOUS
 10
24.566892
 20
13.344112
 30
-0.000000
 11
24.547705
 21
13.344112
 31
-0.000000
  0
LINE
  8
Layer 1
 62
     7
  6
CONTINUOUS
 10
24.547705
 20
13.344112
 30
-0.000000
 11
24.340607
 21
13.344112
 31
-0.000000
  0
LINE
  8
Layer 1
 62
     7
  6
CONTINUOUS
 10
24.340607
 20
13.344112
 30
-0.000000
 11
24.096718
 21
13.344112
 31
-0.000000
  0
LINE
  8
Layer 1
 62
     7
  6
CONTINUOUS
 10
24.096718
 20
13.344112
 30
-0.000000
 11
24.032546
 21
13.344112
 31
-0.000000
  0
LINE
  8
Layer 1
 62
     7
  6
CONTINUOUS
 10
24.032546
 20
13.344112
 30
-0.000000
 11
24.027368
 21
13.344112
 31
-0.000000
  0
LINE
  8
Layer 1
 62
     7
  6
CONTINUOUS
 10
24.027368
 20
13.344112
 30
-0.000000
 11
24.025549
 21
13.344112
 31
-0.000000
  0
LINE
  8
Layer 1
 62
     7
  6
CONTINUOUS
 10
24.025549
 20
13.344112
 30
-0.000000
 11
23.876951
 21
13.337414
 31
-0.000000
  0
LINE
  8
Layer 1
 62
     7
  6
CONTINUOUS
 10
23.876951
 20
13.337414
 30
-0.000000
 11
23.585127
 21
13.286205
 31
-0.000000
  0
LINE
  8
Layer 1
 62
     7
  6
CONTINUOUS
 10
23.585127
 20
13.286205
 30
-0.000000
 11
23.303120
 21
13.188465
 31
-0.000000
  0
LINE
  8
Layer 1
 62
     7
  6
CONTINUOUS
 10
23.303120
 20
13.188465
 30
-0.000000
 11
23.034114
 21
13.048853
 31
-0.000000
  0
LINE
  8
Layer 1
 62
     7
  6
CONTINUOUS
 10
23.034114
 20
13.048853
 30
-0.000000
 11
22.781293
 21
12.872033
 31
-0.000000
  0
LINE
  8
Layer 1
 62
     7
  6
CONTINUOUS
 10
22.781293
 20
12.872033
 30
-0.000000
 11
22.547840
 21
12.662665
 31
-0.000000
  0
LINE
  8
Layer 1
 62
     7
  6
CONTINUOUS
 10
22.547840
 20
12.662665
 30
-0.000000
 11
22.336940
 21
12.425411
 31
-0.000000
  0
LINE
  8
Layer 1
 62
     7
  6
CONTINUOUS
 10
22.336940
 20
12.425411
 30
-0.000000
 11
22.151777
 21
12.164933
 31
-0.000000
  0
LINE
  8
Layer 1
 62
     7
  6
CONTINUOUS
 10
22.151777
 20
12.164933
 30
-0.000000
 11
21.995535
 21
11.885892
 31
-0.000000
  0
LINE
  8
Layer 1
 62
     7
  6
CONTINUOUS
 10
21.995535
 20
11.885892
 30
-0.000000
 11
21.871398
 21
11.592949
 31
-0.000000
  0
LINE
  8
Layer 1
 62
     7
  6
CONTINUOUS
 10
21.871398
 20
11.592949
 30
-0.000000
 11
21.782550
 21
11.290766
 31
-0.000000
  0
LINE
  8
Layer 1
 62
     7
  6
CONTINUOUS
 10
21.782550
 20
11.290766
 30
-0.000000
 11
21.732175
 21
10.984005
 31
-0.000000
  0
POINT
  8
Default
 62
     7
 10
11.895359
 20
5.041347
 30
0.000000
  0
POINT
  8
Default
 62
     7
 10
13.043158
 20
4.327091
 30
0.000000
  0
POINT
  8
Default
 62
     7
 10
14.187409
 20
5.008882
 30
0.000000
  0
POINT
  8
Default
 62
     7
 10
10.130565
 20
5.648446
 30
0.000000
  0
POINT
  8
Default
 62
     7
 10
22.758248
 20
4.385548
 30
0.000000
  0
POINT
  8
Default
 62
     7
 10
23.907055
 20
3.716614
 30
0.000000
  0
POINT
  8
Default
 62
     7
 10
25.063284
 20
4.366069
 30
0.000000
  0
POINT
  8
Default
 62
     7
 10
31.193399
 20
3.727791
 30
0.000000
  0
POINT
  8
Default
 62
     7
 10
33.549713
 20
4.320618
 30
0.000000
  0
POINT
  8
Default
 62
     7
 10
35.815791
 20
4.372562
 30
0.000000
  0
POINT
  8
Default
 62
     7
 10
44.367150
 20
4.963431
 30
0.000000
  0
POINT
  8
Default
 62
     7
 10
46.620242
 20
4.989403
 30
0.000000
  0
POINT
  8
Default
 62
     7
 10
48.431616
 20
5.632416
 30
0.000000
  0
LINE
  8
Layer 1
 62
     7
  6
CONTINUOUS
 10
21.732175
 20
10.984005
 30
-0.000000
 11
21.722484
 21
10.699915
 31
-0.000000
  0
LINE
  8
Layer 1
 62
     7
  6
CONTINUOUS
 10
21.722484
 20
10.699915
 30
-0.000000
 11
21.777338
 21
10.224080
 31
-0.000000
  0
LINE
  8
Layer 1
 62
     7
  6
CONTINUOUS
 10
21.777338
 20
10.224080
 30
-0.000000
 11
21.907978
 21
9.743783
 31
-0.000000
  0
LINE
  8
Layer 1
 62
     7
  6
CONTINUOUS
 10
21.907978
 20
9.743783
 30
-0.000000
 11
22.102819
 21
9.293096
 31
-0.000000
  0
LINE
  8
Layer 1
 62
     7
  6
CONTINUOUS
 10
22.102819
 20
9.293096
 30
-0.000000
 11
22.220693
 21
9.089505
 31
-0.000000
  0
LINE
  8
Layer 1
 62
     7
  6
CONTINUOUS
 10
22.220693
 20
9.089505
 30
-0.000000
 11
22.350272
 21
8.906094
 31
-0.000000
  0
ARC
  8
Default
 62
     7
  6
CONTINUOUS
 10
24.262573
 20
10.530914
 30
-0.000000
 40
2.509369
 50
220.353478
 51
253.553554
  0
LINE
  8
Layer 1
 62
     7
  6
CONTINUOUS
 10
23.552123
 20
8.124216
 30
-0.000000
 11
23.274984
 21
8.124216
 31
-0.000000
  0
LINE
  8
Layer 1
 62
     7
  6
CONTINUOUS
 10
23.274984
 20
8.124216
 30
-0.000000
 11
19.755367
 21
8.124216
 31
-0.000000
  0
LINE
  8
Layer 1
 62
     7
  6
CONTINUOUS
 10
19.755367
 20
8.124216
 30
-0.000000
 11
19.755367
 21
8.213520
 31
-0.000000
  0
LINE
  8
Layer 1
 62
     7
  6
CONTINUOUS
 10
19.755367
 20
8.213520
 30
-0.000000
 11
19.755367
 21
8.583047
 31
-0.000000
  0
LINE
  8
Layer 1
 62
     7
  6
CONTINUOUS
 10
19.755367
 20
8.583047
 30
-0.000000
 11
19.755367
 21
14.322005
 31
-0.000000
  0
LINE
  8
Layer 1
 62
     7
  6
CONTINUOUS
 10
19.755367
 20
14.322005
 30
-0.000000
 11
19.755367
 21
14.412315
 31
-0.000000
  0
ARC
  8
Default
 62
     7
  6
CONTINUOUS
 10
16.502241
 20
14.598173
 30
-0.000000
 40
3.258431
 50
356.730132
 51
386.353668
  0
ARC
  8
Default
 62
     7
  6
CONTINUOUS
 10
19.404105
 20
16.035747
 30
-0.000000
 40
0.020000
 50
26.353668
 51
90.000000
  0
LINE
  8
Layer 1
 62
     7
  6
CONTINUOUS
 10
19.404105
 20
16.055747
 30
-0.000000
 11
19.359996
 21
16.055747
 31
-0.000000
  0
ARC
  8
Default
 62
     7
  6
CONTINUOUS
 10
19.359996
 20
16.035747
 30
-0.000000
 40
0.020000
 50
90.000000
 51
149.934440
  0
LINE
  8
Layer 1
 62
     7
  6
CONTINUOUS
 10
19.342687
 20
16.045767
 30
-0.000000
 11
19.271984
 21
15.923628
 31
-0.000000
  0
LINE
  8
Layer 1
 62
     7
  6
CONTINUOUS
 10
19.271984
 20
15.923628
 30
-0.000000
 11
19.207966
 21
15.777227
 31
-0.000000
  0
LINE
  8
Layer 1
 62
     7
  6
CONTINUOUS
 10
19.207966
 20
15.777227
 30
-0.000000
 11
19.111989
 21
15.446063
 31
-0.000000
  0
LINE
  8
Layer 1
 62
     7
  6
CONTINUOUS
 10
19.111989
 20
15.446063
 30
-0.000000
 11
19.052225
 21
15.075295
 31
-0.000000
  0
LINE
  8
Layer 1
 62
     7
  6
CONTINUOUS
 10
19.052225
 20
15.075295
 30
-0.000000
 11
19.009980
 21
14.270344
 31
-0.000000
  0
LINE
  8
Layer 1
 62
     7
  6
CONTINUOUS
 10
19.009980
 20
14.270344
 30
-0.000000
 11
19.009553
 21
13.826892
 31
-0.000000
  0
LINE
  8
Layer 1
 62
     7
  6
CONTINUOUS
 10
19.009553
 20
13.826892
 30
-0.000000
 11
19.009553
 21
7.915472
 31
-0.000000
  0
LINE
  8
Layer 1
 62
     7
  6
CONTINUOUS
 10
19.009553
 20
7.915472
 30
-0.000000
 11
19.009553
 21
7.717457
 31
-0.000000
  0
LINE
  8
Layer 1
 62
     7
  6
CONTINUOUS
 10
19.009553
 20
7.717457
 30
-0.000000
 11
15.478669
 21
7.984821
 31
-0.000000
  0
LINE
  8
Layer 1
 62
     7
  6
CONTINUOUS
 10
15.478669
 20
7.984821
 30
-0.000000
 11
9.521726
 21
8.462015
 31
-0.000000
  0
LINE
  8
Layer 1
 62
     7
  6
CONTINUOUS
 10
9.521726
 20
8.462015
 30
-0.000000
 11
2.290009
 21
9.091757
 31
-0.000000
  0
LINE
  8
Layer 1
 62
     7
  6
CONTINUOUS
 10
2.290009
 20
9.091757
 30
-0.000000
 11
1.368712
 21
9.071498
 31
-0.000000
  0
LINE
  8
Layer 1
 62
     7
  6
CONTINUOUS
 10
1.368712
 20
9.071498
 30
-0.000000
 11
0.985934
 21
9.013117
 31
-0.000000
  0
LINE
  8
Layer 1
 62
     7
  6
CONTINUOUS
 10
0.985934
 20
9.013117
 30
-0.000000
 11
0.821603
 21
8.968920
 31
-0.000000
  0
LINE
  8
Layer 1
 62
     7
  6
CONTINUOUS
 10
0.821603
 20
8.968920
 30
-0.000000
 11
0.678202
 21
8.913597
 31
-0.000000
  0
LINE
  8
Layer 1
 62
     7
  6
CONTINUOUS
 10
0.678202
 20
8.913597
 30
-0.000000
 11
0.557900
 21
8.846308
 31
-0.000000
  0
LINE
  8
Layer 1
 62
     7
  6
CONTINUOUS
 10
0.557900
 20
8.846308
 30
-0.000000
 11
0.507089
 21
8.807912
 31
-0.000000
  0
LINE
  8
Layer 1
 62
     7
  6
CONTINUOUS
 10
0.507089
 20
8.807912
 30
-0.000000
 11
0.501195
 21
8.802882
 31
-0.000000
  0
LINE
  8
Layer 1
 62
     7
  6
CONTINUOUS
 10
0.501195
 20
8.802882
 30
-0.000000
 11
0.500601
 21
8.802130
 31
-0.000000
  0
ARC
  8
Default
 62
     7
  6
CONTINUOUS
 10
1.606853
 20
7.660435
 30
-0.000000
 40
1.589737
 50
134.096704
 51
180.589390
  0
ARC
  8
Default
 62
     7
  6
CONTINUOUS
 10
2.039283
 20
3.629149
 30
-0.000000
 40
4.495387
 50
110.001359
 51
116.731672
  0
LINE
  8
Layer 1
 62
     7
  6
CONTINUOUS
 10
0.501670
 20
7.853395
 30
-0.000000
 11
0.612876
 21
7.871257
 31
-0.000000
  0
LINE
  8
Layer 1
 62
     7
  6
CONTINUOUS
 10
27.011129
 20
6.966247
 30
-0.000000
 11
27.009890
 21
7.001516
 31
-0.000000
  0
LINE
  8
Layer 1
 62
     7
  6
CONTINUOUS
 10
27.009890
 20
7.001516
 30
-0.000000
 11
27.009890
 21
7.004465
 31
-0.000000
  0
LINE
  8
Layer 1
 62
     7
  6
CONTINUOUS
 10
27.009890
 20
7.004465
 30
-0.000000
 11
27.009890
 21
7.034377
 31
-0.000000
  0
LINE
  8
Layer 1
 62
     7
  6
CONTINUOUS
 10
27.009890
 20
7.034377
 30
-0.000000
 11
27.009890
 21
7.541629
 31
-0.000000
  0
CIRCLE
  8
Default
 62
     7
  6
CONTINUOUS
 10
29.772460
 20
6.655932
 30
0.000000
 40
0.720000
  0
POINT
  8
Default
 62
     7
 10
0.050000
 20
-0.400000
 30
0.000000
  0
CIRCLE
  8
Default
 62
     7
  6
CONTINUOUS
 10
29.365371
 20
6.942619
 30
0.000000
 40
0.100000
  0
CIRCLE
  8
Default
 62
     7
  6
CONTINUOUS
 10
29.743028
 20
7.151688
 30
0.000000
 40
0.100000
  0
CIRCLE
  8
Default
 62
     7
  6
CONTINUOUS
 10
30.149090
 20
6.985647
 30
0.000000
 40
0.100000
  0
CIRCLE
  8
Default
 62
     7
  6
CONTINUOUS
 10
30.265880
 20
6.570737
 30
0.000000
 40
0.100000
  0
CIRCLE
  8
Default
 62
     7
  6
CONTINUOUS
 10
30.029227
 20
6.205001
 30
0.000000
 40
0.100000
  0
CIRCLE
  8
Default
 62
     7
  6
CONTINUOUS
 10
29.586656
 20
6.189634
 30
0.000000
 40
0.100000
  0
CIRCLE
  8
Default
 62
     7
  6
CONTINUOUS
 10
29.297756
 20
6.509269
 30
0.000000
 40
0.100000
  0
CIRCLE
  8
Default
 62
     7
  6
CONTINUOUS
 10
29.772460
 20
6.655932
 30
0.000000
 40
0.100000
  0
LINE
  8
Layer 1
 62
     7
  6
CONTINUOUS
 10
0.612876
 20
7.871257
 30
-0.000000
 11
0.923567
 21
7.884658
 31
-0.000000
  0
LINE
  8
Layer 1
 62
     7
  6
CONTINUOUS
 10
0.923567
 20
7.884658
 30
-0.000000
 11
2.902144
 21
7.730816
 31
-0.000000
  0
LINE
  8
Layer 1
 62
     7
  6
CONTINUOUS
 10
2.902144
 20
7.730816
 30
-0.000000
 11
5.435347
 21
7.421365
 31
-0.000000
  0
ENDSEC
  0
EOF
