  0
SECTION
  2
HEADER
  9
$ACADVER
  1
AC1014
  9
$HANDSEED
  5
FFFF
  9
$MEASUREMENT
 70
     1
  0
ENDSEC
  0
SECTION
  2
TABLES
  0
TABLE
  2
VPORT
  5
8
330
0
100
AcDbSymbolTable
 70
     4
  0
VPORT
  5
2E
330
8
100
AcDbSymbolTableRecord
100
AcDbViewportTableRecord
  2
*ACTIVE
 70
     0
 10
0.0
 20
0.0
 11
1.0
 21
1.0
 12
210.0
 22
148.5
 13
0.0
 23
0.0
 14
10.0
 24
10.0
 15
10.0
 25
10.0
 16
0.0
 26
0.0
 36
1.0
 17
0.0
 27
0.0
 37
0.0
 40
341.0
 41
1.24
 42
50.0
 43
0.0
 44
0.0
 50
0.0
 51
0.0
 71
     0
 72
   100
 73
     1
 74
     3
 75
     0
 76
     0
 77
     0
 78
     0
  0
ENDTAB
  0
TABLE
  2
LTYPE
  5
5
330
0
100
AcDbSymbolTable
 70
     1
  0
LTYPE
  5
14
330
5
100
AcDbSymbolTableRecord
100
AcDbLinetypeTableRecord
  2
BYBLOCK
 70
     0
  3

 72
    65
 73
     0
 40
0.0
  0
LTYPE
  5
15
330
5
100
AcDbSymbolTableRecord
100
AcDbLinetypeTableRecord
  2
BYLAYER
 70
     0
  3

 72
    65
 73
     0
 40
0.0
  0
LTYPE
  5
16
330
5
100
AcDbSymbolTableRecord
100
AcDbLinetypeTableRecord
  2
CONTINUOUS
 70
     0
  3
Solid line
 72
    65
 73
     0
 40
0.0
  0
ENDTAB
  0
TABLE
  2
LAYER
  5
2
100
AcDbSymbolTable
 70
2
  0
LAYER
  5
50
100
AcDbSymbolTableRecord
100
AcDbLayerTableRecord
  2
0
 70
0
  6
CONTINUOUS
  0
LAYER
  5
51
100
AcDbSymbolTableRecord
100
AcDbLayerTableRecord
  2
ink_ext_XXXXXX
 70
0
  6
CONTINUOUS
  0
ENDTAB
  0
TABLE
  2
STYLE
  5
3
330
0
100
AcDbSymbolTable
 70
     1
  0
STYLE
  5
11
330
3
100
AcDbSymbolTableRecord
100
AcDbTextStyleTableRecord
  2
STANDARD
 70
     0
 40
0.0
 41
1.0
 50
0.0
 71
     0
 42
2.5
  3
txt
  4

  0
ENDTAB
  0
TABLE
  2
VIEW
  5
6
330
0
100
AcDbSymbolTable
 70
     0
  0
ENDTAB
  0
TABLE
  2
UCS
  5
7
330
0
100
AcDbSymbolTable
 70
     0
  0
ENDTAB
  0
TABLE
  2
APPID
  5
9
330
0
100
AcDbSymbolTable
 70
     2
  0
APPID
  5
12
330
9
100
AcDbSymbolTableRecord
100
AcDbRegAppTableRecord
  2
ACAD
 70
     0
  0
ENDTAB
  0
TABLE
  2
DIMSTYLE
  5
A
330
0
100
AcDbSymbolTable
 70
     1
  0
DIMSTYLE
105
27
330
A
100
AcDbSymbolTableRecord
100
AcDbDimStyleTableRecord
  2
ISO-25
 70
     0
  3

  4

  5

  6

  7

 40
1.0
 41
2.5
 42
0.625
 43
3.75
 44
1.25
 45
0.0
 46
0.0
 47
0.0
 48
0.0
140
2.5
141
2.5
142
0.0
143
0.03937007874016
144
1.0
145
0.0
146
1.0
147
0.625
 71
     0
 72
     0
 73
     0
 74
     0
 75
     0
 76
     0
 77
     1
 78
     8
170
     0
171
     3
172
     1
173
     0
174
     0
175
     0
176
     0
177
     0
178
     0
270
     2
271
     2
272
     2
273
     2
274
     3
340
11
275
     0
280
     0
281
     0
282
     0
283
     0
284
     8
285
     0
286
     0
287
     3
288
     0
  0
ENDTAB
  0
TABLE
  2
BLOCK_RECORD
  5
1
330
0
100
AcDbSymbolTable
 70
     1
  0
BLOCK_RECORD
  5
1F
330
1
100
AcDbSymbolTableRecord
100
AcDbBlockTableRecord
  2
*MODEL_SPACE
  0
BLOCK_RECORD
  5
1B
330
1
100
AcDbSymbolTableRecord
100
AcDbBlockTableRecord
  2
*PAPER_SPACE
  0
ENDTAB
  0
ENDSEC
  0
SECTION
  2
BLOCKS
  0
BLOCK
  5
20
330
1F
100
AcDbEntity
  8
0
100
AcDbBlockBegin
  2
*MODEL_SPACE
 70
     0
 10
0.0
 20
0.0
 30
0.0
  3
*MODEL_SPACE
  1

  0
ENDBLK
  5
21
330
1F
100
AcDbEntity
  8
0
100
AcDbBlockEnd
  0
BLOCK
  5
1C
330
1B
100
AcDbEntity
 67
     1
  8
0
100
AcDbBlockBegin
  2
*PAPER_SPACE
  1

  0
ENDBLK
  5
1D
330
1B
100
AcDbEntity
 67
     1
  8
0
100
AcDbBlockEnd
  0
ENDSEC
  0
SECTION
  2
ENTITIES
  0
SPLINE
  5
100
100
AcDbEntity
  8
ink_ext_XXXXXX
 62
7
100
AcDbSpline
 70
8
 71
3
 72
8
 73
4
 74
0
 40
0
 40
0
 40
0
 40
0
 40
1
 40
1
 40
1
 40
1
 10
273.924993
 20
189.194003
 30
0.0
 10
273.099993
 20
189.427003
 30
0.0
 10
272.230993
 20
189.550003
 30
0.0
 10
271.329993
 20
189.550003
 30
0.0
  0
SPLINE
  5
101
100
AcDbEntity
  8
ink_ext_XXXXXX
 62
7
100
AcDbSpline
 70
8
 71
3
 72
8
 73
4
 74
0
 40
0
 40
0
 40
0
 40
0
 40
1
 40
1
 40
1
 40
1
 10
271.329993
 20
189.550003
 30
0.0
 10
270.433993
 20
189.550003
 30
0.0
 10
269.563993
 20
189.427003
 30
0.0
 10
268.740993
 20
189.194003
 30
0.0
  0
SPLINE
  5
102
100
AcDbEntity
  8
ink_ext_XXXXXX
 62
7
100
AcDbSpline
 70
8
 71
3
 72
8
 73
4
 74
0
 40
0
 40
0
 40
0
 40
0
 40
1
 40
1
 40
1
 40
1
 10
268.740993
 20
189.194003
 30
0.0
 10
267.141993
 20
188.758003
 30
0.0
 10
265.710993
 20
187.911003
 30
0.0
 10
264.558993
 20
186.780003
 30
0.0
  0
SPLINE
  5
103
100
AcDbEntity
  8
ink_ext_XXXXXX
 62
7
100
AcDbSpline
 70
8
 71
3
 72
8
 73
4
 74
0
 40
0
 40
0
 40
0
 40
0
 40
1
 40
1
 40
1
 40
1
 10
264.558993
 20
186.780003
 30
0.0
 10
263.319993
 20
185.569003
 30
0.0
 10
262.405993
 20
184.028003
 30
0.0
 10
261.958993
 20
182.289003
 30
0.0
  0
SPLINE
  5
104
100
AcDbEntity
  8
ink_ext_XXXXXX
 62
7
100
AcDbSpline
 70
8
 71
3
 72
8
 73
4
 74
0
 40
0
 40
0
 40
0
 40
0
 40
1
 40
1
 40
1
 40
1
 10
261.958993
 20
182.289003
 30
0.0
 10
261.758993
 20
181.523003
 30
0.0
 10
261.654993
 20
180.713003
 30
0.0
 10
261.654993
 20
179.873003
 30
0.0
  0
SPLINE
  5
105
100
AcDbEntity
  8
ink_ext_XXXXXX
 62
7
100
AcDbSpline
 70
8
 71
3
 72
8
 73
4
 74
0
 40
0
 40
0
 40
0
 40
0
 40
1
 40
1
 40
1
 40
1
 10
261.654993
 20
179.873003
 30
0.0
 10
261.654993
 20
179.045003
 30
0.0
 10
261.758993
 20
178.236003
 30
0.0
 10
261.958993
 20
177.459003
 30
0.0
  0
SPLINE
  5
106
100
AcDbEntity
  8
ink_ext_XXXXXX
 62
7
100
AcDbSpline
 70
8
 71
3
 72
8
 73
4
 74
0
 40
0
 40
0
 40
0
 40
0
 40
1
 40
1
 40
1
 40
1
 10
261.958993
 20
177.459003
 30
0.0
 10
262.405993
 20
175.731003
 30
0.0
 10
263.319993
 20
174.189003
 30
0.0
 10
264.558993
 20
172.978003
 30
0.0
  0
LWPOLYLINE
  5
107
100
AcDbEntity
  8
ink_ext_XXXXXX
 62
7
100
AcDbPolyline
 90
2
 70
0
 10
284.965993
 20
208.316002
 30
0.0
 10
273.924993
 20
189.194003
 30
0.0
  0
SPLINE
  5
108
100
AcDbEntity
  8
ink_ext_XXXXXX
 62
7
100
AcDbSpline
 70
8
 71
3
 72
8
 73
4
 74
0
 40
0
 40
0
 40
0
 40
0
 40
1
 40
1
 40
1
 40
1
 10
76.476598
 20
166.420003
 30
0.0
 10
76.476598
 20
154.792004
 30
0.0
 10
67.018798
 20
145.339004
 30
0.0
 10
55.393799
 20
145.339004
 30
0.0
  0
LWPOLYLINE
  5
109
100
AcDbEntity
  8
ink_ext_XXXXXX
 62
7
100
AcDbPolyline
 90
4
 70
0
 10
264.558993
 20
172.978003
 30
0.0
 10
262.165993
 20
168.834003
 30
0.0
 10
76.476598
 20
168.834003
 30
0.0
 10
76.476598
 20
166.420003
 30
0.0
  0
SPLINE
  5
10a
100
AcDbEntity
  8
ink_ext_XXXXXX
 62
7
100
AcDbSpline
 70
8
 71
3
 72
8
 73
4
 74
0
 40
0
 40
0
 40
0
 40
0
 40
1
 40
1
 40
1
 40
1
 10
52.984399
 20
142.923004
 30
0.0
 10
52.984399
 20
134.709004
 30
0.0
 10
46.299999
 20
128.027004
 30
0.0
 10
38.085899
 20
128.027004
 30
0.0
  0
SPLINE
  5
10b
100
AcDbEntity
  8
ink_ext_XXXXXX
 62
7
100
AcDbSpline
 70
8
 71
3
 72
8
 73
4
 74
0
 40
0
 40
0
 40
0
 40
0
 40
1
 40
1
 40
1
 40
1
 10
38.085899
 20
128.027004
 30
0.0
 10
26.920299
 20
128.027004
 30
0.0
 10
17.834400
 20
137.114004
 30
0.0
 10
17.834400
 20
148.280004
 30
0.0
  0
SPLINE
  5
10c
100
AcDbEntity
  8
ink_ext_XXXXXX
 62
7
100
AcDbSpline
 70
8
 71
3
 72
8
 73
4
 74
0
 40
0
 40
0
 40
0
 40
0
 40
1
 40
1
 40
1
 40
1
 10
17.834400
 20
148.280004
 30
0.0
 10
17.834400
 20
153.348004
 30
0.0
 10
21.953099
 20
157.466004
 30
0.0
 10
27.012499
 20
157.466004
 30
0.0
  0
SPLINE
  5
10d
100
AcDbEntity
  8
ink_ext_XXXXXX
 62
7
100
AcDbSpline
 70
8
 71
3
 72
8
 73
4
 74
0
 40
0
 40
0
 40
0
 40
0
 40
1
 40
1
 40
1
 40
1
 10
27.012499
 20
157.466004
 30
0.0
 10
29.407799
 20
157.466004
 30
0.0
 10
31.356299
 20
155.514004
 30
0.0
 10
31.356299
 20
153.127004
 30
0.0
  0
LWPOLYLINE
  5
10e
100
AcDbEntity
  8
ink_ext_XXXXXX
 62
7
100
AcDbPolyline
 90
3
 70
0
 10
55.393799
 20
145.339004
 30
0.0
 10
52.984399
 20
145.339004
 30
0.0
 10
52.984399
 20
142.923004
 30
0.0
  0
SPLINE
  5
10f
100
AcDbEntity
  8
ink_ext_XXXXXX
 62
7
100
AcDbSpline
 70
8
 71
3
 72
8
 73
4
 74
0
 40
0
 40
0
 40
0
 40
0
 40
1
 40
1
 40
1
 40
1
 10
36.178099
 20
153.127004
 30
0.0
 10
36.178099
 20
158.178004
 30
0.0
 10
32.065599
 20
162.286003
 30
0.0
 10
27.012499
 20
162.286003
 30
0.0
  0
SPLINE
  5
110
100
AcDbEntity
  8
ink_ext_XXXXXX
 62
7
100
AcDbSpline
 70
8
 71
3
 72
8
 73
4
 74
0
 40
0
 40
0
 40
0
 40
0
 40
1
 40
1
 40
1
 40
1
 10
27.012499
 20
162.286003
 30
0.0
 10
19.293800
 20
162.286003
 30
0.0
 10
13.014100
 20
156.003004
 30
0.0
 10
13.014100
 20
148.280004
 30
0.0
  0
SPLINE
  5
111
100
AcDbEntity
  8
ink_ext_XXXXXX
 62
7
100
AcDbSpline
 70
8
 71
3
 72
8
 73
4
 74
0
 40
0
 40
0
 40
0
 40
0
 40
1
 40
1
 40
1
 40
1
 10
13.014100
 20
148.280004
 30
0.0
 10
13.014100
 20
119.378005
 30
0.0
 10
54.570299
 20
114.158005
 30
0.0
 10
57.671899
 20
140.616004
 30
0.0
  0
SPLINE
  5
112
100
AcDbEntity
  8
ink_ext_XXXXXX
 62
7
100
AcDbSpline
 70
8
 71
3
 72
8
 73
4
 74
0
 40
0
 40
0
 40
0
 40
0
 40
1
 40
1
 40
1
 40
1
 10
57.671899
 20
140.616004
 30
0.0
 10
70.096898
 20
141.703004
 30
0.0
 10
80.037498
 20
151.603004
 30
0.0
 10
81.187498
 20
164.006003
 30
0.0
  0
LWPOLYLINE
  5
113
100
AcDbEntity
  8
ink_ext_XXXXXX
 62
7
100
AcDbPolyline
 90
2
 70
0
 10
31.356299
 20
153.127004
 30
0.0
 10
36.178099
 20
153.127004
 30
0.0
  0
SPLINE
  5
114
100
AcDbEntity
  8
ink_ext_XXXXXX
 62
7
100
AcDbSpline
 70
8
 71
3
 72
8
 73
4
 74
0
 40
0
 40
0
 40
0
 40
0
 40
1
 40
1
 40
1
 40
1
 10
253.518994
 20
153.856004
 30
0.0
 10
250.608994
 20
148.814004
 30
0.0
 10
248.471994
 20
143.441004
 30
0.0
 10
247.110994
 20
137.925004
 30
0.0
  0
SPLINE
  5
115
100
AcDbEntity
  8
ink_ext_XXXXXX
 62
7
100
AcDbSpline
 70
8
 71
3
 72
8
 73
4
 74
0
 40
0
 40
0
 40
0
 40
0
 40
1
 40
1
 40
1
 40
1
 10
247.110994
 20
137.925004
 30
0.0
 10
246.687994
 20
136.206004
 30
0.0
 10
246.341994
 20
134.477004
 30
0.0
 10
246.068994
 20
132.739004
 30
0.0
  0
SPLINE
  5
116
100
AcDbEntity
  8
ink_ext_XXXXXX
 62
7
100
AcDbSpline
 70
8
 71
3
 72
8
 73
4
 74
0
 40
0
 40
0
 40
0
 40
0
 40
1
 40
1
 40
1
 40
1
 10
246.068994
 20
132.739004
 30
0.0
 10
245.577994
 20
129.628004
 30
0.0
 10
245.329994
 20
126.483004
 30
0.0
 10
245.319994
 20
123.341004
 30
0.0
  0
SPLINE
  5
117
100
AcDbEntity
  8
ink_ext_XXXXXX
 62
7
100
AcDbSpline
 70
8
 71
3
 72
8
 73
4
 74
0
 40
0
 40
0
 40
0
 40
0
 40
1
 40
1
 40
1
 40
1
 10
245.319994
 20
123.341004
 30
0.0
 10
245.329994
 20
120.195004
 30
0.0
 10
245.577994
 20
117.052005
 30
0.0
 10
246.068994
 20
113.939005
 30
0.0
  0
SPLINE
  5
118
100
AcDbEntity
  8
ink_ext_XXXXXX
 62
7
100
AcDbSpline
 70
8
 71
3
 72
8
 73
4
 74
0
 40
0
 40
0
 40
0
 40
0
 40
1
 40
1
 40
1
 40
1
 10
246.068994
 20
113.939005
 30
0.0
 10
246.341994
 20
112.202005
 30
0.0
 10
246.687994
 20
110.472005
 30
0.0
 10
247.110994
 20
108.753005
 30
0.0
  0
SPLINE
  5
119
100
AcDbEntity
  8
ink_ext_XXXXXX
 62
7
100
AcDbSpline
 70
8
 71
3
 72
8
 73
4
 74
0
 40
0
 40
0
 40
0
 40
0
 40
1
 40
1
 40
1
 40
1
 10
247.110994
 20
108.753005
 30
0.0
 10
248.471994
 20
103.238005
 30
0.0
 10
250.608994
 20
97.865605
 30
0.0
 10
253.518994
 20
92.821905
 30
0.0
  0
LWPOLYLINE
  5
11a
100
AcDbEntity
  8
ink_ext_XXXXXX
 62
7
100
AcDbPolyline
 90
3
 70
0
 10
81.187498
 20
164.006003
 30
0.0
 10
259.377994
 20
164.006003
 30
0.0
 10
253.518994
 20
153.856004
 30
0.0
  0
SPLINE
  5
11b
100
AcDbEntity
  8
ink_ext_XXXXXX
 62
7
100
AcDbSpline
 70
8
 71
3
 72
8
 73
4
 74
0
 40
0
 40
0
 40
0
 40
0
 40
1
 40
1
 40
1
 40
1
 10
81.187498
 20
82.673405
 30
0.0
 10
80.037498
 20
95.076605
 30
0.0
 10
70.096898
 20
104.975005
 30
0.0
 10
57.671899
 20
106.063005
 30
0.0
  0
SPLINE
  5
11c
100
AcDbEntity
  8
ink_ext_XXXXXX
 62
7
100
AcDbSpline
 70
8
 71
3
 72
8
 73
4
 74
0
 40
0
 40
0
 40
0
 40
0
 40
1
 40
1
 40
1
 40
1
 10
57.671899
 20
106.063005
 30
0.0
 10
54.570299
 20
132.522004
 30
0.0
 10
13.014100
 20
127.300004
 30
0.0
 10
13.014100
 20
98.400005
 30
0.0
  0
SPLINE
  5
11d
100
AcDbEntity
  8
ink_ext_XXXXXX
 62
7
100
AcDbSpline
 70
8
 71
3
 72
8
 73
4
 74
0
 40
0
 40
0
 40
0
 40
0
 40
1
 40
1
 40
1
 40
1
 10
13.014100
 20
98.400005
 30
0.0
 10
13.014100
 20
90.675005
 30
0.0
 10
19.293800
 20
84.392205
 30
0.0
 10
27.012499
 20
84.392205
 30
0.0
  0
SPLINE
  5
11e
100
AcDbEntity
  8
ink_ext_XXXXXX
 62
7
100
AcDbSpline
 70
8
 71
3
 72
8
 73
4
 74
0
 40
0
 40
0
 40
0
 40
0
 40
1
 40
1
 40
1
 40
1
 10
27.012499
 20
84.392205
 30
0.0
 10
32.065599
 20
84.392205
 30
0.0
 10
36.178099
 20
88.500005
 30
0.0
 10
36.178099
 20
93.553105
 30
0.0
  0
LWPOLYLINE
  5
11f
100
AcDbEntity
  8
ink_ext_XXXXXX
 62
7
100
AcDbPolyline
 90
3
 70
0
 10
253.518994
 20
92.821905
 30
0.0
 10
259.377994
 20
82.673405
 30
0.0
 10
81.187498
 20
82.673405
 30
0.0
  0
SPLINE
  5
120
100
AcDbEntity
  8
ink_ext_XXXXXX
 62
7
100
AcDbSpline
 70
8
 71
3
 72
8
 73
4
 74
0
 40
0
 40
0
 40
0
 40
0
 40
1
 40
1
 40
1
 40
1
 10
31.356299
 20
93.553105
 30
0.0
 10
31.356299
 20
91.165605
 30
0.0
 10
29.407799
 20
89.212505
 30
0.0
 10
27.012499
 20
89.212505
 30
0.0
  0
SPLINE
  5
121
100
AcDbEntity
  8
ink_ext_XXXXXX
 62
7
100
AcDbSpline
 70
8
 71
3
 72
8
 73
4
 74
0
 40
0
 40
0
 40
0
 40
0
 40
1
 40
1
 40
1
 40
1
 10
27.012499
 20
89.212505
 30
0.0
 10
21.953099
 20
89.212505
 30
0.0
 10
17.834400
 20
93.329705
 30
0.0
 10
17.834400
 20
98.400005
 30
0.0
  0
SPLINE
  5
122
100
AcDbEntity
  8
ink_ext_XXXXXX
 62
7
100
AcDbSpline
 70
8
 71
3
 72
8
 73
4
 74
0
 40
0
 40
0
 40
0
 40
0
 40
1
 40
1
 40
1
 40
1
 10
17.834400
 20
98.400005
 30
0.0
 10
17.834400
 20
109.564005
 30
0.0
 10
26.920299
 20
118.653005
 30
0.0
 10
38.085899
 20
118.653005
 30
0.0
  0
SPLINE
  5
123
100
AcDbEntity
  8
ink_ext_XXXXXX
 62
7
100
AcDbSpline
 70
8
 71
3
 72
8
 73
4
 74
0
 40
0
 40
0
 40
0
 40
0
 40
1
 40
1
 40
1
 40
1
 10
38.085899
 20
118.653005
 30
0.0
 10
46.299999
 20
118.653005
 30
0.0
 10
52.984399
 20
111.970005
 30
0.0
 10
52.984399
 20
103.755005
 30
0.0
  0
LWPOLYLINE
  5
124
100
AcDbEntity
  8
ink_ext_XXXXXX
 62
7
100
AcDbPolyline
 90
2
 70
0
 10
36.178099
 20
93.553105
 30
0.0
 10
31.356299
 20
93.553105
 30
0.0
  0
SPLINE
  5
125
100
AcDbEntity
  8
ink_ext_XXXXXX
 62
7
100
AcDbSpline
 70
8
 71
3
 72
8
 73
4
 74
0
 40
0
 40
0
 40
0
 40
0
 40
1
 40
1
 40
1
 40
1
 10
55.393799
 20
101.341005
 30
0.0
 10
67.018798
 20
101.341005
 30
0.0
 10
76.476598
 20
91.887505
 30
0.0
 10
76.476598
 20
80.259405
 30
0.0
  0
LWPOLYLINE
  5
126
100
AcDbEntity
  8
ink_ext_XXXXXX
 62
7
100
AcDbPolyline
 90
3
 70
0
 10
52.984399
 20
103.755005
 30
0.0
 10
52.984399
 20
101.341005
 30
0.0
 10
55.393799
 20
101.341005
 30
0.0
  0
SPLINE
  5
127
100
AcDbEntity
  8
ink_ext_XXXXXX
 62
7
100
AcDbSpline
 70
8
 71
3
 72
8
 73
4
 74
0
 40
0
 40
0
 40
0
 40
0
 40
1
 40
1
 40
1
 40
1
 10
264.558993
 20
73.701606
 30
0.0
 10
263.319993
 20
72.489106
 30
0.0
 10
262.405993
 20
70.946906
 30
0.0
 10
261.958993
 20
69.218806
 30
0.0
  0
SPLINE
  5
128
100
AcDbEntity
  8
ink_ext_XXXXXX
 62
7
100
AcDbSpline
 70
8
 71
3
 72
8
 73
4
 74
0
 40
0
 40
0
 40
0
 40
0
 40
1
 40
1
 40
1
 40
1
 10
261.958993
 20
69.218806
 30
0.0
 10
261.758993
 20
68.443806
 30
0.0
 10
261.654993
 20
67.632806
 30
0.0
 10
261.654993
 20
66.804706
 30
0.0
  0
SPLINE
  5
129
100
AcDbEntity
  8
ink_ext_XXXXXX
 62
7
100
AcDbSpline
 70
8
 71
3
 72
8
 73
4
 74
0
 40
0
 40
0
 40
0
 40
0
 40
1
 40
1
 40
1
 40
1
 10
261.654993
 20
66.804706
 30
0.0
 10
261.654993
 20
65.967206
 30
0.0
 10
261.758993
 20
65.154706
 30
0.0
 10
261.958993
 20
64.389106
 30
0.0
  0
SPLINE
  5
12a
100
AcDbEntity
  8
ink_ext_XXXXXX
 62
7
100
AcDbSpline
 70
8
 71
3
 72
8
 73
4
 74
0
 40
0
 40
0
 40
0
 40
0
 40
1
 40
1
 40
1
 40
1
 10
261.958993
 20
64.389106
 30
0.0
 10
262.405993
 20
62.653106
 30
0.0
 10
263.319993
 20
61.110906
 30
0.0
 10
264.558993
 20
59.898406
 30
0.0
  0
SPLINE
  5
12b
100
AcDbEntity
  8
ink_ext_XXXXXX
 62
7
100
AcDbSpline
 70
8
 71
3
 72
8
 73
4
 74
0
 40
0
 40
0
 40
0
 40
0
 40
1
 40
1
 40
1
 40
1
 10
264.558993
 20
59.898406
 30
0.0
 10
265.710993
 20
58.767206
 30
0.0
 10
267.141993
 20
57.920306
 30
0.0
 10
268.740993
 20
57.484406
 30
0.0
  0
SPLINE
  5
12c
100
AcDbEntity
  8
ink_ext_XXXXXX
 62
7
100
AcDbSpline
 70
8
 71
3
 72
8
 73
4
 74
0
 40
0
 40
0
 40
0
 40
0
 40
1
 40
1
 40
1
 40
1
 10
268.740993
 20
57.484406
 30
0.0
 10
269.563993
 20
57.251606
 30
0.0
 10
270.433993
 20
57.128106
 30
0.0
 10
271.329993
 20
57.128106
 30
0.0
  0
SPLINE
  5
12d
100
AcDbEntity
  8
ink_ext_XXXXXX
 62
7
100
AcDbSpline
 70
8
 71
3
 72
8
 73
4
 74
0
 40
0
 40
0
 40
0
 40
0
 40
1
 40
1
 40
1
 40
1
 10
271.329993
 20
57.128106
 30
0.0
 10
272.230993
 20
57.128106
 30
0.0
 10
273.099993
 20
57.251606
 30
0.0
 10
273.924993
 20
57.484406
 30
0.0
  0
LWPOLYLINE
  5
12e
100
AcDbEntity
  8
ink_ext_XXXXXX
 62
7
100
AcDbPolyline
 90
4
 70
0
 10
76.476598
 20
80.259405
 30
0.0
 10
76.476598
 20
77.843806
 30
0.0
 10
262.165993
 20
77.843806
 30
0.0
 10
264.558993
 20
73.701606
 30
0.0
  0
SPLINE
  5
12f
100
AcDbEntity
  8
ink_ext_XXXXXX
 62
7
100
AcDbSpline
 70
8
 71
3
 72
8
 73
4
 74
0
 40
0
 40
0
 40
0
 40
0
 40
1
 40
1
 40
1
 40
1
 10
284.965993
 20
38.362507
 30
0.0
 10
286.544993
 20
35.628107
 30
0.0
 10
288.321993
 20
33.043807
 30
0.0
 10
290.272993
 20
30.620307
 30
0.0
  0
SPLINE
  5
130
100
AcDbEntity
  8
ink_ext_XXXXXX
 62
7
100
AcDbSpline
 70
8
 71
3
 72
8
 73
4
 74
0
 40
0
 40
0
 40
0
 40
0
 40
1
 40
1
 40
1
 40
1
 10
290.272993
 20
30.620307
 30
0.0
 10
293.032993
 20
27.189107
 30
0.0
 10
296.138993
 20
24.089107
 30
0.0
 10
299.524993
 20
21.353107
 30
0.0
  0
SPLINE
  5
131
100
AcDbEntity
  8
ink_ext_XXXXXX
 62
7
100
AcDbSpline
 70
8
 71
3
 72
8
 73
4
 74
0
 40
0
 40
0
 40
0
 40
0
 40
1
 40
1
 40
1
 40
1
 10
299.524993
 20
21.353107
 30
0.0
 10
304.529992
 20
17.307807
 30
0.0
 10
310.140992
 20
14.073407
 30
0.0
 10
316.141992
 20
11.756307
 30
0.0
  0
SPLINE
  5
132
100
AcDbEntity
  8
ink_ext_XXXXXX
 62
7
100
AcDbSpline
 70
8
 71
3
 72
8
 73
4
 74
0
 40
0
 40
0
 40
0
 40
0
 40
1
 40
1
 40
1
 40
1
 10
316.141992
 20
11.756307
 30
0.0
 10
320.202992
 20
10.189107
 30
0.0
 10
324.440992
 20
9.056257
 30
0.0
 10
328.790992
 20
8.379697
 30
0.0
  0
SPLINE
  5
133
100
AcDbEntity
  8
ink_ext_XXXXXX
 62
7
100
AcDbSpline
 70
8
 71
3
 72
8
 73
4
 74
0
 40
0
 40
0
 40
0
 40
0
 40
1
 40
1
 40
1
 40
1
 10
328.790992
 20
8.379697
 30
0.0
 10
331.865992
 20
7.898447
 30
0.0
 10
334.993992
 20
7.650007
 30
0.0
 10
338.154992
 20
7.650007
 30
0.0
  0
LWPOLYLINE
  5
134
100
AcDbEntity
  8
ink_ext_XXXXXX
 62
7
100
AcDbPolyline
 90
2
 70
0
 10
273.924993
 20
57.484406
 30
0.0
 10
284.965993
 20
38.362507
 30
0.0
  0
SPLINE
  5
135
100
AcDbEntity
  8
ink_ext_XXXXXX
 62
7
100
AcDbSpline
 70
8
 71
3
 72
8
 73
4
 74
0
 40
0
 40
0
 40
0
 40
0
 40
1
 40
1
 40
1
 40
1
 10
360.221991
 20
7.650007
 30
0.0
 10
360.669991
 20
5.920317
 30
0.0
 10
361.583991
 20
4.379697
 30
0.0
 10
362.824991
 20
3.168757
 30
0.0
  0
LWPOLYLINE
  5
136
100
AcDbEntity
  8
ink_ext_XXXXXX
 62
7
100
AcDbPolyline
 90
2
 70
0
 10
338.154992
 20
7.650007
 30
0.0
 10
360.221991
 20
7.650007
 30
0.0
  0
SPLINE
  5
137
100
AcDbEntity
  8
ink_ext_XXXXXX
 62
7
100
AcDbSpline
 70
8
 71
3
 72
8
 73
4
 74
0
 40
0
 40
0
 40
0
 40
0
 40
1
 40
1
 40
1
 40
1
 10
362.824991
 20
3.157817
 30
0.0
 10
363.976991
 20
2.035947
 30
0.0
 10
365.407991
 20
1.189067
 30
0.0
 10
367.002991
 20
0.743757
 30
0.0
  0
SPLINE
  5
138
100
AcDbEntity
  8
ink_ext_XXXXXX
 62
7
100
AcDbSpline
 70
8
 71
3
 72
8
 73
4
 74
0
 40
0
 40
0
 40
0
 40
0
 40
1
 40
1
 40
1
 40
1
 10
367.002991
 20
0.743757
 30
0.0
 10
367.827991
 20
0.512507
 30
0.0
 10
368.696991
 20
0.387507
 30
0.0
 10
369.594991
 20
0.387507
 30
0.0
  0
SPLINE
  5
139
100
AcDbEntity
  8
ink_ext_XXXXXX
 62
7
100
AcDbSpline
 70
8
 71
3
 72
8
 73
4
 74
0
 40
0
 40
0
 40
0
 40
0
 40
1
 40
1
 40
1
 40
1
 10
369.594991
 20
0.387507
 30
0.0
 10
369.669991
 20
0.387507
 30
0.0
 10
369.743991
 20
0.389070
 30
0.0
 10
369.819991
 20
0.389070
 30
0.0
  0
SPLINE
  5
13a
100
AcDbEntity
  8
ink_ext_XXXXXX
 62
7
100
AcDbSpline
 70
8
 71
3
 72
8
 73
4
 74
0
 40
0
 40
0
 40
0
 40
0
 40
1
 40
1
 40
1
 40
1
 10
369.819991
 20
0.389070
 30
0.0
 10
369.893991
 20
0.389070
 30
0.0
 10
369.968991
 20
0.387507
 30
0.0
 10
370.044991
 20
0.387507
 30
0.0
  0
SPLINE
  5
13b
100
AcDbEntity
  8
ink_ext_XXXXXX
 62
7
100
AcDbSpline
 70
8
 71
3
 72
8
 73
4
 74
0
 40
0
 40
0
 40
0
 40
0
 40
1
 40
1
 40
1
 40
1
 10
370.044991
 20
0.387507
 30
0.0
 10
370.940991
 20
0.387507
 30
0.0
 10
371.810991
 20
0.512507
 30
0.0
 10
372.633991
 20
0.743757
 30
0.0
  0
SPLINE
  5
13c
100
AcDbEntity
  8
ink_ext_XXXXXX
 62
7
100
AcDbSpline
 70
8
 71
3
 72
8
 73
4
 74
0
 40
0
 40
0
 40
0
 40
0
 40
1
 40
1
 40
1
 40
1
 10
372.633991
 20
0.743757
 30
0.0
 10
374.232991
 20
1.189067
 30
0.0
 10
375.663991
 20
2.035947
 30
0.0
 10
376.815991
 20
3.157817
 30
0.0
  0
LWPOLYLINE
  5
13d
100
AcDbEntity
  8
ink_ext_XXXXXX
 62
7
100
AcDbPolyline
 90
2
 70
0
 10
362.824991
 20
3.168757
 30
0.0
 10
362.824991
 20
3.157817
 30
0.0
  0
SPLINE
  5
13e
100
AcDbEntity
  8
ink_ext_XXXXXX
 62
7
100
AcDbSpline
 70
8
 71
3
 72
8
 73
4
 74
0
 40
0
 40
0
 40
0
 40
0
 40
1
 40
1
 40
1
 40
1
 10
376.815991
 20
3.168757
 30
0.0
 10
378.054991
 20
4.379697
 30
0.0
 10
378.968991
 20
5.920317
 30
0.0
 10
379.415991
 20
7.650007
 30
0.0
  0
LWPOLYLINE
  5
13f
100
AcDbEntity
  8
ink_ext_XXXXXX
 62
7
100
AcDbPolyline
 90
2
 70
0
 10
376.815991
 20
3.157817
 30
0.0
 10
376.815991
 20
3.168757
 30
0.0
  0
SPLINE
  5
140
100
AcDbEntity
  8
ink_ext_XXXXXX
 62
7
100
AcDbSpline
 70
8
 71
3
 72
8
 73
4
 74
0
 40
0
 40
0
 40
0
 40
0
 40
1
 40
1
 40
1
 40
1
 10
401.485990
 20
7.650007
 30
0.0
 10
404.643990
 20
7.650007
 30
0.0
 10
407.772990
 20
7.898447
 30
0.0
 10
410.846990
 20
8.379697
 30
0.0
  0
SPLINE
  5
141
100
AcDbEntity
  8
ink_ext_XXXXXX
 62
7
100
AcDbSpline
 70
8
 71
3
 72
8
 73
4
 74
0
 40
0
 40
0
 40
0
 40
0
 40
1
 40
1
 40
1
 40
1
 10
410.846990
 20
8.379697
 30
0.0
 10
415.196990
 20
9.056257
 30
0.0
 10
419.435990
 20
10.189107
 30
0.0
 10
423.497989
 20
11.756307
 30
0.0
  0
SPLINE
  5
142
100
AcDbEntity
  8
ink_ext_XXXXXX
 62
7
100
AcDbSpline
 70
8
 71
3
 72
8
 73
4
 74
0
 40
0
 40
0
 40
0
 40
0
 40
1
 40
1
 40
1
 40
1
 10
423.497989
 20
11.756307
 30
0.0
 10
429.499989
 20
14.073407
 30
0.0
 10
435.110989
 20
17.307807
 30
0.0
 10
440.112989
 20
21.353107
 30
0.0
  0
SPLINE
  5
143
100
AcDbEntity
  8
ink_ext_XXXXXX
 62
7
100
AcDbSpline
 70
8
 71
3
 72
8
 73
4
 74
0
 40
0
 40
0
 40
0
 40
0
 40
1
 40
1
 40
1
 40
1
 10
440.112989
 20
21.353107
 30
0.0
 10
443.499989
 20
24.089107
 30
0.0
 10
446.607989
 20
27.189107
 30
0.0
 10
449.366989
 20
30.620307
 30
0.0
  0
SPLINE
  5
144
100
AcDbEntity
  8
ink_ext_XXXXXX
 62
7
100
AcDbSpline
 70
8
 71
3
 72
8
 73
4
 74
0
 40
0
 40
0
 40
0
 40
0
 40
1
 40
1
 40
1
 40
1
 10
449.366989
 20
30.620307
 30
0.0
 10
451.315989
 20
33.043807
 30
0.0
 10
453.094989
 20
35.628107
 30
0.0
 10
454.672989
 20
38.362507
 30
0.0
  0
LWPOLYLINE
  5
145
100
AcDbEntity
  8
ink_ext_XXXXXX
 62
7
100
AcDbPolyline
 90
2
 70
0
 10
379.415991
 20
7.650007
 30
0.0
 10
401.485990
 20
7.650007
 30
0.0
  0
SPLINE
  5
146
100
AcDbEntity
  8
ink_ext_XXXXXX
 62
7
100
AcDbSpline
 70
8
 71
3
 72
8
 73
4
 74
0
 40
0
 40
0
 40
0
 40
0
 40
1
 40
1
 40
1
 40
1
 10
465.712988
 20
57.484406
 30
0.0
 10
466.538988
 20
57.251606
 30
0.0
 10
467.408988
 20
57.128106
 30
0.0
 10
468.308988
 20
57.128106
 30
0.0
  0
SPLINE
  5
147
100
AcDbEntity
  8
ink_ext_XXXXXX
 62
7
100
AcDbSpline
 70
8
 71
3
 72
8
 73
4
 74
0
 40
0
 40
0
 40
0
 40
0
 40
1
 40
1
 40
1
 40
1
 10
468.308988
 20
57.128106
 30
0.0
 10
469.205988
 20
57.128106
 30
0.0
 10
470.074988
 20
57.251606
 30
0.0
 10
470.899988
 20
57.484406
 30
0.0
  0
SPLINE
  5
148
100
AcDbEntity
  8
ink_ext_XXXXXX
 62
7
100
AcDbSpline
 70
8
 71
3
 72
8
 73
4
 74
0
 40
0
 40
0
 40
0
 40
0
 40
1
 40
1
 40
1
 40
1
 10
470.899988
 20
57.484406
 30
0.0
 10
472.496988
 20
57.920306
 30
0.0
 10
473.927988
 20
58.767206
 30
0.0
 10
475.079988
 20
59.898406
 30
0.0
  0
SPLINE
  5
149
100
AcDbEntity
  8
ink_ext_XXXXXX
 62
7
100
AcDbSpline
 70
8
 71
3
 72
8
 73
4
 74
0
 40
0
 40
0
 40
0
 40
0
 40
1
 40
1
 40
1
 40
1
 10
475.079988
 20
59.898406
 30
0.0
 10
476.318988
 20
61.110906
 30
0.0
 10
477.233988
 20
62.653106
 30
0.0
 10
477.679988
 20
64.389106
 30
0.0
  0
SPLINE
  5
14a
100
AcDbEntity
  8
ink_ext_XXXXXX
 62
7
100
AcDbSpline
 70
8
 71
3
 72
8
 73
4
 74
0
 40
0
 40
0
 40
0
 40
0
 40
1
 40
1
 40
1
 40
1
 10
477.679988
 20
64.389106
 30
0.0
 10
477.877988
 20
65.154706
 30
0.0
 10
477.983988
 20
65.967206
 30
0.0
 10
477.983988
 20
66.804706
 30
0.0
  0
SPLINE
  5
14b
100
AcDbEntity
  8
ink_ext_XXXXXX
 62
7
100
AcDbSpline
 70
8
 71
3
 72
8
 73
4
 74
0
 40
0
 40
0
 40
0
 40
0
 40
1
 40
1
 40
1
 40
1
 10
477.983988
 20
66.804706
 30
0.0
 10
477.983988
 20
67.632806
 30
0.0
 10
477.877988
 20
68.443806
 30
0.0
 10
477.679988
 20
69.218806
 30
0.0
  0
SPLINE
  5
14c
100
AcDbEntity
  8
ink_ext_XXXXXX
 62
7
100
AcDbSpline
 70
8
 71
3
 72
8
 73
4
 74
0
 40
0
 40
0
 40
0
 40
0
 40
1
 40
1
 40
1
 40
1
 10
477.679988
 20
69.218806
 30
0.0
 10
477.233988
 20
70.946906
 30
0.0
 10
476.318988
 20
72.489106
 30
0.0
 10
475.079988
 20
73.701606
 30
0.0
  0
LWPOLYLINE
  5
14d
100
AcDbEntity
  8
ink_ext_XXXXXX
 62
7
100
AcDbPolyline
 90
2
 70
0
 10
454.672989
 20
38.362507
 30
0.0
 10
465.712988
 20
57.484406
 30
0.0
  0
SPLINE
  5
14e
100
AcDbEntity
  8
ink_ext_XXXXXX
 62
7
100
AcDbSpline
 70
8
 71
3
 72
8
 73
4
 74
0
 40
0
 40
0
 40
0
 40
0
 40
1
 40
1
 40
1
 40
1
 10
663.162983
 20
80.259405
 30
0.0
 10
663.162983
 20
91.887505
 30
0.0
 10
672.621983
 20
101.341005
 30
0.0
 10
684.243983
 20
101.341005
 30
0.0
  0
LWPOLYLINE
  5
14f
100
AcDbEntity
  8
ink_ext_XXXXXX
 62
7
100
AcDbPolyline
 90
4
 70
0
 10
475.079988
 20
73.701606
 30
0.0
 10
477.471988
 20
77.843806
 30
0.0
 10
663.162983
 20
77.843806
 30
0.0
 10
663.162983
 20
80.259405
 30
0.0
  0
SPLINE
  5
150
100
AcDbEntity
  8
ink_ext_XXXXXX
 62
7
100
AcDbSpline
 70
8
 71
3
 72
8
 73
4
 74
0
 40
0
 40
0
 40
0
 40
0
 40
1
 40
1
 40
1
 40
1
 10
686.655983
 20
103.755005
 30
0.0
 10
686.655983
 20
111.970005
 30
0.0
 10
693.340983
 20
118.653005
 30
0.0
 10
701.552982
 20
118.653005
 30
0.0
  0
SPLINE
  5
151
100
AcDbEntity
  8
ink_ext_XXXXXX
 62
7
100
AcDbSpline
 70
8
 71
3
 72
8
 73
4
 74
0
 40
0
 40
0
 40
0
 40
0
 40
1
 40
1
 40
1
 40
1
 10
701.552982
 20
118.653005
 30
0.0
 10
712.719982
 20
118.653005
 30
0.0
 10
721.804982
 20
109.564005
 30
0.0
 10
721.804982
 20
98.400005
 30
0.0
  0
SPLINE
  5
152
100
AcDbEntity
  8
ink_ext_XXXXXX
 62
7
100
AcDbSpline
 70
8
 71
3
 72
8
 73
4
 74
0
 40
0
 40
0
 40
0
 40
0
 40
1
 40
1
 40
1
 40
1
 10
721.804982
 20
98.400005
 30
0.0
 10
721.804982
 20
93.329705
 30
0.0
 10
717.687982
 20
89.212505
 30
0.0
 10
712.626982
 20
89.212505
 30
0.0
  0
SPLINE
  5
153
100
AcDbEntity
  8
ink_ext_XXXXXX
 62
7
100
AcDbSpline
 70
8
 71
3
 72
8
 73
4
 74
0
 40
0
 40
0
 40
0
 40
0
 40
1
 40
1
 40
1
 40
1
 10
712.626982
 20
89.212505
 30
0.0
 10
710.232982
 20
89.212505
 30
0.0
 10
708.282982
 20
91.165605
 30
0.0
 10
708.282982
 20
93.553105
 30
0.0
  0
LWPOLYLINE
  5
154
100
AcDbEntity
  8
ink_ext_XXXXXX
 62
7
100
AcDbPolyline
 90
3
 70
0
 10
684.243983
 20
101.341005
 30
0.0
 10
686.655983
 20
101.341005
 30
0.0
 10
686.655983
 20
103.755005
 30
0.0
  0
SPLINE
  5
155
100
AcDbEntity
  8
ink_ext_XXXXXX
 62
7
100
AcDbSpline
 70
8
 71
3
 72
8
 73
4
 74
0
 40
0
 40
0
 40
0
 40
0
 40
1
 40
1
 40
1
 40
1
 10
703.460982
 20
93.553105
 30
0.0
 10
703.460982
 20
88.500005
 30
0.0
 10
707.571982
 20
84.392205
 30
0.0
 10
712.626982
 20
84.392205
 30
0.0
  0
SPLINE
  5
156
100
AcDbEntity
  8
ink_ext_XXXXXX
 62
7
100
AcDbSpline
 70
8
 71
3
 72
8
 73
4
 74
0
 40
0
 40
0
 40
0
 40
0
 40
1
 40
1
 40
1
 40
1
 10
712.626982
 20
84.392205
 30
0.0
 10
720.344982
 20
84.392205
 30
0.0
 10
726.626982
 20
90.675005
 30
0.0
 10
726.626982
 20
98.400005
 30
0.0
  0
SPLINE
  5
157
100
AcDbEntity
  8
ink_ext_XXXXXX
 62
7
100
AcDbSpline
 70
8
 71
3
 72
8
 73
4
 74
0
 40
0
 40
0
 40
0
 40
0
 40
1
 40
1
 40
1
 40
1
 10
726.626982
 20
98.400005
 30
0.0
 10
726.626982
 20
127.300004
 30
0.0
 10
685.068983
 20
132.522004
 30
0.0
 10
681.968983
 20
106.063005
 30
0.0
  0
SPLINE
  5
158
100
AcDbEntity
  8
ink_ext_XXXXXX
 62
7
100
AcDbSpline
 70
8
 71
3
 72
8
 73
4
 74
0
 40
0
 40
0
 40
0
 40
0
 40
1
 40
1
 40
1
 40
1
 10
681.968983
 20
106.063005
 30
0.0
 10
669.540983
 20
104.975005
 30
0.0
 10
659.602984
 20
95.076605
 30
0.0
 10
658.452984
 20
82.673405
 30
0.0
  0
LWPOLYLINE
  5
159
100
AcDbEntity
  8
ink_ext_XXXXXX
 62
7
100
AcDbPolyline
 90
2
 70
0
 10
708.282982
 20
93.553105
 30
0.0
 10
703.460982
 20
93.553105
 30
0.0
  0
SPLINE
  5
15a
100
AcDbEntity
  8
ink_ext_XXXXXX
 62
7
100
AcDbSpline
 70
8
 71
3
 72
8
 73
4
 74
0
 40
0
 40
0
 40
0
 40
0
 40
1
 40
1
 40
1
 40
1
 10
486.118988
 20
92.821905
 30
0.0
 10
489.030988
 20
97.865605
 30
0.0
 10
491.165988
 20
103.238005
 30
0.0
 10
492.527988
 20
108.753005
 30
0.0
  0
SPLINE
  5
15b
100
AcDbEntity
  8
ink_ext_XXXXXX
 62
7
100
AcDbSpline
 70
8
 71
3
 72
8
 73
4
 74
0
 40
0
 40
0
 40
0
 40
0
 40
1
 40
1
 40
1
 40
1
 10
492.527988
 20
108.753005
 30
0.0
 10
492.951988
 20
110.472005
 30
0.0
 10
493.297988
 20
112.202005
 30
0.0
 10
493.571988
 20
113.939005
 30
0.0
  0
SPLINE
  5
15c
100
AcDbEntity
  8
ink_ext_XXXXXX
 62
7
100
AcDbSpline
 70
8
 71
3
 72
8
 73
4
 74
0
 40
0
 40
0
 40
0
 40
0
 40
1
 40
1
 40
1
 40
1
 10
493.571988
 20
113.939005
 30
0.0
 10
494.060988
 20
117.052005
 30
0.0
 10
494.308988
 20
120.195004
 30
0.0
 10
494.319988
 20
123.341004
 30
0.0
  0
SPLINE
  5
15d
100
AcDbEntity
  8
ink_ext_XXXXXX
 62
7
100
AcDbSpline
 70
8
 71
3
 72
8
 73
4
 74
0
 40
0
 40
0
 40
0
 40
0
 40
1
 40
1
 40
1
 40
1
 10
494.319988
 20
123.341004
 30
0.0
 10
494.308988
 20
126.483004
 30
0.0
 10
494.060988
 20
129.628004
 30
0.0
 10
493.571988
 20
132.739004
 30
0.0
  0
SPLINE
  5
15e
100
AcDbEntity
  8
ink_ext_XXXXXX
 62
7
100
AcDbSpline
 70
8
 71
3
 72
8
 73
4
 74
0
 40
0
 40
0
 40
0
 40
0
 40
1
 40
1
 40
1
 40
1
 10
493.571988
 20
132.739004
 30
0.0
 10
493.297988
 20
134.477004
 30
0.0
 10
492.951988
 20
136.206004
 30
0.0
 10
492.527988
 20
137.925004
 30
0.0
  0
SPLINE
  5
15f
100
AcDbEntity
  8
ink_ext_XXXXXX
 62
7
100
AcDbSpline
 70
8
 71
3
 72
8
 73
4
 74
0
 40
0
 40
0
 40
0
 40
0
 40
1
 40
1
 40
1
 40
1
 10
492.527988
 20
137.925004
 30
0.0
 10
491.165988
 20
143.441004
 30
0.0
 10
489.030988
 20
148.814004
 30
0.0
 10
486.118988
 20
153.856004
 30
0.0
  0
LWPOLYLINE
  5
160
100
AcDbEntity
  8
ink_ext_XXXXXX
 62
7
100
AcDbPolyline
 90
3
 70
0
 10
658.452984
 20
82.673405
 30
0.0
 10
480.258988
 20
82.673405
 30
0.0
 10
486.118988
 20
92.821905
 30
0.0
  0
SPLINE
  5
161
100
AcDbEntity
  8
ink_ext_XXXXXX
 62
7
100
AcDbSpline
 70
8
 71
3
 72
8
 73
4
 74
0
 40
0
 40
0
 40
0
 40
0
 40
1
 40
1
 40
1
 40
1
 10
658.452984
 20
164.006003
 30
0.0
 10
659.602984
 20
151.603004
 30
0.0
 10
669.540983
 20
141.703004
 30
0.0
 10
681.968983
 20
140.616004
 30
0.0
  0
SPLINE
  5
162
100
AcDbEntity
  8
ink_ext_XXXXXX
 62
7
100
AcDbSpline
 70
8
 71
3
 72
8
 73
4
 74
0
 40
0
 40
0
 40
0
 40
0
 40
1
 40
1
 40
1
 40
1
 10
681.968983
 20
140.616004
 30
0.0
 10
685.068983
 20
114.158005
 30
0.0
 10
726.626982
 20
119.378005
 30
0.0
 10
726.626982
 20
148.280004
 30
0.0
  0
SPLINE
  5
163
100
AcDbEntity
  8
ink_ext_XXXXXX
 62
7
100
AcDbSpline
 70
8
 71
3
 72
8
 73
4
 74
0
 40
0
 40
0
 40
0
 40
0
 40
1
 40
1
 40
1
 40
1
 10
726.626982
 20
148.280004
 30
0.0
 10
726.626982
 20
156.003004
 30
0.0
 10
720.344982
 20
162.286003
 30
0.0
 10
712.626982
 20
162.286003
 30
0.0
  0
SPLINE
  5
164
100
AcDbEntity
  8
ink_ext_XXXXXX
 62
7
100
AcDbSpline
 70
8
 71
3
 72
8
 73
4
 74
0
 40
0
 40
0
 40
0
 40
0
 40
1
 40
1
 40
1
 40
1
 10
712.626982
 20
162.286003
 30
0.0
 10
707.571982
 20
162.286003
 30
0.0
 10
703.460982
 20
158.178004
 30
0.0
 10
703.460982
 20
153.127004
 30
0.0
  0
LWPOLYLINE
  5
165
100
AcDbEntity
  8
ink_ext_XXXXXX
 62
7
100
AcDbPolyline
 90
3
 70
0
 10
486.118988
 20
153.856004
 30
0.0
 10
480.258988
 20
164.006003
 30
0.0
 10
658.452984
 20
164.006003
 30
0.0
  0
SPLINE
  5
166
100
AcDbEntity
  8
ink_ext_XXXXXX
 62
7
100
AcDbSpline
 70
8
 71
3
 72
8
 73
4
 74
0
 40
0
 40
0
 40
0
 40
0
 40
1
 40
1
 40
1
 40
1
 10
708.282982
 20
153.127004
 30
0.0
 10
708.282982
 20
155.514004
 30
0.0
 10
710.232982
 20
157.466004
 30
0.0
 10
712.626982
 20
157.466004
 30
0.0
  0
SPLINE
  5
167
100
AcDbEntity
  8
ink_ext_XXXXXX
 62
7
100
AcDbSpline
 70
8
 71
3
 72
8
 73
4
 74
0
 40
0
 40
0
 40
0
 40
0
 40
1
 40
1
 40
1
 40
1
 10
712.626982
 20
157.466004
 30
0.0
 10
717.687982
 20
157.466004
 30
0.0
 10
721.804982
 20
153.348004
 30
0.0
 10
721.804982
 20
148.280004
 30
0.0
  0
SPLINE
  5
168
100
AcDbEntity
  8
ink_ext_XXXXXX
 62
7
100
AcDbSpline
 70
8
 71
3
 72
8
 73
4
 74
0
 40
0
 40
0
 40
0
 40
0
 40
1
 40
1
 40
1
 40
1
 10
721.804982
 20
148.280004
 30
0.0
 10
721.804982
 20
137.114004
 30
0.0
 10
712.719982
 20
128.027004
 30
0.0
 10
701.552982
 20
128.027004
 30
0.0
  0
SPLINE
  5
169
100
AcDbEntity
  8
ink_ext_XXXXXX
 62
7
100
AcDbSpline
 70
8
 71
3
 72
8
 73
4
 74
0
 40
0
 40
0
 40
0
 40
0
 40
1
 40
1
 40
1
 40
1
 10
701.552982
 20
128.027004
 30
0.0
 10
693.340983
 20
128.027004
 30
0.0
 10
686.655983
 20
134.709004
 30
0.0
 10
686.655983
 20
142.923004
 30
0.0
  0
LWPOLYLINE
  5
16a
100
AcDbEntity
  8
ink_ext_XXXXXX
 62
7
100
AcDbPolyline
 90
2
 70
0
 10
703.460982
 20
153.127004
 30
0.0
 10
708.282982
 20
153.127004
 30
0.0
  0
SPLINE
  5
16b
100
AcDbEntity
  8
ink_ext_XXXXXX
 62
7
100
AcDbSpline
 70
8
 71
3
 72
8
 73
4
 74
0
 40
0
 40
0
 40
0
 40
0
 40
1
 40
1
 40
1
 40
1
 10
684.243983
 20
145.339004
 30
0.0
 10
672.621983
 20
145.339004
 30
0.0
 10
663.162983
 20
154.792004
 30
0.0
 10
663.162983
 20
166.420003
 30
0.0
  0
LWPOLYLINE
  5
16c
100
AcDbEntity
  8
ink_ext_XXXXXX
 62
7
100
AcDbPolyline
 90
3
 70
0
 10
686.655983
 20
142.923004
 30
0.0
 10
686.655983
 20
145.339004
 30
0.0
 10
684.243983
 20
145.339004
 30
0.0
  0
SPLINE
  5
16d
100
AcDbEntity
  8
ink_ext_XXXXXX
 62
7
100
AcDbSpline
 70
8
 71
3
 72
8
 73
4
 74
0
 40
0
 40
0
 40
0
 40
0
 40
1
 40
1
 40
1
 40
1
 10
475.079988
 20
172.978003
 30
0.0
 10
476.318988
 20
174.189003
 30
0.0
 10
477.233988
 20
175.731003
 30
0.0
 10
477.679988
 20
177.459003
 30
0.0
  0
SPLINE
  5
16e
100
AcDbEntity
  8
ink_ext_XXXXXX
 62
7
100
AcDbSpline
 70
8
 71
3
 72
8
 73
4
 74
0
 40
0
 40
0
 40
0
 40
0
 40
1
 40
1
 40
1
 40
1
 10
477.679988
 20
177.459003
 30
0.0
 10
477.877988
 20
178.236003
 30
0.0
 10
477.983988
 20
179.045003
 30
0.0
 10
477.983988
 20
179.873003
 30
0.0
  0
SPLINE
  5
16f
100
AcDbEntity
  8
ink_ext_XXXXXX
 62
7
100
AcDbSpline
 70
8
 71
3
 72
8
 73
4
 74
0
 40
0
 40
0
 40
0
 40
0
 40
1
 40
1
 40
1
 40
1
 10
477.983988
 20
179.873003
 30
0.0
 10
477.983988
 20
180.713003
 30
0.0
 10
477.877988
 20
181.523003
 30
0.0
 10
477.679988
 20
182.289003
 30
0.0
  0
SPLINE
  5
170
100
AcDbEntity
  8
ink_ext_XXXXXX
 62
7
100
AcDbSpline
 70
8
 71
3
 72
8
 73
4
 74
0
 40
0
 40
0
 40
0
 40
0
 40
1
 40
1
 40
1
 40
1
 10
477.679988
 20
182.289003
 30
0.0
 10
477.233988
 20
184.028003
 30
0.0
 10
476.318988
 20
185.569003
 30
0.0
 10
475.079988
 20
186.780003
 30
0.0
  0
SPLINE
  5
171
100
AcDbEntity
  8
ink_ext_XXXXXX
 62
7
100
AcDbSpline
 70
8
 71
3
 72
8
 73
4
 74
0
 40
0
 40
0
 40
0
 40
0
 40
1
 40
1
 40
1
 40
1
 10
475.079988
 20
186.780003
 30
0.0
 10
473.927988
 20
187.911003
 30
0.0
 10
472.496988
 20
188.758003
 30
0.0
 10
470.899988
 20
189.194003
 30
0.0
  0
SPLINE
  5
172
100
AcDbEntity
  8
ink_ext_XXXXXX
 62
7
100
AcDbSpline
 70
8
 71
3
 72
8
 73
4
 74
0
 40
0
 40
0
 40
0
 40
0
 40
1
 40
1
 40
1
 40
1
 10
470.899988
 20
189.194003
 30
0.0
 10
470.074988
 20
189.427003
 30
0.0
 10
469.205988
 20
189.550003
 30
0.0
 10
468.308988
 20
189.550003
 30
0.0
  0
SPLINE
  5
173
100
AcDbEntity
  8
ink_ext_XXXXXX
 62
7
100
AcDbSpline
 70
8
 71
3
 72
8
 73
4
 74
0
 40
0
 40
0
 40
0
 40
0
 40
1
 40
1
 40
1
 40
1
 10
468.308988
 20
189.550003
 30
0.0
 10
467.408988
 20
189.550003
 30
0.0
 10
466.538988
 20
189.427003
 30
0.0
 10
465.712988
 20
189.194003
 30
0.0
  0
LWPOLYLINE
  5
174
100
AcDbEntity
  8
ink_ext_XXXXXX
 62
7
100
AcDbPolyline
 90
4
 70
0
 10
663.162983
 20
166.420003
 30
0.0
 10
663.162983
 20
168.834003
 30
0.0
 10
477.471988
 20
168.834003
 30
0.0
 10
475.079988
 20
172.978003
 30
0.0
  0
SPLINE
  5
175
100
AcDbEntity
  8
ink_ext_XXXXXX
 62
7
100
AcDbSpline
 70
8
 71
3
 72
8
 73
4
 74
0
 40
0
 40
0
 40
0
 40
0
 40
1
 40
1
 40
1
 40
1
 10
454.672989
 20
208.316002
 30
0.0
 10
453.094989
 20
211.050002
 30
0.0
 10
451.315989
 20
213.636002
 30
0.0
 10
449.366989
 20
216.059002
 30
0.0
  0
SPLINE
  5
176
100
AcDbEntity
  8
ink_ext_XXXXXX
 62
7
100
AcDbSpline
 70
8
 71
3
 72
8
 73
4
 74
0
 40
0
 40
0
 40
0
 40
0
 40
1
 40
1
 40
1
 40
1
 10
449.366989
 20
216.059002
 30
0.0
 10
446.607989
 20
219.489002
 30
0.0
 10
443.499989
 20
222.591002
 30
0.0
 10
440.112989
 20
225.325002
 30
0.0
  0
SPLINE
  5
177
100
AcDbEntity
  8
ink_ext_XXXXXX
 62
7
100
AcDbSpline
 70
8
 71
3
 72
8
 73
4
 74
0
 40
0
 40
0
 40
0
 40
0
 40
1
 40
1
 40
1
 40
1
 10
440.112989
 20
225.325002
 30
0.0
 10
435.110989
 20
229.372002
 30
0.0
 10
429.499989
 20
232.606002
 30
0.0
 10
423.497989
 20
234.922002
 30
0.0
  0
SPLINE
  5
178
100
AcDbEntity
  8
ink_ext_XXXXXX
 62
7
100
AcDbSpline
 70
8
 71
3
 72
8
 73
4
 74
0
 40
0
 40
0
 40
0
 40
0
 40
1
 40
1
 40
1
 40
1
 10
423.497989
 20
234.922002
 30
0.0
 10
419.435990
 20
236.491002
 30
0.0
 10
415.196990
 20
237.622002
 30
0.0
 10
410.846990
 20
238.298002
 30
0.0
  0
SPLINE
  5
179
100
AcDbEntity
  8
ink_ext_XXXXXX
 62
7
100
AcDbSpline
 70
8
 71
3
 72
8
 73
4
 74
0
 40
0
 40
0
 40
0
 40
0
 40
1
 40
1
 40
1
 40
1
 10
410.846990
 20
238.298002
 30
0.0
 10
407.772990
 20
238.780002
 30
0.0
 10
404.643990
 20
239.030002
 30
0.0
 10
401.485990
 20
239.030002
 30
0.0
  0
LWPOLYLINE
  5
17a
100
AcDbEntity
  8
ink_ext_XXXXXX
 62
7
100
AcDbPolyline
 90
2
 70
0
 10
465.712988
 20
189.194003
 30
0.0
 10
454.672989
 20
208.316002
 30
0.0
  0
SPLINE
  5
17b
100
AcDbEntity
  8
ink_ext_XXXXXX
 62
7
100
AcDbSpline
 70
8
 71
3
 72
8
 73
4
 74
0
 40
0
 40
0
 40
0
 40
0
 40
1
 40
1
 40
1
 40
1
 10
379.415991
 20
239.030002
 30
0.0
 10
378.968991
 20
240.758001
 30
0.0
 10
378.054991
 20
242.298001
 30
0.0
 10
376.815991
 20
243.511001
 30
0.0
  0
LWPOLYLINE
  5
17c
100
AcDbEntity
  8
ink_ext_XXXXXX
 62
7
100
AcDbPolyline
 90
2
 70
0
 10
401.485990
 20
239.030002
 30
0.0
 10
379.415991
 20
239.030002
 30
0.0
  0
SPLINE
  5
17d
100
AcDbEntity
  8
ink_ext_XXXXXX
 62
7
100
AcDbSpline
 70
8
 71
3
 72
8
 73
4
 74
0
 40
0
 40
0
 40
0
 40
0
 40
1
 40
1
 40
1
 40
1
 10
376.815991
 20
243.520001
 30
0.0
 10
375.663991
 20
244.642001
 30
0.0
 10
374.232991
 20
245.489001
 30
0.0
 10
372.633991
 20
245.934001
 30
0.0
  0
SPLINE
  5
17e
100
AcDbEntity
  8
ink_ext_XXXXXX
 62
7
100
AcDbSpline
 70
8
 71
3
 72
8
 73
4
 74
0
 40
0
 40
0
 40
0
 40
0
 40
1
 40
1
 40
1
 40
1
 10
372.633991
 20
245.934001
 30
0.0
 10
371.810991
 20
246.167001
 30
0.0
 10
370.940991
 20
246.291001
 30
0.0
 10
370.044991
 20
246.291001
 30
0.0
  0
SPLINE
  5
17f
100
AcDbEntity
  8
ink_ext_XXXXXX
 62
7
100
AcDbSpline
 70
8
 71
3
 72
8
 73
4
 74
0
 40
0
 40
0
 40
0
 40
0
 40
1
 40
1
 40
1
 40
1
 10
370.044991
 20
246.291001
 30
0.0
 10
369.968991
 20
246.291001
 30
0.0
 10
369.893991
 20
246.291001
 30
0.0
 10
369.819991
 20
246.289001
 30
0.0
  0
SPLINE
  5
180
100
AcDbEntity
  8
ink_ext_XXXXXX
 62
7
100
AcDbSpline
 70
8
 71
3
 72
8
 73
4
 74
0
 40
0
 40
0
 40
0
 40
0
 40
1
 40
1
 40
1
 40
1
 10
369.819991
 20
246.289001
 30
0.0
 10
369.743991
 20
246.291001
 30
0.0
 10
369.669991
 20
246.291001
 30
0.0
 10
369.594991
 20
246.291001
 30
0.0
  0
SPLINE
  5
181
100
AcDbEntity
  8
ink_ext_XXXXXX
 62
7
100
AcDbSpline
 70
8
 71
3
 72
8
 73
4
 74
0
 40
0
 40
0
 40
0
 40
0
 40
1
 40
1
 40
1
 40
1
 10
369.594991
 20
246.291001
 30
0.0
 10
368.696991
 20
246.291001
 30
0.0
 10
367.827991
 20
246.167001
 30
0.0
 10
367.002991
 20
245.934001
 30
0.0
  0
SPLINE
  5
182
100
AcDbEntity
  8
ink_ext_XXXXXX
 62
7
100
AcDbSpline
 70
8
 71
3
 72
8
 73
4
 74
0
 40
0
 40
0
 40
0
 40
0
 40
1
 40
1
 40
1
 40
1
 10
367.002991
 20
245.934001
 30
0.0
 10
365.407991
 20
245.489001
 30
0.0
 10
363.976991
 20
244.642001
 30
0.0
 10
362.824991
 20
243.520001
 30
0.0
  0
LWPOLYLINE
  5
183
100
AcDbEntity
  8
ink_ext_XXXXXX
 62
7
100
AcDbPolyline
 90
2
 70
0
 10
376.815991
 20
243.511001
 30
0.0
 10
376.815991
 20
243.520001
 30
0.0
  0
SPLINE
  5
184
100
AcDbEntity
  8
ink_ext_XXXXXX
 62
7
100
AcDbSpline
 70
8
 71
3
 72
8
 73
4
 74
0
 40
0
 40
0
 40
0
 40
0
 40
1
 40
1
 40
1
 40
1
 10
362.824991
 20
243.511001
 30
0.0
 10
361.583991
 20
242.298001
 30
0.0
 10
360.669991
 20
240.758001
 30
0.0
 10
360.221991
 20
239.030002
 30
0.0
  0
LWPOLYLINE
  5
185
100
AcDbEntity
  8
ink_ext_XXXXXX
 62
7
100
AcDbPolyline
 90
2
 70
0
 10
362.824991
 20
243.520001
 30
0.0
 10
362.824991
 20
243.511001
 30
0.0
  0
SPLINE
  5
186
100
AcDbEntity
  8
ink_ext_XXXXXX
 62
7
100
AcDbSpline
 70
8
 71
3
 72
8
 73
4
 74
0
 40
0
 40
0
 40
0
 40
0
 40
1
 40
1
 40
1
 40
1
 10
338.154992
 20
239.030002
 30
0.0
 10
334.993992
 20
239.030002
 30
0.0
 10
331.865992
 20
238.780002
 30
0.0
 10
328.790992
 20
238.298002
 30
0.0
  0
SPLINE
  5
187
100
AcDbEntity
  8
ink_ext_XXXXXX
 62
7
100
AcDbSpline
 70
8
 71
3
 72
8
 73
4
 74
0
 40
0
 40
0
 40
0
 40
0
 40
1
 40
1
 40
1
 40
1
 10
328.790992
 20
238.298002
 30
0.0
 10
324.440992
 20
237.622002
 30
0.0
 10
320.202992
 20
236.491002
 30
0.0
 10
316.141992
 20
234.922002
 30
0.0
  0
SPLINE
  5
188
100
AcDbEntity
  8
ink_ext_XXXXXX
 62
7
100
AcDbSpline
 70
8
 71
3
 72
8
 73
4
 74
0
 40
0
 40
0
 40
0
 40
0
 40
1
 40
1
 40
1
 40
1
 10
316.141992
 20
234.922002
 30
0.0
 10
310.140992
 20
232.606002
 30
0.0
 10
304.529992
 20
229.372002
 30
0.0
 10
299.524993
 20
225.325002
 30
0.0
  0
SPLINE
  5
189
100
AcDbEntity
  8
ink_ext_XXXXXX
 62
7
100
AcDbSpline
 70
8
 71
3
 72
8
 73
4
 74
0
 40
0
 40
0
 40
0
 40
0
 40
1
 40
1
 40
1
 40
1
 10
299.524993
 20
225.325002
 30
0.0
 10
296.138993
 20
222.591002
 30
0.0
 10
293.032993
 20
219.489002
 30
0.0
 10
290.272993
 20
216.059002
 30
0.0
  0
SPLINE
  5
18a
100
AcDbEntity
  8
ink_ext_XXXXXX
 62
7
100
AcDbSpline
 70
8
 71
3
 72
8
 73
4
 74
0
 40
0
 40
0
 40
0
 40
0
 40
1
 40
1
 40
1
 40
1
 10
290.272993
 20
216.059002
 30
0.0
 10
288.321993
 20
213.636002
 30
0.0
 10
286.544993
 20
211.050002
 30
0.0
 10
284.965993
 20
208.316002
 30
0.0
  0
LWPOLYLINE
  5
18b
100
AcDbEntity
  8
ink_ext_XXXXXX
 62
7
100
AcDbPolyline
 90
2
 70
0
 10
360.221991
 20
239.030002
 30
0.0
 10
338.154992
 20
239.030002
 30
0.0
  0
LWPOLYLINE
  5
18c
100
AcDbEntity
  8
ink_ext_XXXXXX
 62
7
100
AcDbPolyline
 90
1
 70
1
 10
284.965993
 20
208.316002
 30
0.0
  0
SPLINE
  5
18d
100
AcDbEntity
  8
ink_ext_XXXXXX
 62
7
100
AcDbSpline
 70
8
 71
3
 72
8
 73
4
 74
0
 40
0
 40
0
 40
0
 40
0
 40
1
 40
1
 40
1
 40
1
 10
250.362994
 20
123.348004
 30
0.0
 10
250.397994
 20
133.066004
 30
0.0
 10
252.915994
 20
142.777004
 30
0.0
 10
257.918994
 20
151.442004
 30
0.0
  0
LWPOLYLINE
  5
18e
100
AcDbEntity
  8
ink_ext_XXXXXX
 62
7
100
AcDbPolyline
 90
2
 70
0
 10
250.362994
 20
123.341004
 30
0.0
 10
250.362994
 20
123.348004
 30
0.0
  0
SPLINE
  5
18f
100
AcDbEntity
  8
ink_ext_XXXXXX
 62
7
100
AcDbSpline
 70
8
 71
3
 72
8
 73
4
 74
0
 40
0
 40
0
 40
0
 40
0
 40
1
 40
1
 40
1
 40
1
 10
268.955993
 20
170.555003
 30
0.0
 10
269.780993
 20
170.323003
 30
0.0
 10
270.649993
 20
170.198003
 30
0.0
 10
271.546993
 20
170.198003
 30
0.0
  0
LWPOLYLINE
  5
190
100
AcDbEntity
  8
ink_ext_XXXXXX
 62
7
100
AcDbPolyline
 90
2
 70
0
 10
257.918994
 20
151.442004
 30
0.0
 10
268.955993
 20
170.555003
 30
0.0
  0
SPLINE
  5
191
100
AcDbEntity
  8
ink_ext_XXXXXX
 62
7
100
AcDbSpline
 70
8
 71
3
 72
8
 73
4
 74
0
 40
0
 40
0
 40
0
 40
0
 40
1
 40
1
 40
1
 40
1
 10
271.560993
 20
170.198003
 30
0.0
 10
271.758993
 20
170.198003
 30
0.0
 10
271.955993
 20
170.206003
 30
0.0
 10
272.154993
 20
170.225003
 30
0.0
  0
SPLINE
  5
192
100
AcDbEntity
  8
ink_ext_XXXXXX
 62
7
100
AcDbSpline
 70
8
 71
3
 72
8
 73
4
 74
0
 40
0
 40
0
 40
0
 40
0
 40
1
 40
1
 40
1
 40
1
 10
272.154993
 20
170.225003
 30
0.0
 10
272.208993
 20
170.225003
 30
0.0
 10
272.262993
 20
170.233003
 30
0.0
 10
272.313993
 20
170.233003
 30
0.0
  0
SPLINE
  5
193
100
AcDbEntity
  8
ink_ext_XXXXXX
 62
7
100
AcDbSpline
 70
8
 71
3
 72
8
 73
4
 74
0
 40
0
 40
0
 40
0
 40
0
 40
1
 40
1
 40
1
 40
1
 10
272.313993
 20
170.233003
 30
0.0
 10
272.477993
 20
170.252003
 30
0.0
 10
272.640993
 20
170.261003
 30
0.0
 10
272.802993
 20
170.288003
 30
0.0
  0
SPLINE
  5
194
100
AcDbEntity
  8
ink_ext_XXXXXX
 62
7
100
AcDbSpline
 70
8
 71
3
 72
8
 73
4
 74
0
 40
0
 40
0
 40
0
 40
0
 40
1
 40
1
 40
1
 40
1
 10
272.802993
 20
170.288003
 30
0.0
 10
272.837993
 20
170.288003
 30
0.0
 10
272.874993
 20
170.295003
 30
0.0
 10
272.908993
 20
170.295003
 30
0.0
  0
SPLINE
  5
195
100
AcDbEntity
  8
ink_ext_XXXXXX
 62
7
100
AcDbSpline
 70
8
 71
3
 72
8
 73
4
 74
0
 40
0
 40
0
 40
0
 40
0
 40
1
 40
1
 40
1
 40
1
 10
272.908993
 20
170.295003
 30
0.0
 10
273.324993
 20
170.358003
 30
0.0
 10
273.727993
 20
170.439003
 30
0.0
 10
274.122993
 20
170.555003
 30
0.0
  0
LWPOLYLINE
  5
196
100
AcDbEntity
  8
ink_ext_XXXXXX
 62
7
100
AcDbPolyline
 90
4
 70
0
 10
271.546993
 20
170.198003
 30
0.0
 10
271.547993
 20
170.198003
 30
0.0
 10
271.547993
 20
170.198003
 30
0.0
 10
271.560993
 20
170.198003
 30
0.0
  0
SPLINE
  5
197
100
AcDbEntity
  8
ink_ext_XXXXXX
 62
7
100
AcDbSpline
 70
8
 71
3
 72
8
 73
4
 74
0
 40
0
 40
0
 40
0
 40
0
 40
1
 40
1
 40
1
 40
1
 10
285.180993
 20
151.442004
 30
0.0
 10
290.185993
 20
142.772004
 30
0.0
 10
292.704993
 20
133.059004
 30
0.0
 10
292.737993
 20
123.341004
 30
0.0
  0
SPLINE
  5
198
100
AcDbEntity
  8
ink_ext_XXXXXX
 62
7
100
AcDbSpline
 70
8
 71
3
 72
8
 73
4
 74
0
 40
0
 40
0
 40
0
 40
0
 40
1
 40
1
 40
1
 40
1
 10
292.737993
 20
123.341004
 30
0.0
 10
292.704993
 20
113.619005
 30
0.0
 10
290.185993
 20
103.906005
 30
0.0
 10
285.180993
 20
95.235905
 30
0.0
  0
LWPOLYLINE
  5
199
100
AcDbEntity
  8
ink_ext_XXXXXX
 62
7
100
AcDbPolyline
 90
3
 70
0
 10
274.122993
 20
170.555003
 30
0.0
 10
274.143993
 20
170.555003
 30
0.0
 10
285.180993
 20
151.442004
 30
0.0
  0
SPLINE
  5
19a
100
AcDbEntity
  8
ink_ext_XXXXXX
 62
7
100
AcDbSpline
 70
8
 71
3
 72
8
 73
4
 74
0
 40
0
 40
0
 40
0
 40
0
 40
1
 40
1
 40
1
 40
1
 10
274.122993
 20
76.123406
 30
0.0
 10
273.727993
 20
76.240606
 30
0.0
 10
273.324993
 20
76.320306
 30
0.0
 10
272.908993
 20
76.382806
 30
0.0
  0
SPLINE
  5
19b
100
AcDbEntity
  8
ink_ext_XXXXXX
 62
7
100
AcDbSpline
 70
8
 71
3
 72
8
 73
4
 74
0
 40
0
 40
0
 40
0
 40
0
 40
1
 40
1
 40
1
 40
1
 10
272.908993
 20
76.382806
 30
0.0
 10
272.874993
 20
76.382806
 30
0.0
 10
272.837993
 20
76.392206
 30
0.0
 10
272.802993
 20
76.392206
 30
0.0
  0
SPLINE
  5
19c
100
AcDbEntity
  8
ink_ext_XXXXXX
 62
7
100
AcDbSpline
 70
8
 71
3
 72
8
 73
4
 74
0
 40
0
 40
0
 40
0
 40
0
 40
1
 40
1
 40
1
 40
1
 10
272.802993
 20
76.392206
 30
0.0
 10
272.640993
 20
76.418806
 30
0.0
 10
272.477993
 20
76.428106
 30
0.0
 10
272.313993
 20
76.445306
 30
0.0
  0
SPLINE
  5
19d
100
AcDbEntity
  8
ink_ext_XXXXXX
 62
7
100
AcDbSpline
 70
8
 71
3
 72
8
 73
4
 74
0
 40
0
 40
0
 40
0
 40
0
 40
1
 40
1
 40
1
 40
1
 10
272.313993
 20
76.445306
 30
0.0
 10
272.262993
 20
76.445306
 30
0.0
 10
272.208993
 20
76.454706
 30
0.0
 10
272.154993
 20
76.454706
 30
0.0
  0
SPLINE
  5
19e
100
AcDbEntity
  8
ink_ext_XXXXXX
 62
7
100
AcDbSpline
 70
8
 71
3
 72
8
 73
4
 74
0
 40
0
 40
0
 40
0
 40
0
 40
1
 40
1
 40
1
 40
1
 10
272.154993
 20
76.454706
 30
0.0
 10
271.955993
 20
76.471906
 30
0.0
 10
271.758993
 20
76.481306
 30
0.0
 10
271.560993
 20
76.481306
 30
0.0
  0
LWPOLYLINE
  5
19f
100
AcDbEntity
  8
ink_ext_XXXXXX
 62
7
100
AcDbPolyline
 90
3
 70
0
 10
285.180993
 20
95.235905
 30
0.0
 10
274.143993
 20
76.123406
 30
0.0
 10
274.122993
 20
76.123406
 30
0.0
  0
SPLINE
  5
1a0
100
AcDbEntity
  8
ink_ext_XXXXXX
 62
7
100
AcDbSpline
 70
8
 71
3
 72
8
 73
4
 74
0
 40
0
 40
0
 40
0
 40
0
 40
1
 40
1
 40
1
 40
1
 10
271.546993
 20
76.481306
 30
0.0
 10
270.649993
 20
76.481306
 30
0.0
 10
269.780993
 20
76.356306
 30
0.0
 10
268.955993
 20
76.123406
 30
0.0
  0
LWPOLYLINE
  5
1a1
100
AcDbEntity
  8
ink_ext_XXXXXX
 62
7
100
AcDbPolyline
 90
4
 70
0
 10
271.560993
 20
76.481306
 30
0.0
 10
271.547993
 20
76.481306
 30
0.0
 10
271.547993
 20
76.481306
 30
0.0
 10
271.546993
 20
76.481306
 30
0.0
  0
SPLINE
  5
1a2
100
AcDbEntity
  8
ink_ext_XXXXXX
 62
7
100
AcDbSpline
 70
8
 71
3
 72
8
 73
4
 74
0
 40
0
 40
0
 40
0
 40
0
 40
1
 40
1
 40
1
 40
1
 10
257.918994
 20
95.235905
 30
0.0
 10
252.915994
 20
103.903005
 30
0.0
 10
250.397994
 20
113.613005
 30
0.0
 10
250.362994
 20
123.330004
 30
0.0
  0
LWPOLYLINE
  5
1a3
100
AcDbEntity
  8
ink_ext_XXXXXX
 62
7
100
AcDbPolyline
 90
2
 70
0
 10
268.955993
 20
76.123406
 30
0.0
 10
257.918994
 20
95.235905
 30
0.0
  0
SPLINE
  5
1a4
100
AcDbEntity
  8
ink_ext_XXXXXX
 62
7
100
AcDbSpline
 70
8
 71
3
 72
8
 73
4
 74
0
 40
0
 40
0
 40
0
 40
0
 40
1
 40
1
 40
1
 40
1
 10
297.555993
 20
123.341004
 30
0.0
 10
297.505993
 20
126.194004
 30
0.0
 10
297.258993
 20
129.047004
 30
0.0
 10
296.815993
 20
131.872004
 30
0.0
  0
LWPOLYLINE
  5
1a5
100
AcDbEntity
  8
ink_ext_XXXXXX
 62
7
100
AcDbPolyline
 90
2
 70
0
 10
250.362994
 20
123.330004
 30
0.0
 10
250.362994
 20
123.341004
 30
0.0
  0
SPLINE
  5
1a6
100
AcDbEntity
  8
ink_ext_XXXXXX
 62
7
100
AcDbSpline
 70
8
 71
3
 72
8
 73
4
 74
0
 40
0
 40
0
 40
0
 40
0
 40
1
 40
1
 40
1
 40
1
 10
296.815993
 20
114.806005
 30
0.0
 10
297.258993
 20
117.631005
 30
0.0
 10
297.505993
 20
120.484004
 30
0.0
 10
297.555993
 20
123.341004
 30
0.0
  0
LWPOLYLINE
  5
1a7
100
AcDbEntity
  8
ink_ext_XXXXXX
 62
7
100
AcDbPolyline
 90
3
 70
0
 10
296.815993
 20
131.872004
 30
0.0
 10
301.741992
 20
123.341004
 30
0.0
 10
296.815993
 20
114.806005
 30
0.0
  0
SPLINE
  5
1a8
100
AcDbEntity
  8
ink_ext_XXXXXX
 62
7
100
AcDbSpline
 70
8
 71
3
 72
8
 73
4
 74
0
 40
0
 40
0
 40
0
 40
0
 40
1
 40
1
 40
1
 40
1
 10
364.974991
 20
123.341004
 30
0.0
 10
365.069991
 20
125.767004
 30
0.0
 10
366.962991
 20
127.741004
 30
0.0
 10
369.355991
 20
127.969004
 30
0.0
  0
LWPOLYLINE
  5
1a9
100
AcDbEntity
  8
ink_ext_XXXXXX
 62
7
100
AcDbPolyline
 90
1
 70
1
 10
297.555993
 20
123.341004
 30
0.0
  0
SPLINE
  5
1aa
100
AcDbEntity
  8
ink_ext_XXXXXX
 62
7
100
AcDbSpline
 70
8
 71
3
 72
8
 73
4
 74
0
 40
0
 40
0
 40
0
 40
0
 40
1
 40
1
 40
1
 40
1
 10
369.355991
 20
127.967004
 30
0.0
 10
369.438991
 20
127.975004
 30
0.0
 10
369.522991
 20
127.983004
 30
0.0
 10
369.607991
 20
127.986004
 30
0.0
  0
LWPOLYLINE
  5
1ab
100
AcDbEntity
  8
ink_ext_XXXXXX
 62
7
100
AcDbPolyline
 90
2
 70
0
 10
369.355991
 20
127.969004
 30
0.0
 10
369.355991
 20
127.967004
 30
0.0
  0
SPLINE
  5
1ac
100
AcDbEntity
  8
ink_ext_XXXXXX
 62
7
100
AcDbSpline
 70
8
 71
3
 72
8
 73
4
 74
0
 40
0
 40
0
 40
0
 40
0
 40
1
 40
1
 40
1
 40
1
 10
370.030991
 20
127.986004
 30
0.0
 10
370.115991
 20
127.983004
 30
0.0
 10
370.199991
 20
127.975004
 30
0.0
 10
370.282991
 20
127.967004
 30
0.0
  0
LWPOLYLINE
  5
1ad
100
AcDbEntity
  8
ink_ext_XXXXXX
 62
7
100
AcDbPolyline
 90
8
 70
0
 10
369.607991
 20
127.986004
 30
0.0
 10
369.669991
 20
127.988004
 30
0.0
 10
369.705991
 20
127.989004
 30
0.0
 10
369.815991
 20
127.991004
 30
0.0
 10
369.821991
 20
127.991004
 30
0.0
 10
369.930991
 20
127.989004
 30
0.0
 10
369.969991
 20
127.988004
 30
0.0
 10
370.030991
 20
127.986004
 30
0.0
  0
SPLINE
  5
1ae
100
AcDbEntity
  8
ink_ext_XXXXXX
 62
7
100
AcDbSpline
 70
8
 71
3
 72
8
 73
4
 74
0
 40
0
 40
0
 40
0
 40
0
 40
1
 40
1
 40
1
 40
1
 10
370.282991
 20
127.969004
 30
0.0
 10
372.674991
 20
127.741004
 30
0.0
 10
374.568991
 20
125.767004
 30
0.0
 10
374.665991
 20
123.341004
 30
0.0
  0
SPLINE
  5
1af
100
AcDbEntity
  8
ink_ext_XXXXXX
 62
7
100
AcDbSpline
 70
8
 71
3
 72
8
 73
4
 74
0
 40
0
 40
0
 40
0
 40
0
 40
1
 40
1
 40
1
 40
1
 10
374.665991
 20
123.341004
 30
0.0
 10
374.568991
 20
120.911004
 30
0.0
 10
372.674991
 20
118.938005
 30
0.0
 10
370.282991
 20
118.709005
 30
0.0
  0
LWPOLYLINE
  5
1b0
100
AcDbEntity
  8
ink_ext_XXXXXX
 62
7
100
AcDbPolyline
 90
2
 70
0
 10
370.282991
 20
127.967004
 30
0.0
 10
370.282991
 20
127.969004
 30
0.0
  0
SPLINE
  5
1b1
100
AcDbEntity
  8
ink_ext_XXXXXX
 62
7
100
AcDbSpline
 70
8
 71
3
 72
8
 73
4
 74
0
 40
0
 40
0
 40
0
 40
0
 40
1
 40
1
 40
1
 40
1
 10
370.282991
 20
118.711005
 30
0.0
 10
370.199991
 20
118.703005
 30
0.0
 10
370.115991
 20
118.697005
 30
0.0
 10
370.030991
 20
118.694005
 30
0.0
  0
LWPOLYLINE
  5
1b2
100
AcDbEntity
  8
ink_ext_XXXXXX
 62
7
100
AcDbPolyline
 90
2
 70
0
 10
370.282991
 20
118.709005
 30
0.0
 10
370.282991
 20
118.711005
 30
0.0
  0
SPLINE
  5
1b3
100
AcDbEntity
  8
ink_ext_XXXXXX
 62
7
100
AcDbSpline
 70
8
 71
3
 72
8
 73
4
 74
0
 40
0
 40
0
 40
0
 40
0
 40
1
 40
1
 40
1
 40
1
 10
369.607991
 20
118.694005
 30
0.0
 10
369.522991
 20
118.697005
 30
0.0
 10
369.438991
 20
118.703005
 30
0.0
 10
369.355991
 20
118.711005
 30
0.0
  0
LWPOLYLINE
  5
1b4
100
AcDbEntity
  8
ink_ext_XXXXXX
 62
7
100
AcDbPolyline
 90
8
 70
0
 10
370.030991
 20
118.694005
 30
0.0
 10
369.969991
 20
118.691005
 30
0.0
 10
369.930991
 20
118.689005
 30
0.0
 10
369.821991
 20
118.689005
 30
0.0
 10
369.815991
 20
118.689005
 30
0.0
 10
369.705991
 20
118.689005
 30
0.0
 10
369.669991
 20
118.691005
 30
0.0
 10
369.607991
 20
118.694005
 30
0.0
  0
SPLINE
  5
1b5
100
AcDbEntity
  8
ink_ext_XXXXXX
 62
7
100
AcDbSpline
 70
8
 71
3
 72
8
 73
4
 74
0
 40
0
 40
0
 40
0
 40
0
 40
1
 40
1
 40
1
 40
1
 10
369.355991
 20
118.709005
 30
0.0
 10
366.962991
 20
118.938005
 30
0.0
 10
365.069991
 20
120.911004
 30
0.0
 10
364.974991
 20
123.341004
 30
0.0
  0
LWPOLYLINE
  5
1b6
100
AcDbEntity
  8
ink_ext_XXXXXX
 62
7
100
AcDbPolyline
 90
2
 70
0
 10
369.355991
 20
118.711005
 30
0.0
 10
369.355991
 20
118.709005
 30
0.0
  0
LWPOLYLINE
  5
1b7
100
AcDbEntity
  8
ink_ext_XXXXXX
 62
7
100
AcDbPolyline
 90
1
 70
1
 10
364.974991
 20
123.341004
 30
0.0
  0
SPLINE
  5
1b8
100
AcDbEntity
  8
ink_ext_XXXXXX
 62
7
100
AcDbSpline
 70
8
 71
3
 72
8
 73
4
 74
0
 40
0
 40
0
 40
0
 40
0
 40
1
 40
1
 40
1
 40
1
 10
442.824989
 20
131.872004
 30
0.0
 10
442.377989
 20
129.047004
 30
0.0
 10
442.132989
 20
126.194004
 30
0.0
 10
442.083989
 20
123.341004
 30
0.0
  0
SPLINE
  5
1b9
100
AcDbEntity
  8
ink_ext_XXXXXX
 62
7
100
AcDbSpline
 70
8
 71
3
 72
8
 73
4
 74
0
 40
0
 40
0
 40
0
 40
0
 40
1
 40
1
 40
1
 40
1
 10
442.083989
 20
123.341004
 30
0.0
 10
442.132989
 20
120.484004
 30
0.0
 10
442.377989
 20
117.631005
 30
0.0
 10
442.824989
 20
114.806005
 30
0.0
  0
LWPOLYLINE
  5
1ba
100
AcDbEntity
  8
ink_ext_XXXXXX
 62
7
100
AcDbPolyline
 90
2
 70
0
 10
437.897989
 20
123.341004
 30
0.0
 10
442.824989
 20
131.872004
 30
0.0
  0
SPLINE
  5
1bb
100
AcDbEntity
  8
ink_ext_XXXXXX
 62
7
100
AcDbSpline
 70
8
 71
3
 72
8
 73
4
 74
0
 40
0
 40
0
 40
0
 40
0
 40
1
 40
1
 40
1
 40
1
 10
446.902989
 20
123.341004
 30
0.0
 10
446.935989
 20
133.059004
 30
0.0
 10
449.452989
 20
142.772004
 30
0.0
 10
454.455989
 20
151.442004
 30
0.0
  0
LWPOLYLINE
  5
1bc
100
AcDbEntity
  8
ink_ext_XXXXXX
 62
7
100
AcDbPolyline
 90
2
 70
0
 10
442.824989
 20
114.806005
 30
0.0
 10
437.897989
 20
123.341004
 30
0.0
  0
SPLINE
  5
1bd
100
AcDbEntity
  8
ink_ext_XXXXXX
 62
7
100
AcDbSpline
 70
8
 71
3
 72
8
 73
4
 74
0
 40
0
 40
0
 40
0
 40
0
 40
1
 40
1
 40
1
 40
1
 10
465.515988
 20
170.555003
 30
0.0
 10
465.908988
 20
170.439003
 30
0.0
 10
466.315988
 20
170.358003
 30
0.0
 10
466.727988
 20
170.295003
 30
0.0
  0
SPLINE
  5
1be
100
AcDbEntity
  8
ink_ext_XXXXXX
 62
7
100
AcDbSpline
 70
8
 71
3
 72
8
 73
4
 74
0
 40
0
 40
0
 40
0
 40
0
 40
1
 40
1
 40
1
 40
1
 10
466.727988
 20
170.295003
 30
0.0
 10
466.763988
 20
170.295003
 30
0.0
 10
466.799988
 20
170.288003
 30
0.0
 10
466.835988
 20
170.288003
 30
0.0
  0
SPLINE
  5
1bf
100
AcDbEntity
  8
ink_ext_XXXXXX
 62
7
100
AcDbSpline
 70
8
 71
3
 72
8
 73
4
 74
0
 40
0
 40
0
 40
0
 40
0
 40
1
 40
1
 40
1
 40
1
 10
466.835988
 20
170.288003
 30
0.0
 10
466.997988
 20
170.261003
 30
0.0
 10
467.158988
 20
170.252003
 30
0.0
 10
467.324988
 20
170.233003
 30
0.0
  0
SPLINE
  5
1c0
100
AcDbEntity
  8
ink_ext_XXXXXX
 62
7
100
AcDbSpline
 70
8
 71
3
 72
8
 73
4
 74
0
 40
0
 40
0
 40
0
 40
0
 40
1
 40
1
 40
1
 40
1
 10
467.324988
 20
170.233003
 30
0.0
 10
467.376988
 20
170.233003
 30
0.0
 10
467.430988
 20
170.225003
 30
0.0
 10
467.483988
 20
170.225003
 30
0.0
  0
SPLINE
  5
1c1
100
AcDbEntity
  8
ink_ext_XXXXXX
 62
7
100
AcDbSpline
 70
8
 71
3
 72
8
 73
4
 74
0
 40
0
 40
0
 40
0
 40
0
 40
1
 40
1
 40
1
 40
1
 10
467.483988
 20
170.225003
 30
0.0
 10
467.680988
 20
170.206003
 30
0.0
 10
467.880988
 20
170.198003
 30
0.0
 10
468.079988
 20
170.198003
 30
0.0
  0
LWPOLYLINE
  5
1c2
100
AcDbEntity
  8
ink_ext_XXXXXX
 62
7
100
AcDbPolyline
 90
3
 70
0
 10
454.455989
 20
151.442004
 30
0.0
 10
465.496988
 20
170.555003
 30
0.0
 10
465.515988
 20
170.555003
 30
0.0
  0
SPLINE
  5
1c3
100
AcDbEntity
  8
ink_ext_XXXXXX
 62
7
100
AcDbSpline
 70
8
 71
3
 72
8
 73
4
 74
0
 40
0
 40
0
 40
0
 40
0
 40
1
 40
1
 40
1
 40
1
 10
468.091988
 20
170.198003
 30
0.0
 10
468.990988
 20
170.198003
 30
0.0
 10
469.857988
 20
170.323003
 30
0.0
 10
470.680988
 20
170.555003
 30
0.0
  0
LWPOLYLINE
  5
1c4
100
AcDbEntity
  8
ink_ext_XXXXXX
 62
7
100
AcDbPolyline
 90
4
 70
0
 10
468.079988
 20
170.198003
 30
0.0
 10
468.090988
 20
170.198003
 30
0.0
 10
468.090988
 20
170.198003
 30
0.0
 10
468.091988
 20
170.198003
 30
0.0
  0
SPLINE
  5
1c5
100
AcDbEntity
  8
ink_ext_XXXXXX
 62
7
100
AcDbSpline
 70
8
 71
3
 72
8
 73
4
 74
0
 40
0
 40
0
 40
0
 40
0
 40
1
 40
1
 40
1
 40
1
 10
481.719988
 20
151.442004
 30
0.0
 10
486.721988
 20
142.777004
 30
0.0
 10
489.240988
 20
133.066004
 30
0.0
 10
489.274988
 20
123.348004
 30
0.0
  0
LWPOLYLINE
  5
1c6
100
AcDbEntity
  8
ink_ext_XXXXXX
 62
7
100
AcDbPolyline
 90
2
 70
0
 10
470.680988
 20
170.555003
 30
0.0
 10
481.719988
 20
151.442004
 30
0.0
  0
SPLINE
  5
1c7
100
AcDbEntity
  8
ink_ext_XXXXXX
 62
7
100
AcDbSpline
 70
8
 71
3
 72
8
 73
4
 74
0
 40
0
 40
0
 40
0
 40
0
 40
1
 40
1
 40
1
 40
1
 10
489.274988
 20
123.330004
 30
0.0
 10
489.240988
 20
113.613005
 30
0.0
 10
486.721988
 20
103.903005
 30
0.0
 10
481.719988
 20
95.235905
 30
0.0
  0
LWPOLYLINE
  5
1c8
100
AcDbEntity
  8
ink_ext_XXXXXX
 62
7
100
AcDbPolyline
 90
3
 70
0
 10
489.274988
 20
123.348004
 30
0.0
 10
489.274988
 20
123.341004
 30
0.0
 10
489.274988
 20
123.330004
 30
0.0
  0
SPLINE
  5
1c9
100
AcDbEntity
  8
ink_ext_XXXXXX
 62
7
100
AcDbSpline
 70
8
 71
3
 72
8
 73
4
 74
0
 40
0
 40
0
 40
0
 40
0
 40
1
 40
1
 40
1
 40
1
 10
470.680988
 20
76.123406
 30
0.0
 10
469.857988
 20
76.356306
 30
0.0
 10
468.990988
 20
76.481306
 30
0.0
 10
468.091988
 20
76.481306
 30
0.0
  0
LWPOLYLINE
  5
1ca
100
AcDbEntity
  8
ink_ext_XXXXXX
 62
7
100
AcDbPolyline
 90
2
 70
0
 10
481.719988
 20
95.235905
 30
0.0
 10
470.680988
 20
76.123406
 30
0.0
  0
SPLINE
  5
1cb
100
AcDbEntity
  8
ink_ext_XXXXXX
 62
7
100
AcDbSpline
 70
8
 71
3
 72
8
 73
4
 74
0
 40
0
 40
0
 40
0
 40
0
 40
1
 40
1
 40
1
 40
1
 10
468.079988
 20
76.481306
 30
0.0
 10
467.880988
 20
76.481306
 30
0.0
 10
467.680988
 20
76.471906
 30
0.0
 10
467.483988
 20
76.454706
 30
0.0
  0
SPLINE
  5
1cc
100
AcDbEntity
  8
ink_ext_XXXXXX
 62
7
100
AcDbSpline
 70
8
 71
3
 72
8
 73
4
 74
0
 40
0
 40
0
 40
0
 40
0
 40
1
 40
1
 40
1
 40
1
 10
467.483988
 20
76.454706
 30
0.0
 10
467.430988
 20
76.454706
 30
0.0
 10
467.376988
 20
76.445306
 30
0.0
 10
467.324988
 20
76.445306
 30
0.0
  0
SPLINE
  5
1cd
100
AcDbEntity
  8
ink_ext_XXXXXX
 62
7
100
AcDbSpline
 70
8
 71
3
 72
8
 73
4
 74
0
 40
0
 40
0
 40
0
 40
0
 40
1
 40
1
 40
1
 40
1
 10
467.324988
 20
76.445306
 30
0.0
 10
467.158988
 20
76.428106
 30
0.0
 10
466.997988
 20
76.418806
 30
0.0
 10
466.835988
 20
76.392206
 30
0.0
  0
SPLINE
  5
1ce
100
AcDbEntity
  8
ink_ext_XXXXXX
 62
7
100
AcDbSpline
 70
8
 71
3
 72
8
 73
4
 74
0
 40
0
 40
0
 40
0
 40
0
 40
1
 40
1
 40
1
 40
1
 10
466.835988
 20
76.392206
 30
0.0
 10
466.799988
 20
76.392206
 30
0.0
 10
466.763988
 20
76.382806
 30
0.0
 10
466.727988
 20
76.382806
 30
0.0
  0
SPLINE
  5
1cf
100
AcDbEntity
  8
ink_ext_XXXXXX
 62
7
100
AcDbSpline
 70
8
 71
3
 72
8
 73
4
 74
0
 40
0
 40
0
 40
0
 40
0
 40
1
 40
1
 40
1
 40
1
 10
466.727988
 20
76.382806
 30
0.0
 10
466.315988
 20
76.320306
 30
0.0
 10
465.908988
 20
76.240606
 30
0.0
 10
465.515988
 20
76.123406
 30
0.0
  0
LWPOLYLINE
  5
1d0
100
AcDbEntity
  8
ink_ext_XXXXXX
 62
7
100
AcDbPolyline
 90
4
 70
0
 10
468.091988
 20
76.481306
 30
0.0
 10
468.090988
 20
76.481306
 30
0.0
 10
468.090988
 20
76.481306
 30
0.0
 10
468.079988
 20
76.481306
 30
0.0
  0
SPLINE
  5
1d1
100
AcDbEntity
  8
ink_ext_XXXXXX
 62
7
100
AcDbSpline
 70
8
 71
3
 72
8
 73
4
 74
0
 40
0
 40
0
 40
0
 40
0
 40
1
 40
1
 40
1
 40
1
 10
454.455989
 20
95.235905
 30
0.0
 10
449.452989
 20
103.906005
 30
0.0
 10
446.935989
 20
113.619005
 30
0.0
 10
446.902989
 20
123.341004
 30
0.0
  0
LWPOLYLINE
  5
1d2
100
AcDbEntity
  8
ink_ext_XXXXXX
 62
7
100
AcDbPolyline
 90
3
 70
0
 10
465.515988
 20
76.123406
 30
0.0
 10
465.496988
 20
76.123406
 30
0.0
 10
454.455989
 20
95.235905
 30
0.0
  0
SPLINE
  5
1d3
100
AcDbEntity
  8
ink_ext_XXXXXX
 62
7
100
AcDbSpline
 70
8
 71
3
 72
8
 73
4
 74
0
 40
0
 40
0
 40
0
 40
0
 40
1
 40
1
 40
1
 40
1
 10
278.696993
 20
60.290606
 30
0.0
 10
277.949993
 20
59.500006
 30
0.0
 10
288.096993
 20
42.971906
 30
0.0
 10
289.362993
 20
40.778106
 30
0.0
  0
SPLINE
  5
1d4
100
AcDbEntity
  8
ink_ext_XXXXXX
 62
7
100
AcDbSpline
 70
8
 71
3
 72
8
 73
4
 74
0
 40
0
 40
0
 40
0
 40
0
 40
1
 40
1
 40
1
 40
1
 10
289.362993
 20
40.778106
 30
0.0
 10
299.440993
 20
23.321907
 30
0.0
 10
318.218992
 20
12.487507
 30
0.0
 10
338.371992
 20
12.478107
 30
0.0
  0
LWPOLYLINE
  5
1d5
100
AcDbEntity
  8
ink_ext_XXXXXX
 62
7
100
AcDbPolyline
 90
1
 70
1
 10
446.902989
 20
123.341004
 30
0.0
  0
SPLINE
  5
1d6
100
AcDbEntity
  8
ink_ext_XXXXXX
 62
7
100
AcDbSpline
 70
8
 71
3
 72
8
 73
4
 74
0
 40
0
 40
0
 40
0
 40
0
 40
1
 40
1
 40
1
 40
1
 10
360.440991
 20
12.478107
 30
0.0
 10
360.662991
 20
13.340607
 30
0.0
 10
360.999991
 20
14.157807
 30
0.0
 10
361.435991
 20
14.904707
 30
0.0
  0
SPLINE
  5
1d7
100
AcDbEntity
  8
ink_ext_XXXXXX
 62
7
100
AcDbSpline
 70
8
 71
3
 72
8
 73
4
 74
0
 40
0
 40
0
 40
0
 40
0
 40
1
 40
1
 40
1
 40
1
 10
361.435991
 20
14.904707
 30
0.0
 10
361.435991
 20
14.903107
 30
0.0
 10
361.435991
 20
14.903107
 30
0.0
 10
361.435991
 20
14.903107
 30
0.0
  0
LWPOLYLINE
  5
1d8
100
AcDbEntity
  8
ink_ext_XXXXXX
 62
7
100
AcDbPolyline
 90
2
 70
0
 10
338.371992
 20
12.478107
 30
0.0
 10
360.440991
 20
12.478107
 30
0.0
  0
SPLINE
  5
1d9
100
AcDbEntity
  8
ink_ext_XXXXXX
 62
7
100
AcDbSpline
 70
8
 71
3
 72
8
 73
4
 74
0
 40
0
 40
0
 40
0
 40
0
 40
1
 40
1
 40
1
 40
1
 10
361.435991
 20
14.903107
 30
0.0
 10
361.435991
 20
14.904707
 30
0.0
 10
361.437991
 20
14.906307
 30
0.0
 10
361.437991
 20
14.907807
 30
0.0
  0
SPLINE
  5
1da
100
AcDbEntity
  8
ink_ext_XXXXXX
 62
7
100
AcDbSpline
 70
8
 71
3
 72
8
 73
4
 74
0
 40
0
 40
0
 40
0
 40
0
 40
1
 40
1
 40
1
 40
1
 10
361.437991
 20
14.907807
 30
0.0
 10
361.437991
 20
14.907807
 30
0.0
 10
361.438991
 20
14.909407
 30
0.0
 10
361.438991
 20
14.910907
 30
0.0
  0
LWPOLYLINE
  5
1db
100
AcDbEntity
  8
ink_ext_XXXXXX
 62
7
100
AcDbPolyline
 90
1
 70
1
 10
361.435991
 20
14.903107
 30
0.0
  0
SPLINE
  5
1dc
100
AcDbEntity
  8
ink_ext_XXXXXX
 62
7
100
AcDbSpline
 70
8
 71
3
 72
8
 73
4
 74
0
 40
0
 40
0
 40
0
 40
0
 40
1
 40
1
 40
1
 40
1
 10
361.438991
 20
14.910907
 30
0.0
 10
361.462991
 20
14.954707
 30
0.0
 10
361.487991
 20
14.990607
 30
0.0
 10
361.512991
 20
15.026607
 30
0.0
  0
SPLINE
  5
1dd
100
AcDbEntity
  8
ink_ext_XXXXXX
 62
7
100
AcDbSpline
 70
8
 71
3
 72
8
 73
4
 74
0
 40
0
 40
0
 40
0
 40
0
 40
1
 40
1
 40
1
 40
1
 10
361.512991
 20
15.026607
 30
0.0
 10
361.599991
 20
15.170307
 30
0.0
 10
361.687991
 20
15.321907
 30
0.0
 10
361.780991
 20
15.464107
 30
0.0
  0
SPLINE
  5
1de
100
AcDbEntity
  8
ink_ext_XXXXXX
 62
7
100
AcDbSpline
 70
8
 71
3
 72
8
 73
4
 74
0
 40
0
 40
0
 40
0
 40
0
 40
1
 40
1
 40
1
 40
1
 10
361.780991
 20
15.464107
 30
0.0
 10
361.688991
 20
15.321907
 30
0.0
 10
361.602991
 20
15.178107
 30
0.0
 10
361.518991
 20
15.035907
 30
0.0
  0
SPLINE
  5
1df
100
AcDbEntity
  8
ink_ext_XXXXXX
 62
7
100
AcDbSpline
 70
8
 71
3
 72
8
 73
4
 74
0
 40
0
 40
0
 40
0
 40
0
 40
1
 40
1
 40
1
 40
1
 10
361.518991
 20
15.035907
 30
0.0
 10
361.929991
 20
15.721907
 30
0.0
 10
362.421991
 20
16.345307
 30
0.0
 10
362.982991
 20
16.907807
 30
0.0
  0
SPLINE
  5
1e0
100
AcDbEntity
  8
ink_ext_XXXXXX
 62
7
100
AcDbSpline
 70
8
 71
3
 72
8
 73
4
 74
0
 40
0
 40
0
 40
0
 40
0
 40
1
 40
1
 40
1
 40
1
 10
362.982991
 20
16.907807
 30
0.0
 10
362.868991
 20
16.800007
 30
0.0
 10
362.758991
 20
16.684407
 30
0.0
 10
362.652991
 20
16.568807
 30
0.0
  0
SPLINE
  5
1e1
100
AcDbEntity
  8
ink_ext_XXXXXX
 62
7
100
AcDbSpline
 70
8
 71
3
 72
8
 73
4
 74
0
 40
0
 40
0
 40
0
 40
0
 40
1
 40
1
 40
1
 40
1
 10
362.652991
 20
16.568807
 30
0.0
 10
362.774991
 20
16.701607
 30
0.0
 10
362.899991
 20
16.835907
 30
0.0
 10
363.029991
 20
16.960907
 30
0.0
  0
SPLINE
  5
1e2
100
AcDbEntity
  8
ink_ext_XXXXXX
 62
7
100
AcDbSpline
 70
8
 71
3
 72
8
 73
4
 74
0
 40
0
 40
0
 40
0
 40
0
 40
1
 40
1
 40
1
 40
1
 10
363.029991
 20
16.960907
 30
0.0
 10
363.032991
 20
16.960907
 30
0.0
 10
363.037991
 20
16.970307
 30
0.0
 10
363.040991
 20
16.970307
 30
0.0
  0
LWPOLYLINE
  5
1e3
100
AcDbEntity
  8
ink_ext_XXXXXX
 62
7
100
AcDbPolyline
 90
1
 70
1
 10
361.438991
 20
14.910907
 30
0.0
  0
SPLINE
  5
1e4
100
AcDbEntity
  8
ink_ext_XXXXXX
 62
7
100
AcDbSpline
 70
8
 71
3
 72
8
 73
4
 74
0
 40
0
 40
0
 40
0
 40
0
 40
1
 40
1
 40
1
 40
1
 10
352.001991
 20
36.090607
 30
0.0
 10
341.927991
 20
53.545306
 30
0.0
 10
323.147992
 20
64.389106
 30
0.0
 10
302.996992
 20
64.389106
 30
0.0
  0
LWPOLYLINE
  5
1e5
100
AcDbEntity
  8
ink_ext_XXXXXX
 62
7
100
AcDbPolyline
 90
3
 70
0
 10
363.040991
 20
16.970307
 30
0.0
 10
363.040991
 20
16.970307
 30
0.0
 10
352.001991
 20
36.090607
 30
0.0
  0
SPLINE
  5
1e6
100
AcDbEntity
  8
ink_ext_XXXXXX
 62
7
100
AcDbSpline
 70
8
 71
3
 72
8
 73
4
 74
0
 40
0
 40
0
 40
0
 40
0
 40
1
 40
1
 40
1
 40
1
 10
280.921993
 20
64.389106
 30
0.0
 10
280.897993
 20
64.300006
 30
0.0
 10
280.868993
 20
64.210906
 30
0.0
 10
280.843993
 20
64.121906
 30
0.0
  0
SPLINE
  5
1e7
100
AcDbEntity
  8
ink_ext_XXXXXX
 62
7
100
AcDbSpline
 70
8
 71
3
 72
8
 73
4
 74
0
 40
0
 40
0
 40
0
 40
0
 40
1
 40
1
 40
1
 40
1
 10
280.843993
 20
64.121906
 30
0.0
 10
280.818993
 20
64.032806
 30
0.0
 10
280.794993
 20
63.943806
 30
0.0
 10
280.766993
 20
63.862506
 30
0.0
  0
SPLINE
  5
1e8
100
AcDbEntity
  8
ink_ext_XXXXXX
 62
7
100
AcDbSpline
 70
8
 71
3
 72
8
 73
4
 74
0
 40
0
 40
0
 40
0
 40
0
 40
1
 40
1
 40
1
 40
1
 10
280.766993
 20
63.862506
 30
0.0
 10
280.733993
 20
63.756306
 30
0.0
 10
280.696993
 20
63.659406
 30
0.0
 10
280.662993
 20
63.551606
 30
0.0
  0
SPLINE
  5
1e9
100
AcDbEntity
  8
ink_ext_XXXXXX
 62
7
100
AcDbSpline
 70
8
 71
3
 72
8
 73
4
 74
0
 40
0
 40
0
 40
0
 40
0
 40
1
 40
1
 40
1
 40
1
 10
280.662993
 20
63.551606
 30
0.0
 10
280.632993
 20
63.481306
 30
0.0
 10
280.605993
 20
63.400006
 30
0.0
 10
280.574993
 20
63.320306
 30
0.0
  0
SPLINE
  5
1ea
100
AcDbEntity
  8
ink_ext_XXXXXX
 62
7
100
AcDbSpline
 70
8
 71
3
 72
8
 73
4
 74
0
 40
0
 40
0
 40
0
 40
0
 40
1
 40
1
 40
1
 40
1
 10
280.574993
 20
63.320306
 30
0.0
 10
280.533993
 20
63.221906
 30
0.0
 10
280.497993
 20
63.123406
 30
0.0
 10
280.454993
 20
63.026606
 30
0.0
  0
SPLINE
  5
1eb
100
AcDbEntity
  8
ink_ext_XXXXXX
 62
7
100
AcDbSpline
 70
8
 71
3
 72
8
 73
4
 74
0
 40
0
 40
0
 40
0
 40
0
 40
1
 40
1
 40
1
 40
1
 10
280.454993
 20
63.026606
 30
0.0
 10
280.419993
 20
62.937506
 30
0.0
 10
280.377993
 20
62.857806
 30
0.0
 10
280.340993
 20
62.767206
 30
0.0
  0
SPLINE
  5
1ec
100
AcDbEntity
  8
ink_ext_XXXXXX
 62
7
100
AcDbSpline
 70
8
 71
3
 72
8
 73
4
 74
0
 40
0
 40
0
 40
0
 40
0
 40
1
 40
1
 40
1
 40
1
 10
280.340993
 20
62.767206
 30
0.0
 10
280.268993
 20
62.615606
 30
0.0
 10
280.194993
 20
62.465606
 30
0.0
 10
280.115993
 20
62.314106
 30
0.0
  0
SPLINE
  5
1ed
100
AcDbEntity
  8
ink_ext_XXXXXX
 62
7
100
AcDbSpline
 70
8
 71
3
 72
8
 73
4
 74
0
 40
0
 40
0
 40
0
 40
0
 40
1
 40
1
 40
1
 40
1
 10
280.115993
 20
62.314106
 30
0.0
 10
280.074993
 20
62.232806
 30
0.0
 10
280.032993
 20
62.153106
 30
0.0
 10
279.990993
 20
62.081306
 30
0.0
  0
SPLINE
  5
1ee
100
AcDbEntity
  8
ink_ext_XXXXXX
 62
7
100
AcDbSpline
 70
8
 71
3
 72
8
 73
4
 74
0
 40
0
 40
0
 40
0
 40
0
 40
1
 40
1
 40
1
 40
1
 10
279.990993
 20
62.081306
 30
0.0
 10
279.938993
 20
61.993806
 30
0.0
 10
279.888993
 20
61.903106
 30
0.0
 10
279.835993
 20
61.814106
 30
0.0
  0
SPLINE
  5
1ef
100
AcDbEntity
  8
ink_ext_XXXXXX
 62
7
100
AcDbSpline
 70
8
 71
3
 72
8
 73
4
 74
0
 40
0
 40
0
 40
0
 40
0
 40
1
 40
1
 40
1
 40
1
 10
279.835993
 20
61.814106
 30
0.0
 10
279.787993
 20
61.734406
 30
0.0
 10
279.737993
 20
61.654706
 30
0.0
 10
279.687993
 20
61.582806
 30
0.0
  0
SPLINE
  5
1f0
100
AcDbEntity
  8
ink_ext_XXXXXX
 62
7
100
AcDbSpline
 70
8
 71
3
 72
8
 73
4
 74
0
 40
0
 40
0
 40
0
 40
0
 40
1
 40
1
 40
1
 40
1
 10
279.687993
 20
61.582806
 30
0.0
 10
279.637993
 20
61.501606
 30
0.0
 10
279.585993
 20
61.423406
 30
0.0
 10
279.530993
 20
61.342206
 30
0.0
  0
SPLINE
  5
1f1
100
AcDbEntity
  8
ink_ext_XXXXXX
 62
7
100
AcDbSpline
 70
8
 71
3
 72
8
 73
4
 74
0
 40
0
 40
0
 40
0
 40
0
 40
1
 40
1
 40
1
 40
1
 10
279.530993
 20
61.342206
 30
0.0
 10
279.437993
 20
61.200006
 30
0.0
 10
279.340993
 20
61.065606
 30
0.0
 10
279.237993
 20
60.940606
 30
0.0
  0
SPLINE
  5
1f2
100
AcDbEntity
  8
ink_ext_XXXXXX
 62
7
100
AcDbSpline
 70
8
 71
3
 72
8
 73
4
 74
0
 40
0
 40
0
 40
0
 40
0
 40
1
 40
1
 40
1
 40
1
 10
279.237993
 20
60.940606
 30
0.0
 10
279.183993
 20
60.870306
 30
0.0
 10
279.126993
 20
60.798406
 30
0.0
 10
279.069993
 20
60.728106
 30
0.0
  0
SPLINE
  5
1f3
100
AcDbEntity
  8
ink_ext_XXXXXX
 62
7
100
AcDbSpline
 70
8
 71
3
 72
8
 73
4
 74
0
 40
0
 40
0
 40
0
 40
0
 40
1
 40
1
 40
1
 40
1
 10
279.069993
 20
60.728106
 30
0.0
 10
279.005993
 20
60.646906
 30
0.0
 10
278.938993
 20
60.567206
 30
0.0
 10
278.872993
 20
60.485906
 30
0.0
  0
SPLINE
  5
1f4
100
AcDbEntity
  8
ink_ext_XXXXXX
 62
7
100
AcDbSpline
 70
8
 71
3
 72
8
 73
4
 74
0
 40
0
 40
0
 40
0
 40
0
 40
1
 40
1
 40
1
 40
1
 10
278.872993
 20
60.485906
 30
0.0
 10
278.813993
 20
60.425006
 30
0.0
 10
278.755993
 20
60.353106
 30
0.0
 10
278.696993
 20
60.290606
 30
0.0
  0
LWPOLYLINE
  5
1f5
100
AcDbEntity
  8
ink_ext_XXXXXX
 62
7
100
AcDbPolyline
 90
2
 70
0
 10
302.996992
 20
64.389106
 30
0.0
 10
280.921993
 20
64.389106
 30
0.0
  0
LWPOLYLINE
  5
1f6
100
AcDbEntity
  8
ink_ext_XXXXXX
 62
7
100
AcDbPolyline
 90
1
 70
1
 10
278.696993
 20
60.290606
 30
0.0
  0
SPLINE
  5
1f7
100
AcDbEntity
  8
ink_ext_XXXXXX
 62
7
100
AcDbSpline
 70
8
 71
3
 72
8
 73
4
 74
0
 40
0
 40
0
 40
0
 40
0
 40
1
 40
1
 40
1
 40
1
 10
302.996992
 20
69.218806
 30
0.0
 10
323.147992
 20
69.218806
 30
0.0
 10
341.927991
 20
80.053105
 30
0.0
 10
352.001991
 20
97.509405
 30
0.0
  0
LWPOLYLINE
  5
1f8
100
AcDbEntity
  8
ink_ext_XXXXXX
 62
7
100
AcDbPolyline
 90
2
 70
0
 10
280.921993
 20
69.218806
 30
0.0
 10
302.996992
 20
69.218806
 30
0.0
  0
SPLINE
  5
1f9
100
AcDbEntity
  8
ink_ext_XXXXXX
 62
7
100
AcDbSpline
 70
8
 71
3
 72
8
 73
4
 74
0
 40
0
 40
0
 40
0
 40
0
 40
1
 40
1
 40
1
 40
1
 10
363.043991
 20
116.630005
 30
0.0
 10
361.805991
 20
117.850005
 30
0.0
 10
360.890991
 20
119.392005
 30
0.0
 10
360.444991
 20
121.122004
 30
0.0
  0
LWPOLYLINE
  5
1fa
100
AcDbEntity
  8
ink_ext_XXXXXX
 62
7
100
AcDbPolyline
 90
2
 70
0
 10
352.001991
 20
97.509405
 30
0.0
 10
363.043991
 20
116.630005
 30
0.0
  0
SPLINE
  5
1fb
100
AcDbEntity
  8
ink_ext_XXXXXX
 62
7
100
AcDbSpline
 70
8
 71
3
 72
8
 73
4
 74
0
 40
0
 40
0
 40
0
 40
0
 40
1
 40
1
 40
1
 40
1
 10
338.371992
 20
121.122004
 30
0.0
 10
318.218992
 20
121.122004
 30
0.0
 10
299.440993
 20
110.278005
 30
0.0
 10
289.362993
 20
92.821905
 30
0.0
  0
LWPOLYLINE
  5
1fc
100
AcDbEntity
  8
ink_ext_XXXXXX
 62
7
100
AcDbPolyline
 90
2
 70
0
 10
360.444991
 20
121.122004
 30
0.0
 10
338.371992
 20
121.122004
 30
0.0
  0
SPLINE
  5
1fd
100
AcDbEntity
  8
ink_ext_XXXXXX
 62
7
100
AcDbSpline
 70
8
 71
3
 72
8
 73
4
 74
0
 40
0
 40
0
 40
0
 40
0
 40
1
 40
1
 40
1
 40
1
 10
278.349993
 20
73.673406
 30
0.0
 10
278.483993
 20
73.540606
 30
0.0
 10
278.615993
 20
73.406306
 30
0.0
 10
278.743993
 20
73.264106
 30
0.0
  0
SPLINE
  5
1fe
100
AcDbEntity
  8
ink_ext_XXXXXX
 62
7
100
AcDbSpline
 70
8
 71
3
 72
8
 73
4
 74
0
 40
0
 40
0
 40
0
 40
0
 40
1
 40
1
 40
1
 40
1
 10
278.743993
 20
73.264106
 30
0.0
 10
278.774993
 20
73.228106
 30
0.0
 10
278.805993
 20
73.192206
 30
0.0
 10
278.840993
 20
73.148406
 30
0.0
  0
SPLINE
  5
1ff
100
AcDbEntity
  8
ink_ext_XXXXXX
 62
7
100
AcDbSpline
 70
8
 71
3
 72
8
 73
4
 74
0
 40
0
 40
0
 40
0
 40
0
 40
1
 40
1
 40
1
 40
1
 10
278.840993
 20
73.148406
 30
0.0
 10
278.935993
 20
73.040606
 30
0.0
 10
279.029993
 20
72.925006
 30
0.0
 10
279.118993
 20
72.818806
 30
0.0
  0
SPLINE
  5
200
100
AcDbEntity
  8
ink_ext_XXXXXX
 62
7
100
AcDbSpline
 70
8
 71
3
 72
8
 73
4
 74
0
 40
0
 40
0
 40
0
 40
0
 40
1
 40
1
 40
1
 40
1
 10
279.118993
 20
72.818806
 30
0.0
 10
279.158993
 20
72.764106
 30
0.0
 10
279.199993
 20
72.720306
 30
0.0
 10
279.237993
 20
72.667206
 30
0.0
  0
SPLINE
  5
201
100
AcDbEntity
  8
ink_ext_XXXXXX
 62
7
100
AcDbSpline
 70
8
 71
3
 72
8
 73
4
 74
0
 40
0
 40
0
 40
0
 40
0
 40
1
 40
1
 40
1
 40
1
 10
279.237993
 20
72.667206
 30
0.0
 10
279.337993
 20
72.532806
 30
0.0
 10
279.433993
 20
72.409406
 30
0.0
 10
279.524993
 20
72.267206
 30
0.0
  0
SPLINE
  5
202
100
AcDbEntity
  8
ink_ext_XXXXXX
 62
7
100
AcDbSpline
 70
8
 71
3
 72
8
 73
4
 74
0
 40
0
 40
0
 40
0
 40
0
 40
1
 40
1
 40
1
 40
1
 10
279.524993
 20
72.267206
 30
0.0
 10
279.558993
 20
72.221906
 30
0.0
 10
279.591993
 20
72.168806
 30
0.0
 10
279.624993
 20
72.123406
 30
0.0
  0
SPLINE
  5
203
100
AcDbEntity
  8
ink_ext_XXXXXX
 62
7
100
AcDbSpline
 70
8
 71
3
 72
8
 73
4
 74
0
 40
0
 40
0
 40
0
 40
0
 40
1
 40
1
 40
1
 40
1
 10
279.624993
 20
72.123406
 30
0.0
 10
279.705993
 20
71.998406
 30
0.0
 10
279.788993
 20
71.865606
 30
0.0
 10
279.865993
 20
71.740606
 30
0.0
  0
SPLINE
  5
204
100
AcDbEntity
  8
ink_ext_XXXXXX
 62
7
100
AcDbSpline
 70
8
 71
3
 72
8
 73
4
 74
0
 40
0
 40
0
 40
0
 40
0
 40
1
 40
1
 40
1
 40
1
 10
279.865993
 20
71.740606
 30
0.0
 10
279.905993
 20
71.668806
 30
0.0
 10
279.944993
 20
71.596906
 30
0.0
 10
279.983993
 20
71.534406
 30
0.0
  0
SPLINE
  5
205
100
AcDbEntity
  8
ink_ext_XXXXXX
 62
7
100
AcDbSpline
 70
8
 71
3
 72
8
 73
4
 74
0
 40
0
 40
0
 40
0
 40
0
 40
1
 40
1
 40
1
 40
1
 10
279.983993
 20
71.534406
 30
0.0
 10
280.040993
 20
71.428106
 30
0.0
 10
280.094993
 20
71.331306
 30
0.0
 10
280.147993
 20
71.223406
 30
0.0
  0
SPLINE
  5
206
100
AcDbEntity
  8
ink_ext_XXXXXX
 62
7
100
AcDbSpline
 70
8
 71
3
 72
8
 73
4
 74
0
 40
0
 40
0
 40
0
 40
0
 40
1
 40
1
 40
1
 40
1
 10
280.147993
 20
71.223406
 30
0.0
 10
280.185993
 20
71.153106
 30
0.0
 10
280.224993
 20
71.081306
 30
0.0
 10
280.258993
 20
71.009406
 30
0.0
  0
SPLINE
  5
207
100
AcDbEntity
  8
ink_ext_XXXXXX
 62
7
100
AcDbSpline
 70
8
 71
3
 72
8
 73
4
 74
0
 40
0
 40
0
 40
0
 40
0
 40
1
 40
1
 40
1
 40
1
 10
280.258993
 20
71.009406
 30
0.0
 10
280.333993
 20
70.857806
 30
0.0
 10
280.404993
 20
70.706306
 30
0.0
 10
280.469993
 20
70.545306
 30
0.0
  0
SPLINE
  5
208
100
AcDbEntity
  8
ink_ext_XXXXXX
 62
7
100
AcDbSpline
 70
8
 71
3
 72
8
 73
4
 74
0
 40
0
 40
0
 40
0
 40
0
 40
1
 40
1
 40
1
 40
1
 10
280.469993
 20
70.545306
 30
0.0
 10
280.505993
 20
70.467206
 30
0.0
 10
280.537993
 20
70.376606
 30
0.0
 10
280.569993
 20
70.296906
 30
0.0
  0
SPLINE
  5
209
100
AcDbEntity
  8
ink_ext_XXXXXX
 62
7
100
AcDbSpline
 70
8
 71
3
 72
8
 73
4
 74
0
 40
0
 40
0
 40
0
 40
0
 40
1
 40
1
 40
1
 40
1
 10
280.569993
 20
70.296906
 30
0.0
 10
280.605993
 20
70.200006
 30
0.0
 10
280.640993
 20
70.109406
 30
0.0
 10
280.672993
 20
70.012506
 30
0.0
  0
SPLINE
  5
20a
100
AcDbEntity
  8
ink_ext_XXXXXX
 62
7
100
AcDbSpline
 70
8
 71
3
 72
8
 73
4
 74
0
 40
0
 40
0
 40
0
 40
0
 40
1
 40
1
 40
1
 40
1
 10
280.672993
 20
70.012506
 30
0.0
 10
280.705993
 20
69.923406
 30
0.0
 10
280.737993
 20
69.825006
 30
0.0
 10
280.766993
 20
69.735906
 30
0.0
  0
SPLINE
  5
20b
100
AcDbEntity
  8
ink_ext_XXXXXX
 62
7
100
AcDbSpline
 70
8
 71
3
 72
8
 73
4
 74
0
 40
0
 40
0
 40
0
 40
0
 40
1
 40
1
 40
1
 40
1
 10
280.766993
 20
69.735906
 30
0.0
 10
280.799993
 20
69.637506
 30
0.0
 10
280.827993
 20
69.529706
 30
0.0
 10
280.857993
 20
69.432806
 30
0.0
  0
SPLINE
  5
20c
100
AcDbEntity
  8
ink_ext_XXXXXX
 62
7
100
AcDbSpline
 70
8
 71
3
 72
8
 73
4
 74
0
 40
0
 40
0
 40
0
 40
0
 40
1
 40
1
 40
1
 40
1
 10
280.857993
 20
69.432806
 30
0.0
 10
280.877993
 20
69.360906
 30
0.0
 10
280.902993
 20
69.290606
 30
0.0
 10
280.921993
 20
69.218806
 30
0.0
  0
LWPOLYLINE
  5
20d
100
AcDbEntity
  8
ink_ext_XXXXXX
 62
7
100
AcDbPolyline
 90
4
 70
0
 10
289.362993
 20
92.821905
 30
0.0
 10
278.321993
 20
73.701606
 30
0.0
 10
278.324993
 20
73.701606
 30
0.0
 10
278.349993
 20
73.673406
 30
0.0
  0
SPLINE
  5
20e
100
AcDbEntity
  8
ink_ext_XXXXXX
 62
7
100
AcDbSpline
 70
8
 71
3
 72
8
 73
4
 74
0
 40
0
 40
0
 40
0
 40
0
 40
1
 40
1
 40
1
 40
1
 10
325.007992
 20
65.110906
 30
0.0
 10
331.008992
 20
62.795306
 30
0.0
 10
336.621992
 20
59.560906
 30
0.0
 10
341.622991
 20
55.523406
 30
0.0
  0
LWPOLYLINE
  5
20f
100
AcDbEntity
  8
ink_ext_XXXXXX
 62
7
100
AcDbPolyline
 90
1
 70
1
 10
280.921993
 20
69.218806
 30
0.0
  0
LWPOLYLINE
  5
210
100
AcDbEntity
  8
ink_ext_XXXXXX
 62
7
100
AcDbPolyline
 90
3
 70
0
 10
341.622991
 20
55.523406
 30
0.0
 10
336.085992
 20
65.110906
 30
0.0
 10
325.007992
 20
65.110906
 30
0.0
  0
SPLINE
  5
211
100
AcDbEntity
  8
ink_ext_XXXXXX
 62
7
100
AcDbSpline
 70
8
 71
3
 72
8
 73
4
 74
0
 40
0
 40
0
 40
0
 40
0
 40
1
 40
1
 40
1
 40
1
 10
344.552991
 20
57.207806
 30
0.0
 10
343.552991
 20
63.560906
 30
0.0
 10
343.552991
 20
70.037506
 30
0.0
 10
344.552991
 20
76.392206
 30
0.0
  0
LWPOLYLINE
  5
212
100
AcDbEntity
  8
ink_ext_XXXXXX
 62
7
100
AcDbPolyline
 90
2
 70
0
 10
339.012992
 20
66.804706
 30
0.0
 10
344.552991
 20
57.207806
 30
0.0
  0
SPLINE
  5
213
100
AcDbEntity
  8
ink_ext_XXXXXX
 62
7
100
AcDbSpline
 70
8
 71
3
 72
8
 73
4
 74
0
 40
0
 40
0
 40
0
 40
0
 40
1
 40
1
 40
1
 40
1
 10
356.185991
 20
95.093805
 30
0.0
 10
346.108991
 20
77.639106
 30
0.0
 10
346.108991
 20
55.959406
 30
0.0
 10
356.185991
 20
38.504707
 30
0.0
  0
LWPOLYLINE
  5
214
100
AcDbEntity
  8
ink_ext_XXXXXX
 62
7
100
AcDbPolyline
 90
2
 70
0
 10
344.552991
 20
76.392206
 30
0.0
 10
339.012992
 20
66.804706
 30
0.0
  0
SPLINE
  5
215
100
AcDbEntity
  8
ink_ext_XXXXXX
 62
7
100
AcDbSpline
 70
8
 71
3
 72
8
 73
4
 74
0
 40
0
 40
0
 40
0
 40
0
 40
1
 40
1
 40
1
 40
1
 10
367.221991
 20
19.392207
 30
0.0
 10
367.449991
 20
19.454707
 30
0.0
 10
367.677991
 20
19.509407
 30
0.0
 10
367.907991
 20
19.553107
 30
0.0
  0
SPLINE
  5
216
100
AcDbEntity
  8
ink_ext_XXXXXX
 62
7
100
AcDbSpline
 70
8
 71
3
 72
8
 73
4
 74
0
 40
0
 40
0
 40
0
 40
0
 40
1
 40
1
 40
1
 40
1
 10
367.907991
 20
19.553107
 30
0.0
 10
367.933991
 20
19.553107
 30
0.0
 10
367.958991
 20
19.562507
 30
0.0
 10
367.982991
 20
19.562507
 30
0.0
  0
SPLINE
  5
217
100
AcDbEntity
  8
ink_ext_XXXXXX
 62
7
100
AcDbSpline
 70
8
 71
3
 72
8
 73
4
 74
0
 40
0
 40
0
 40
0
 40
0
 40
1
 40
1
 40
1
 40
1
 10
367.982991
 20
19.562507
 30
0.0
 10
368.154991
 20
19.596907
 30
0.0
 10
368.324991
 20
19.634407
 30
0.0
 10
368.497991
 20
19.651607
 30
0.0
  0
SPLINE
  5
218
100
AcDbEntity
  8
ink_ext_XXXXXX
 62
7
100
AcDbSpline
 70
8
 71
3
 72
8
 73
4
 74
0
 40
0
 40
0
 40
0
 40
0
 40
1
 40
1
 40
1
 40
1
 10
368.497991
 20
19.651607
 30
0.0
 10
368.508991
 20
19.659407
 30
0.0
 10
368.521991
 20
19.659407
 30
0.0
 10
368.532991
 20
19.659407
 30
0.0
  0
SPLINE
  5
219
100
AcDbEntity
  8
ink_ext_XXXXXX
 62
7
100
AcDbSpline
 70
8
 71
3
 72
8
 73
4
 74
0
 40
0
 40
0
 40
0
 40
0
 40
1
 40
1
 40
1
 40
1
 10
368.532991
 20
19.659407
 30
0.0
 10
368.547991
 20
19.659407
 30
0.0
 10
368.563991
 20
19.660907
 30
0.0
 10
368.579991
 20
19.662507
 30
0.0
  0
SPLINE
  5
21a
100
AcDbEntity
  8
ink_ext_XXXXXX
 62
7
100
AcDbSpline
 70
8
 71
3
 72
8
 73
4
 74
0
 40
0
 40
0
 40
0
 40
0
 40
1
 40
1
 40
1
 40
1
 10
368.579991
 20
19.662507
 30
0.0
 10
368.576991
 20
19.662507
 30
0.0
 10
368.574991
 20
19.660907
 30
0.0
 10
368.569991
 20
19.659407
 30
0.0
  0
SPLINE
  5
21b
100
AcDbEntity
  8
ink_ext_XXXXXX
 62
7
100
AcDbSpline
 70
8
 71
3
 72
8
 73
4
 74
0
 40
0
 40
0
 40
0
 40
0
 40
1
 40
1
 40
1
 40
1
 10
368.569991
 20
19.659407
 30
0.0
 10
368.579991
 20
19.662507
 30
0.0
 10
368.591991
 20
19.662507
 30
0.0
 10
368.601991
 20
19.664107
 30
0.0
  0
SPLINE
  5
21c
100
AcDbEntity
  8
ink_ext_XXXXXX
 62
7
100
AcDbSpline
 70
8
 71
3
 72
8
 73
4
 74
0
 40
0
 40
0
 40
0
 40
0
 40
1
 40
1
 40
1
 40
1
 10
368.601991
 20
19.664107
 30
0.0
 10
368.626991
 20
19.667207
 30
0.0
 10
368.652991
 20
19.668807
 30
0.0
 10
368.677991
 20
19.668807
 30
0.0
  0
SPLINE
  5
21d
100
AcDbEntity
  8
ink_ext_XXXXXX
 62
7
100
AcDbSpline
 70
8
 71
3
 72
8
 73
4
 74
0
 40
0
 40
0
 40
0
 40
0
 40
1
 40
1
 40
1
 40
1
 10
368.677991
 20
19.668807
 30
0.0
 10
368.663991
 20
19.668807
 30
0.0
 10
368.649991
 20
19.668807
 30
0.0
 10
368.633991
 20
19.668807
 30
0.0
  0
SPLINE
  5
21e
100
AcDbEntity
  8
ink_ext_XXXXXX
 62
7
100
AcDbSpline
 70
8
 71
3
 72
8
 73
4
 74
0
 40
0
 40
0
 40
0
 40
0
 40
1
 40
1
 40
1
 40
1
 10
368.633991
 20
19.668807
 30
0.0
 10
369.021991
 20
19.717207
 30
0.0
 10
369.412991
 20
19.748407
 30
0.0
 10
369.805991
 20
19.748407
 30
0.0
  0
LWPOLYLINE
  5
21f
100
AcDbEntity
  8
ink_ext_XXXXXX
 62
7
100
AcDbPolyline
 90
2
 70
0
 10
356.185991
 20
38.504707
 30
0.0
 10
367.221991
 20
19.392207
 30
0.0
  0
SPLINE
  5
220
100
AcDbEntity
  8
ink_ext_XXXXXX
 62
7
100
AcDbSpline
 70
8
 71
3
 72
8
 73
4
 74
0
 40
0
 40
0
 40
0
 40
0
 40
1
 40
1
 40
1
 40
1
 10
369.830991
 20
19.748407
 30
0.0
 10
370.226991
 20
19.748407
 30
0.0
 10
370.616991
 20
19.717207
 30
0.0
 10
371.002991
 20
19.668807
 30
0.0
  0
SPLINE
  5
221
100
AcDbEntity
  8
ink_ext_XXXXXX
 62
7
100
AcDbSpline
 70
8
 71
3
 72
8
 73
4
 74
0
 40
0
 40
0
 40
0
 40
0
 40
1
 40
1
 40
1
 40
1
 10
371.002991
 20
19.668807
 30
0.0
 10
370.990991
 20
19.668807
 30
0.0
 10
370.974991
 20
19.668807
 30
0.0
 10
370.960991
 20
19.668807
 30
0.0
  0
SPLINE
  5
222
100
AcDbEntity
  8
ink_ext_XXXXXX
 62
7
100
AcDbSpline
 70
8
 71
3
 72
8
 73
4
 74
0
 40
0
 40
0
 40
0
 40
0
 40
1
 40
1
 40
1
 40
1
 10
370.960991
 20
19.668807
 30
0.0
 10
370.985991
 20
19.668807
 30
0.0
 10
371.012991
 20
19.667207
 30
0.0
 10
371.037991
 20
19.664107
 30
0.0
  0
SPLINE
  5
223
100
AcDbEntity
  8
ink_ext_XXXXXX
 62
7
100
AcDbSpline
 70
8
 71
3
 72
8
 73
4
 74
0
 40
0
 40
0
 40
0
 40
0
 40
1
 40
1
 40
1
 40
1
 10
371.037991
 20
19.664107
 30
0.0
 10
371.046991
 20
19.662507
 30
0.0
 10
371.058991
 20
19.662507
 30
0.0
 10
371.068991
 20
19.659407
 30
0.0
  0
SPLINE
  5
224
100
AcDbEntity
  8
ink_ext_XXXXXX
 62
7
100
AcDbSpline
 70
8
 71
3
 72
8
 73
4
 74
0
 40
0
 40
0
 40
0
 40
0
 40
1
 40
1
 40
1
 40
1
 10
371.068991
 20
19.659407
 30
0.0
 10
371.065991
 20
19.660907
 30
0.0
 10
371.062991
 20
19.662507
 30
0.0
 10
371.058991
 20
19.662507
 30
0.0
  0
SPLINE
  5
225
100
AcDbEntity
  8
ink_ext_XXXXXX
 62
7
100
AcDbSpline
 70
8
 71
3
 72
8
 73
4
 74
0
 40
0
 40
0
 40
0
 40
0
 40
1
 40
1
 40
1
 40
1
 10
371.058991
 20
19.662507
 30
0.0
 10
371.071991
 20
19.660907
 30
0.0
 10
371.085991
 20
19.659407
 30
0.0
 10
371.099991
 20
19.659407
 30
0.0
  0
SPLINE
  5
226
100
AcDbEntity
  8
ink_ext_XXXXXX
 62
7
100
AcDbSpline
 70
8
 71
3
 72
8
 73
4
 74
0
 40
0
 40
0
 40
0
 40
0
 40
1
 40
1
 40
1
 40
1
 10
371.099991
 20
19.659407
 30
0.0
 10
371.112991
 20
19.659407
 30
0.0
 10
371.126991
 20
19.659407
 30
0.0
 10
371.140991
 20
19.651607
 30
0.0
  0
SPLINE
  5
227
100
AcDbEntity
  8
ink_ext_XXXXXX
 62
7
100
AcDbSpline
 70
8
 71
3
 72
8
 73
4
 74
0
 40
0
 40
0
 40
0
 40
0
 40
1
 40
1
 40
1
 40
1
 10
371.140991
 20
19.651607
 30
0.0
 10
371.313991
 20
19.634407
 30
0.0
 10
371.483991
 20
19.596907
 30
0.0
 10
371.655991
 20
19.562507
 30
0.0
  0
SPLINE
  5
228
100
AcDbEntity
  8
ink_ext_XXXXXX
 62
7
100
AcDbSpline
 70
8
 71
3
 72
8
 73
4
 74
0
 40
0
 40
0
 40
0
 40
0
 40
1
 40
1
 40
1
 40
1
 10
371.655991
 20
19.562507
 30
0.0
 10
371.680991
 20
19.562507
 30
0.0
 10
371.704991
 20
19.553107
 30
0.0
 10
371.730991
 20
19.553107
 30
0.0
  0
SPLINE
  5
229
100
AcDbEntity
  8
ink_ext_XXXXXX
 62
7
100
AcDbSpline
 70
8
 71
3
 72
8
 73
4
 74
0
 40
0
 40
0
 40
0
 40
0
 40
1
 40
1
 40
1
 40
1
 10
371.730991
 20
19.553107
 30
0.0
 10
371.960991
 20
19.509407
 30
0.0
 10
372.190991
 20
19.454707
 30
0.0
 10
372.415991
 20
19.392207
 30
0.0
  0
LWPOLYLINE
  5
22a
100
AcDbEntity
  8
ink_ext_XXXXXX
 62
7
100
AcDbPolyline
 90
6
 70
0
 10
369.805991
 20
19.748407
 30
0.0
 10
369.812991
 20
19.748407
 30
0.0
 10
369.815991
 20
19.748407
 30
0.0
 10
369.824991
 20
19.748407
 30
0.0
 10
369.827991
 20
19.748407
 30
0.0
 10
369.830991
 20
19.748407
 30
0.0
  0
SPLINE
  5
22b
100
AcDbEntity
  8
ink_ext_XXXXXX
 62
7
100
AcDbSpline
 70
8
 71
3
 72
8
 73
4
 74
0
 40
0
 40
0
 40
0
 40
0
 40
1
 40
1
 40
1
 40
1
 10
383.452990
 20
38.504707
 30
0.0
 10
393.529990
 20
55.959406
 30
0.0
 10
393.529990
 20
77.639106
 30
0.0
 10
383.452990
 20
95.093805
 30
0.0
  0
LWPOLYLINE
  5
22c
100
AcDbEntity
  8
ink_ext_XXXXXX
 62
7
100
AcDbPolyline
 90
2
 70
0
 10
372.415991
 20
19.392207
 30
0.0
 10
383.452990
 20
38.504707
 30
0.0
  0
SPLINE
  5
22d
100
AcDbEntity
  8
ink_ext_XXXXXX
 62
7
100
AcDbSpline
 70
8
 71
3
 72
8
 73
4
 74
0
 40
0
 40
0
 40
0
 40
0
 40
1
 40
1
 40
1
 40
1
 10
372.413991
 20
114.216005
 30
0.0
 10
371.608991
 20
113.989005
 30
0.0
 10
370.763991
 20
113.866005
 30
0.0
 10
369.890991
 20
113.859005
 30
0.0
  0
LWPOLYLINE
  5
22e
100
AcDbEntity
  8
ink_ext_XXXXXX
 62
7
100
AcDbPolyline
 90
2
 70
0
 10
383.452990
 20
95.093805
 30
0.0
 10
372.413991
 20
114.216005
 30
0.0
  0
SPLINE
  5
22f
100
AcDbEntity
  8
ink_ext_XXXXXX
 62
7
100
AcDbSpline
 70
8
 71
3
 72
8
 73
4
 74
0
 40
0
 40
0
 40
0
 40
0
 40
1
 40
1
 40
1
 40
1
 10
369.747991
 20
113.859005
 30
0.0
 10
368.874991
 20
113.866005
 30
0.0
 10
368.029991
 20
113.989005
 30
0.0
 10
367.224991
 20
114.216005
 30
0.0
  0
LWPOLYLINE
  5
230
100
AcDbEntity
  8
ink_ext_XXXXXX
 62
7
100
AcDbPolyline
 90
24
 70
0
 10
369.890991
 20
113.859005
 30
0.0
 10
369.882991
 20
113.859005
 30
0.0
 10
369.874991
 20
113.859005
 30
0.0
 10
369.868991
 20
113.859005
 30
0.0
 10
369.865991
 20
113.859005
 30
0.0
 10
369.860991
 20
113.859005
 30
0.0
 10
369.852991
 20
113.859005
 30
0.0
 10
369.844991
 20
113.859005
 30
0.0
 10
369.840991
 20
113.859005
 30
0.0
 10
369.830991
 20
113.859005
 30
0.0
 10
369.824991
 20
113.859005
 30
0.0
 10
369.821991
 20
113.859005
 30
0.0
 10
369.815991
 20
113.859005
 30
0.0
 10
369.813991
 20
113.859005
 30
0.0
 10
369.808991
 20
113.859005
 30
0.0
 10
369.799991
 20
113.859005
 30
0.0
 10
369.793991
 20
113.859005
 30
0.0
 10
369.783991
 20
113.859005
 30
0.0
 10
369.777991
 20
113.859005
 30
0.0
 10
369.774991
 20
113.859005
 30
0.0
 10
369.771991
 20
113.859005
 30
0.0
 10
369.763991
 20
113.859005
 30
0.0
 10
369.755991
 20
113.859005
 30
0.0
 10
369.747991
 20
113.859005
 30
0.0
  0
SPLINE
  5
231
100
AcDbEntity
  8
ink_ext_XXXXXX
 62
7
100
AcDbSpline
 70
8
 71
3
 72
8
 73
4
 74
0
 40
0
 40
0
 40
0
 40
0
 40
1
 40
1
 40
1
 40
1
 10
387.637990
 20
97.509405
 30
0.0
 10
397.712990
 20
80.053105
 30
0.0
 10
416.491990
 20
69.218806
 30
0.0
 10
436.641989
 20
69.218806
 30
0.0
  0
LWPOLYLINE
  5
232
100
AcDbEntity
  8
ink_ext_XXXXXX
 62
7
100
AcDbPolyline
 90
2
 70
0
 10
367.224991
 20
114.216005
 30
0.0
 10
356.185991
 20
95.093805
 30
0.0
  0
SPLINE
  5
233
100
AcDbEntity
  8
ink_ext_XXXXXX
 62
7
100
AcDbSpline
 70
8
 71
3
 72
8
 73
4
 74
0
 40
0
 40
0
 40
0
 40
0
 40
1
 40
1
 40
1
 40
1
 10
458.716989
 20
69.218806
 30
0.0
 10
458.735989
 20
69.290606
 30
0.0
 10
458.758989
 20
69.360906
 30
0.0
 10
458.780989
 20
69.432806
 30
0.0
  0
SPLINE
  5
234
100
AcDbEntity
  8
ink_ext_XXXXXX
 62
7
100
AcDbSpline
 70
8
 71
3
 72
8
 73
4
 74
0
 40
0
 40
0
 40
0
 40
0
 40
1
 40
1
 40
1
 40
1
 10
458.780989
 20
69.432806
 30
0.0
 10
458.810989
 20
69.529706
 30
0.0
 10
458.837989
 20
69.637506
 30
0.0
 10
458.871989
 20
69.735906
 30
0.0
  0
SPLINE
  5
235
100
AcDbEntity
  8
ink_ext_XXXXXX
 62
7
100
AcDbSpline
 70
8
 71
3
 72
8
 73
4
 74
0
 40
0
 40
0
 40
0
 40
0
 40
1
 40
1
 40
1
 40
1
 10
458.871989
 20
69.735906
 30
0.0
 10
458.899989
 20
69.825006
 30
0.0
 10
458.930989
 20
69.923406
 30
0.0
 10
458.965989
 20
70.012506
 30
0.0
  0
SPLINE
  5
236
100
AcDbEntity
  8
ink_ext_XXXXXX
 62
7
100
AcDbSpline
 70
8
 71
3
 72
8
 73
4
 74
0
 40
0
 40
0
 40
0
 40
0
 40
1
 40
1
 40
1
 40
1
 10
458.965989
 20
70.012506
 30
0.0
 10
458.997989
 20
70.109406
 30
0.0
 10
459.032989
 20
70.200006
 30
0.0
 10
459.069989
 20
70.296906
 30
0.0
  0
SPLINE
  5
237
100
AcDbEntity
  8
ink_ext_XXXXXX
 62
7
100
AcDbSpline
 70
8
 71
3
 72
8
 73
4
 74
0
 40
0
 40
0
 40
0
 40
0
 40
1
 40
1
 40
1
 40
1
 10
459.069989
 20
70.296906
 30
0.0
 10
459.102989
 20
70.376606
 30
0.0
 10
459.132989
 20
70.467206
 30
0.0
 10
459.169989
 20
70.545306
 30
0.0
  0
SPLINE
  5
238
100
AcDbEntity
  8
ink_ext_XXXXXX
 62
7
100
AcDbSpline
 70
8
 71
3
 72
8
 73
4
 74
0
 40
0
 40
0
 40
0
 40
0
 40
1
 40
1
 40
1
 40
1
 10
459.169989
 20
70.545306
 30
0.0
 10
459.235989
 20
70.706306
 30
0.0
 10
459.305989
 20
70.857806
 30
0.0
 10
459.377989
 20
71.009406
 30
0.0
  0
SPLINE
  5
239
100
AcDbEntity
  8
ink_ext_XXXXXX
 62
7
100
AcDbSpline
 70
8
 71
3
 72
8
 73
4
 74
0
 40
0
 40
0
 40
0
 40
0
 40
1
 40
1
 40
1
 40
1
 10
459.377989
 20
71.009406
 30
0.0
 10
459.415989
 20
71.081306
 30
0.0
 10
459.452989
 20
71.153106
 30
0.0
 10
459.490989
 20
71.223406
 30
0.0
  0
SPLINE
  5
23a
100
AcDbEntity
  8
ink_ext_XXXXXX
 62
7
100
AcDbSpline
 70
8
 71
3
 72
8
 73
4
 74
0
 40
0
 40
0
 40
0
 40
0
 40
1
 40
1
 40
1
 40
1
 10
459.490989
 20
71.223406
 30
0.0
 10
459.543989
 20
71.331306
 30
0.0
 10
459.596989
 20
71.428106
 30
0.0
 10
459.654989
 20
71.534406
 30
0.0
  0
SPLINE
  5
23b
100
AcDbEntity
  8
ink_ext_XXXXXX
 62
7
100
AcDbSpline
 70
8
 71
3
 72
8
 73
4
 74
0
 40
0
 40
0
 40
0
 40
0
 40
1
 40
1
 40
1
 40
1
 10
459.654989
 20
71.534406
 30
0.0
 10
459.693989
 20
71.596906
 30
0.0
 10
459.732989
 20
71.668806
 30
0.0
 10
459.772989
 20
71.740606
 30
0.0
  0
SPLINE
  5
23c
100
AcDbEntity
  8
ink_ext_XXXXXX
 62
7
100
AcDbSpline
 70
8
 71
3
 72
8
 73
4
 74
0
 40
0
 40
0
 40
0
 40
0
 40
1
 40
1
 40
1
 40
1
 10
459.772989
 20
71.740606
 30
0.0
 10
459.851989
 20
71.865606
 30
0.0
 10
459.930989
 20
71.998406
 30
0.0
 10
460.015988
 20
72.123406
 30
0.0
  0
SPLINE
  5
23d
100
AcDbEntity
  8
ink_ext_XXXXXX
 62
7
100
AcDbSpline
 70
8
 71
3
 72
8
 73
4
 74
0
 40
0
 40
0
 40
0
 40
0
 40
1
 40
1
 40
1
 40
1
 10
460.015988
 20
72.123406
 30
0.0
 10
460.046988
 20
72.168806
 30
0.0
 10
460.079988
 20
72.221906
 30
0.0
 10
460.112988
 20
72.267206
 30
0.0
  0
SPLINE
  5
23e
100
AcDbEntity
  8
ink_ext_XXXXXX
 62
7
100
AcDbSpline
 70
8
 71
3
 72
8
 73
4
 74
0
 40
0
 40
0
 40
0
 40
0
 40
1
 40
1
 40
1
 40
1
 10
460.112988
 20
72.267206
 30
0.0
 10
460.204988
 20
72.409406
 30
0.0
 10
460.302988
 20
72.532806
 30
0.0
 10
460.402988
 20
72.667206
 30
0.0
  0
SPLINE
  5
23f
100
AcDbEntity
  8
ink_ext_XXXXXX
 62
7
100
AcDbSpline
 70
8
 71
3
 72
8
 73
4
 74
0
 40
0
 40
0
 40
0
 40
0
 40
1
 40
1
 40
1
 40
1
 10
460.402988
 20
72.667206
 30
0.0
 10
460.438988
 20
72.720306
 30
0.0
 10
460.480988
 20
72.764106
 30
0.0
 10
460.518988
 20
72.818806
 30
0.0
  0
SPLINE
  5
240
100
AcDbEntity
  8
ink_ext_XXXXXX
 62
7
100
AcDbSpline
 70
8
 71
3
 72
8
 73
4
 74
0
 40
0
 40
0
 40
0
 40
0
 40
1
 40
1
 40
1
 40
1
 10
460.518988
 20
72.818806
 30
0.0
 10
460.608988
 20
72.925006
 30
0.0
 10
460.702988
 20
73.040606
 30
0.0
 10
460.799988
 20
73.148406
 30
0.0
  0
SPLINE
  5
241
100
AcDbEntity
  8
ink_ext_XXXXXX
 62
7
100
AcDbSpline
 70
8
 71
3
 72
8
 73
4
 74
0
 40
0
 40
0
 40
0
 40
0
 40
1
 40
1
 40
1
 40
1
 10
460.799988
 20
73.148406
 30
0.0
 10
460.830988
 20
73.192206
 30
0.0
 10
460.862988
 20
73.228106
 30
0.0
 10
460.893988
 20
73.264106
 30
0.0
  0
SPLINE
  5
242
100
AcDbEntity
  8
ink_ext_XXXXXX
 62
7
100
AcDbSpline
 70
8
 71
3
 72
8
 73
4
 74
0
 40
0
 40
0
 40
0
 40
0
 40
1
 40
1
 40
1
 40
1
 10
460.893988
 20
73.264106
 30
0.0
 10
461.022988
 20
73.406306
 30
0.0
 10
461.154988
 20
73.540606
 30
0.0
 10
461.288988
 20
73.673406
 30
0.0
  0
LWPOLYLINE
  5
243
100
AcDbEntity
  8
ink_ext_XXXXXX
 62
7
100
AcDbPolyline
 90
2
 70
0
 10
436.641989
 20
69.218806
 30
0.0
 10
458.716989
 20
69.218806
 30
0.0
  0
SPLINE
  5
244
100
AcDbEntity
  8
ink_ext_XXXXXX
 62
7
100
AcDbSpline
 70
8
 71
3
 72
8
 73
4
 74
0
 40
0
 40
0
 40
0
 40
0
 40
1
 40
1
 40
1
 40
1
 10
450.274989
 20
92.821905
 30
0.0
 10
440.199989
 20
110.278005
 30
0.0
 10
421.419989
 20
121.122004
 30
0.0
 10
401.266990
 20
121.122004
 30
0.0
  0
LWPOLYLINE
  5
245
100
AcDbEntity
  8
ink_ext_XXXXXX
 62
7
100
AcDbPolyline
 90
4
 70
0
 10
461.288988
 20
73.673406
 30
0.0
 10
461.313988
 20
73.701606
 30
0.0
 10
461.315988
 20
73.701606
 30
0.0
 10
450.274989
 20
92.821905
 30
0.0
  0
SPLINE
  5
246
100
AcDbEntity
  8
ink_ext_XXXXXX
 62
7
100
AcDbSpline
 70
8
 71
3
 72
8
 73
4
 74
0
 40
0
 40
0
 40
0
 40
0
 40
1
 40
1
 40
1
 40
1
 10
379.193991
 20
121.122004
 30
0.0
 10
378.747991
 20
119.392005
 30
0.0
 10
377.830991
 20
117.850005
 30
0.0
 10
376.594991
 20
116.630005
 30
0.0
  0
LWPOLYLINE
  5
247
100
AcDbEntity
  8
ink_ext_XXXXXX
 62
7
100
AcDbPolyline
 90
2
 70
0
 10
401.266990
 20
121.122004
 30
0.0
 10
379.193991
 20
121.122004
 30
0.0
  0
LWPOLYLINE
  5
248
100
AcDbEntity
  8
ink_ext_XXXXXX
 62
7
100
AcDbPolyline
 90
2
 70
0
 10
376.594991
 20
116.630005
 30
0.0
 10
387.637990
 20
97.509405
 30
0.0
  0
SPLINE
  5
249
100
AcDbEntity
  8
ink_ext_XXXXXX
 62
7
100
AcDbSpline
 70
8
 71
3
 72
8
 73
4
 74
0
 40
0
 40
0
 40
0
 40
0
 40
1
 40
1
 40
1
 40
1
 10
376.596991
 20
16.970307
 30
0.0
 10
376.601991
 20
16.970307
 30
0.0
 10
376.605991
 20
16.960907
 30
0.0
 10
376.608991
 20
16.960907
 30
0.0
  0
SPLINE
  5
24a
100
AcDbEntity
  8
ink_ext_XXXXXX
 62
7
100
AcDbSpline
 70
8
 71
3
 72
8
 73
4
 74
0
 40
0
 40
0
 40
0
 40
0
 40
1
 40
1
 40
1
 40
1
 10
376.608991
 20
16.960907
 30
0.0
 10
376.737991
 20
16.835907
 30
0.0
 10
376.862991
 20
16.701607
 30
0.0
 10
376.985991
 20
16.568807
 30
0.0
  0
SPLINE
  5
24b
100
AcDbEntity
  8
ink_ext_XXXXXX
 62
7
100
AcDbSpline
 70
8
 71
3
 72
8
 73
4
 74
0
 40
0
 40
0
 40
0
 40
0
 40
1
 40
1
 40
1
 40
1
 10
376.985991
 20
16.568807
 30
0.0
 10
376.880991
 20
16.684407
 30
0.0
 10
376.768991
 20
16.800007
 30
0.0
 10
376.655991
 20
16.907807
 30
0.0
  0
SPLINE
  5
24c
100
AcDbEntity
  8
ink_ext_XXXXXX
 62
7
100
AcDbSpline
 70
8
 71
3
 72
8
 73
4
 74
0
 40
0
 40
0
 40
0
 40
0
 40
1
 40
1
 40
1
 40
1
 10
376.655991
 20
16.907807
 30
0.0
 10
377.216991
 20
16.345307
 30
0.0
 10
377.708991
 20
15.721907
 30
0.0
 10
378.118991
 20
15.035907
 30
0.0
  0
SPLINE
  5
24d
100
AcDbEntity
  8
ink_ext_XXXXXX
 62
7
100
AcDbSpline
 70
8
 71
3
 72
8
 73
4
 74
0
 40
0
 40
0
 40
0
 40
0
 40
1
 40
1
 40
1
 40
1
 10
378.118991
 20
15.035907
 30
0.0
 10
378.033991
 20
15.178107
 30
0.0
 10
377.949991
 20
15.321907
 30
0.0
 10
377.857991
 20
15.464107
 30
0.0
  0
SPLINE
  5
24e
100
AcDbEntity
  8
ink_ext_XXXXXX
 62
7
100
AcDbSpline
 70
8
 71
3
 72
8
 73
4
 74
0
 40
0
 40
0
 40
0
 40
0
 40
1
 40
1
 40
1
 40
1
 10
377.857991
 20
15.464107
 30
0.0
 10
377.951991
 20
15.321907
 30
0.0
 10
378.040991
 20
15.170307
 30
0.0
 10
378.126991
 20
15.026607
 30
0.0
  0
SPLINE
  5
24f
100
AcDbEntity
  8
ink_ext_XXXXXX
 62
7
100
AcDbSpline
 70
8
 71
3
 72
8
 73
4
 74
0
 40
0
 40
0
 40
0
 40
0
 40
1
 40
1
 40
1
 40
1
 10
378.126991
 20
15.026607
 30
0.0
 10
378.149991
 20
14.990607
 30
0.0
 10
378.174991
 20
14.954707
 30
0.0
 10
378.199991
 20
14.910907
 30
0.0
  0
LWPOLYLINE
  5
250
100
AcDbEntity
  8
ink_ext_XXXXXX
 62
7
100
AcDbPolyline
 90
3
 70
0
 10
387.637990
 20
36.090607
 30
0.0
 10
376.596991
 20
16.970307
 30
0.0
 10
376.596991
 20
16.970307
 30
0.0
  0
SPLINE
  5
251
100
AcDbEntity
  8
ink_ext_XXXXXX
 62
7
100
AcDbSpline
 70
8
 71
3
 72
8
 73
4
 74
0
 40
0
 40
0
 40
0
 40
0
 40
1
 40
1
 40
1
 40
1
 10
378.199991
 20
14.910907
 30
0.0
 10
378.201991
 20
14.909407
 30
0.0
 10
378.201991
 20
14.907807
 30
0.0
 10
378.201991
 20
14.907807
 30
0.0
  0
SPLINE
  5
252
100
AcDbEntity
  8
ink_ext_XXXXXX
 62
7
100
AcDbSpline
 70
8
 71
3
 72
8
 73
4
 74
0
 40
0
 40
0
 40
0
 40
0
 40
1
 40
1
 40
1
 40
1
 10
378.201991
 20
14.907807
 30
0.0
 10
378.202991
 20
14.906307
 30
0.0
 10
378.202991
 20
14.904707
 30
0.0
 10
378.202991
 20
14.903107
 30
0.0
  0
LWPOLYLINE
  5
253
100
AcDbEntity
  8
ink_ext_XXXXXX
 62
7
100
AcDbPolyline
 90
1
 70
1
 10
378.199991
 20
14.910907
 30
0.0
  0
SPLINE
  5
254
100
AcDbEntity
  8
ink_ext_XXXXXX
 62
7
100
AcDbSpline
 70
8
 71
3
 72
8
 73
4
 74
0
 40
0
 40
0
 40
0
 40
0
 40
1
 40
1
 40
1
 40
1
 10
378.204991
 20
14.903107
 30
0.0
 10
378.202991
 20
14.903107
 30
0.0
 10
378.202991
 20
14.903107
 30
0.0
 10
378.202991
 20
14.904707
 30
0.0
  0
SPLINE
  5
255
100
AcDbEntity
  8
ink_ext_XXXXXX
 62
7
100
AcDbSpline
 70
8
 71
3
 72
8
 73
4
 74
0
 40
0
 40
0
 40
0
 40
0
 40
1
 40
1
 40
1
 40
1
 10
378.202991
 20
14.904707
 30
0.0
 10
378.638991
 20
14.157807
 30
0.0
 10
378.976991
 20
13.340607
 30
0.0
 10
379.199991
 20
12.478107
 30
0.0
  0
LWPOLYLINE
  5
256
100
AcDbEntity
  8
ink_ext_XXXXXX
 62
7
100
AcDbPolyline
 90
2
 70
0
 10
378.202991
 20
14.903107
 30
0.0
 10
378.204991
 20
14.903107
 30
0.0
  0
SPLINE
  5
257
100
AcDbEntity
  8
ink_ext_XXXXXX
 62
7
100
AcDbSpline
 70
8
 71
3
 72
8
 73
4
 74
0
 40
0
 40
0
 40
0
 40
0
 40
1
 40
1
 40
1
 40
1
 10
401.266990
 20
12.478107
 30
0.0
 10
421.419989
 20
12.487507
 30
0.0
 10
440.199989
 20
23.321907
 30
0.0
 10
450.274989
 20
40.778106
 30
0.0
  0
SPLINE
  5
258
100
AcDbEntity
  8
ink_ext_XXXXXX
 62
7
100
AcDbSpline
 70
8
 71
3
 72
8
 73
4
 74
0
 40
0
 40
0
 40
0
 40
0
 40
1
 40
1
 40
1
 40
1
 10
450.274989
 20
40.778106
 30
0.0
 10
451.543989
 20
42.971906
 30
0.0
 10
461.688988
 20
59.500006
 30
0.0
 10
460.943988
 20
60.290606
 30
0.0
  0
SPLINE
  5
259
100
AcDbEntity
  8
ink_ext_XXXXXX
 62
7
100
AcDbSpline
 70
8
 71
3
 72
8
 73
4
 74
0
 40
0
 40
0
 40
0
 40
0
 40
1
 40
1
 40
1
 40
1
 10
460.943988
 20
60.290606
 30
0.0
 10
460.882988
 20
60.353106
 30
0.0
 10
460.824988
 20
60.425006
 30
0.0
 10
460.766988
 20
60.485906
 30
0.0
  0
SPLINE
  5
25a
100
AcDbEntity
  8
ink_ext_XXXXXX
 62
7
100
AcDbSpline
 70
8
 71
3
 72
8
 73
4
 74
0
 40
0
 40
0
 40
0
 40
0
 40
1
 40
1
 40
1
 40
1
 10
460.766988
 20
60.485906
 30
0.0
 10
460.699988
 20
60.567206
 30
0.0
 10
460.632988
 20
60.646906
 30
0.0
 10
460.568988
 20
60.728106
 30
0.0
  0
SPLINE
  5
25b
100
AcDbEntity
  8
ink_ext_XXXXXX
 62
7
100
AcDbSpline
 70
8
 71
3
 72
8
 73
4
 74
0
 40
0
 40
0
 40
0
 40
0
 40
1
 40
1
 40
1
 40
1
 10
460.568988
 20
60.728106
 30
0.0
 10
460.512988
 20
60.798406
 30
0.0
 10
460.454988
 20
60.870306
 30
0.0
 10
460.399988
 20
60.940606
 30
0.0
  0
SPLINE
  5
25c
100
AcDbEntity
  8
ink_ext_XXXXXX
 62
7
100
AcDbSpline
 70
8
 71
3
 72
8
 73
4
 74
0
 40
0
 40
0
 40
0
 40
0
 40
1
 40
1
 40
1
 40
1
 10
460.399988
 20
60.940606
 30
0.0
 10
460.299988
 20
61.065606
 30
0.0
 10
460.201988
 20
61.200006
 30
0.0
 10
460.107988
 20
61.342206
 30
0.0
  0
SPLINE
  5
25d
100
AcDbEntity
  8
ink_ext_XXXXXX
 62
7
100
AcDbSpline
 70
8
 71
3
 72
8
 73
4
 74
0
 40
0
 40
0
 40
0
 40
0
 40
1
 40
1
 40
1
 40
1
 10
460.107988
 20
61.342206
 30
0.0
 10
460.054988
 20
61.423406
 30
0.0
 10
460.002988
 20
61.501606
 30
0.0
 10
459.952989
 20
61.582806
 30
0.0
  0
SPLINE
  5
25e
100
AcDbEntity
  8
ink_ext_XXXXXX
 62
7
100
AcDbSpline
 70
8
 71
3
 72
8
 73
4
 74
0
 40
0
 40
0
 40
0
 40
0
 40
1
 40
1
 40
1
 40
1
 10
459.952989
 20
61.582806
 30
0.0
 10
459.902989
 20
61.654706
 30
0.0
 10
459.851989
 20
61.734406
 30
0.0
 10
459.804989
 20
61.814106
 30
0.0
  0
SPLINE
  5
25f
100
AcDbEntity
  8
ink_ext_XXXXXX
 62
7
100
AcDbSpline
 70
8
 71
3
 72
8
 73
4
 74
0
 40
0
 40
0
 40
0
 40
0
 40
1
 40
1
 40
1
 40
1
 10
459.804989
 20
61.814106
 30
0.0
 10
459.751989
 20
61.903106
 30
0.0
 10
459.699989
 20
61.993806
 30
0.0
 10
459.649989
 20
62.081306
 30
0.0
  0
SPLINE
  5
260
100
AcDbEntity
  8
ink_ext_XXXXXX
 62
7
100
AcDbSpline
 70
8
 71
3
 72
8
 73
4
 74
0
 40
0
 40
0
 40
0
 40
0
 40
1
 40
1
 40
1
 40
1
 10
459.649989
 20
62.081306
 30
0.0
 10
459.607989
 20
62.153106
 30
0.0
 10
459.565989
 20
62.232806
 30
0.0
 10
459.522989
 20
62.314106
 30
0.0
  0
SPLINE
  5
261
100
AcDbEntity
  8
ink_ext_XXXXXX
 62
7
100
AcDbSpline
 70
8
 71
3
 72
8
 73
4
 74
0
 40
0
 40
0
 40
0
 40
0
 40
1
 40
1
 40
1
 40
1
 10
459.522989
 20
62.314106
 30
0.0
 10
459.444989
 20
62.465606
 30
0.0
 10
459.368989
 20
62.615606
 30
0.0
 10
459.297989
 20
62.767206
 30
0.0
  0
SPLINE
  5
262
100
AcDbEntity
  8
ink_ext_XXXXXX
 62
7
100
AcDbSpline
 70
8
 71
3
 72
8
 73
4
 74
0
 40
0
 40
0
 40
0
 40
0
 40
1
 40
1
 40
1
 40
1
 10
459.297989
 20
62.767206
 30
0.0
 10
459.258989
 20
62.857806
 30
0.0
 10
459.219989
 20
62.937506
 30
0.0
 10
459.183989
 20
63.026606
 30
0.0
  0
SPLINE
  5
263
100
AcDbEntity
  8
ink_ext_XXXXXX
 62
7
100
AcDbSpline
 70
8
 71
3
 72
8
 73
4
 74
0
 40
0
 40
0
 40
0
 40
0
 40
1
 40
1
 40
1
 40
1
 10
459.183989
 20
63.026606
 30
0.0
 10
459.141989
 20
63.123406
 30
0.0
 10
459.102989
 20
63.221906
 30
0.0
 10
459.063989
 20
63.320306
 30
0.0
  0
SPLINE
  5
264
100
AcDbEntity
  8
ink_ext_XXXXXX
 62
7
100
AcDbSpline
 70
8
 71
3
 72
8
 73
4
 74
0
 40
0
 40
0
 40
0
 40
0
 40
1
 40
1
 40
1
 40
1
 10
459.063989
 20
63.320306
 30
0.0
 10
459.033989
 20
63.400006
 30
0.0
 10
459.005989
 20
63.481306
 30
0.0
 10
458.977989
 20
63.551606
 30
0.0
  0
SPLINE
  5
265
100
AcDbEntity
  8
ink_ext_XXXXXX
 62
7
100
AcDbSpline
 70
8
 71
3
 72
8
 73
4
 74
0
 40
0
 40
0
 40
0
 40
0
 40
1
 40
1
 40
1
 40
1
 10
458.977989
 20
63.551606
 30
0.0
 10
458.940989
 20
63.659406
 30
0.0
 10
458.905989
 20
63.756306
 30
0.0
 10
458.872989
 20
63.862506
 30
0.0
  0
SPLINE
  5
266
100
AcDbEntity
  8
ink_ext_XXXXXX
 62
7
100
AcDbSpline
 70
8
 71
3
 72
8
 73
4
 74
0
 40
0
 40
0
 40
0
 40
0
 40
1
 40
1
 40
1
 40
1
 10
458.872989
 20
63.862506
 30
0.0
 10
458.844989
 20
63.943806
 30
0.0
 10
458.819989
 20
64.032806
 30
0.0
 10
458.794989
 20
64.121906
 30
0.0
  0
SPLINE
  5
267
100
AcDbEntity
  8
ink_ext_XXXXXX
 62
7
100
AcDbSpline
 70
8
 71
3
 72
8
 73
4
 74
0
 40
0
 40
0
 40
0
 40
0
 40
1
 40
1
 40
1
 40
1
 10
458.794989
 20
64.121906
 30
0.0
 10
458.768989
 20
64.210906
 30
0.0
 10
458.740989
 20
64.300006
 30
0.0
 10
458.716989
 20
64.389106
 30
0.0
  0
LWPOLYLINE
  5
268
100
AcDbEntity
  8
ink_ext_XXXXXX
 62
7
100
AcDbPolyline
 90
2
 70
0
 10
379.199991
 20
12.478107
 30
0.0
 10
401.266990
 20
12.478107
 30
0.0
  0
SPLINE
  5
269
100
AcDbEntity
  8
ink_ext_XXXXXX
 62
7
100
AcDbSpline
 70
8
 71
3
 72
8
 73
4
 74
0
 40
0
 40
0
 40
0
 40
0
 40
1
 40
1
 40
1
 40
1
 10
436.641989
 20
64.389106
 30
0.0
 10
416.490990
 20
64.389106
 30
0.0
 10
397.712990
 20
53.545306
 30
0.0
 10
387.637990
 20
36.090607
 30
0.0
  0
LWPOLYLINE
  5
26a
100
AcDbEntity
  8
ink_ext_XXXXXX
 62
7
100
AcDbPolyline
 90
2
 70
0
 10
458.716989
 20
64.389106
 30
0.0
 10
436.641989
 20
64.389106
 30
0.0
  0
LWPOLYLINE
  5
26b
100
AcDbEntity
  8
ink_ext_XXXXXX
 62
7
100
AcDbPolyline
 90
1
 70
1
 10
387.637990
 20
36.090607
 30
0.0
  0
SPLINE
  5
26c
100
AcDbEntity
  8
ink_ext_XXXXXX
 62
7
100
AcDbSpline
 70
8
 71
3
 72
8
 73
4
 74
0
 40
0
 40
0
 40
0
 40
0
 40
1
 40
1
 40
1
 40
1
 10
341.622991
 20
78.084406
 30
0.0
 10
336.621992
 20
74.039106
 30
0.0
 10
331.008992
 20
70.804706
 30
0.0
 10
325.007992
 20
68.487506
 30
0.0
  0
LWPOLYLINE
  5
26d
100
AcDbEntity
  8
ink_ext_XXXXXX
 62
7
100
AcDbPolyline
 90
3
 70
0
 10
325.007992
 20
68.487506
 30
0.0
 10
336.085992
 20
68.487506
 30
0.0
 10
341.622991
 20
78.084406
 30
0.0
  0
SPLINE
  5
26e
100
AcDbEntity
  8
ink_ext_XXXXXX
 62
7
100
AcDbSpline
 70
8
 71
3
 72
8
 73
4
 74
0
 40
0
 40
0
 40
0
 40
0
 40
1
 40
1
 40
1
 40
1
 10
423.279989
 20
121.842004
 30
0.0
 10
429.280989
 20
119.534005
 30
0.0
 10
434.891989
 20
116.291005
 30
0.0
 10
439.896989
 20
112.255005
 30
0.0
  0
LWPOLYLINE
  5
26f
100
AcDbEntity
  8
ink_ext_XXXXXX
 62
7
100
AcDbPolyline
 90
1
 70
1
 10
325.007992
 20
68.487506
 30
0.0
  0
SPLINE
  5
270
100
AcDbEntity
  8
ink_ext_XXXXXX
 62
7
100
AcDbSpline
 70
8
 71
3
 72
8
 73
4
 74
0
 40
0
 40
0
 40
0
 40
0
 40
1
 40
1
 40
1
 40
1
 10
395.087990
 20
76.392206
 30
0.0
 10
396.085990
 20
70.037506
 30
0.0
 10
396.085990
 20
63.560906
 30
0.0
 10
395.087990
 20
57.207806
 30
0.0
  0
LWPOLYLINE
  5
271
100
AcDbEntity
  8
ink_ext_XXXXXX
 62
7
100
AcDbPolyline
 90
3
 70
0
 10
439.896989
 20
112.255005
 30
0.0
 10
434.357989
 20
121.842004
 30
0.0
 10
423.279989
 20
121.842004
 30
0.0
  0
LWPOLYLINE
  5
272
100
AcDbEntity
  8
ink_ext_XXXXXX
 62
7
100
AcDbPolyline
 90
3
 70
0
 10
395.087990
 20
57.207806
 30
0.0
 10
400.626990
 20
66.804706
 30
0.0
 10
395.087990
 20
76.392206
 30
0.0
  0
SPLINE
  5
273
100
AcDbEntity
  8
ink_ext_XXXXXX
 62
7
100
AcDbSpline
 70
8
 71
3
 72
8
 73
4
 74
0
 40
0
 40
0
 40
0
 40
0
 40
1
 40
1
 40
1
 40
1
 10
414.630990
 20
68.487506
 30
0.0
 10
408.627990
 20
70.804706
 30
0.0
 10
403.016990
 20
74.039106
 30
0.0
 10
398.015990
 20
78.084406
 30
0.0
  0
LWPOLYLINE
  5
274
100
AcDbEntity
  8
ink_ext_XXXXXX
 62
7
100
AcDbPolyline
 90
2
 70
0
 10
403.552990
 20
68.487506
 30
0.0
 10
414.630990
 20
68.487506
 30
0.0
  0
LWPOLYLINE
  5
275
100
AcDbEntity
  8
ink_ext_XXXXXX
 62
7
100
AcDbPolyline
 90
2
 70
0
 10
398.015990
 20
78.084406
 30
0.0
 10
403.552990
 20
68.487506
 30
0.0
  0
SPLINE
  5
276
100
AcDbEntity
  8
ink_ext_XXXXXX
 62
7
100
AcDbSpline
 70
8
 71
3
 72
8
 73
4
 74
0
 40
0
 40
0
 40
0
 40
0
 40
1
 40
1
 40
1
 40
1
 10
398.015990
 20
55.523406
 30
0.0
 10
403.016990
 20
59.560906
 30
0.0
 10
408.627990
 20
62.795306
 30
0.0
 10
414.630990
 20
65.110906
 30
0.0
  0
LWPOLYLINE
  5
277
100
AcDbEntity
  8
ink_ext_XXXXXX
 62
7
100
AcDbPolyline
 90
2
 70
0
 10
403.552990
 20
65.110906
 30
0.0
 10
398.015990
 20
55.523406
 30
0.0
  0
SPLINE
  5
278
100
AcDbEntity
  8
ink_ext_XXXXXX
 62
7
100
AcDbSpline
 70
8
 71
3
 72
8
 73
4
 74
0
 40
0
 40
0
 40
0
 40
0
 40
1
 40
1
 40
1
 40
1
 10
463.243988
 20
66.804706
 30
0.0
 10
463.243988
 20
64.131306
 30
0.0
 10
465.418988
 20
61.956306
 30
0.0
 10
468.091988
 20
61.956306
 30
0.0
  0
SPLINE
  5
279
100
AcDbEntity
  8
ink_ext_XXXXXX
 62
7
100
AcDbSpline
 70
8
 71
3
 72
8
 73
4
 74
0
 40
0
 40
0
 40
0
 40
0
 40
1
 40
1
 40
1
 40
1
 10
468.091988
 20
61.956306
 30
0.0
 10
470.763988
 20
61.956306
 30
0.0
 10
472.938988
 20
64.131306
 30
0.0
 10
472.938988
 20
66.804706
 30
0.0
  0
SPLINE
  5
27a
100
AcDbEntity
  8
ink_ext_XXXXXX
 62
7
100
AcDbSpline
 70
8
 71
3
 72
8
 73
4
 74
0
 40
0
 40
0
 40
0
 40
0
 40
1
 40
1
 40
1
 40
1
 10
472.938988
 20
66.804706
 30
0.0
 10
472.938988
 20
69.478106
 30
0.0
 10
470.763988
 20
71.651606
 30
0.0
 10
468.091988
 20
71.651606
 30
0.0
  0
SPLINE
  5
27b
100
AcDbEntity
  8
ink_ext_XXXXXX
 62
7
100
AcDbSpline
 70
8
 71
3
 72
8
 73
4
 74
0
 40
0
 40
0
 40
0
 40
0
 40
1
 40
1
 40
1
 40
1
 10
468.091988
 20
71.651606
 30
0.0
 10
465.418988
 20
71.651606
 30
0.0
 10
463.243988
 20
69.478106
 30
0.0
 10
463.243988
 20
66.804706
 30
0.0
  0
LWPOLYLINE
  5
27c
100
AcDbEntity
  8
ink_ext_XXXXXX
 62
7
100
AcDbPolyline
 90
2
 70
0
 10
414.630990
 20
65.110906
 30
0.0
 10
403.552990
 20
65.110906
 30
0.0
  0
SPLINE
  5
27d
100
AcDbEntity
  8
ink_ext_XXXXXX
 62
7
100
AcDbSpline
 70
8
 71
3
 72
8
 73
4
 74
0
 40
0
 40
0
 40
0
 40
0
 40
1
 40
1
 40
1
 40
1
 10
364.965991
 20
10.064107
 30
0.0
 10
364.965991
 20
7.545317
 30
0.0
 10
366.896991
 20
5.470317
 30
0.0
 10
369.355991
 20
5.237507
 30
0.0
  0
LWPOLYLINE
  5
27e
100
AcDbEntity
  8
ink_ext_XXXXXX
 62
7
100
AcDbPolyline
 90
1
 70
1
 10
463.243988
 20
66.804706
 30
0.0
  0
SPLINE
  5
27f
100
AcDbEntity
  8
ink_ext_XXXXXX
 62
7
100
AcDbSpline
 70
8
 71
3
 72
8
 73
4
 74
0
 40
0
 40
0
 40
0
 40
0
 40
1
 40
1
 40
1
 40
1
 10
369.355991
 20
5.240637
 30
0.0
 10
369.476991
 20
5.228137
 30
0.0
 10
369.596991
 20
5.220317
 30
0.0
 10
369.719991
 20
5.217197
 30
0.0
  0
LWPOLYLINE
  5
280
100
AcDbEntity
  8
ink_ext_XXXXXX
 62
7
100
AcDbPolyline
 90
2
 70
0
 10
369.355991
 20
5.237507
 30
0.0
 10
369.355991
 20
5.240637
 30
0.0
  0
SPLINE
  5
281
100
AcDbEntity
  8
ink_ext_XXXXXX
 62
7
100
AcDbSpline
 70
8
 71
3
 72
8
 73
4
 74
0
 40
0
 40
0
 40
0
 40
0
 40
1
 40
1
 40
1
 40
1
 10
369.918991
 20
5.217197
 30
0.0
 10
370.040991
 20
5.220317
 30
0.0
 10
370.162991
 20
5.228137
 30
0.0
 10
370.282991
 20
5.240637
 30
0.0
  0
LWPOLYLINE
  5
282
100
AcDbEntity
  8
ink_ext_XXXXXX
 62
7
100
AcDbPolyline
 90
10
 70
0
 10
369.719991
 20
5.217197
 30
0.0
 10
369.810991
 20
5.217197
 30
0.0
 10
369.812991
 20
5.217197
 30
0.0
 10
369.812991
 20
5.217197
 30
0.0
 10
369.818991
 20
5.217197
 30
0.0
 10
369.819991
 20
5.217197
 30
0.0
 10
369.826991
 20
5.217197
 30
0.0
 10
369.827991
 20
5.217197
 30
0.0
 10
369.827991
 20
5.217197
 30
0.0
 10
369.918991
 20
5.217197
 30
0.0
  0
SPLINE
  5
283
100
AcDbEntity
  8
ink_ext_XXXXXX
 62
7
100
AcDbSpline
 70
8
 71
3
 72
8
 73
4
 74
0
 40
0
 40
0
 40
0
 40
0
 40
1
 40
1
 40
1
 40
1
 10
370.282991
 20
5.237507
 30
0.0
 10
372.741991
 20
5.470317
 30
0.0
 10
374.672991
 20
7.545317
 30
0.0
 10
374.672991
 20
10.064107
 30
0.0
  0
SPLINE
  5
284
100
AcDbEntity
  8
ink_ext_XXXXXX
 62
7
100
AcDbSpline
 70
8
 71
3
 72
8
 73
4
 74
0
 40
0
 40
0
 40
0
 40
0
 40
1
 40
1
 40
1
 40
1
 10
374.672991
 20
10.064107
 30
0.0
 10
374.672991
 20
12.582807
 30
0.0
 10
372.741991
 20
14.659407
 30
0.0
 10
370.282991
 20
14.889107
 30
0.0
  0
LWPOLYLINE
  5
285
100
AcDbEntity
  8
ink_ext_XXXXXX
 62
7
100
AcDbPolyline
 90
2
 70
0
 10
370.282991
 20
5.240637
 30
0.0
 10
370.282991
 20
5.237507
 30
0.0
  0
SPLINE
  5
286
100
AcDbEntity
  8
ink_ext_XXXXXX
 62
7
100
AcDbSpline
 70
8
 71
3
 72
8
 73
4
 74
0
 40
0
 40
0
 40
0
 40
0
 40
1
 40
1
 40
1
 40
1
 10
370.282991
 20
14.887507
 30
0.0
 10
370.162991
 20
14.900007
 30
0.0
 10
370.040991
 20
14.907807
 30
0.0
 10
369.918991
 20
14.909407
 30
0.0
  0
LWPOLYLINE
  5
287
100
AcDbEntity
  8
ink_ext_XXXXXX
 62
7
100
AcDbPolyline
 90
2
 70
0
 10
370.282991
 20
14.889107
 30
0.0
 10
370.282991
 20
14.887507
 30
0.0
  0
SPLINE
  5
288
100
AcDbEntity
  8
ink_ext_XXXXXX
 62
7
100
AcDbSpline
 70
8
 71
3
 72
8
 73
4
 74
0
 40
0
 40
0
 40
0
 40
0
 40
1
 40
1
 40
1
 40
1
 10
369.719991
 20
14.909407
 30
0.0
 10
369.596991
 20
14.907807
 30
0.0
 10
369.476991
 20
14.900007
 30
0.0
 10
369.355991
 20
14.887507
 30
0.0
  0
LWPOLYLINE
  5
289
100
AcDbEntity
  8
ink_ext_XXXXXX
 62
7
100
AcDbPolyline
 90
10
 70
0
 10
369.918991
 20
14.909407
 30
0.0
 10
369.827991
 20
14.910907
 30
0.0
 10
369.827991
 20
14.910907
 30
0.0
 10
369.826991
 20
14.910907
 30
0.0
 10
369.819991
 20
14.910907
 30
0.0
 10
369.818991
 20
14.910907
 30
0.0
 10
369.812991
 20
14.910907
 30
0.0
 10
369.812991
 20
14.910907
 30
0.0
 10
369.810991
 20
14.910907
 30
0.0
 10
369.719991
 20
14.909407
 30
0.0
  0
SPLINE
  5
28a
100
AcDbEntity
  8
ink_ext_XXXXXX
 62
7
100
AcDbSpline
 70
8
 71
3
 72
8
 73
4
 74
0
 40
0
 40
0
 40
0
 40
0
 40
1
 40
1
 40
1
 40
1
 10
369.355991
 20
14.889107
 30
0.0
 10
366.896991
 20
14.659407
 30
0.0
 10
364.965991
 20
12.582807
 30
0.0
 10
364.965991
 20
10.064107
 30
0.0
  0
LWPOLYLINE
  5
28b
100
AcDbEntity
  8
ink_ext_XXXXXX
 62
7
100
AcDbPolyline
 90
2
 70
0
 10
369.355991
 20
14.887507
 30
0.0
 10
369.355991
 20
14.889107
 30
0.0
  0
SPLINE
  5
28c
100
AcDbEntity
  8
ink_ext_XXXXXX
 62
7
100
AcDbSpline
 70
8
 71
3
 72
8
 73
4
 74
0
 40
0
 40
0
 40
0
 40
0
 40
1
 40
1
 40
1
 40
1
 10
299.743993
 20
112.255005
 30
0.0
 10
304.746992
 20
116.291005
 30
0.0
 10
310.357992
 20
119.534005
 30
0.0
 10
316.358992
 20
121.842004
 30
0.0
  0
LWPOLYLINE
  5
28d
100
AcDbEntity
  8
ink_ext_XXXXXX
 62
7
100
AcDbPolyline
 90
1
 70
1
 10
364.965991
 20
10.064107
 30
0.0
  0
SPLINE
  5
28e
100
AcDbEntity
  8
ink_ext_XXXXXX
 62
7
100
AcDbSpline
 70
8
 71
3
 72
8
 73
4
 74
0
 40
0
 40
0
 40
0
 40
0
 40
1
 40
1
 40
1
 40
1
 10
271.546993
 20
61.956306
 30
0.0
 10
274.219993
 20
61.956306
 30
0.0
 10
276.393993
 20
64.131306
 30
0.0
 10
276.393993
 20
66.804706
 30
0.0
  0
SPLINE
  5
28f
100
AcDbEntity
  8
ink_ext_XXXXXX
 62
7
100
AcDbSpline
 70
8
 71
3
 72
8
 73
4
 74
0
 40
0
 40
0
 40
0
 40
0
 40
1
 40
1
 40
1
 40
1
 10
276.393993
 20
66.804706
 30
0.0
 10
276.393993
 20
69.478106
 30
0.0
 10
274.219993
 20
71.651606
 30
0.0
 10
271.546993
 20
71.651606
 30
0.0
  0
SPLINE
  5
290
100
AcDbEntity
  8
ink_ext_XXXXXX
 62
7
100
AcDbSpline
 70
8
 71
3
 72
8
 73
4
 74
0
 40
0
 40
0
 40
0
 40
0
 40
1
 40
1
 40
1
 40
1
 10
271.546993
 20
71.651606
 30
0.0
 10
268.874993
 20
71.651606
 30
0.0
 10
266.699993
 20
69.478106
 30
0.0
 10
266.699993
 20
66.804706
 30
0.0
  0
SPLINE
  5
291
100
AcDbEntity
  8
ink_ext_XXXXXX
 62
7
100
AcDbSpline
 70
8
 71
3
 72
8
 73
4
 74
0
 40
0
 40
0
 40
0
 40
0
 40
1
 40
1
 40
1
 40
1
 10
266.699993
 20
66.804706
 30
0.0
 10
266.699993
 20
64.131306
 30
0.0
 10
268.874993
 20
61.956306
 30
0.0
 10
271.546993
 20
61.956306
 30
0.0
  0
LWPOLYLINE
  5
292
100
AcDbEntity
  8
ink_ext_XXXXXX
 62
7
100
AcDbPolyline
 90
3
 70
0
 10
316.358992
 20
121.842004
 30
0.0
 10
305.280992
 20
121.842004
 30
0.0
 10
299.743993
 20
112.255005
 30
0.0
  0
LWPOLYLINE
  5
293
100
AcDbEntity
  8
ink_ext_XXXXXX
 62
7
100
AcDbPolyline
 90
1
 70
1
 10
271.546993
 20
61.956306
 30
0.0
  0
SPLINE
  5
294
100
AcDbEntity
  8
ink_ext_XXXXXX
 62
7
100
AcDbSpline
 70
8
 71
3
 72
8
 73
4
 74
0
 40
0
 40
0
 40
0
 40
0
 40
1
 40
1
 40
1
 40
1
 10
363.794991
 20
42.898406
 30
0.0
 10
355.282991
 20
57.643806
 30
0.0
 10
355.282991
 20
75.954706
 30
0.0
 10
363.794991
 20
90.701605
 30
0.0
  0
LWPOLYLINE
  5
295
100
AcDbEntity
  8
ink_ext_XXXXXX
 62
7
100
AcDbPolyline
 90
2
 70
0
 10
369.815991
 20
32.471907
 30
0.0
 10
363.794991
 20
42.898406
 30
0.0
  0
SPLINE
  5
296
100
AcDbEntity
  8
ink_ext_XXXXXX
 62
7
100
AcDbSpline
 70
8
 71
3
 72
8
 73
4
 74
0
 40
0
 40
0
 40
0
 40
0
 40
1
 40
1
 40
1
 40
1
 10
375.843991
 20
90.701605
 30
0.0
 10
384.355990
 20
75.954706
 30
0.0
 10
384.355990
 20
57.643806
 30
0.0
 10
375.843991
 20
42.898406
 30
0.0
  0
LWPOLYLINE
  5
297
100
AcDbEntity
  8
ink_ext_XXXXXX
 62
7
100
AcDbPolyline
 90
5
 70
0
 10
363.794991
 20
90.701605
 30
0.0
 10
369.815991
 20
101.136005
 30
0.0
 10
369.819991
 20
101.131005
 30
0.0
 10
369.821991
 20
101.136005
 30
0.0
 10
375.843991
 20
90.701605
 30
0.0
  0
SPLINE
  5
298
100
AcDbEntity
  8
ink_ext_XXXXXX
 62
7
100
AcDbSpline
 70
8
 71
3
 72
8
 73
4
 74
0
 40
0
 40
0
 40
0
 40
0
 40
1
 40
1
 40
1
 40
1
 10
371.662991
 20
45.312506
 30
0.0
 10
379.312991
 20
58.571906
 30
0.0
 10
379.312991
 20
75.037506
 30
0.0
 10
371.662991
 20
88.285905
 30
0.0
  0
LWPOLYLINE
  5
299
100
AcDbEntity
  8
ink_ext_XXXXXX
 62
7
100
AcDbPolyline
 90
4
 70
0
 10
375.843991
 20
42.898406
 30
0.0
 10
369.821991
 20
32.471907
 30
0.0
 10
369.819991
 20
32.478107
 30
0.0
 10
369.815991
 20
32.471907
 30
0.0
  0
SPLINE
  5
29a
100
AcDbEntity
  8
ink_ext_XXXXXX
 62
7
100
AcDbSpline
 70
8
 71
3
 72
8
 73
4
 74
0
 40
0
 40
0
 40
0
 40
0
 40
1
 40
1
 40
1
 40
1
 10
367.977991
 20
88.285905
 30
0.0
 10
360.326991
 20
75.037506
 30
0.0
 10
360.326991
 20
58.571906
 30
0.0
 10
367.977991
 20
45.312506
 30
0.0
  0
LWPOLYLINE
  5
29b
100
AcDbEntity
  8
ink_ext_XXXXXX
 62
7
100
AcDbPolyline
 90
7
 70
0
 10
371.662991
 20
88.285905
 30
0.0
 10
370.282991
 20
90.676605
 30
0.0
 10
370.282991
 20
90.668805
 30
0.0
 10
369.819991
 20
91.471905
 30
0.0
 10
369.355991
 20
90.668805
 30
0.0
 10
369.355991
 20
90.676605
 30
0.0
 10
367.977991
 20
88.285905
 30
0.0
  0
SPLINE
  5
29c
100
AcDbEntity
  8
ink_ext_XXXXXX
 62
7
100
AcDbSpline
 70
8
 71
3
 72
8
 73
4
 74
0
 40
0
 40
0
 40
0
 40
0
 40
1
 40
1
 40
1
 40
1
 10
395.246990
 20
31.698407
 30
0.0
 10
403.755990
 20
46.443806
 30
0.0
 10
419.621990
 20
55.595306
 30
0.0
 10
436.641989
 20
55.595306
 30
0.0
  0
LWPOLYLINE
  5
29d
100
AcDbEntity
  8
ink_ext_XXXXXX
 62
7
100
AcDbPolyline
 90
7
 70
0
 10
367.977991
 20
45.312506
 30
0.0
 10
369.355991
 20
42.929706
 30
0.0
 10
369.355991
 20
42.939106
 30
0.0
 10
369.819991
 20
42.135906
 30
0.0
 10
370.282991
 20
42.939106
 30
0.0
 10
370.282991
 20
42.929706
 30
0.0
 10
371.662991
 20
45.312506
 30
0.0
  0
SPLINE
  5
29e
100
AcDbEntity
  8
ink_ext_XXXXXX
 62
7
100
AcDbSpline
 70
8
 71
3
 72
8
 73
4
 74
0
 40
0
 40
0
 40
0
 40
0
 40
1
 40
1
 40
1
 40
1
 10
442.663989
 20
45.170306
 30
0.0
 10
434.154989
 20
30.423407
 30
0.0
 10
418.290990
 20
21.271907
 30
0.0
 10
401.266990
 20
21.271907
 30
0.0
  0
LWPOLYLINE
  5
29f
100
AcDbEntity
  8
ink_ext_XXXXXX
 62
7
100
AcDbPolyline
 90
3
 70
0
 10
436.641989
 20
55.595306
 30
0.0
 10
448.687989
 20
55.595306
 30
0.0
 10
442.663989
 20
45.170306
 30
0.0
  0
LWPOLYLINE
  5
2a0
100
AcDbEntity
  8
ink_ext_XXXXXX
 62
7
100
AcDbPolyline
 90
3
 70
0
 10
401.266990
 20
21.271907
 30
0.0
 10
389.221990
 20
21.271907
 30
0.0
 10
395.246990
 20
31.698407
 30
0.0
  0
SPLINE
  5
2a1
100
AcDbEntity
  8
ink_ext_XXXXXX
 62
7
100
AcDbSpline
 70
8
 71
3
 72
8
 73
4
 74
0
 40
0
 40
0
 40
0
 40
0
 40
1
 40
1
 40
1
 40
1
 10
401.266990
 20
26.093807
 30
0.0
 10
416.569990
 20
26.093807
 30
0.0
 10
430.830989
 20
34.326607
 30
0.0
 10
438.482989
 20
47.584406
 30
0.0
  0
LWPOLYLINE
  5
2a2
100
AcDbEntity
  8
ink_ext_XXXXXX
 62
7
100
AcDbPolyline
 90
3
 70
0
 10
399.427990
 20
29.282807
 30
0.0
 10
397.587990
 20
26.093807
 30
0.0
 10
401.266990
 20
26.093807
 30
0.0
  0
SPLINE
  5
2a3
100
AcDbEntity
  8
ink_ext_XXXXXX
 62
7
100
AcDbSpline
 70
8
 71
3
 72
8
 73
4
 74
0
 40
0
 40
0
 40
0
 40
0
 40
1
 40
1
 40
1
 40
1
 10
436.641989
 20
50.775006
 30
0.0
 10
421.340989
 20
50.775006
 30
0.0
 10
407.079990
 20
42.532806
 30
0.0
 10
399.427990
 20
29.282807
 30
0.0
  0
LWPOLYLINE
  5
2a4
100
AcDbEntity
  8
ink_ext_XXXXXX
 62
7
100
AcDbPolyline
 90
3
 70
0
 10
438.482989
 20
47.584406
 30
0.0
 10
440.321989
 20
50.775006
 30
0.0
 10
436.641989
 20
50.775006
 30
0.0
  0
SPLINE
  5
2a5
100
AcDbEntity
  8
ink_ext_XXXXXX
 62
7
100
AcDbSpline
 70
8
 71
3
 72
8
 73
4
 74
0
 40
0
 40
0
 40
0
 40
0
 40
1
 40
1
 40
1
 40
1
 10
302.996992
 20
55.595306
 30
0.0
 10
320.018992
 20
55.595306
 30
0.0
 10
335.882992
 20
46.443806
 30
0.0
 10
344.391991
 20
31.698407
 30
0.0
  0
LWPOLYLINE
  5
2a6
100
AcDbEntity
  8
ink_ext_XXXXXX
 62
7
100
AcDbPolyline
 90
1
 70
1
 10
399.427990
 20
29.282807
 30
0.0
  0
SPLINE
  5
2a7
100
AcDbEntity
  8
ink_ext_XXXXXX
 62
7
100
AcDbSpline
 70
8
 71
3
 72
8
 73
4
 74
0
 40
0
 40
0
 40
0
 40
0
 40
1
 40
1
 40
1
 40
1
 10
338.371992
 20
21.271907
 30
0.0
 10
321.349992
 20
21.271907
 30
0.0
 10
305.483992
 20
30.423407
 30
0.0
 10
296.974993
 20
45.170306
 30
0.0
  0
LWPOLYLINE
  5
2a8
100
AcDbEntity
  8
ink_ext_XXXXXX
 62
7
100
AcDbPolyline
 90
3
 70
0
 10
344.391991
 20
31.698407
 30
0.0
 10
350.415991
 20
21.271907
 30
0.0
 10
338.371992
 20
21.271907
 30
0.0
  0
LWPOLYLINE
  5
2a9
100
AcDbEntity
  8
ink_ext_XXXXXX
 62
7
100
AcDbPolyline
 90
3
 70
0
 10
296.974993
 20
45.170306
 30
0.0
 10
290.951993
 20
55.595306
 30
0.0
 10
302.996992
 20
55.595306
 30
0.0
  0
SPLINE
  5
2aa
100
AcDbEntity
  8
ink_ext_XXXXXX
 62
7
100
AcDbSpline
 70
8
 71
3
 72
8
 73
4
 74
0
 40
0
 40
0
 40
0
 40
0
 40
1
 40
1
 40
1
 40
1
 10
340.210991
 20
29.282807
 30
0.0
 10
332.560992
 20
42.532806
 30
0.0
 10
318.297992
 20
50.775006
 30
0.0
 10
302.996992
 20
50.775006
 30
0.0
  0
LWPOLYLINE
  5
2ab
100
AcDbEntity
  8
ink_ext_XXXXXX
 62
7
100
AcDbPolyline
 90
2
 70
0
 10
342.049991
 20
26.093807
 30
0.0
 10
340.210991
 20
29.282807
 30
0.0
  0
SPLINE
  5
2ac
100
AcDbEntity
  8
ink_ext_XXXXXX
 62
7
100
AcDbSpline
 70
8
 71
3
 72
8
 73
4
 74
0
 40
0
 40
0
 40
0
 40
0
 40
1
 40
1
 40
1
 40
1
 10
301.155992
 20
47.584406
 30
0.0
 10
308.808992
 20
34.326607
 30
0.0
 10
323.068992
 20
26.093807
 30
0.0
 10
338.371992
 20
26.093807
 30
0.0
  0
LWPOLYLINE
  5
2ad
100
AcDbEntity
  8
ink_ext_XXXXXX
 62
7
100
AcDbPolyline
 90
3
 70
0
 10
302.996992
 20
50.775006
 30
0.0
 10
299.315993
 20
50.775006
 30
0.0
 10
301.155992
 20
47.584406
 30
0.0
  0
LWPOLYLINE
  5
2ae
100
AcDbEntity
  8
ink_ext_XXXXXX
 62
7
100
AcDbPolyline
 90
2
 70
0
 10
338.371992
 20
26.093807
 30
0.0
 10
342.049991
 20
26.093807
 30
0.0
  0
SPLINE
  5
2af
100
AcDbEntity
  8
ink_ext_XXXXXX
 62
7
100
AcDbSpline
 70
8
 71
3
 72
8
 73
4
 74
0
 40
0
 40
0
 40
0
 40
0
 40
1
 40
1
 40
1
 40
1
 10
338.371992
 20
107.506005
 30
0.0
 10
323.068992
 20
107.506005
 30
0.0
 10
308.808992
 20
99.271905
 30
0.0
 10
301.155992
 20
86.014105
 30
0.0
  0
LWPOLYLINE
  5
2b0
100
AcDbEntity
  8
ink_ext_XXXXXX
 62
7
100
AcDbPolyline
 90
2
 70
0
 10
342.049991
 20
107.506005
 30
0.0
 10
338.371992
 20
107.506005
 30
0.0
  0
SPLINE
  5
2b1
100
AcDbEntity
  8
ink_ext_XXXXXX
 62
7
100
AcDbSpline
 70
8
 71
3
 72
8
 73
4
 74
0
 40
0
 40
0
 40
0
 40
0
 40
1
 40
1
 40
1
 40
1
 10
302.996992
 20
82.832805
 30
0.0
 10
318.297992
 20
82.832805
 30
0.0
 10
332.560992
 20
91.065605
 30
0.0
 10
340.210991
 20
104.316005
 30
0.0
  0
LWPOLYLINE
  5
2b2
100
AcDbEntity
  8
ink_ext_XXXXXX
 62
7
100
AcDbPolyline
 90
3
 70
0
 10
301.155992
 20
86.014105
 30
0.0
 10
299.315993
 20
82.832805
 30
0.0
 10
302.996992
 20
82.832805
 30
0.0
  0
SPLINE
  5
2b3
100
AcDbEntity
  8
ink_ext_XXXXXX
 62
7
100
AcDbSpline
 70
8
 71
3
 72
8
 73
4
 74
0
 40
0
 40
0
 40
0
 40
0
 40
1
 40
1
 40
1
 40
1
 10
344.391991
 20
101.902005
 30
0.0
 10
335.882992
 20
87.164105
 30
0.0
 10
320.018992
 20
78.003106
 30
0.0
 10
302.996992
 20
78.003106
 30
0.0
  0
LWPOLYLINE
  5
2b4
100
AcDbEntity
  8
ink_ext_XXXXXX
 62
7
100
AcDbPolyline
 90
2
 70
0
 10
340.210991
 20
104.316005
 30
0.0
 10
342.049991
 20
107.506005
 30
0.0
  0
SPLINE
  5
2b5
100
AcDbEntity
  8
ink_ext_XXXXXX
 62
7
100
AcDbSpline
 70
8
 71
3
 72
8
 73
4
 74
0
 40
0
 40
0
 40
0
 40
0
 40
1
 40
1
 40
1
 40
1
 10
296.974993
 20
88.429705
 30
0.0
 10
305.483992
 20
103.175005
 30
0.0
 10
321.349992
 20
112.334005
 30
0.0
 10
338.371992
 20
112.334005
 30
0.0
  0
LWPOLYLINE
  5
2b6
100
AcDbEntity
  8
ink_ext_XXXXXX
 62
7
100
AcDbPolyline
 90
3
 70
0
 10
302.996992
 20
78.003106
 30
0.0
 10
290.951993
 20
78.003106
 30
0.0
 10
296.974993
 20
88.429705
 30
0.0
  0
LWPOLYLINE
  5
2b7
100
AcDbEntity
  8
ink_ext_XXXXXX
 62
7
100
AcDbPolyline
 90
3
 70
0
 10
338.371992
 20
112.334005
 30
0.0
 10
350.415991
 20
112.334005
 30
0.0
 10
344.391991
 20
101.902005
 30
0.0
  0
SPLINE
  5
2b8
100
AcDbEntity
  8
ink_ext_XXXXXX
 62
7
100
AcDbSpline
 70
8
 71
3
 72
8
 73
4
 74
0
 40
0
 40
0
 40
0
 40
0
 40
1
 40
1
 40
1
 40
1
 10
401.266990
 20
112.334005
 30
0.0
 10
418.290990
 20
112.334005
 30
0.0
 10
434.154989
 20
103.175005
 30
0.0
 10
442.663989
 20
88.429705
 30
0.0
  0
LWPOLYLINE
  5
2b9
100
AcDbEntity
  8
ink_ext_XXXXXX
 62
7
100
AcDbPolyline
 90
3
 70
0
 10
395.246990
 20
101.902005
 30
0.0
 10
389.221990
 20
112.334005
 30
0.0
 10
401.266990
 20
112.334005
 30
0.0
  0
SPLINE
  5
2ba
100
AcDbEntity
  8
ink_ext_XXXXXX
 62
7
100
AcDbSpline
 70
8
 71
3
 72
8
 73
4
 74
0
 40
0
 40
0
 40
0
 40
0
 40
1
 40
1
 40
1
 40
1
 10
436.641989
 20
78.003106
 30
0.0
 10
419.621990
 20
78.003106
 30
0.0
 10
403.755990
 20
87.164105
 30
0.0
 10
395.246990
 20
101.902005
 30
0.0
  0
LWPOLYLINE
  5
2bb
100
AcDbEntity
  8
ink_ext_XXXXXX
 62
7
100
AcDbPolyline
 90
3
 70
0
 10
442.663989
 20
88.429705
 30
0.0
 10
448.687989
 20
78.003106
 30
0.0
 10
436.641989
 20
78.003106
 30
0.0
  0
LWPOLYLINE
  5
2bc
100
AcDbEntity
  8
ink_ext_XXXXXX
 62
7
100
AcDbPolyline
 90
1
 70
1
 10
395.246990
 20
101.902005
 30
0.0
  0
SPLINE
  5
2bd
100
AcDbEntity
  8
ink_ext_XXXXXX
 62
7
100
AcDbSpline
 70
8
 71
3
 72
8
 73
4
 74
0
 40
0
 40
0
 40
0
 40
0
 40
1
 40
1
 40
1
 40
1
 10
399.427990
 20
104.316005
 30
0.0
 10
407.079990
 20
91.065605
 30
0.0
 10
421.340989
 20
82.832805
 30
0.0
 10
436.641989
 20
82.832805
 30
0.0
  0
LWPOLYLINE
  5
2be
100
AcDbEntity
  8
ink_ext_XXXXXX
 62
7
100
AcDbPolyline
 90
3
 70
0
 10
401.266990
 20
107.506005
 30
0.0
 10
397.587990
 20
107.506005
 30
0.0
 10
399.427990
 20
104.316005
 30
0.0
  0
SPLINE
  5
2bf
100
AcDbEntity
  8
ink_ext_XXXXXX
 62
7
100
AcDbSpline
 70
8
 71
3
 72
8
 73
4
 74
0
 40
0
 40
0
 40
0
 40
0
 40
1
 40
1
 40
1
 40
1
 10
438.482989
 20
86.014105
 30
0.0
 10
430.830989
 20
99.271905
 30
0.0
 10
416.569990
 20
107.506005
 30
0.0
 10
401.266990
 20
107.506005
 30
0.0
  0
LWPOLYLINE
  5
2c0
100
AcDbEntity
  8
ink_ext_XXXXXX
 62
7
100
AcDbPolyline
 90
3
 70
0
 10
436.641989
 20
82.832805
 30
0.0
 10
440.321989
 20
82.832805
 30
0.0
 10
438.482989
 20
86.014105
 30
0.0
  0
SPLINE
  5
2c1
100
AcDbEntity
  8
ink_ext_XXXXXX
 62
7
100
AcDbSpline
 70
8
 71
3
 72
8
 73
4
 74
0
 40
0
 40
0
 40
0
 40
0
 40
1
 40
1
 40
1
 40
1
 10
462.065988
 20
99.639105
 30
0.0
 10
457.843989
 20
106.950005
 30
0.0
 10
455.718989
 20
115.141005
 30
0.0
 10
455.683989
 20
123.341004
 30
0.0
  0
SPLINE
  5
2c2
100
AcDbEntity
  8
ink_ext_XXXXXX
 62
7
100
AcDbSpline
 70
8
 71
3
 72
8
 73
4
 74
0
 40
0
 40
0
 40
0
 40
0
 40
1
 40
1
 40
1
 40
1
 10
455.683989
 20
123.341004
 30
0.0
 10
455.718989
 20
131.538004
 30
0.0
 10
457.843989
 20
139.730004
 30
0.0
 10
462.065988
 20
147.041004
 30
0.0
  0
LWPOLYLINE
  5
2c3
100
AcDbEntity
  8
ink_ext_XXXXXX
 62
7
100
AcDbPolyline
 90
1
 70
1
 10
401.266990
 20
107.506005
 30
0.0
  0
SPLINE
  5
2c4
100
AcDbEntity
  8
ink_ext_XXXXXX
 62
7
100
AcDbSpline
 70
8
 71
3
 72
8
 73
4
 74
0
 40
0
 40
0
 40
0
 40
0
 40
1
 40
1
 40
1
 40
1
 10
474.110988
 20
147.041004
 30
0.0
 10
478.330988
 20
139.730004
 30
0.0
 10
480.458988
 20
131.538004
 30
0.0
 10
480.491988
 20
123.341004
 30
0.0
  0
SPLINE
  5
2c5
100
AcDbEntity
  8
ink_ext_XXXXXX
 62
7
100
AcDbSpline
 70
8
 71
3
 72
8
 73
4
 74
0
 40
0
 40
0
 40
0
 40
0
 40
1
 40
1
 40
1
 40
1
 10
480.491988
 20
123.341004
 30
0.0
 10
480.458988
 20
115.141005
 30
0.0
 10
478.330988
 20
106.950005
 30
0.0
 10
474.110988
 20
99.639105
 30
0.0
  0
LWPOLYLINE
  5
2c6
100
AcDbEntity
  8
ink_ext_XXXXXX
 62
7
100
AcDbPolyline
 90
3
 70
0
 10
462.065988
 20
147.041004
 30
0.0
 10
468.087988
 20
157.475004
 30
0.0
 10
474.110988
 20
147.041004
 30
0.0
  0
SPLINE
  5
2c7
100
AcDbEntity
  8
ink_ext_XXXXXX
 62
7
100
AcDbSpline
 70
8
 71
3
 72
8
 73
4
 74
0
 40
0
 40
0
 40
0
 40
0
 40
1
 40
1
 40
1
 40
1
 10
460.512988
 20
123.341004
 30
0.0
 10
460.544988
 20
115.975005
 30
0.0
 10
462.455988
 20
108.619005
 30
0.0
 10
466.249988
 20
102.053005
 30
0.0
  0
LWPOLYLINE
  5
2c8
100
AcDbEntity
  8
ink_ext_XXXXXX
 62
7
100
AcDbPolyline
 90
3
 70
0
 10
474.110988
 20
99.639105
 30
0.0
 10
468.087988
 20
89.204705
 30
0.0
 10
462.065988
 20
99.639105
 30
0.0
  0
SPLINE
  5
2c9
100
AcDbEntity
  8
ink_ext_XXXXXX
 62
7
100
AcDbSpline
 70
8
 71
3
 72
8
 73
4
 74
0
 40
0
 40
0
 40
0
 40
0
 40
1
 40
1
 40
1
 40
1
 10
469.927988
 20
102.053005
 30
0.0
 10
473.719988
 20
108.619005
 30
0.0
 10
475.632988
 20
115.975005
 30
0.0
 10
475.665988
 20
123.341004
 30
0.0
  0
SPLINE
  5
2ca
100
AcDbEntity
  8
ink_ext_XXXXXX
 62
7
100
AcDbSpline
 70
8
 71
3
 72
8
 73
4
 74
0
 40
0
 40
0
 40
0
 40
0
 40
1
 40
1
 40
1
 40
1
 10
475.665988
 20
123.341004
 30
0.0
 10
475.632988
 20
130.705004
 30
0.0
 10
473.719988
 20
138.059004
 30
0.0
 10
469.927988
 20
144.627004
 30
0.0
  0
LWPOLYLINE
  5
2cb
100
AcDbEntity
  8
ink_ext_XXXXXX
 62
7
100
AcDbPolyline
 90
3
 70
0
 10
466.249988
 20
102.053005
 30
0.0
 10
468.087988
 20
98.862505
 30
0.0
 10
469.927988
 20
102.053005
 30
0.0
  0
SPLINE
  5
2cc
100
AcDbEntity
  8
ink_ext_XXXXXX
 62
7
100
AcDbSpline
 70
8
 71
3
 72
8
 73
4
 74
0
 40
0
 40
0
 40
0
 40
0
 40
1
 40
1
 40
1
 40
1
 10
466.249988
 20
144.627004
 30
0.0
 10
462.455988
 20
138.059004
 30
0.0
 10
460.544988
 20
130.703004
 30
0.0
 10
460.512988
 20
123.341004
 30
0.0
  0
LWPOLYLINE
  5
2cd
100
AcDbEntity
  8
ink_ext_XXXXXX
 62
7
100
AcDbPolyline
 90
3
 70
0
 10
469.927988
 20
144.627004
 30
0.0
 10
468.087988
 20
147.816004
 30
0.0
 10
466.249988
 20
144.627004
 30
0.0
  0
SPLINE
  5
2ce
100
AcDbEntity
  8
ink_ext_XXXXXX
 62
7
100
AcDbSpline
 70
8
 71
3
 72
8
 73
4
 74
0
 40
0
 40
0
 40
0
 40
0
 40
1
 40
1
 40
1
 40
1
 10
488.312988
 20
91.431305
 30
0.0
 10
491.313988
 20
96.635905
 30
0.0
 10
493.568988
 20
102.241005
 30
0.0
 10
495.012988
 20
108.084005
 30
0.0
  0
SPLINE
  5
2cf
100
AcDbEntity
  8
ink_ext_XXXXXX
 62
7
100
AcDbSpline
 70
8
 71
3
 72
8
 73
4
 74
0
 40
0
 40
0
 40
0
 40
0
 40
1
 40
1
 40
1
 40
1
 10
495.012988
 20
108.084005
 30
0.0
 10
495.446988
 20
109.850005
 30
0.0
 10
495.813988
 20
111.675005
 30
0.0
 10
496.101988
 20
113.513005
 30
0.0
  0
SPLINE
  5
2d0
100
AcDbEntity
  8
ink_ext_XXXXXX
 62
7
100
AcDbSpline
 70
8
 71
3
 72
8
 73
4
 74
0
 40
0
 40
0
 40
0
 40
0
 40
1
 40
1
 40
1
 40
1
 10
496.101988
 20
113.513005
 30
0.0
 10
496.615988
 20
116.770005
 30
0.0
 10
496.874988
 20
120.055004
 30
0.0
 10
496.883988
 20
123.341004
 30
0.0
  0
SPLINE
  5
2d1
100
AcDbEntity
  8
ink_ext_XXXXXX
 62
7
100
AcDbSpline
 70
8
 71
3
 72
8
 73
4
 74
0
 40
0
 40
0
 40
0
 40
0
 40
1
 40
1
 40
1
 40
1
 10
496.883988
 20
123.341004
 30
0.0
 10
496.874988
 20
126.623004
 30
0.0
 10
496.615988
 20
129.908004
 30
0.0
 10
496.101988
 20
133.167004
 30
0.0
  0
SPLINE
  5
2d2
100
AcDbEntity
  8
ink_ext_XXXXXX
 62
7
100
AcDbSpline
 70
8
 71
3
 72
8
 73
4
 74
0
 40
0
 40
0
 40
0
 40
0
 40
1
 40
1
 40
1
 40
1
 10
496.101988
 20
133.167004
 30
0.0
 10
495.813988
 20
135.003004
 30
0.0
 10
495.446988
 20
136.830004
 30
0.0
 10
495.012988
 20
138.594004
 30
0.0
  0
SPLINE
  5
2d3
100
AcDbEntity
  8
ink_ext_XXXXXX
 62
7
100
AcDbSpline
 70
8
 71
3
 72
8
 73
4
 74
0
 40
0
 40
0
 40
0
 40
0
 40
1
 40
1
 40
1
 40
1
 10
495.012988
 20
138.594004
 30
0.0
 10
493.568988
 20
144.439004
 30
0.0
 10
491.313988
 20
150.044004
 30
0.0
 10
488.312988
 20
155.247004
 30
0.0
  0
LWPOLYLINE
  5
2d4
100
AcDbEntity
  8
ink_ext_XXXXXX
 62
7
100
AcDbPolyline
 90
1
 70
1
 10
460.512988
 20
123.341004
 30
0.0
  0
SPLINE
  5
2d5
100
AcDbEntity
  8
ink_ext_XXXXXX
 62
7
100
AcDbSpline
 70
8
 71
3
 72
8
 73
4
 74
0
 40
0
 40
0
 40
0
 40
0
 40
1
 40
1
 40
1
 40
1
 10
655.983984
 20
158.802004
 30
0.0
 10
658.799984
 20
148.475004
 30
0.0
 10
667.022983
 20
140.545004
 30
0.0
 10
677.444983
 20
138.113004
 30
0.0
  0
LWPOLYLINE
  5
2d6
100
AcDbEntity
  8
ink_ext_XXXXXX
 62
7
100
AcDbPolyline
 90
5
 70
0
 10
488.312988
 20
155.247004
 30
0.0
 10
487.480988
 20
156.681004
 30
0.0
 10
485.069988
 20
160.861003
 30
0.0
 10
655.424984
 20
160.861003
 30
0.0
 10
655.983984
 20
158.802004
 30
0.0
  0
SPLINE
  5
2d7
100
AcDbEntity
  8
ink_ext_XXXXXX
 62
7
100
AcDbSpline
 70
8
 71
3
 72
8
 73
4
 74
0
 40
0
 40
0
 40
0
 40
0
 40
1
 40
1
 40
1
 40
1
 10
679.469983
 20
136.233004
 30
0.0
 10
680.796983
 20
131.964004
 30
0.0
 10
683.349983
 20
128.178004
 30
0.0
 10
686.851983
 20
125.291004
 30
0.0
  0
LWPOLYLINE
  5
2d8
100
AcDbEntity
  8
ink_ext_XXXXXX
 62
7
100
AcDbPolyline
 90
3
 70
0
 10
677.444983
 20
138.113004
 30
0.0
 10
678.997983
 20
137.756004
 30
0.0
 10
679.469983
 20
136.233004
 30
0.0
  0
SPLINE
  5
2d9
100
AcDbEntity
  8
ink_ext_XXXXXX
 62
7
100
AcDbSpline
 70
8
 71
3
 72
8
 73
4
 74
0
 40
0
 40
0
 40
0
 40
0
 40
1
 40
1
 40
1
 40
1
 10
686.851983
 20
121.388004
 30
0.0
 10
683.349983
 20
118.502005
 30
0.0
 10
680.796983
 20
114.716005
 30
0.0
 10
679.469983
 20
110.447005
 30
0.0
  0
LWPOLYLINE
  5
2da
100
AcDbEntity
  8
ink_ext_XXXXXX
 62
7
100
AcDbPolyline
 90
3
 70
0
 10
686.851983
 20
125.291004
 30
0.0
 10
689.212983
 20
123.341004
 30
0.0
 10
686.851983
 20
121.388004
 30
0.0
  0
SPLINE
  5
2db
100
AcDbEntity
  8
ink_ext_XXXXXX
 62
7
100
AcDbSpline
 70
8
 71
3
 72
8
 73
4
 74
0
 40
0
 40
0
 40
0
 40
0
 40
1
 40
1
 40
1
 40
1
 10
677.444983
 20
108.566005
 30
0.0
 10
667.022983
 20
106.134005
 30
0.0
 10
658.799984
 20
98.204705
 30
0.0
 10
655.983984
 20
87.876605
 30
0.0
  0
LWPOLYLINE
  5
2dc
100
AcDbEntity
  8
ink_ext_XXXXXX
 62
7
100
AcDbPolyline
 90
3
 70
0
 10
679.469983
 20
110.447005
 30
0.0
 10
678.997983
 20
108.923005
 30
0.0
 10
677.444983
 20
108.566005
 30
0.0
  0
SPLINE
  5
2dd
100
AcDbEntity
  8
ink_ext_XXXXXX
 62
7
100
AcDbSpline
 70
8
 71
3
 72
8
 73
4
 74
0
 40
0
 40
0
 40
0
 40
0
 40
1
 40
1
 40
1
 40
1
 10
499.668988
 20
123.341004
 30
0.0
 10
499.657988
 20
119.909005
 30
0.0
 10
499.383988
 20
116.481005
 30
0.0
 10
498.849988
 20
113.075005
 30
0.0
  0
SPLINE
  5
2de
100
AcDbEntity
  8
ink_ext_XXXXXX
 62
7
100
AcDbSpline
 70
8
 71
3
 72
8
 73
4
 74
0
 40
0
 40
0
 40
0
 40
0
 40
1
 40
1
 40
1
 40
1
 10
498.849988
 20
113.075005
 30
0.0
 10
498.547988
 20
111.169005
 30
0.0
 10
498.168988
 20
109.261005
 30
0.0
 10
497.712988
 20
107.425005
 30
0.0
  0
SPLINE
  5
2df
100
AcDbEntity
  8
ink_ext_XXXXXX
 62
7
100
AcDbSpline
 70
8
 71
3
 72
8
 73
4
 74
0
 40
0
 40
0
 40
0
 40
0
 40
1
 40
1
 40
1
 40
1
 10
497.712988
 20
107.425005
 30
0.0
 10
496.205988
 20
101.322005
 30
0.0
 10
493.855988
 20
95.478105
 30
0.0
 10
490.719988
 20
90.042205
 30
0.0
  0
LWPOLYLINE
  5
2e0
100
AcDbEntity
  8
ink_ext_XXXXXX
 62
7
100
AcDbPolyline
 90
5
 70
0
 10
655.983984
 20
87.876605
 30
0.0
 10
655.424984
 20
85.818805
 30
0.0
 10
485.069988
 20
85.818805
 30
0.0
 10
487.480988
 20
89.996905
 30
0.0
 10
488.312988
 20
91.431305
 30
0.0
  0
SPLINE
  5
2e1
100
AcDbEntity
  8
ink_ext_XXXXXX
 62
7
100
AcDbSpline
 70
8
 71
3
 72
8
 73
4
 74
0
 40
0
 40
0
 40
0
 40
0
 40
1
 40
1
 40
1
 40
1
 10
653.299984
 20
88.607805
 30
0.0
 10
656.358984
 20
99.825005
 30
0.0
 10
665.440983
 20
108.619005
 30
0.0
 10
676.812983
 20
111.275005
 30
0.0
  0
SPLINE
  5
2e2
100
AcDbEntity
  8
ink_ext_XXXXXX
 62
7
100
AcDbSpline
 70
8
 71
3
 72
8
 73
4
 74
0
 40
0
 40
0
 40
0
 40
0
 40
1
 40
1
 40
1
 40
1
 10
676.812983
 20
111.275005
 30
0.0
 10
678.283983
 20
116.006005
 30
0.0
 10
681.115983
 20
120.189004
 30
0.0
 10
684.844983
 20
123.341004
 30
0.0
  0
SPLINE
  5
2e3
100
AcDbEntity
  8
ink_ext_XXXXXX
 62
7
100
AcDbSpline
 70
8
 71
3
 72
8
 73
4
 74
0
 40
0
 40
0
 40
0
 40
0
 40
1
 40
1
 40
1
 40
1
 10
684.844983
 20
123.341004
 30
0.0
 10
681.115983
 20
126.491004
 30
0.0
 10
678.283983
 20
130.673004
 30
0.0
 10
676.812983
 20
135.403004
 30
0.0
  0
SPLINE
  5
2e4
100
AcDbEntity
  8
ink_ext_XXXXXX
 62
7
100
AcDbSpline
 70
8
 71
3
 72
8
 73
4
 74
0
 40
0
 40
0
 40
0
 40
0
 40
1
 40
1
 40
1
 40
1
 10
676.812983
 20
135.403004
 30
0.0
 10
665.440983
 20
138.059004
 30
0.0
 10
656.358984
 20
146.853004
 30
0.0
 10
653.299984
 20
158.072004
 30
0.0
  0
LWPOLYLINE
  5
2e5
100
AcDbEntity
  8
ink_ext_XXXXXX
 62
7
100
AcDbPolyline
 90
3
 70
0
 10
490.719988
 20
90.042205
 30
0.0
 10
489.890988
 20
88.607805
 30
0.0
 10
653.299984
 20
88.607805
 30
0.0
  0
SPLINE
  5
2e6
100
AcDbEntity
  8
ink_ext_XXXXXX
 62
7
100
AcDbSpline
 70
8
 71
3
 72
8
 73
4
 74
0
 40
0
 40
0
 40
0
 40
0
 40
1
 40
1
 40
1
 40
1
 10
490.719988
 20
156.638004
 30
0.0
 10
493.855988
 20
151.202004
 30
0.0
 10
496.205988
 20
145.356004
 30
0.0
 10
497.712988
 20
139.253004
 30
0.0
  0
SPLINE
  5
2e7
100
AcDbEntity
  8
ink_ext_XXXXXX
 62
7
100
AcDbSpline
 70
8
 71
3
 72
8
 73
4
 74
0
 40
0
 40
0
 40
0
 40
0
 40
1
 40
1
 40
1
 40
1
 10
497.712988
 20
139.253004
 30
0.0
 10
498.168988
 20
137.419004
 30
0.0
 10
498.547988
 20
135.511004
 30
0.0
 10
498.849988
 20
133.603004
 30
0.0
  0
SPLINE
  5
2e8
100
AcDbEntity
  8
ink_ext_XXXXXX
 62
7
100
AcDbSpline
 70
8
 71
3
 72
8
 73
4
 74
0
 40
0
 40
0
 40
0
 40
0
 40
1
 40
1
 40
1
 40
1
 10
498.849988
 20
133.603004
 30
0.0
 10
499.383988
 20
130.198004
 30
0.0
 10
499.657988
 20
126.769004
 30
0.0
 10
499.668988
 20
123.341004
 30
0.0
  0
LWPOLYLINE
  5
2e9
100
AcDbEntity
  8
ink_ext_XXXXXX
 62
7
100
AcDbPolyline
 90
3
 70
0
 10
653.299984
 20
158.072004
 30
0.0
 10
489.890988
 20
158.072004
 30
0.0
 10
490.719988
 20
156.638004
 30
0.0
  0
LWPOLYLINE
  5
2ea
100
AcDbEntity
  8
ink_ext_XXXXXX
 62
7
100
AcDbPolyline
 90
1
 70
1
 10
499.668988
 20
123.341004
 30
0.0
  0
SPLINE
  5
2eb
100
AcDbEntity
  8
ink_ext_XXXXXX
 62
7
100
AcDbSpline
 70
8
 71
3
 72
8
 73
4
 74
0
 40
0
 40
0
 40
0
 40
0
 40
1
 40
1
 40
1
 40
1
 10
648.074984
 20
96.020305
 30
0.0
 10
652.477984
 20
106.080005
 30
0.0
 10
660.824983
 20
113.788005
 30
0.0
 10
671.215983
 20
117.369005
 30
0.0
  0
SPLINE
  5
2ec
100
AcDbEntity
  8
ink_ext_XXXXXX
 62
7
100
AcDbSpline
 70
8
 71
3
 72
8
 73
4
 74
0
 40
0
 40
0
 40
0
 40
0
 40
1
 40
1
 40
1
 40
1
 10
671.215983
 20
117.369005
 30
0.0
 10
672.174983
 20
119.478005
 30
0.0
 10
673.355983
 20
121.470004
 30
0.0
 10
674.735983
 20
123.341004
 30
0.0
  0
SPLINE
  5
2ed
100
AcDbEntity
  8
ink_ext_XXXXXX
 62
7
100
AcDbSpline
 70
8
 71
3
 72
8
 73
4
 74
0
 40
0
 40
0
 40
0
 40
0
 40
1
 40
1
 40
1
 40
1
 10
674.735983
 20
123.341004
 30
0.0
 10
673.355983
 20
125.208004
 30
0.0
 10
672.174983
 20
127.200004
 30
0.0
 10
671.215983
 20
129.309004
 30
0.0
  0
SPLINE
  5
2ee
100
AcDbEntity
  8
ink_ext_XXXXXX
 62
7
100
AcDbSpline
 70
8
 71
3
 72
8
 73
4
 74
0
 40
0
 40
0
 40
0
 40
0
 40
1
 40
1
 40
1
 40
1
 10
671.215983
 20
129.309004
 30
0.0
 10
660.824983
 20
132.892004
 30
0.0
 10
652.477984
 20
140.598004
 30
0.0
 10
648.074984
 20
150.658004
 30
0.0
  0
LWPOLYLINE
  5
2ef
100
AcDbEntity
  8
ink_ext_XXXXXX
 62
7
100
AcDbPolyline
 90
2
 70
0
 10
501.833987
 20
96.020305
 30
0.0
 10
648.074984
 20
96.020305
 30
0.0
  0
SPLINE
  5
2f0
100
AcDbEntity
  8
ink_ext_XXXXXX
 62
7
100
AcDbSpline
 70
8
 71
3
 72
8
 73
4
 74
0
 40
0
 40
0
 40
0
 40
0
 40
1
 40
1
 40
1
 40
1
 10
501.833987
 20
150.658004
 30
0.0
 10
503.076987
 20
147.530004
 30
0.0
 10
504.108987
 20
144.305004
 30
0.0
 10
504.915987
 20
141.034004
 30
0.0
  0
SPLINE
  5
2f1
100
AcDbEntity
  8
ink_ext_XXXXXX
 62
7
100
AcDbSpline
 70
8
 71
3
 72
8
 73
4
 74
0
 40
0
 40
0
 40
0
 40
0
 40
1
 40
1
 40
1
 40
1
 10
504.915987
 20
141.034004
 30
0.0
 10
505.419987
 20
138.986004
 30
0.0
 10
505.844987
 20
136.873004
 30
0.0
 10
506.177987
 20
134.753004
 30
0.0
  0
SPLINE
  5
2f2
100
AcDbEntity
  8
ink_ext_XXXXXX
 62
7
100
AcDbSpline
 70
8
 71
3
 72
8
 73
4
 74
0
 40
0
 40
0
 40
0
 40
0
 40
1
 40
1
 40
1
 40
1
 10
506.177987
 20
134.753004
 30
0.0
 10
506.772987
 20
130.966004
 30
0.0
 10
507.076987
 20
127.153004
 30
0.0
 10
507.085987
 20
123.341004
 30
0.0
  0
SPLINE
  5
2f3
100
AcDbEntity
  8
ink_ext_XXXXXX
 62
7
100
AcDbSpline
 70
8
 71
3
 72
8
 73
4
 74
0
 40
0
 40
0
 40
0
 40
0
 40
1
 40
1
 40
1
 40
1
 10
507.085987
 20
123.341004
 30
0.0
 10
507.076987
 20
119.527005
 30
0.0
 10
506.772987
 20
115.714005
 30
0.0
 10
506.177987
 20
111.925005
 30
0.0
  0
SPLINE
  5
2f4
100
AcDbEntity
  8
ink_ext_XXXXXX
 62
7
100
AcDbSpline
 70
8
 71
3
 72
8
 73
4
 74
0
 40
0
 40
0
 40
0
 40
0
 40
1
 40
1
 40
1
 40
1
 10
506.177987
 20
111.925005
 30
0.0
 10
505.844987
 20
109.805005
 30
0.0
 10
505.419987
 20
107.694005
 30
0.0
 10
504.915987
 20
105.644005
 30
0.0
  0
SPLINE
  5
2f5
100
AcDbEntity
  8
ink_ext_XXXXXX
 62
7
100
AcDbSpline
 70
8
 71
3
 72
8
 73
4
 74
0
 40
0
 40
0
 40
0
 40
0
 40
1
 40
1
 40
1
 40
1
 10
504.915987
 20
105.644005
 30
0.0
 10
504.108987
 20
102.373005
 30
0.0
 10
503.076987
 20
99.148405
 30
0.0
 10
501.833987
 20
96.020305
 30
0.0
  0
LWPOLYLINE
  5
2f6
100
AcDbEntity
  8
ink_ext_XXXXXX
 62
7
100
AcDbPolyline
 90
2
 70
0
 10
648.074984
 20
150.658004
 30
0.0
 10
501.833987
 20
150.658004
 30
0.0
  0
LWPOLYLINE
  5
2f7
100
AcDbEntity
  8
ink_ext_XXXXXX
 62
7
100
AcDbPolyline
 90
1
 70
1
 10
501.833987
 20
96.020305
 30
0.0
  0
SPLINE
  5
2f8
100
AcDbEntity
  8
ink_ext_XXXXXX
 62
7
100
AcDbSpline
 70
8
 71
3
 72
8
 73
4
 74
0
 40
0
 40
0
 40
0
 40
0
 40
1
 40
1
 40
1
 40
1
 10
678.672983
 20
122.350004
 30
0.0
 10
676.866983
 20
120.167004
 30
0.0
 10
675.391983
 20
117.744005
 30
0.0
 10
674.288983
 20
115.142005
 30
0.0
  0
LWPOLYLINE
  5
2f9
100
AcDbEntity
  8
ink_ext_XXXXXX
 62
7
100
AcDbPolyline
 90
2
 70
0
 10
679.485983
 20
123.341004
 30
0.0
 10
678.672983
 20
122.350004
 30
0.0
  0
SPLINE
  5
2fa
100
AcDbEntity
  8
ink_ext_XXXXXX
 62
7
100
AcDbSpline
 70
8
 71
3
 72
8
 73
4
 74
0
 40
0
 40
0
 40
0
 40
0
 40
1
 40
1
 40
1
 40
1
 10
673.147983
 20
114.100005
 30
0.0
 10
663.040983
 20
110.856005
 30
0.0
 10
654.977984
 20
103.336005
 30
0.0
 10
651.029984
 20
93.481305
 30
0.0
  0
LWPOLYLINE
  5
2fb
100
AcDbEntity
  8
ink_ext_XXXXXX
 62
7
100
AcDbPolyline
 90
3
 70
0
 10
674.288983
 20
115.142005
 30
0.0
 10
673.955983
 20
114.367005
 30
0.0
 10
673.147983
 20
114.100005
 30
0.0
  0
SPLINE
  5
2fc
100
AcDbEntity
  8
ink_ext_XXXXXX
 62
7
100
AcDbSpline
 70
8
 71
3
 72
8
 73
4
 74
0
 40
0
 40
0
 40
0
 40
0
 40
1
 40
1
 40
1
 40
1
 10
497.349988
 20
94.915605
 30
0.0
 10
498.999988
 20
98.650005
 30
0.0
 10
500.333987
 20
102.561005
 30
0.0
 10
501.313987
 20
106.534005
 30
0.0
  0
SPLINE
  5
2fd
100
AcDbEntity
  8
ink_ext_XXXXXX
 62
7
100
AcDbSpline
 70
8
 71
3
 72
8
 73
4
 74
0
 40
0
 40
0
 40
0
 40
0
 40
1
 40
1
 40
1
 40
1
 10
501.313987
 20
106.534005
 30
0.0
 10
501.793987
 20
108.478005
 30
0.0
 10
502.196987
 20
110.483005
 30
0.0
 10
502.515987
 20
112.505005
 30
0.0
  0
SPLINE
  5
2fe
100
AcDbEntity
  8
ink_ext_XXXXXX
 62
7
100
AcDbSpline
 70
8
 71
3
 72
8
 73
4
 74
0
 40
0
 40
0
 40
0
 40
0
 40
1
 40
1
 40
1
 40
1
 10
502.515987
 20
112.505005
 30
0.0
 10
503.079987
 20
116.097005
 30
0.0
 10
503.366987
 20
119.717005
 30
0.0
 10
503.376987
 20
123.341004
 30
0.0
  0
SPLINE
  5
2ff
100
AcDbEntity
  8
ink_ext_XXXXXX
 62
7
100
AcDbSpline
 70
8
 71
3
 72
8
 73
4
 74
0
 40
0
 40
0
 40
0
 40
0
 40
1
 40
1
 40
1
 40
1
 10
503.376987
 20
123.341004
 30
0.0
 10
503.366987
 20
126.961004
 30
0.0
 10
503.079987
 20
130.581004
 30
0.0
 10
502.515987
 20
134.173004
 30
0.0
  0
SPLINE
  5
300
100
AcDbEntity
  8
ink_ext_XXXXXX
 62
7
100
AcDbSpline
 70
8
 71
3
 72
8
 73
4
 74
0
 40
0
 40
0
 40
0
 40
0
 40
1
 40
1
 40
1
 40
1
 10
502.515987
 20
134.173004
 30
0.0
 10
502.196987
 20
136.197004
 30
0.0
 10
501.793987
 20
138.202004
 30
0.0
 10
501.313987
 20
140.144004
 30
0.0
  0
SPLINE
  5
301
100
AcDbEntity
  8
ink_ext_XXXXXX
 62
7
100
AcDbSpline
 70
8
 71
3
 72
8
 73
4
 74
0
 40
0
 40
0
 40
0
 40
0
 40
1
 40
1
 40
1
 40
1
 10
501.313987
 20
140.144004
 30
0.0
 10
500.333987
 20
144.119004
 30
0.0
 10
498.999988
 20
148.030004
 30
0.0
 10
497.349988
 20
151.763004
 30
0.0
  0
LWPOLYLINE
  5
302
100
AcDbEntity
  8
ink_ext_XXXXXX
 62
7
100
AcDbPolyline
 90
4
 70
0
 10
651.029984
 20
93.481305
 30
0.0
 10
650.562984
 20
92.314105
 30
0.0
 10
496.199988
 20
92.314105
 30
0.0
 10
497.349988
 20
94.915605
 30
0.0
  0
SPLINE
  5
303
100
AcDbEntity
  8
ink_ext_XXXXXX
 62
7
100
AcDbSpline
 70
8
 71
3
 72
8
 73
4
 74
0
 40
0
 40
0
 40
0
 40
0
 40
1
 40
1
 40
1
 40
1
 10
651.029984
 20
153.197004
 30
0.0
 10
654.977984
 20
143.342004
 30
0.0
 10
663.040983
 20
135.822004
 30
0.0
 10
673.147983
 20
132.580004
 30
0.0
  0
LWPOLYLINE
  5
304
100
AcDbEntity
  8
ink_ext_XXXXXX
 62
7
100
AcDbPolyline
 90
4
 70
0
 10
497.349988
 20
151.763004
 30
0.0
 10
496.199988
 20
154.364004
 30
0.0
 10
650.562984
 20
154.364004
 30
0.0
 10
651.029984
 20
153.197004
 30
0.0
  0
SPLINE
  5
305
100
AcDbEntity
  8
ink_ext_XXXXXX
 62
7
100
AcDbSpline
 70
8
 71
3
 72
8
 73
4
 74
0
 40
0
 40
0
 40
0
 40
0
 40
1
 40
1
 40
1
 40
1
 10
674.288983
 20
131.536004
 30
0.0
 10
675.391983
 20
128.934004
 30
0.0
 10
676.866983
 20
126.513004
 30
0.0
 10
678.672983
 20
124.328004
 30
0.0
  0
LWPOLYLINE
  5
306
100
AcDbEntity
  8
ink_ext_XXXXXX
 62
7
100
AcDbPolyline
 90
3
 70
0
 10
673.147983
 20
132.580004
 30
0.0
 10
673.955983
 20
132.311004
 30
0.0
 10
674.288983
 20
131.536004
 30
0.0
  0
LWPOLYLINE
  5
307
100
AcDbEntity
  8
ink_ext_XXXXXX
 62
7
100
AcDbPolyline
 90
2
 70
0
 10
678.672983
 20
124.328004
 30
0.0
 10
679.485983
 20
123.341004
 30
0.0
  0
SPLINE
  5
308
100
AcDbEntity
  8
ink_ext_XXXXXX
 62
7
100
AcDbSpline
 70
8
 71
3
 72
8
 73
4
 74
0
 40
0
 40
0
 40
0
 40
0
 40
1
 40
1
 40
1
 40
1
 10
265.529993
 20
99.639105
 30
0.0
 10
261.305993
 20
106.950005
 30
0.0
 10
259.179994
 20
115.141005
 30
0.0
 10
259.146994
 20
123.341004
 30
0.0
  0
SPLINE
  5
309
100
AcDbEntity
  8
ink_ext_XXXXXX
 62
7
100
AcDbSpline
 70
8
 71
3
 72
8
 73
4
 74
0
 40
0
 40
0
 40
0
 40
0
 40
1
 40
1
 40
1
 40
1
 10
259.146994
 20
123.341004
 30
0.0
 10
259.179994
 20
131.538004
 30
0.0
 10
261.305993
 20
139.730004
 30
0.0
 10
265.529993
 20
147.041004
 30
0.0
  0
LWPOLYLINE
  5
30a
100
AcDbEntity
  8
ink_ext_XXXXXX
 62
7
100
AcDbPolyline
 90
3
 70
0
 10
277.571993
 20
99.639105
 30
0.0
 10
271.549993
 20
89.204705
 30
0.0
 10
265.529993
 20
99.639105
 30
0.0
  0
SPLINE
  5
30b
100
AcDbEntity
  8
ink_ext_XXXXXX
 62
7
100
AcDbSpline
 70
8
 71
3
 72
8
 73
4
 74
0
 40
0
 40
0
 40
0
 40
0
 40
1
 40
1
 40
1
 40
1
 10
277.571993
 20
147.041004
 30
0.0
 10
281.794993
 20
139.730004
 30
0.0
 10
283.921993
 20
131.538004
 30
0.0
 10
283.954993
 20
123.341004
 30
0.0
  0
SPLINE
  5
30c
100
AcDbEntity
  8
ink_ext_XXXXXX
 62
7
100
AcDbSpline
 70
8
 71
3
 72
8
 73
4
 74
0
 40
0
 40
0
 40
0
 40
0
 40
1
 40
1
 40
1
 40
1
 10
283.954993
 20
123.341004
 30
0.0
 10
283.921993
 20
115.141005
 30
0.0
 10
281.794993
 20
106.950005
 30
0.0
 10
277.571993
 20
99.639105
 30
0.0
  0
LWPOLYLINE
  5
30d
100
AcDbEntity
  8
ink_ext_XXXXXX
 62
7
100
AcDbPolyline
 90
3
 70
0
 10
265.529993
 20
147.041004
 30
0.0
 10
271.549993
 20
157.475004
 30
0.0
 10
277.571993
 20
147.041004
 30
0.0
  0
SPLINE
  5
30e
100
AcDbEntity
  8
ink_ext_XXXXXX
 62
7
100
AcDbSpline
 70
8
 71
3
 72
8
 73
4
 74
0
 40
0
 40
0
 40
0
 40
0
 40
1
 40
1
 40
1
 40
1
 10
263.971993
 20
123.341004
 30
0.0
 10
264.005993
 20
115.975005
 30
0.0
 10
265.919993
 20
108.619005
 30
0.0
 10
269.710993
 20
102.053005
 30
0.0
  0
LWPOLYLINE
  5
30f
100
AcDbEntity
  8
ink_ext_XXXXXX
 62
7
100
AcDbPolyline
 90
1
 70
1
 10
277.571993
 20
99.639105
 30
0.0
  0
SPLINE
  5
310
100
AcDbEntity
  8
ink_ext_XXXXXX
 62
7
100
AcDbSpline
 70
8
 71
3
 72
8
 73
4
 74
0
 40
0
 40
0
 40
0
 40
0
 40
1
 40
1
 40
1
 40
1
 10
273.390993
 20
102.053005
 30
0.0
 10
277.180993
 20
108.619005
 30
0.0
 10
279.093993
 20
115.975005
 30
0.0
 10
279.126993
 20
123.341004
 30
0.0
  0
SPLINE
  5
311
100
AcDbEntity
  8
ink_ext_XXXXXX
 62
7
100
AcDbSpline
 70
8
 71
3
 72
8
 73
4
 74
0
 40
0
 40
0
 40
0
 40
0
 40
1
 40
1
 40
1
 40
1
 10
279.126993
 20
123.341004
 30
0.0
 10
279.093993
 20
130.705004
 30
0.0
 10
277.180993
 20
138.059004
 30
0.0
 10
273.390993
 20
144.627004
 30
0.0
  0
LWPOLYLINE
  5
312
100
AcDbEntity
  8
ink_ext_XXXXXX
 62
7
100
AcDbPolyline
 90
3
 70
0
 10
269.710993
 20
102.053005
 30
0.0
 10
271.549993
 20
98.862505
 30
0.0
 10
273.390993
 20
102.053005
 30
0.0
  0
SPLINE
  5
313
100
AcDbEntity
  8
ink_ext_XXXXXX
 62
7
100
AcDbSpline
 70
8
 71
3
 72
8
 73
4
 74
0
 40
0
 40
0
 40
0
 40
0
 40
1
 40
1
 40
1
 40
1
 10
269.710993
 20
144.627004
 30
0.0
 10
265.919993
 20
138.059004
 30
0.0
 10
264.005993
 20
130.705004
 30
0.0
 10
263.971993
 20
123.341004
 30
0.0
  0
LWPOLYLINE
  5
314
100
AcDbEntity
  8
ink_ext_XXXXXX
 62
7
100
AcDbPolyline
 90
3
 70
0
 10
273.390993
 20
144.627004
 30
0.0
 10
271.549993
 20
147.816004
 30
0.0
 10
269.710993
 20
144.627004
 30
0.0
  0
LWPOLYLINE
  5
315
100
AcDbEntity
  8
ink_ext_XXXXXX
 62
7
100
AcDbPolyline
 90
1
 70
1
 10
263.971993
 20
123.341004
 30
0.0
  0
SPLINE
  5
316
100
AcDbEntity
  8
ink_ext_XXXXXX
 62
7
100
AcDbSpline
 70
8
 71
3
 72
8
 73
4
 74
0
 40
0
 40
0
 40
0
 40
0
 40
1
 40
1
 40
1
 40
1
 10
83.654698
 20
87.876605
 30
0.0
 10
80.837498
 20
98.204705
 30
0.0
 10
72.615598
 20
106.134005
 30
0.0
 10
62.193798
 20
108.566005
 30
0.0
  0
LWPOLYLINE
  5
317
100
AcDbEntity
  8
ink_ext_XXXXXX
 62
7
100
AcDbPolyline
 90
4
 70
0
 10
252.157994
 20
89.996905
 30
0.0
 10
254.568994
 20
85.818805
 30
0.0
 10
84.212498
 20
85.818805
 30
0.0
 10
83.654698
 20
87.876605
 30
0.0
  0
SPLINE
  5
318
100
AcDbEntity
  8
ink_ext_XXXXXX
 62
7
100
AcDbSpline
 70
8
 71
3
 72
8
 73
4
 74
0
 40
0
 40
0
 40
0
 40
0
 40
1
 40
1
 40
1
 40
1
 10
60.168798
 20
110.447005
 30
0.0
 10
58.842199
 20
114.716005
 30
0.0
 10
56.290599
 20
118.502005
 30
0.0
 10
52.789099
 20
121.388004
 30
0.0
  0
LWPOLYLINE
  5
319
100
AcDbEntity
  8
ink_ext_XXXXXX
 62
7
100
AcDbPolyline
 90
3
 70
0
 10
62.193798
 20
108.566005
 30
0.0
 10
60.642198
 20
108.923005
 30
0.0
 10
60.168798
 20
110.447005
 30
0.0
  0
SPLINE
  5
31a
100
AcDbEntity
  8
ink_ext_XXXXXX
 62
7
100
AcDbSpline
 70
8
 71
3
 72
8
 73
4
 74
0
 40
0
 40
0
 40
0
 40
0
 40
1
 40
1
 40
1
 40
1
 10
52.789099
 20
125.291004
 30
0.0
 10
56.290599
 20
128.178004
 30
0.0
 10
58.842199
 20
131.964004
 30
0.0
 10
60.168798
 20
136.233004
 30
0.0
  0
LWPOLYLINE
  5
31b
100
AcDbEntity
  8
ink_ext_XXXXXX
 62
7
100
AcDbPolyline
 90
3
 70
0
 10
52.789099
 20
121.388004
 30
0.0
 10
50.424999
 20
123.341004
 30
0.0
 10
52.789099
 20
125.291004
 30
0.0
  0
SPLINE
  5
31c
100
AcDbEntity
  8
ink_ext_XXXXXX
 62
7
100
AcDbSpline
 70
8
 71
3
 72
8
 73
4
 74
0
 40
0
 40
0
 40
0
 40
0
 40
1
 40
1
 40
1
 40
1
 10
62.193798
 20
138.113004
 30
0.0
 10
72.615598
 20
140.545004
 30
0.0
 10
80.837498
 20
148.475004
 30
0.0
 10
83.654698
 20
158.802004
 30
0.0
  0
LWPOLYLINE
  5
31d
100
AcDbEntity
  8
ink_ext_XXXXXX
 62
7
100
AcDbPolyline
 90
3
 70
0
 10
60.168798
 20
136.233004
 30
0.0
 10
60.642198
 20
137.756004
 30
0.0
 10
62.193798
 20
138.113004
 30
0.0
  0
SPLINE
  5
31e
100
AcDbEntity
  8
ink_ext_XXXXXX
 62
7
100
AcDbSpline
 70
8
 71
3
 72
8
 73
4
 74
0
 40
0
 40
0
 40
0
 40
0
 40
1
 40
1
 40
1
 40
1
 10
251.327994
 20
155.247004
 30
0.0
 10
248.324994
 20
150.044004
 30
0.0
 10
246.069994
 20
144.439004
 30
0.0
 10
244.626994
 20
138.594004
 30
0.0
  0
SPLINE
  5
31f
100
AcDbEntity
  8
ink_ext_XXXXXX
 62
7
100
AcDbSpline
 70
8
 71
3
 72
8
 73
4
 74
0
 40
0
 40
0
 40
0
 40
0
 40
1
 40
1
 40
1
 40
1
 10
244.626994
 20
138.594004
 30
0.0
 10
244.190994
 20
136.830004
 30
0.0
 10
243.824994
 20
135.003004
 30
0.0
 10
243.537994
 20
133.167004
 30
0.0
  0
SPLINE
  5
320
100
AcDbEntity
  8
ink_ext_XXXXXX
 62
7
100
AcDbSpline
 70
8
 71
3
 72
8
 73
4
 74
0
 40
0
 40
0
 40
0
 40
0
 40
1
 40
1
 40
1
 40
1
 10
243.537994
 20
133.167004
 30
0.0
 10
243.024994
 20
129.908004
 30
0.0
 10
242.763994
 20
126.623004
 30
0.0
 10
242.752994
 20
123.341004
 30
0.0
  0
SPLINE
  5
321
100
AcDbEntity
  8
ink_ext_XXXXXX
 62
7
100
AcDbSpline
 70
8
 71
3
 72
8
 73
4
 74
0
 40
0
 40
0
 40
0
 40
0
 40
1
 40
1
 40
1
 40
1
 10
242.752994
 20
123.341004
 30
0.0
 10
242.763994
 20
120.055004
 30
0.0
 10
243.024994
 20
116.770005
 30
0.0
 10
243.537994
 20
113.513005
 30
0.0
  0
SPLINE
  5
322
100
AcDbEntity
  8
ink_ext_XXXXXX
 62
7
100
AcDbSpline
 70
8
 71
3
 72
8
 73
4
 74
0
 40
0
 40
0
 40
0
 40
0
 40
1
 40
1
 40
1
 40
1
 10
243.537994
 20
113.513005
 30
0.0
 10
243.824994
 20
111.675005
 30
0.0
 10
244.190994
 20
109.850005
 30
0.0
 10
244.626994
 20
108.084005
 30
0.0
  0
SPLINE
  5
323
100
AcDbEntity
  8
ink_ext_XXXXXX
 62
7
100
AcDbSpline
 70
8
 71
3
 72
8
 73
4
 74
0
 40
0
 40
0
 40
0
 40
0
 40
1
 40
1
 40
1
 40
1
 10
244.626994
 20
108.084005
 30
0.0
 10
246.069994
 20
102.241005
 30
0.0
 10
248.324994
 20
96.635905
 30
0.0
 10
251.327994
 20
91.431305
 30
0.0
  0
LWPOLYLINE
  5
324
100
AcDbEntity
  8
ink_ext_XXXXXX
 62
7
100
AcDbPolyline
 90
5
 70
0
 10
83.654698
 20
158.802004
 30
0.0
 10
84.212498
 20
160.861003
 30
0.0
 10
254.568994
 20
160.861003
 30
0.0
 10
252.157994
 20
156.681004
 30
0.0
 10
251.327994
 20
155.247004
 30
0.0
  0
SPLINE
  5
325
100
AcDbEntity
  8
ink_ext_XXXXXX
 62
7
100
AcDbSpline
 70
8
 71
3
 72
8
 73
4
 74
0
 40
0
 40
0
 40
0
 40
0
 40
1
 40
1
 40
1
 40
1
 10
54.793799
 20
123.341004
 30
0.0
 10
58.523399
 20
120.189004
 30
0.0
 10
61.356298
 20
116.006005
 30
0.0
 10
62.826598
 20
111.275005
 30
0.0
  0
SPLINE
  5
326
100
AcDbEntity
  8
ink_ext_XXXXXX
 62
7
100
AcDbSpline
 70
8
 71
3
 72
8
 73
4
 74
0
 40
0
 40
0
 40
0
 40
0
 40
1
 40
1
 40
1
 40
1
 10
62.826598
 20
111.275005
 30
0.0
 10
74.196898
 20
108.619005
 30
0.0
 10
83.279698
 20
99.825005
 30
0.0
 10
86.337498
 20
88.607805
 30
0.0
  0
LWPOLYLINE
  5
327
100
AcDbEntity
  8
ink_ext_XXXXXX
 62
7
100
AcDbPolyline
 90
2
 70
0
 10
251.327994
 20
91.431305
 30
0.0
 10
252.157994
 20
89.996905
 30
0.0
  0
SPLINE
  5
328
100
AcDbEntity
  8
ink_ext_XXXXXX
 62
7
100
AcDbSpline
 70
8
 71
3
 72
8
 73
4
 74
0
 40
0
 40
0
 40
0
 40
0
 40
1
 40
1
 40
1
 40
1
 10
248.918994
 20
90.042205
 30
0.0
 10
245.783994
 20
95.478105
 30
0.0
 10
243.430994
 20
101.322005
 30
0.0
 10
241.927994
 20
107.425005
 30
0.0
  0
SPLINE
  5
329
100
AcDbEntity
  8
ink_ext_XXXXXX
 62
7
100
AcDbSpline
 70
8
 71
3
 72
8
 73
4
 74
0
 40
0
 40
0
 40
0
 40
0
 40
1
 40
1
 40
1
 40
1
 10
241.927994
 20
107.425005
 30
0.0
 10
241.469994
 20
109.261005
 30
0.0
 10
241.090994
 20
111.169005
 30
0.0
 10
240.788994
 20
113.075005
 30
0.0
  0
SPLINE
  5
32a
100
AcDbEntity
  8
ink_ext_XXXXXX
 62
7
100
AcDbSpline
 70
8
 71
3
 72
8
 73
4
 74
0
 40
0
 40
0
 40
0
 40
0
 40
1
 40
1
 40
1
 40
1
 10
240.788994
 20
113.075005
 30
0.0
 10
240.252994
 20
116.481005
 30
0.0
 10
239.982994
 20
119.909005
 30
0.0
 10
239.969994
 20
123.341004
 30
0.0
  0
SPLINE
  5
32b
100
AcDbEntity
  8
ink_ext_XXXXXX
 62
7
100
AcDbSpline
 70
8
 71
3
 72
8
 73
4
 74
0
 40
0
 40
0
 40
0
 40
0
 40
1
 40
1
 40
1
 40
1
 10
239.969994
 20
123.341004
 30
0.0
 10
239.982994
 20
126.769004
 30
0.0
 10
240.252994
 20
130.198004
 30
0.0
 10
240.788994
 20
133.603004
 30
0.0
  0
SPLINE
  5
32c
100
AcDbEntity
  8
ink_ext_XXXXXX
 62
7
100
AcDbSpline
 70
8
 71
3
 72
8
 73
4
 74
0
 40
0
 40
0
 40
0
 40
0
 40
1
 40
1
 40
1
 40
1
 10
240.788994
 20
133.603004
 30
0.0
 10
241.090994
 20
135.511004
 30
0.0
 10
241.469994
 20
137.419004
 30
0.0
 10
241.927994
 20
139.253004
 30
0.0
  0
SPLINE
  5
32d
100
AcDbEntity
  8
ink_ext_XXXXXX
 62
7
100
AcDbSpline
 70
8
 71
3
 72
8
 73
4
 74
0
 40
0
 40
0
 40
0
 40
0
 40
1
 40
1
 40
1
 40
1
 10
241.927994
 20
139.253004
 30
0.0
 10
243.430994
 20
145.356004
 30
0.0
 10
245.783994
 20
151.202004
 30
0.0
 10
248.918994
 20
156.638004
 30
0.0
  0
LWPOLYLINE
  5
32e
100
AcDbEntity
  8
ink_ext_XXXXXX
 62
7
100
AcDbPolyline
 90
3
 70
0
 10
86.337498
 20
88.607805
 30
0.0
 10
249.749994
 20
88.607805
 30
0.0
 10
248.918994
 20
90.042205
 30
0.0
  0
SPLINE
  5
32f
100
AcDbEntity
  8
ink_ext_XXXXXX
 62
7
100
AcDbSpline
 70
8
 71
3
 72
8
 73
4
 74
0
 40
0
 40
0
 40
0
 40
0
 40
1
 40
1
 40
1
 40
1
 10
86.337498
 20
158.072004
 30
0.0
 10
83.279698
 20
146.853004
 30
0.0
 10
74.196898
 20
138.059004
 30
0.0
 10
62.826598
 20
135.403004
 30
0.0
  0
SPLINE
  5
330
100
AcDbEntity
  8
ink_ext_XXXXXX
 62
7
100
AcDbSpline
 70
8
 71
3
 72
8
 73
4
 74
0
 40
0
 40
0
 40
0
 40
0
 40
1
 40
1
 40
1
 40
1
 10
62.826598
 20
135.403004
 30
0.0
 10
61.356298
 20
130.673004
 30
0.0
 10
58.523399
 20
126.491004
 30
0.0
 10
54.793799
 20
123.341004
 30
0.0
  0
LWPOLYLINE
  5
331
100
AcDbEntity
  8
ink_ext_XXXXXX
 62
7
100
AcDbPolyline
 90
3
 70
0
 10
248.918994
 20
156.638004
 30
0.0
 10
249.749994
 20
158.072004
 30
0.0
 10
86.337498
 20
158.072004
 30
0.0
  0
LWPOLYLINE
  5
332
100
AcDbEntity
  8
ink_ext_XXXXXX
 62
7
100
AcDbPolyline
 90
1
 70
1
 10
54.793799
 20
123.341004
 30
0.0
  0
SPLINE
  5
333
100
AcDbEntity
  8
ink_ext_XXXXXX
 62
7
100
AcDbSpline
 70
8
 71
3
 72
8
 73
4
 74
0
 40
0
 40
0
 40
0
 40
0
 40
1
 40
1
 40
1
 40
1
 10
88.609398
 20
93.481305
 30
0.0
 10
84.659398
 20
103.336005
 30
0.0
 10
76.596898
 20
110.856005
 30
0.0
 10
66.490598
 20
114.100005
 30
0.0
  0
LWPOLYLINE
  5
334
100
AcDbEntity
  8
ink_ext_XXXXXX
 62
7
100
AcDbPolyline
 90
4
 70
0
 10
242.288994
 20
94.915605
 30
0.0
 10
243.440994
 20
92.314105
 30
0.0
 10
89.076598
 20
92.314105
 30
0.0
 10
88.609398
 20
93.481305
 30
0.0
  0
SPLINE
  5
335
100
AcDbEntity
  8
ink_ext_XXXXXX
 62
7
100
AcDbSpline
 70
8
 71
3
 72
8
 73
4
 74
0
 40
0
 40
0
 40
0
 40
0
 40
1
 40
1
 40
1
 40
1
 10
65.351598
 20
115.142005
 30
0.0
 10
64.246898
 20
117.744005
 30
0.0
 10
62.771898
 20
120.167004
 30
0.0
 10
60.967198
 20
122.350004
 30
0.0
  0
LWPOLYLINE
  5
336
100
AcDbEntity
  8
ink_ext_XXXXXX
 62
7
100
AcDbPolyline
 90
3
 70
0
 10
66.490598
 20
114.100005
 30
0.0
 10
65.684398
 20
114.367005
 30
0.0
 10
65.351598
 20
115.142005
 30
0.0
  0
SPLINE
  5
337
100
AcDbEntity
  8
ink_ext_XXXXXX
 62
7
100
AcDbSpline
 70
8
 71
3
 72
8
 73
4
 74
0
 40
0
 40
0
 40
0
 40
0
 40
1
 40
1
 40
1
 40
1
 10
60.967198
 20
124.328004
 30
0.0
 10
62.771898
 20
126.513004
 30
0.0
 10
64.246898
 20
128.934004
 30
0.0
 10
65.351598
 20
131.536004
 30
0.0
  0
LWPOLYLINE
  5
338
100
AcDbEntity
  8
ink_ext_XXXXXX
 62
7
100
AcDbPolyline
 90
3
 70
0
 10
60.967198
 20
122.350004
 30
0.0
 10
60.153098
 20
123.341004
 30
0.0
 10
60.967198
 20
124.328004
 30
0.0
  0
SPLINE
  5
339
100
AcDbEntity
  8
ink_ext_XXXXXX
 62
7
100
AcDbSpline
 70
8
 71
3
 72
8
 73
4
 74
0
 40
0
 40
0
 40
0
 40
0
 40
1
 40
1
 40
1
 40
1
 10
66.490598
 20
132.580004
 30
0.0
 10
76.596898
 20
135.822004
 30
0.0
 10
84.659398
 20
143.342004
 30
0.0
 10
88.609398
 20
153.197004
 30
0.0
  0
LWPOLYLINE
  5
33a
100
AcDbEntity
  8
ink_ext_XXXXXX
 62
7
100
AcDbPolyline
 90
3
 70
0
 10
65.351598
 20
131.536004
 30
0.0
 10
65.684398
 20
132.311004
 30
0.0
 10
66.490598
 20
132.580004
 30
0.0
  0
SPLINE
  5
33b
100
AcDbEntity
  8
ink_ext_XXXXXX
 62
7
100
AcDbSpline
 70
8
 71
3
 72
8
 73
4
 74
0
 40
0
 40
0
 40
0
 40
0
 40
1
 40
1
 40
1
 40
1
 10
242.288994
 20
151.763004
 30
0.0
 10
240.638994
 20
148.030004
 30
0.0
 10
239.305994
 20
144.119004
 30
0.0
 10
238.326994
 20
140.144004
 30
0.0
  0
SPLINE
  5
33c
100
AcDbEntity
  8
ink_ext_XXXXXX
 62
7
100
AcDbSpline
 70
8
 71
3
 72
8
 73
4
 74
0
 40
0
 40
0
 40
0
 40
0
 40
1
 40
1
 40
1
 40
1
 10
238.326994
 20
140.144004
 30
0.0
 10
237.844994
 20
138.202004
 30
0.0
 10
237.440994
 20
136.197004
 30
0.0
 10
237.124994
 20
134.173004
 30
0.0
  0
SPLINE
  5
33d
100
AcDbEntity
  8
ink_ext_XXXXXX
 62
7
100
AcDbSpline
 70
8
 71
3
 72
8
 73
4
 74
0
 40
0
 40
0
 40
0
 40
0
 40
1
 40
1
 40
1
 40
1
 10
237.124994
 20
134.173004
 30
0.0
 10
236.558994
 20
130.581004
 30
0.0
 10
236.271994
 20
126.961004
 30
0.0
 10
236.262994
 20
123.341004
 30
0.0
  0
SPLINE
  5
33e
100
AcDbEntity
  8
ink_ext_XXXXXX
 62
7
100
AcDbSpline
 70
8
 71
3
 72
8
 73
4
 74
0
 40
0
 40
0
 40
0
 40
0
 40
1
 40
1
 40
1
 40
1
 10
236.262994
 20
123.341004
 30
0.0
 10
236.271994
 20
119.717005
 30
0.0
 10
236.558994
 20
116.097005
 30
0.0
 10
237.124994
 20
112.505005
 30
0.0
  0
SPLINE
  5
33f
100
AcDbEntity
  8
ink_ext_XXXXXX
 62
7
100
AcDbSpline
 70
8
 71
3
 72
8
 73
4
 74
0
 40
0
 40
0
 40
0
 40
0
 40
1
 40
1
 40
1
 40
1
 10
237.124994
 20
112.505005
 30
0.0
 10
237.440994
 20
110.483005
 30
0.0
 10
237.844994
 20
108.478005
 30
0.0
 10
238.326994
 20
106.534005
 30
0.0
  0
SPLINE
  5
340
100
AcDbEntity
  8
ink_ext_XXXXXX
 62
7
100
AcDbSpline
 70
8
 71
3
 72
8
 73
4
 74
0
 40
0
 40
0
 40
0
 40
0
 40
1
 40
1
 40
1
 40
1
 10
238.326994
 20
106.534005
 30
0.0
 10
239.305994
 20
102.561005
 30
0.0
 10
240.638994
 20
98.650005
 30
0.0
 10
242.288994
 20
94.915605
 30
0.0
  0
LWPOLYLINE
  5
341
100
AcDbEntity
  8
ink_ext_XXXXXX
 62
7
100
AcDbPolyline
 90
4
 70
0
 10
88.609398
 20
153.197004
 30
0.0
 10
89.076598
 20
154.364004
 30
0.0
 10
243.440994
 20
154.364004
 30
0.0
 10
242.288994
 20
151.763004
 30
0.0
  0
SPLINE
  5
342
100
AcDbEntity
  8
ink_ext_XXXXXX
 62
7
100
AcDbSpline
 70
8
 71
3
 72
8
 73
4
 74
0
 40
0
 40
0
 40
0
 40
0
 40
1
 40
1
 40
1
 40
1
 10
64.903098
 20
123.341004
 30
0.0
 10
66.284398
 20
121.470004
 30
0.0
 10
67.465598
 20
119.478005
 30
0.0
 10
68.423398
 20
117.369005
 30
0.0
  0
SPLINE
  5
343
100
AcDbEntity
  8
ink_ext_XXXXXX
 62
7
100
AcDbSpline
 70
8
 71
3
 72
8
 73
4
 74
0
 40
0
 40
0
 40
0
 40
0
 40
1
 40
1
 40
1
 40
1
 10
68.423398
 20
117.369005
 30
0.0
 10
78.814098
 20
113.788005
 30
0.0
 10
87.159398
 20
106.080005
 30
0.0
 10
91.564098
 20
96.020305
 30
0.0
  0
LWPOLYLINE
  5
344
100
AcDbEntity
  8
ink_ext_XXXXXX
 62
7
100
AcDbPolyline
 90
1
 70
1
 10
242.288994
 20
94.915605
 30
0.0
  0
SPLINE
  5
345
100
AcDbEntity
  8
ink_ext_XXXXXX
 62
7
100
AcDbSpline
 70
8
 71
3
 72
8
 73
4
 74
0
 40
0
 40
0
 40
0
 40
0
 40
1
 40
1
 40
1
 40
1
 10
237.804994
 20
96.020305
 30
0.0
 10
236.562994
 20
99.148405
 30
0.0
 10
235.529994
 20
102.373005
 30
0.0
 10
234.724994
 20
105.644005
 30
0.0
  0
SPLINE
  5
346
100
AcDbEntity
  8
ink_ext_XXXXXX
 62
7
100
AcDbSpline
 70
8
 71
3
 72
8
 73
4
 74
0
 40
0
 40
0
 40
0
 40
0
 40
1
 40
1
 40
1
 40
1
 10
234.724994
 20
105.644005
 30
0.0
 10
234.218994
 20
107.694005
 30
0.0
 10
233.793994
 20
109.805005
 30
0.0
 10
233.460994
 20
111.925005
 30
0.0
  0
SPLINE
  5
347
100
AcDbEntity
  8
ink_ext_XXXXXX
 62
7
100
AcDbSpline
 70
8
 71
3
 72
8
 73
4
 74
0
 40
0
 40
0
 40
0
 40
0
 40
1
 40
1
 40
1
 40
1
 10
233.460994
 20
111.925005
 30
0.0
 10
232.865994
 20
115.714005
 30
0.0
 10
232.562994
 20
119.527005
 30
0.0
 10
232.552994
 20
123.341004
 30
0.0
  0
SPLINE
  5
348
100
AcDbEntity
  8
ink_ext_XXXXXX
 62
7
100
AcDbSpline
 70
8
 71
3
 72
8
 73
4
 74
0
 40
0
 40
0
 40
0
 40
0
 40
1
 40
1
 40
1
 40
1
 10
232.552994
 20
123.341004
 30
0.0
 10
232.562994
 20
127.153004
 30
0.0
 10
232.865994
 20
130.966004
 30
0.0
 10
233.460994
 20
134.753004
 30
0.0
  0
SPLINE
  5
349
100
AcDbEntity
  8
ink_ext_XXXXXX
 62
7
100
AcDbSpline
 70
8
 71
3
 72
8
 73
4
 74
0
 40
0
 40
0
 40
0
 40
0
 40
1
 40
1
 40
1
 40
1
 10
233.460994
 20
134.753004
 30
0.0
 10
233.793994
 20
136.873004
 30
0.0
 10
234.218994
 20
138.986004
 30
0.0
 10
234.724994
 20
141.034004
 30
0.0
  0
SPLINE
  5
34a
100
AcDbEntity
  8
ink_ext_XXXXXX
 62
7
100
AcDbSpline
 70
8
 71
3
 72
8
 73
4
 74
0
 40
0
 40
0
 40
0
 40
0
 40
1
 40
1
 40
1
 40
1
 10
234.724994
 20
141.034004
 30
0.0
 10
235.529994
 20
144.305004
 30
0.0
 10
236.562994
 20
147.530004
 30
0.0
 10
237.804994
 20
150.658004
 30
0.0
  0
LWPOLYLINE
  5
34b
100
AcDbEntity
  8
ink_ext_XXXXXX
 62
7
100
AcDbPolyline
 90
2
 70
0
 10
91.564098
 20
96.020305
 30
0.0
 10
237.804994
 20
96.020305
 30
0.0
  0
SPLINE
  5
34c
100
AcDbEntity
  8
ink_ext_XXXXXX
 62
7
100
AcDbSpline
 70
8
 71
3
 72
8
 73
4
 74
0
 40
0
 40
0
 40
0
 40
0
 40
1
 40
1
 40
1
 40
1
 10
91.564098
 20
150.658004
 30
0.0
 10
87.159398
 20
140.598004
 30
0.0
 10
78.814098
 20
132.892004
 30
0.0
 10
68.423398
 20
129.309004
 30
0.0
  0
SPLINE
  5
34d
100
AcDbEntity
  8
ink_ext_XXXXXX
 62
7
100
AcDbSpline
 70
8
 71
3
 72
8
 73
4
 74
0
 40
0
 40
0
 40
0
 40
0
 40
1
 40
1
 40
1
 40
1
 10
68.423398
 20
129.309004
 30
0.0
 10
67.465598
 20
127.200004
 30
0.0
 10
66.284398
 20
125.208004
 30
0.0
 10
64.903098
 20
123.341004
 30
0.0
  0
LWPOLYLINE
  5
34e
100
AcDbEntity
  8
ink_ext_XXXXXX
 62
7
100
AcDbPolyline
 90
2
 70
0
 10
237.804994
 20
150.658004
 30
0.0
 10
91.564098
 20
150.658004
 30
0.0
  0
SPLINE
  5
34f
100
AcDbEntity
  8
ink_ext_XXXXXX
 62
7
100
AcDbSpline
 70
8
 71
3
 72
8
 73
4
 74
0
 40
0
 40
0
 40
0
 40
0
 40
1
 40
1
 40
1
 40
1
 10
20.309399
 20
123.341004
 30
0.0
 10
20.203099
 20
118.013005
 30
0.0
 10
15.837500
 20
113.708005
 30
0.0
 10
10.482800
 20
113.708005
 30
0.0
  0
SPLINE
  5
350
100
AcDbEntity
  8
ink_ext_XXXXXX
 62
7
100
AcDbSpline
 70
8
 71
3
 72
8
 73
4
 74
0
 40
0
 40
0
 40
0
 40
0
 40
1
 40
1
 40
1
 40
1
 10
10.482800
 20
113.708005
 30
0.0
 10
5.128130
 20
113.708005
 30
0.0
 10
0.762500
 20
118.013005
 30
0.0
 10
0.656250
 20
123.339004
 30
0.0
  0
LWPOLYLINE
  5
351
100
AcDbEntity
  8
ink_ext_XXXXXX
 62
7
100
AcDbPolyline
 90
1
 70
1
 10
64.903098
 20
123.341004
 30
0.0
  0
SPLINE
  5
352
100
AcDbEntity
  8
ink_ext_XXXXXX
 62
7
100
AcDbSpline
 70
8
 71
3
 72
8
 73
4
 74
0
 40
0
 40
0
 40
0
 40
0
 40
1
 40
1
 40
1
 40
1
 10
0.656250
 20
123.341004
 30
0.0
 10
0.762500
 20
128.667004
 30
0.0
 10
5.128130
 20
132.972004
 30
0.0
 10
10.482800
 20
132.972004
 30
0.0
  0
SPLINE
  5
353
100
AcDbEntity
  8
ink_ext_XXXXXX
 62
7
100
AcDbSpline
 70
8
 71
3
 72
8
 73
4
 74
0
 40
0
 40
0
 40
0
 40
0
 40
1
 40
1
 40
1
 40
1
 10
10.482800
 20
132.972004
 30
0.0
 10
15.837500
 20
132.972004
 30
0.0
 10
20.203099
 20
128.667004
 30
0.0
 10
20.309399
 20
123.341004
 30
0.0
  0
LWPOLYLINE
  5
354
100
AcDbEntity
  8
ink_ext_XXXXXX
 62
7
100
AcDbPolyline
 90
3
 70
0
 10
0.656250
 20
123.339004
 30
0.0
 10
0.656250
 20
123.341004
 30
0.0
 10
0.656250
 20
123.341004
 30
0.0
  0
SPLINE
  5
355
100
AcDbEntity
  8
ink_ext_XXXXXX
 62
7
100
AcDbSpline
 70
8
 71
3
 72
8
 73
4
 74
0
 40
0
 40
0
 40
0
 40
0
 40
1
 40
1
 40
1
 40
1
 10
5.478130
 20
123.341004
 30
0.0
 10
5.581250
 20
120.669004
 30
0.0
 10
7.787500
 20
118.528005
 30
0.0
 10
10.482800
 20
118.528005
 30
0.0
  0
SPLINE
  5
356
100
AcDbEntity
  8
ink_ext_XXXXXX
 62
7
100
AcDbSpline
 70
8
 71
3
 72
8
 73
4
 74
0
 40
0
 40
0
 40
0
 40
0
 40
1
 40
1
 40
1
 40
1
 10
10.482800
 20
118.528005
 30
0.0
 10
13.178100
 20
118.528005
 30
0.0
 10
15.382800
 20
120.669004
 30
0.0
 10
15.485900
 20
123.341004
 30
0.0
  0
SPLINE
  5
357
100
AcDbEntity
  8
ink_ext_XXXXXX
 62
7
100
AcDbSpline
 70
8
 71
3
 72
8
 73
4
 74
0
 40
0
 40
0
 40
0
 40
0
 40
1
 40
1
 40
1
 40
1
 10
15.485900
 20
123.341004
 30
0.0
 10
15.382800
 20
126.011004
 30
0.0
 10
13.178100
 20
128.152004
 30
0.0
 10
10.482800
 20
128.152004
 30
0.0
  0
SPLINE
  5
358
100
AcDbEntity
  8
ink_ext_XXXXXX
 62
7
100
AcDbSpline
 70
8
 71
3
 72
8
 73
4
 74
0
 40
0
 40
0
 40
0
 40
0
 40
1
 40
1
 40
1
 40
1
 10
10.482800
 20
128.152004
 30
0.0
 10
7.787500
 20
128.152004
 30
0.0
 10
5.581250
 20
126.011004
 30
0.0
 10
5.478130
 20
123.341004
 30
0.0
  0
LWPOLYLINE
  5
359
100
AcDbEntity
  8
ink_ext_XXXXXX
 62
7
100
AcDbPolyline
 90
1
 70
1
 10
20.309399
 20
123.341004
 30
0.0
  0
SPLINE
  5
35a
100
AcDbEntity
  8
ink_ext_XXXXXX
 62
7
100
AcDbSpline
 70
8
 71
3
 72
8
 73
4
 74
0
 40
0
 40
0
 40
0
 40
0
 40
1
 40
1
 40
1
 40
1
 10
729.155982
 20
113.708005
 30
0.0
 10
723.802982
 20
113.708005
 30
0.0
 10
719.435982
 20
118.013005
 30
0.0
 10
719.329982
 20
123.341004
 30
0.0
  0
SPLINE
  5
35b
100
AcDbEntity
  8
ink_ext_XXXXXX
 62
7
100
AcDbSpline
 70
8
 71
3
 72
8
 73
4
 74
0
 40
0
 40
0
 40
0
 40
0
 40
1
 40
1
 40
1
 40
1
 10
719.329982
 20
123.341004
 30
0.0
 10
719.435982
 20
128.667004
 30
0.0
 10
723.802982
 20
132.972004
 30
0.0
 10
729.155982
 20
132.972004
 30
0.0
  0
SPLINE
  5
35c
100
AcDbEntity
  8
ink_ext_XXXXXX
 62
7
100
AcDbSpline
 70
8
 71
3
 72
8
 73
4
 74
0
 40
0
 40
0
 40
0
 40
0
 40
1
 40
1
 40
1
 40
1
 10
729.155982
 20
132.972004
 30
0.0
 10
734.508982
 20
132.972004
 30
0.0
 10
738.877982
 20
128.667004
 30
0.0
 10
738.983982
 20
123.341004
 30
0.0
  0
LWPOLYLINE
  5
35d
100
AcDbEntity
  8
ink_ext_XXXXXX
 62
7
100
AcDbPolyline
 90
1
 70
1
 10
5.478130
 20
123.341004
 30
0.0
  0
SPLINE
  5
35e
100
AcDbEntity
  8
ink_ext_XXXXXX
 62
7
100
AcDbSpline
 70
8
 71
3
 72
8
 73
4
 74
0
 40
0
 40
0
 40
0
 40
0
 40
1
 40
1
 40
1
 40
1
 10
738.983982
 20
123.339004
 30
0.0
 10
738.877982
 20
118.013005
 30
0.0
 10
734.508982
 20
113.708005
 30
0.0
 10
729.155982
 20
113.708005
 30
0.0
  0
LWPOLYLINE
  5
35f
100
AcDbEntity
  8
ink_ext_XXXXXX
 62
7
100
AcDbPolyline
 90
3
 70
0
 10
738.983982
 20
123.341004
 30
0.0
 10
738.983982
 20
123.341004
 30
0.0
 10
738.983982
 20
123.339004
 30
0.0
  0
SPLINE
  5
360
100
AcDbEntity
  8
ink_ext_XXXXXX
 62
7
100
AcDbSpline
 70
8
 71
3
 72
8
 73
4
 74
0
 40
0
 40
0
 40
0
 40
0
 40
1
 40
1
 40
1
 40
1
 10
724.152982
 20
123.341004
 30
0.0
 10
724.255982
 20
120.669004
 30
0.0
 10
726.460982
 20
118.528005
 30
0.0
 10
729.155982
 20
118.528005
 30
0.0
  0
SPLINE
  5
361
100
AcDbEntity
  8
ink_ext_XXXXXX
 62
7
100
AcDbSpline
 70
8
 71
3
 72
8
 73
4
 74
0
 40
0
 40
0
 40
0
 40
0
 40
1
 40
1
 40
1
 40
1
 10
729.155982
 20
118.528005
 30
0.0
 10
731.851982
 20
118.528005
 30
0.0
 10
734.055982
 20
120.669004
 30
0.0
 10
734.158982
 20
123.341004
 30
0.0
  0
SPLINE
  5
362
100
AcDbEntity
  8
ink_ext_XXXXXX
 62
7
100
AcDbSpline
 70
8
 71
3
 72
8
 73
4
 74
0
 40
0
 40
0
 40
0
 40
0
 40
1
 40
1
 40
1
 40
1
 10
734.158982
 20
123.341004
 30
0.0
 10
734.055982
 20
126.011004
 30
0.0
 10
731.851982
 20
128.152004
 30
0.0
 10
729.155982
 20
128.152004
 30
0.0
  0
SPLINE
  5
363
100
AcDbEntity
  8
ink_ext_XXXXXX
 62
7
100
AcDbSpline
 70
8
 71
3
 72
8
 73
4
 74
0
 40
0
 40
0
 40
0
 40
0
 40
1
 40
1
 40
1
 40
1
 10
729.155982
 20
128.152004
 30
0.0
 10
726.460982
 20
128.152004
 30
0.0
 10
724.255982
 20
126.011004
 30
0.0
 10
724.152982
 20
123.341004
 30
0.0
  0
LWPOLYLINE
  5
364
100
AcDbEntity
  8
ink_ext_XXXXXX
 62
7
100
AcDbPolyline
 90
1
 70
1
 10
729.155982
 20
113.708005
 30
0.0
  0
SPLINE
  5
365
100
AcDbEntity
  8
ink_ext_XXXXXX
 62
7
100
AcDbSpline
 70
8
 71
3
 72
8
 73
4
 74
0
 40
0
 40
0
 40
0
 40
0
 40
1
 40
1
 40
1
 40
1
 10
278.696993
 20
186.388003
 30
0.0
 10
277.949993
 20
187.178003
 30
0.0
 10
288.096993
 20
203.706002
 30
0.0
 10
289.362993
 20
205.902002
 30
0.0
  0
SPLINE
  5
366
100
AcDbEntity
  8
ink_ext_XXXXXX
 62
7
100
AcDbSpline
 70
8
 71
3
 72
8
 73
4
 74
0
 40
0
 40
0
 40
0
 40
0
 40
1
 40
1
 40
1
 40
1
 10
289.362993
 20
205.902002
 30
0.0
 10
299.440993
 20
223.356002
 30
0.0
 10
318.218992
 20
234.191002
 30
0.0
 10
338.371992
 20
234.200002
 30
0.0
  0
LWPOLYLINE
  5
367
100
AcDbEntity
  8
ink_ext_XXXXXX
 62
7
100
AcDbPolyline
 90
1
 70
1
 10
724.152982
 20
123.341004
 30
0.0
  0
SPLINE
  5
368
100
AcDbEntity
  8
ink_ext_XXXXXX
 62
7
100
AcDbSpline
 70
8
 71
3
 72
8
 73
4
 74
0
 40
0
 40
0
 40
0
 40
0
 40
1
 40
1
 40
1
 40
1
 10
360.440991
 20
234.200002
 30
0.0
 10
360.662991
 20
233.339002
 30
0.0
 10
360.999991
 20
232.522002
 30
0.0
 10
361.435991
 20
231.775002
 30
0.0
  0
LWPOLYLINE
  5
369
100
AcDbEntity
  8
ink_ext_XXXXXX
 62
7
100
AcDbPolyline
 90
2
 70
0
 10
338.371992
 20
234.200002
 30
0.0
 10
360.440991
 20
234.200002
 30
0.0
  0
SPLINE
  5
36a
100
AcDbEntity
  8
ink_ext_XXXXXX
 62
7
100
AcDbSpline
 70
8
 71
3
 72
8
 73
4
 74
0
 40
0
 40
0
 40
0
 40
0
 40
1
 40
1
 40
1
 40
1
 10
361.435991
 20
231.777002
 30
0.0
 10
361.435991
 20
231.775002
 30
0.0
 10
361.437991
 20
231.772002
 30
0.0
 10
361.437991
 20
231.772002
 30
0.0
  0
SPLINE
  5
36b
100
AcDbEntity
  8
ink_ext_XXXXXX
 62
7
100
AcDbSpline
 70
8
 71
3
 72
8
 73
4
 74
0
 40
0
 40
0
 40
0
 40
0
 40
1
 40
1
 40
1
 40
1
 10
361.437991
 20
231.772002
 30
0.0
 10
361.437991
 20
231.770002
 30
0.0
 10
361.438991
 20
231.769002
 30
0.0
 10
361.438991
 20
231.767002
 30
0.0
  0
LWPOLYLINE
  5
36c
100
AcDbEntity
  8
ink_ext_XXXXXX
 62
7
100
AcDbPolyline
 90
3
 70
0
 10
361.435991
 20
231.775002
 30
0.0
 10
361.435991
 20
231.777002
 30
0.0
 10
361.435991
 20
231.777002
 30
0.0
  0
SPLINE
  5
36d
100
AcDbEntity
  8
ink_ext_XXXXXX
 62
7
100
AcDbSpline
 70
8
 71
3
 72
8
 73
4
 74
0
 40
0
 40
0
 40
0
 40
0
 40
1
 40
1
 40
1
 40
1
 10
361.438991
 20
231.767002
 30
0.0
 10
361.462991
 20
231.723002
 30
0.0
 10
361.487991
 20
231.688002
 30
0.0
 10
361.512991
 20
231.653002
 30
0.0
  0
SPLINE
  5
36e
100
AcDbEntity
  8
ink_ext_XXXXXX
 62
7
100
AcDbSpline
 70
8
 71
3
 72
8
 73
4
 74
0
 40
0
 40
0
 40
0
 40
0
 40
1
 40
1
 40
1
 40
1
 10
361.512991
 20
231.653002
 30
0.0
 10
361.599991
 20
231.509002
 30
0.0
 10
361.687991
 20
231.358002
 30
0.0
 10
361.780991
 20
231.216002
 30
0.0
  0
SPLINE
  5
36f
100
AcDbEntity
  8
ink_ext_XXXXXX
 62
7
100
AcDbSpline
 70
8
 71
3
 72
8
 73
4
 74
0
 40
0
 40
0
 40
0
 40
0
 40
1
 40
1
 40
1
 40
1
 10
361.780991
 20
231.216002
 30
0.0
 10
361.688991
 20
231.358002
 30
0.0
 10
361.602991
 20
231.500002
 30
0.0
 10
361.518991
 20
231.642002
 30
0.0
  0
SPLINE
  5
370
100
AcDbEntity
  8
ink_ext_XXXXXX
 62
7
100
AcDbSpline
 70
8
 71
3
 72
8
 73
4
 74
0
 40
0
 40
0
 40
0
 40
0
 40
1
 40
1
 40
1
 40
1
 10
361.518991
 20
231.642002
 30
0.0
 10
361.929991
 20
230.956002
 30
0.0
 10
362.421991
 20
230.333002
 30
0.0
 10
362.982991
 20
229.772002
 30
0.0
  0
SPLINE
  5
371
100
AcDbEntity
  8
ink_ext_XXXXXX
 62
7
100
AcDbSpline
 70
8
 71
3
 72
8
 73
4
 74
0
 40
0
 40
0
 40
0
 40
0
 40
1
 40
1
 40
1
 40
1
 10
362.982991
 20
229.772002
 30
0.0
 10
362.868991
 20
229.878002
 30
0.0
 10
362.758991
 20
229.994002
 30
0.0
 10
362.652991
 20
230.111002
 30
0.0
  0
SPLINE
  5
372
100
AcDbEntity
  8
ink_ext_XXXXXX
 62
7
100
AcDbSpline
 70
8
 71
3
 72
8
 73
4
 74
0
 40
0
 40
0
 40
0
 40
0
 40
1
 40
1
 40
1
 40
1
 10
362.652991
 20
230.111002
 30
0.0
 10
362.774991
 20
229.977002
 30
0.0
 10
362.899991
 20
229.842002
 30
0.0
 10
363.029991
 20
229.717002
 30
0.0
  0
SPLINE
  5
373
100
AcDbEntity
  8
ink_ext_XXXXXX
 62
7
100
AcDbSpline
 70
8
 71
3
 72
8
 73
4
 74
0
 40
0
 40
0
 40
0
 40
0
 40
1
 40
1
 40
1
 40
1
 10
363.029991
 20
229.717002
 30
0.0
 10
363.032991
 20
229.717002
 30
0.0
 10
363.037991
 20
229.709002
 30
0.0
 10
363.040991
 20
229.709002
 30
0.0
  0
LWPOLYLINE
  5
374
100
AcDbEntity
  8
ink_ext_XXXXXX
 62
7
100
AcDbPolyline
 90
1
 70
1
 10
361.438991
 20
231.767002
 30
0.0
  0
SPLINE
  5
375
100
AcDbEntity
  8
ink_ext_XXXXXX
 62
7
100
AcDbSpline
 70
8
 71
3
 72
8
 73
4
 74
0
 40
0
 40
0
 40
0
 40
0
 40
1
 40
1
 40
1
 40
1
 10
352.001991
 20
210.588002
 30
0.0
 10
341.927991
 20
193.133003
 30
0.0
 10
323.147992
 20
182.289003
 30
0.0
 10
302.996992
 20
182.289003
 30
0.0
  0
LWPOLYLINE
  5
376
100
AcDbEntity
  8
ink_ext_XXXXXX
 62
7
100
AcDbPolyline
 90
3
 70
0
 10
363.040991
 20
229.709002
 30
0.0
 10
363.040991
 20
229.709002
 30
0.0
 10
352.001991
 20
210.588002
 30
0.0
  0
SPLINE
  5
377
100
AcDbEntity
  8
ink_ext_XXXXXX
 62
7
100
AcDbSpline
 70
8
 71
3
 72
8
 73
4
 74
0
 40
0
 40
0
 40
0
 40
0
 40
1
 40
1
 40
1
 40
1
 10
280.921993
 20
182.289003
 30
0.0
 10
280.897993
 20
182.378003
 30
0.0
 10
280.868993
 20
182.467003
 30
0.0
 10
280.843993
 20
182.556003
 30
0.0
  0
SPLINE
  5
378
100
AcDbEntity
  8
ink_ext_XXXXXX
 62
7
100
AcDbSpline
 70
8
 71
3
 72
8
 73
4
 74
0
 40
0
 40
0
 40
0
 40
0
 40
1
 40
1
 40
1
 40
1
 10
280.843993
 20
182.556003
 30
0.0
 10
280.818993
 20
182.645003
 30
0.0
 10
280.794993
 20
182.734003
 30
0.0
 10
280.766993
 20
182.816003
 30
0.0
  0
SPLINE
  5
379
100
AcDbEntity
  8
ink_ext_XXXXXX
 62
7
100
AcDbSpline
 70
8
 71
3
 72
8
 73
4
 74
0
 40
0
 40
0
 40
0
 40
0
 40
1
 40
1
 40
1
 40
1
 10
280.766993
 20
182.816003
 30
0.0
 10
280.733993
 20
182.922003
 30
0.0
 10
280.696993
 20
183.019003
 30
0.0
 10
280.662993
 20
183.127003
 30
0.0
  0
SPLINE
  5
37a
100
AcDbEntity
  8
ink_ext_XXXXXX
 62
7
100
AcDbSpline
 70
8
 71
3
 72
8
 73
4
 74
0
 40
0
 40
0
 40
0
 40
0
 40
1
 40
1
 40
1
 40
1
 10
280.662993
 20
183.127003
 30
0.0
 10
280.632993
 20
183.198003
 30
0.0
 10
280.605993
 20
183.278003
 30
0.0
 10
280.574993
 20
183.358003
 30
0.0
  0
SPLINE
  5
37b
100
AcDbEntity
  8
ink_ext_XXXXXX
 62
7
100
AcDbSpline
 70
8
 71
3
 72
8
 73
4
 74
0
 40
0
 40
0
 40
0
 40
0
 40
1
 40
1
 40
1
 40
1
 10
280.574993
 20
183.358003
 30
0.0
 10
280.533993
 20
183.456003
 30
0.0
 10
280.497993
 20
183.555003
 30
0.0
 10
280.454993
 20
183.653003
 30
0.0
  0
SPLINE
  5
37c
100
AcDbEntity
  8
ink_ext_XXXXXX
 62
7
100
AcDbSpline
 70
8
 71
3
 72
8
 73
4
 74
0
 40
0
 40
0
 40
0
 40
0
 40
1
 40
1
 40
1
 40
1
 10
280.454993
 20
183.653003
 30
0.0
 10
280.419993
 20
183.742003
 30
0.0
 10
280.377993
 20
183.822003
 30
0.0
 10
280.340993
 20
183.911003
 30
0.0
  0
SPLINE
  5
37d
100
AcDbEntity
  8
ink_ext_XXXXXX
 62
7
100
AcDbSpline
 70
8
 71
3
 72
8
 73
4
 74
0
 40
0
 40
0
 40
0
 40
0
 40
1
 40
1
 40
1
 40
1
 10
280.340993
 20
183.911003
 30
0.0
 10
280.268993
 20
184.063003
 30
0.0
 10
280.194993
 20
184.214003
 30
0.0
 10
280.115993
 20
184.366003
 30
0.0
  0
SPLINE
  5
37e
100
AcDbEntity
  8
ink_ext_XXXXXX
 62
7
100
AcDbSpline
 70
8
 71
3
 72
8
 73
4
 74
0
 40
0
 40
0
 40
0
 40
0
 40
1
 40
1
 40
1
 40
1
 10
280.115993
 20
184.366003
 30
0.0
 10
280.074993
 20
184.445003
 30
0.0
 10
280.032993
 20
184.525003
 30
0.0
 10
279.990993
 20
184.597003
 30
0.0
  0
SPLINE
  5
37f
100
AcDbEntity
  8
ink_ext_XXXXXX
 62
7
100
AcDbSpline
 70
8
 71
3
 72
8
 73
4
 74
0
 40
0
 40
0
 40
0
 40
0
 40
1
 40
1
 40
1
 40
1
 10
279.990993
 20
184.597003
 30
0.0
 10
279.938993
 20
184.686003
 30
0.0
 10
279.888993
 20
184.775003
 30
0.0
 10
279.835993
 20
184.864003
 30
0.0
  0
SPLINE
  5
380
100
AcDbEntity
  8
ink_ext_XXXXXX
 62
7
100
AcDbSpline
 70
8
 71
3
 72
8
 73
4
 74
0
 40
0
 40
0
 40
0
 40
0
 40
1
 40
1
 40
1
 40
1
 10
279.835993
 20
184.864003
 30
0.0
 10
279.787993
 20
184.944003
 30
0.0
 10
279.737993
 20
185.025003
 30
0.0
 10
279.687993
 20
185.095003
 30
0.0
  0
SPLINE
  5
381
100
AcDbEntity
  8
ink_ext_XXXXXX
 62
7
100
AcDbSpline
 70
8
 71
3
 72
8
 73
4
 74
0
 40
0
 40
0
 40
0
 40
0
 40
1
 40
1
 40
1
 40
1
 10
279.687993
 20
185.095003
 30
0.0
 10
279.637993
 20
185.177003
 30
0.0
 10
279.585993
 20
185.256003
 30
0.0
 10
279.530993
 20
185.338003
 30
0.0
  0
SPLINE
  5
382
100
AcDbEntity
  8
ink_ext_XXXXXX
 62
7
100
AcDbSpline
 70
8
 71
3
 72
8
 73
4
 74
0
 40
0
 40
0
 40
0
 40
0
 40
1
 40
1
 40
1
 40
1
 10
279.530993
 20
185.338003
 30
0.0
 10
279.437993
 20
185.480003
 30
0.0
 10
279.340993
 20
185.613003
 30
0.0
 10
279.237993
 20
185.738003
 30
0.0
  0
SPLINE
  5
383
100
AcDbEntity
  8
ink_ext_XXXXXX
 62
7
100
AcDbSpline
 70
8
 71
3
 72
8
 73
4
 74
0
 40
0
 40
0
 40
0
 40
0
 40
1
 40
1
 40
1
 40
1
 10
279.237993
 20
185.738003
 30
0.0
 10
279.183993
 20
185.809003
 30
0.0
 10
279.126993
 20
185.880003
 30
0.0
 10
279.069993
 20
185.952003
 30
0.0
  0
SPLINE
  5
384
100
AcDbEntity
  8
ink_ext_XXXXXX
 62
7
100
AcDbSpline
 70
8
 71
3
 72
8
 73
4
 74
0
 40
0
 40
0
 40
0
 40
0
 40
1
 40
1
 40
1
 40
1
 10
279.069993
 20
185.952003
 30
0.0
 10
279.005993
 20
186.031003
 30
0.0
 10
278.938993
 20
186.111003
 30
0.0
 10
278.872993
 20
186.192003
 30
0.0
  0
SPLINE
  5
385
100
AcDbEntity
  8
ink_ext_XXXXXX
 62
7
100
AcDbSpline
 70
8
 71
3
 72
8
 73
4
 74
0
 40
0
 40
0
 40
0
 40
0
 40
1
 40
1
 40
1
 40
1
 10
278.872993
 20
186.192003
 30
0.0
 10
278.813993
 20
186.253003
 30
0.0
 10
278.755993
 20
186.325003
 30
0.0
 10
278.696993
 20
186.388003
 30
0.0
  0
LWPOLYLINE
  5
386
100
AcDbEntity
  8
ink_ext_XXXXXX
 62
7
100
AcDbPolyline
 90
2
 70
0
 10
302.996992
 20
182.289003
 30
0.0
 10
280.921993
 20
182.289003
 30
0.0
  0
LWPOLYLINE
  5
387
100
AcDbEntity
  8
ink_ext_XXXXXX
 62
7
100
AcDbPolyline
 90
1
 70
1
 10
278.696993
 20
186.388003
 30
0.0
  0
SPLINE
  5
388
100
AcDbEntity
  8
ink_ext_XXXXXX
 62
7
100
AcDbSpline
 70
8
 71
3
 72
8
 73
4
 74
0
 40
0
 40
0
 40
0
 40
0
 40
1
 40
1
 40
1
 40
1
 10
302.996992
 20
177.459003
 30
0.0
 10
323.147992
 20
177.459003
 30
0.0
 10
341.927991
 20
166.625003
 30
0.0
 10
352.001991
 20
149.170004
 30
0.0
  0
LWPOLYLINE
  5
389
100
AcDbEntity
  8
ink_ext_XXXXXX
 62
7
100
AcDbPolyline
 90
2
 70
0
 10
280.921993
 20
177.459003
 30
0.0
 10
302.996992
 20
177.459003
 30
0.0
  0
SPLINE
  5
38a
100
AcDbEntity
  8
ink_ext_XXXXXX
 62
7
100
AcDbSpline
 70
8
 71
3
 72
8
 73
4
 74
0
 40
0
 40
0
 40
0
 40
0
 40
1
 40
1
 40
1
 40
1
 10
363.043991
 20
130.048004
 30
0.0
 10
361.805991
 20
128.828004
 30
0.0
 10
360.890991
 20
127.286004
 30
0.0
 10
360.444991
 20
125.558004
 30
0.0
  0
LWPOLYLINE
  5
38b
100
AcDbEntity
  8
ink_ext_XXXXXX
 62
7
100
AcDbPolyline
 90
2
 70
0
 10
352.001991
 20
149.170004
 30
0.0
 10
363.043991
 20
130.048004
 30
0.0
  0
SPLINE
  5
38c
100
AcDbEntity
  8
ink_ext_XXXXXX
 62
7
100
AcDbSpline
 70
8
 71
3
 72
8
 73
4
 74
0
 40
0
 40
0
 40
0
 40
0
 40
1
 40
1
 40
1
 40
1
 10
338.371992
 20
125.558004
 30
0.0
 10
318.218992
 20
125.558004
 30
0.0
 10
299.440993
 20
136.402004
 30
0.0
 10
289.362993
 20
153.856004
 30
0.0
  0
LWPOLYLINE
  5
38d
100
AcDbEntity
  8
ink_ext_XXXXXX
 62
7
100
AcDbPolyline
 90
2
 70
0
 10
360.444991
 20
125.558004
 30
0.0
 10
338.371992
 20
125.558004
 30
0.0
  0
SPLINE
  5
38e
100
AcDbEntity
  8
ink_ext_XXXXXX
 62
7
100
AcDbSpline
 70
8
 71
3
 72
8
 73
4
 74
0
 40
0
 40
0
 40
0
 40
0
 40
1
 40
1
 40
1
 40
1
 10
278.349993
 20
173.005003
 30
0.0
 10
278.483993
 20
173.139003
 30
0.0
 10
278.615993
 20
173.272003
 30
0.0
 10
278.743993
 20
173.416003
 30
0.0
  0
SPLINE
  5
38f
100
AcDbEntity
  8
ink_ext_XXXXXX
 62
7
100
AcDbSpline
 70
8
 71
3
 72
8
 73
4
 74
0
 40
0
 40
0
 40
0
 40
0
 40
1
 40
1
 40
1
 40
1
 10
278.743993
 20
173.416003
 30
0.0
 10
278.774993
 20
173.450003
 30
0.0
 10
278.805993
 20
173.486003
 30
0.0
 10
278.840993
 20
173.530003
 30
0.0
  0
SPLINE
  5
390
100
AcDbEntity
  8
ink_ext_XXXXXX
 62
7
100
AcDbSpline
 70
8
 71
3
 72
8
 73
4
 74
0
 40
0
 40
0
 40
0
 40
0
 40
1
 40
1
 40
1
 40
1
 10
278.840993
 20
173.530003
 30
0.0
 10
278.935993
 20
173.638003
 30
0.0
 10
279.029993
 20
173.753003
 30
0.0
 10
279.118993
 20
173.861003
 30
0.0
  0
SPLINE
  5
391
100
AcDbEntity
  8
ink_ext_XXXXXX
 62
7
100
AcDbSpline
 70
8
 71
3
 72
8
 73
4
 74
0
 40
0
 40
0
 40
0
 40
0
 40
1
 40
1
 40
1
 40
1
 10
279.118993
 20
173.861003
 30
0.0
 10
279.158993
 20
173.914003
 30
0.0
 10
279.199993
 20
173.958003
 30
0.0
 10
279.237993
 20
174.013003
 30
0.0
  0
SPLINE
  5
392
100
AcDbEntity
  8
ink_ext_XXXXXX
 62
7
100
AcDbSpline
 70
8
 71
3
 72
8
 73
4
 74
0
 40
0
 40
0
 40
0
 40
0
 40
1
 40
1
 40
1
 40
1
 10
279.237993
 20
174.013003
 30
0.0
 10
279.337993
 20
174.145003
 30
0.0
 10
279.433993
 20
174.270003
 30
0.0
 10
279.524993
 20
174.413003
 30
0.0
  0
SPLINE
  5
393
100
AcDbEntity
  8
ink_ext_XXXXXX
 62
7
100
AcDbSpline
 70
8
 71
3
 72
8
 73
4
 74
0
 40
0
 40
0
 40
0
 40
0
 40
1
 40
1
 40
1
 40
1
 10
279.524993
 20
174.413003
 30
0.0
 10
279.558993
 20
174.456003
 30
0.0
 10
279.591993
 20
174.511003
 30
0.0
 10
279.624993
 20
174.556003
 30
0.0
  0
SPLINE
  5
394
100
AcDbEntity
  8
ink_ext_XXXXXX
 62
7
100
AcDbSpline
 70
8
 71
3
 72
8
 73
4
 74
0
 40
0
 40
0
 40
0
 40
0
 40
1
 40
1
 40
1
 40
1
 10
279.624993
 20
174.556003
 30
0.0
 10
279.705993
 20
174.680003
 30
0.0
 10
279.788993
 20
174.814003
 30
0.0
 10
279.865993
 20
174.939003
 30
0.0
  0
SPLINE
  5
395
100
AcDbEntity
  8
ink_ext_XXXXXX
 62
7
100
AcDbSpline
 70
8
 71
3
 72
8
 73
4
 74
0
 40
0
 40
0
 40
0
 40
0
 40
1
 40
1
 40
1
 40
1
 10
279.865993
 20
174.939003
 30
0.0
 10
279.905993
 20
175.009003
 30
0.0
 10
279.944993
 20
175.081003
 30
0.0
 10
279.983993
 20
175.144003
 30
0.0
  0
SPLINE
  5
396
100
AcDbEntity
  8
ink_ext_XXXXXX
 62
7
100
AcDbSpline
 70
8
 71
3
 72
8
 73
4
 74
0
 40
0
 40
0
 40
0
 40
0
 40
1
 40
1
 40
1
 40
1
 10
279.983993
 20
175.144003
 30
0.0
 10
280.040993
 20
175.250003
 30
0.0
 10
280.094993
 20
175.347003
 30
0.0
 10
280.147993
 20
175.455003
 30
0.0
  0
SPLINE
  5
397
100
AcDbEntity
  8
ink_ext_XXXXXX
 62
7
100
AcDbSpline
 70
8
 71
3
 72
8
 73
4
 74
0
 40
0
 40
0
 40
0
 40
0
 40
1
 40
1
 40
1
 40
1
 10
280.147993
 20
175.455003
 30
0.0
 10
280.185993
 20
175.527003
 30
0.0
 10
280.224993
 20
175.597003
 30
0.0
 10
280.258993
 20
175.669003
 30
0.0
  0
SPLINE
  5
398
100
AcDbEntity
  8
ink_ext_XXXXXX
 62
7
100
AcDbSpline
 70
8
 71
3
 72
8
 73
4
 74
0
 40
0
 40
0
 40
0
 40
0
 40
1
 40
1
 40
1
 40
1
 10
280.258993
 20
175.669003
 30
0.0
 10
280.333993
 20
175.820003
 30
0.0
 10
280.404993
 20
175.972003
 30
0.0
 10
280.469993
 20
176.133003
 30
0.0
  0
SPLINE
  5
399
100
AcDbEntity
  8
ink_ext_XXXXXX
 62
7
100
AcDbSpline
 70
8
 71
3
 72
8
 73
4
 74
0
 40
0
 40
0
 40
0
 40
0
 40
1
 40
1
 40
1
 40
1
 10
280.469993
 20
176.133003
 30
0.0
 10
280.505993
 20
176.213003
 30
0.0
 10
280.537993
 20
176.302003
 30
0.0
 10
280.569993
 20
176.381003
 30
0.0
  0
SPLINE
  5
39a
100
AcDbEntity
  8
ink_ext_XXXXXX
 62
7
100
AcDbSpline
 70
8
 71
3
 72
8
 73
4
 74
0
 40
0
 40
0
 40
0
 40
0
 40
1
 40
1
 40
1
 40
1
 10
280.569993
 20
176.381003
 30
0.0
 10
280.605993
 20
176.480003
 30
0.0
 10
280.640993
 20
176.569003
 30
0.0
 10
280.672993
 20
176.667003
 30
0.0
  0
SPLINE
  5
39b
100
AcDbEntity
  8
ink_ext_XXXXXX
 62
7
100
AcDbSpline
 70
8
 71
3
 72
8
 73
4
 74
0
 40
0
 40
0
 40
0
 40
0
 40
1
 40
1
 40
1
 40
1
 10
280.672993
 20
176.667003
 30
0.0
 10
280.705993
 20
176.756003
 30
0.0
 10
280.737993
 20
176.855003
 30
0.0
 10
280.766993
 20
176.944003
 30
0.0
  0
SPLINE
  5
39c
100
AcDbEntity
  8
ink_ext_XXXXXX
 62
7
100
AcDbSpline
 70
8
 71
3
 72
8
 73
4
 74
0
 40
0
 40
0
 40
0
 40
0
 40
1
 40
1
 40
1
 40
1
 10
280.766993
 20
176.944003
 30
0.0
 10
280.799993
 20
177.041003
 30
0.0
 10
280.827993
 20
177.148003
 30
0.0
 10
280.857993
 20
177.247003
 30
0.0
  0
SPLINE
  5
39d
100
AcDbEntity
  8
ink_ext_XXXXXX
 62
7
100
AcDbSpline
 70
8
 71
3
 72
8
 73
4
 74
0
 40
0
 40
0
 40
0
 40
0
 40
1
 40
1
 40
1
 40
1
 10
280.857993
 20
177.247003
 30
0.0
 10
280.877993
 20
177.317003
 30
0.0
 10
280.902993
 20
177.389003
 30
0.0
 10
280.921993
 20
177.459003
 30
0.0
  0
LWPOLYLINE
  5
39e
100
AcDbEntity
  8
ink_ext_XXXXXX
 62
7
100
AcDbPolyline
 90
4
 70
0
 10
289.362993
 20
153.856004
 30
0.0
 10
278.321993
 20
172.978003
 30
0.0
 10
278.324993
 20
172.978003
 30
0.0
 10
278.349993
 20
173.005003
 30
0.0
  0
SPLINE
  5
39f
100
AcDbEntity
  8
ink_ext_XXXXXX
 62
7
100
AcDbSpline
 70
8
 71
3
 72
8
 73
4
 74
0
 40
0
 40
0
 40
0
 40
0
 40
1
 40
1
 40
1
 40
1
 10
325.007992
 20
181.567003
 30
0.0
 10
331.008992
 20
183.884003
 30
0.0
 10
336.621992
 20
187.119003
 30
0.0
 10
341.622991
 20
191.155003
 30
0.0
  0
LWPOLYLINE
  5
3a0
100
AcDbEntity
  8
ink_ext_XXXXXX
 62
7
100
AcDbPolyline
 90
1
 70
1
 10
280.921993
 20
177.459003
 30
0.0
  0
LWPOLYLINE
  5
3a1
100
AcDbEntity
  8
ink_ext_XXXXXX
 62
7
100
AcDbPolyline
 90
3
 70
0
 10
341.622991
 20
191.155003
 30
0.0
 10
336.085992
 20
181.567003
 30
0.0
 10
325.007992
 20
181.567003
 30
0.0
  0
SPLINE
  5
3a2
100
AcDbEntity
  8
ink_ext_XXXXXX
 62
7
100
AcDbSpline
 70
8
 71
3
 72
8
 73
4
 74
0
 40
0
 40
0
 40
0
 40
0
 40
1
 40
1
 40
1
 40
1
 10
344.552991
 20
189.470003
 30
0.0
 10
343.552991
 20
183.119003
 30
0.0
 10
343.552991
 20
176.641003
 30
0.0
 10
344.552991
 20
170.288003
 30
0.0
  0
LWPOLYLINE
  5
3a3
100
AcDbEntity
  8
ink_ext_XXXXXX
 62
7
100
AcDbPolyline
 90
2
 70
0
 10
339.012992
 20
179.873003
 30
0.0
 10
344.552991
 20
189.470003
 30
0.0
  0
SPLINE
  5
3a4
100
AcDbEntity
  8
ink_ext_XXXXXX
 62
7
100
AcDbSpline
 70
8
 71
3
 72
8
 73
4
 74
0
 40
0
 40
0
 40
0
 40
0
 40
1
 40
1
 40
1
 40
1
 10
356.185991
 20
151.584004
 30
0.0
 10
346.108991
 20
169.041003
 30
0.0
 10
346.108991
 20
190.719003
 30
0.0
 10
356.185991
 20
208.173002
 30
0.0
  0
LWPOLYLINE
  5
3a5
100
AcDbEntity
  8
ink_ext_XXXXXX
 62
7
100
AcDbPolyline
 90
2
 70
0
 10
344.552991
 20
170.288003
 30
0.0
 10
339.012992
 20
179.873003
 30
0.0
  0
SPLINE
  5
3a6
100
AcDbEntity
  8
ink_ext_XXXXXX
 62
7
100
AcDbSpline
 70
8
 71
3
 72
8
 73
4
 74
0
 40
0
 40
0
 40
0
 40
0
 40
1
 40
1
 40
1
 40
1
 10
367.221991
 20
227.286002
 30
0.0
 10
367.449991
 20
227.223002
 30
0.0
 10
367.677991
 20
227.170002
 30
0.0
 10
367.907991
 20
227.125002
 30
0.0
  0
SPLINE
  5
3a7
100
AcDbEntity
  8
ink_ext_XXXXXX
 62
7
100
AcDbSpline
 70
8
 71
3
 72
8
 73
4
 74
0
 40
0
 40
0
 40
0
 40
0
 40
1
 40
1
 40
1
 40
1
 10
367.907991
 20
227.125002
 30
0.0
 10
367.933991
 20
227.125002
 30
0.0
 10
367.958991
 20
227.116002
 30
0.0
 10
367.982991
 20
227.116002
 30
0.0
  0
SPLINE
  5
3a8
100
AcDbEntity
  8
ink_ext_XXXXXX
 62
7
100
AcDbSpline
 70
8
 71
3
 72
8
 73
4
 74
0
 40
0
 40
0
 40
0
 40
0
 40
1
 40
1
 40
1
 40
1
 10
367.982991
 20
227.116002
 30
0.0
 10
368.154991
 20
227.081002
 30
0.0
 10
368.324991
 20
227.045002
 30
0.0
 10
368.497991
 20
227.028002
 30
0.0
  0
SPLINE
  5
3a9
100
AcDbEntity
  8
ink_ext_XXXXXX
 62
7
100
AcDbSpline
 70
8
 71
3
 72
8
 73
4
 74
0
 40
0
 40
0
 40
0
 40
0
 40
1
 40
1
 40
1
 40
1
 10
368.497991
 20
227.028002
 30
0.0
 10
368.508991
 20
227.019002
 30
0.0
 10
368.521991
 20
227.019002
 30
0.0
 10
368.532991
 20
227.019002
 30
0.0
  0
SPLINE
  5
3aa
100
AcDbEntity
  8
ink_ext_XXXXXX
 62
7
100
AcDbSpline
 70
8
 71
3
 72
8
 73
4
 74
0
 40
0
 40
0
 40
0
 40
0
 40
1
 40
1
 40
1
 40
1
 10
368.532991
 20
227.019002
 30
0.0
 10
368.547991
 20
227.019002
 30
0.0
 10
368.563991
 20
227.017002
 30
0.0
 10
368.579991
 20
227.017002
 30
0.0
  0
SPLINE
  5
3ab
100
AcDbEntity
  8
ink_ext_XXXXXX
 62
7
100
AcDbSpline
 70
8
 71
3
 72
8
 73
4
 74
0
 40
0
 40
0
 40
0
 40
0
 40
1
 40
1
 40
1
 40
1
 10
368.579991
 20
227.017002
 30
0.0
 10
368.576991
 20
227.017002
 30
0.0
 10
368.574991
 20
227.017002
 30
0.0
 10
368.569991
 20
227.019002
 30
0.0
  0
SPLINE
  5
3ac
100
AcDbEntity
  8
ink_ext_XXXXXX
 62
7
100
AcDbSpline
 70
8
 71
3
 72
8
 73
4
 74
0
 40
0
 40
0
 40
0
 40
0
 40
1
 40
1
 40
1
 40
1
 10
368.569991
 20
227.019002
 30
0.0
 10
368.579991
 20
227.017002
 30
0.0
 10
368.591991
 20
227.016002
 30
0.0
 10
368.601991
 20
227.014002
 30
0.0
  0
SPLINE
  5
3ad
100
AcDbEntity
  8
ink_ext_XXXXXX
 62
7
100
AcDbSpline
 70
8
 71
3
 72
8
 73
4
 74
0
 40
0
 40
0
 40
0
 40
0
 40
1
 40
1
 40
1
 40
1
 10
368.601991
 20
227.014002
 30
0.0
 10
368.626991
 20
227.013002
 30
0.0
 10
368.652991
 20
227.009002
 30
0.0
 10
368.677991
 20
227.009002
 30
0.0
  0
SPLINE
  5
3ae
100
AcDbEntity
  8
ink_ext_XXXXXX
 62
7
100
AcDbSpline
 70
8
 71
3
 72
8
 73
4
 74
0
 40
0
 40
0
 40
0
 40
0
 40
1
 40
1
 40
1
 40
1
 10
368.677991
 20
227.009002
 30
0.0
 10
368.663991
 20
227.009002
 30
0.0
 10
368.649991
 20
227.009002
 30
0.0
 10
368.633991
 20
227.011002
 30
0.0
  0
SPLINE
  5
3af
100
AcDbEntity
  8
ink_ext_XXXXXX
 62
7
100
AcDbSpline
 70
8
 71
3
 72
8
 73
4
 74
0
 40
0
 40
0
 40
0
 40
0
 40
1
 40
1
 40
1
 40
1
 10
368.633991
 20
227.011002
 30
0.0
 10
369.021991
 20
226.963002
 30
0.0
 10
369.412991
 20
226.930002
 30
0.0
 10
369.805991
 20
226.930002
 30
0.0
  0
LWPOLYLINE
  5
3b0
100
AcDbEntity
  8
ink_ext_XXXXXX
 62
7
100
AcDbPolyline
 90
2
 70
0
 10
356.185991
 20
208.173002
 30
0.0
 10
367.221991
 20
227.286002
 30
0.0
  0
SPLINE
  5
3b1
100
AcDbEntity
  8
ink_ext_XXXXXX
 62
7
100
AcDbSpline
 70
8
 71
3
 72
8
 73
4
 74
0
 40
0
 40
0
 40
0
 40
0
 40
1
 40
1
 40
1
 40
1
 10
369.830991
 20
226.930002
 30
0.0
 10
370.226991
 20
226.930002
 30
0.0
 10
370.616991
 20
226.963002
 30
0.0
 10
371.002991
 20
227.011002
 30
0.0
  0
SPLINE
  5
3b2
100
AcDbEntity
  8
ink_ext_XXXXXX
 62
7
100
AcDbSpline
 70
8
 71
3
 72
8
 73
4
 74
0
 40
0
 40
0
 40
0
 40
0
 40
1
 40
1
 40
1
 40
1
 10
371.002991
 20
227.011002
 30
0.0
 10
370.990991
 20
227.009002
 30
0.0
 10
370.974991
 20
227.009002
 30
0.0
 10
370.960991
 20
227.009002
 30
0.0
  0
SPLINE
  5
3b3
100
AcDbEntity
  8
ink_ext_XXXXXX
 62
7
100
AcDbSpline
 70
8
 71
3
 72
8
 73
4
 74
0
 40
0
 40
0
 40
0
 40
0
 40
1
 40
1
 40
1
 40
1
 10
370.960991
 20
227.009002
 30
0.0
 10
370.985991
 20
227.009002
 30
0.0
 10
371.012991
 20
227.013002
 30
0.0
 10
371.037991
 20
227.014002
 30
0.0
  0
SPLINE
  5
3b4
100
AcDbEntity
  8
ink_ext_XXXXXX
 62
7
100
AcDbSpline
 70
8
 71
3
 72
8
 73
4
 74
0
 40
0
 40
0
 40
0
 40
0
 40
1
 40
1
 40
1
 40
1
 10
371.037991
 20
227.014002
 30
0.0
 10
371.046991
 20
227.016002
 30
0.0
 10
371.058991
 20
227.017002
 30
0.0
 10
371.068991
 20
227.019002
 30
0.0
  0
SPLINE
  5
3b5
100
AcDbEntity
  8
ink_ext_XXXXXX
 62
7
100
AcDbSpline
 70
8
 71
3
 72
8
 73
4
 74
0
 40
0
 40
0
 40
0
 40
0
 40
1
 40
1
 40
1
 40
1
 10
371.068991
 20
227.019002
 30
0.0
 10
371.065991
 20
227.017002
 30
0.0
 10
371.062991
 20
227.017002
 30
0.0
 10
371.058991
 20
227.017002
 30
0.0
  0
SPLINE
  5
3b6
100
AcDbEntity
  8
ink_ext_XXXXXX
 62
7
100
AcDbSpline
 70
8
 71
3
 72
8
 73
4
 74
0
 40
0
 40
0
 40
0
 40
0
 40
1
 40
1
 40
1
 40
1
 10
371.058991
 20
227.017002
 30
0.0
 10
371.071991
 20
227.017002
 30
0.0
 10
371.085991
 20
227.019002
 30
0.0
 10
371.099991
 20
227.019002
 30
0.0
  0
SPLINE
  5
3b7
100
AcDbEntity
  8
ink_ext_XXXXXX
 62
7
100
AcDbSpline
 70
8
 71
3
 72
8
 73
4
 74
0
 40
0
 40
0
 40
0
 40
0
 40
1
 40
1
 40
1
 40
1
 10
371.099991
 20
227.019002
 30
0.0
 10
371.112991
 20
227.019002
 30
0.0
 10
371.126991
 20
227.019002
 30
0.0
 10
371.140991
 20
227.028002
 30
0.0
  0
SPLINE
  5
3b8
100
AcDbEntity
  8
ink_ext_XXXXXX
 62
7
100
AcDbSpline
 70
8
 71
3
 72
8
 73
4
 74
0
 40
0
 40
0
 40
0
 40
0
 40
1
 40
1
 40
1
 40
1
 10
371.140991
 20
227.028002
 30
0.0
 10
371.313991
 20
227.045002
 30
0.0
 10
371.483991
 20
227.081002
 30
0.0
 10
371.655991
 20
227.116002
 30
0.0
  0
SPLINE
  5
3b9
100
AcDbEntity
  8
ink_ext_XXXXXX
 62
7
100
AcDbSpline
 70
8
 71
3
 72
8
 73
4
 74
0
 40
0
 40
0
 40
0
 40
0
 40
1
 40
1
 40
1
 40
1
 10
371.655991
 20
227.116002
 30
0.0
 10
371.680991
 20
227.116002
 30
0.0
 10
371.704991
 20
227.125002
 30
0.0
 10
371.730991
 20
227.125002
 30
0.0
  0
SPLINE
  5
3ba
100
AcDbEntity
  8
ink_ext_XXXXXX
 62
7
100
AcDbSpline
 70
8
 71
3
 72
8
 73
4
 74
0
 40
0
 40
0
 40
0
 40
0
 40
1
 40
1
 40
1
 40
1
 10
371.730991
 20
227.125002
 30
0.0
 10
371.960991
 20
227.170002
 30
0.0
 10
372.190991
 20
227.223002
 30
0.0
 10
372.415991
 20
227.286002
 30
0.0
  0
LWPOLYLINE
  5
3bb
100
AcDbEntity
  8
ink_ext_XXXXXX
 62
7
100
AcDbPolyline
 90
6
 70
0
 10
369.805991
 20
226.930002
 30
0.0
 10
369.812991
 20
226.930002
 30
0.0
 10
369.815991
 20
226.930002
 30
0.0
 10
369.824991
 20
226.930002
 30
0.0
 10
369.827991
 20
226.930002
 30
0.0
 10
369.830991
 20
226.930002
 30
0.0
  0
SPLINE
  5
3bc
100
AcDbEntity
  8
ink_ext_XXXXXX
 62
7
100
AcDbSpline
 70
8
 71
3
 72
8
 73
4
 74
0
 40
0
 40
0
 40
0
 40
0
 40
1
 40
1
 40
1
 40
1
 10
383.452990
 20
208.173002
 30
0.0
 10
393.529990
 20
190.719003
 30
0.0
 10
393.529990
 20
169.041003
 30
0.0
 10
383.452990
 20
151.584004
 30
0.0
  0
LWPOLYLINE
  5
3bd
100
AcDbEntity
  8
ink_ext_XXXXXX
 62
7
100
AcDbPolyline
 90
2
 70
0
 10
372.415991
 20
227.286002
 30
0.0
 10
383.452990
 20
208.173002
 30
0.0
  0
SPLINE
  5
3be
100
AcDbEntity
  8
ink_ext_XXXXXX
 62
7
100
AcDbSpline
 70
8
 71
3
 72
8
 73
4
 74
0
 40
0
 40
0
 40
0
 40
0
 40
1
 40
1
 40
1
 40
1
 10
372.413991
 20
132.463004
 30
0.0
 10
371.608991
 20
132.689004
 30
0.0
 10
370.763991
 20
132.814004
 30
0.0
 10
369.890991
 20
132.819004
 30
0.0
  0
LWPOLYLINE
  5
3bf
100
AcDbEntity
  8
ink_ext_XXXXXX
 62
7
100
AcDbPolyline
 90
2
 70
0
 10
383.452990
 20
151.584004
 30
0.0
 10
372.413991
 20
132.463004
 30
0.0
  0
SPLINE
  5
3c0
100
AcDbEntity
  8
ink_ext_XXXXXX
 62
7
100
AcDbSpline
 70
8
 71
3
 72
8
 73
4
 74
0
 40
0
 40
0
 40
0
 40
0
 40
1
 40
1
 40
1
 40
1
 10
369.747991
 20
132.819004
 30
0.0
 10
368.874991
 20
132.814004
 30
0.0
 10
368.029991
 20
132.689004
 30
0.0
 10
367.224991
 20
132.463004
 30
0.0
  0
LWPOLYLINE
  5
3c1
100
AcDbEntity
  8
ink_ext_XXXXXX
 62
7
100
AcDbPolyline
 90
24
 70
0
 10
369.890991
 20
132.819004
 30
0.0
 10
369.882991
 20
132.819004
 30
0.0
 10
369.874991
 20
132.819004
 30
0.0
 10
369.868991
 20
132.819004
 30
0.0
 10
369.865991
 20
132.819004
 30
0.0
 10
369.860991
 20
132.819004
 30
0.0
 10
369.852991
 20
132.819004
 30
0.0
 10
369.844991
 20
132.819004
 30
0.0
 10
369.840991
 20
132.819004
 30
0.0
 10
369.830991
 20
132.819004
 30
0.0
 10
369.824991
 20
132.819004
 30
0.0
 10
369.821991
 20
132.819004
 30
0.0
 10
369.815991
 20
132.819004
 30
0.0
 10
369.813991
 20
132.819004
 30
0.0
 10
369.808991
 20
132.819004
 30
0.0
 10
369.799991
 20
132.819004
 30
0.0
 10
369.793991
 20
132.819004
 30
0.0
 10
369.783991
 20
132.819004
 30
0.0
 10
369.777991
 20
132.819004
 30
0.0
 10
369.774991
 20
132.819004
 30
0.0
 10
369.771991
 20
132.819004
 30
0.0
 10
369.763991
 20
132.819004
 30
0.0
 10
369.755991
 20
132.819004
 30
0.0
 10
369.747991
 20
132.819004
 30
0.0
  0
SPLINE
  5
3c2
100
AcDbEntity
  8
ink_ext_XXXXXX
 62
7
100
AcDbSpline
 70
8
 71
3
 72
8
 73
4
 74
0
 40
0
 40
0
 40
0
 40
0
 40
1
 40
1
 40
1
 40
1
 10
387.637990
 20
149.170004
 30
0.0
 10
397.712990
 20
166.625003
 30
0.0
 10
416.491990
 20
177.459003
 30
0.0
 10
436.641989
 20
177.459003
 30
0.0
  0
LWPOLYLINE
  5
3c3
100
AcDbEntity
  8
ink_ext_XXXXXX
 62
7
100
AcDbPolyline
 90
2
 70
0
 10
367.224991
 20
132.463004
 30
0.0
 10
356.185991
 20
151.584004
 30
0.0
  0
SPLINE
  5
3c4
100
AcDbEntity
  8
ink_ext_XXXXXX
 62
7
100
AcDbSpline
 70
8
 71
3
 72
8
 73
4
 74
0
 40
0
 40
0
 40
0
 40
0
 40
1
 40
1
 40
1
 40
1
 10
458.716989
 20
177.459003
 30
0.0
 10
458.735989
 20
177.389003
 30
0.0
 10
458.758989
 20
177.317003
 30
0.0
 10
458.780989
 20
177.247003
 30
0.0
  0
SPLINE
  5
3c5
100
AcDbEntity
  8
ink_ext_XXXXXX
 62
7
100
AcDbSpline
 70
8
 71
3
 72
8
 73
4
 74
0
 40
0
 40
0
 40
0
 40
0
 40
1
 40
1
 40
1
 40
1
 10
458.780989
 20
177.247003
 30
0.0
 10
458.810989
 20
177.148003
 30
0.0
 10
458.837989
 20
177.041003
 30
0.0
 10
458.871989
 20
176.944003
 30
0.0
  0
SPLINE
  5
3c6
100
AcDbEntity
  8
ink_ext_XXXXXX
 62
7
100
AcDbSpline
 70
8
 71
3
 72
8
 73
4
 74
0
 40
0
 40
0
 40
0
 40
0
 40
1
 40
1
 40
1
 40
1
 10
458.871989
 20
176.944003
 30
0.0
 10
458.899989
 20
176.855003
 30
0.0
 10
458.930989
 20
176.756003
 30
0.0
 10
458.965989
 20
176.667003
 30
0.0
  0
SPLINE
  5
3c7
100
AcDbEntity
  8
ink_ext_XXXXXX
 62
7
100
AcDbSpline
 70
8
 71
3
 72
8
 73
4
 74
0
 40
0
 40
0
 40
0
 40
0
 40
1
 40
1
 40
1
 40
1
 10
458.965989
 20
176.667003
 30
0.0
 10
458.997989
 20
176.569003
 30
0.0
 10
459.032989
 20
176.480003
 30
0.0
 10
459.069989
 20
176.381003
 30
0.0
  0
SPLINE
  5
3c8
100
AcDbEntity
  8
ink_ext_XXXXXX
 62
7
100
AcDbSpline
 70
8
 71
3
 72
8
 73
4
 74
0
 40
0
 40
0
 40
0
 40
0
 40
1
 40
1
 40
1
 40
1
 10
459.069989
 20
176.381003
 30
0.0
 10
459.102989
 20
176.302003
 30
0.0
 10
459.132989
 20
176.213003
 30
0.0
 10
459.169989
 20
176.133003
 30
0.0
  0
SPLINE
  5
3c9
100
AcDbEntity
  8
ink_ext_XXXXXX
 62
7
100
AcDbSpline
 70
8
 71
3
 72
8
 73
4
 74
0
 40
0
 40
0
 40
0
 40
0
 40
1
 40
1
 40
1
 40
1
 10
459.169989
 20
176.133003
 30
0.0
 10
459.235989
 20
175.972003
 30
0.0
 10
459.305989
 20
175.820003
 30
0.0
 10
459.377989
 20
175.669003
 30
0.0
  0
SPLINE
  5
3ca
100
AcDbEntity
  8
ink_ext_XXXXXX
 62
7
100
AcDbSpline
 70
8
 71
3
 72
8
 73
4
 74
0
 40
0
 40
0
 40
0
 40
0
 40
1
 40
1
 40
1
 40
1
 10
459.377989
 20
175.669003
 30
0.0
 10
459.415989
 20
175.597003
 30
0.0
 10
459.452989
 20
175.527003
 30
0.0
 10
459.490989
 20
175.455003
 30
0.0
  0
SPLINE
  5
3cb
100
AcDbEntity
  8
ink_ext_XXXXXX
 62
7
100
AcDbSpline
 70
8
 71
3
 72
8
 73
4
 74
0
 40
0
 40
0
 40
0
 40
0
 40
1
 40
1
 40
1
 40
1
 10
459.490989
 20
175.455003
 30
0.0
 10
459.543989
 20
175.347003
 30
0.0
 10
459.596989
 20
175.250003
 30
0.0
 10
459.654989
 20
175.144003
 30
0.0
  0
SPLINE
  5
3cc
100
AcDbEntity
  8
ink_ext_XXXXXX
 62
7
100
AcDbSpline
 70
8
 71
3
 72
8
 73
4
 74
0
 40
0
 40
0
 40
0
 40
0
 40
1
 40
1
 40
1
 40
1
 10
459.654989
 20
175.144003
 30
0.0
 10
459.693989
 20
175.081003
 30
0.0
 10
459.732989
 20
175.009003
 30
0.0
 10
459.772989
 20
174.939003
 30
0.0
  0
SPLINE
  5
3cd
100
AcDbEntity
  8
ink_ext_XXXXXX
 62
7
100
AcDbSpline
 70
8
 71
3
 72
8
 73
4
 74
0
 40
0
 40
0
 40
0
 40
0
 40
1
 40
1
 40
1
 40
1
 10
459.772989
 20
174.939003
 30
0.0
 10
459.851989
 20
174.814003
 30
0.0
 10
459.930989
 20
174.680003
 30
0.0
 10
460.015988
 20
174.556003
 30
0.0
  0
SPLINE
  5
3ce
100
AcDbEntity
  8
ink_ext_XXXXXX
 62
7
100
AcDbSpline
 70
8
 71
3
 72
8
 73
4
 74
0
 40
0
 40
0
 40
0
 40
0
 40
1
 40
1
 40
1
 40
1
 10
460.015988
 20
174.556003
 30
0.0
 10
460.046988
 20
174.511003
 30
0.0
 10
460.079988
 20
174.456003
 30
0.0
 10
460.112988
 20
174.413003
 30
0.0
  0
SPLINE
  5
3cf
100
AcDbEntity
  8
ink_ext_XXXXXX
 62
7
100
AcDbSpline
 70
8
 71
3
 72
8
 73
4
 74
0
 40
0
 40
0
 40
0
 40
0
 40
1
 40
1
 40
1
 40
1
 10
460.112988
 20
174.413003
 30
0.0
 10
460.204988
 20
174.270003
 30
0.0
 10
460.302988
 20
174.145003
 30
0.0
 10
460.402988
 20
174.013003
 30
0.0
  0
SPLINE
  5
3d0
100
AcDbEntity
  8
ink_ext_XXXXXX
 62
7
100
AcDbSpline
 70
8
 71
3
 72
8
 73
4
 74
0
 40
0
 40
0
 40
0
 40
0
 40
1
 40
1
 40
1
 40
1
 10
460.402988
 20
174.013003
 30
0.0
 10
460.438988
 20
173.958003
 30
0.0
 10
460.480988
 20
173.914003
 30
0.0
 10
460.518988
 20
173.861003
 30
0.0
  0
SPLINE
  5
3d1
100
AcDbEntity
  8
ink_ext_XXXXXX
 62
7
100
AcDbSpline
 70
8
 71
3
 72
8
 73
4
 74
0
 40
0
 40
0
 40
0
 40
0
 40
1
 40
1
 40
1
 40
1
 10
460.518988
 20
173.861003
 30
0.0
 10
460.608988
 20
173.753003
 30
0.0
 10
460.702988
 20
173.638003
 30
0.0
 10
460.799988
 20
173.530003
 30
0.0
  0
SPLINE
  5
3d2
100
AcDbEntity
  8
ink_ext_XXXXXX
 62
7
100
AcDbSpline
 70
8
 71
3
 72
8
 73
4
 74
0
 40
0
 40
0
 40
0
 40
0
 40
1
 40
1
 40
1
 40
1
 10
460.799988
 20
173.530003
 30
0.0
 10
460.830988
 20
173.486003
 30
0.0
 10
460.862988
 20
173.450003
 30
0.0
 10
460.893988
 20
173.416003
 30
0.0
  0
SPLINE
  5
3d3
100
AcDbEntity
  8
ink_ext_XXXXXX
 62
7
100
AcDbSpline
 70
8
 71
3
 72
8
 73
4
 74
0
 40
0
 40
0
 40
0
 40
0
 40
1
 40
1
 40
1
 40
1
 10
460.893988
 20
173.416003
 30
0.0
 10
461.022988
 20
173.272003
 30
0.0
 10
461.154988
 20
173.139003
 30
0.0
 10
461.288988
 20
173.005003
 30
0.0
  0
LWPOLYLINE
  5
3d4
100
AcDbEntity
  8
ink_ext_XXXXXX
 62
7
100
AcDbPolyline
 90
2
 70
0
 10
436.641989
 20
177.459003
 30
0.0
 10
458.716989
 20
177.459003
 30
0.0
  0
SPLINE
  5
3d5
100
AcDbEntity
  8
ink_ext_XXXXXX
 62
7
100
AcDbSpline
 70
8
 71
3
 72
8
 73
4
 74
0
 40
0
 40
0
 40
0
 40
0
 40
1
 40
1
 40
1
 40
1
 10
450.274989
 20
153.856004
 30
0.0
 10
440.199989
 20
136.402004
 30
0.0
 10
421.419989
 20
125.558004
 30
0.0
 10
401.266990
 20
125.558004
 30
0.0
  0
LWPOLYLINE
  5
3d6
100
AcDbEntity
  8
ink_ext_XXXXXX
 62
7
100
AcDbPolyline
 90
4
 70
0
 10
461.288988
 20
173.005003
 30
0.0
 10
461.313988
 20
172.978003
 30
0.0
 10
461.315988
 20
172.978003
 30
0.0
 10
450.274989
 20
153.856004
 30
0.0
  0
SPLINE
  5
3d7
100
AcDbEntity
  8
ink_ext_XXXXXX
 62
7
100
AcDbSpline
 70
8
 71
3
 72
8
 73
4
 74
0
 40
0
 40
0
 40
0
 40
0
 40
1
 40
1
 40
1
 40
1
 10
379.193991
 20
125.558004
 30
0.0
 10
378.747991
 20
127.286004
 30
0.0
 10
377.830991
 20
128.828004
 30
0.0
 10
376.594991
 20
130.048004
 30
0.0
  0
LWPOLYLINE
  5
3d8
100
AcDbEntity
  8
ink_ext_XXXXXX
 62
7
100
AcDbPolyline
 90
2
 70
0
 10
401.266990
 20
125.558004
 30
0.0
 10
379.193991
 20
125.558004
 30
0.0
  0
LWPOLYLINE
  5
3d9
100
AcDbEntity
  8
ink_ext_XXXXXX
 62
7
100
AcDbPolyline
 90
2
 70
0
 10
376.594991
 20
130.048004
 30
0.0
 10
387.637990
 20
149.170004
 30
0.0
  0
SPLINE
  5
3da
100
AcDbEntity
  8
ink_ext_XXXXXX
 62
7
100
AcDbSpline
 70
8
 71
3
 72
8
 73
4
 74
0
 40
0
 40
0
 40
0
 40
0
 40
1
 40
1
 40
1
 40
1
 10
376.596991
 20
229.709002
 30
0.0
 10
376.601991
 20
229.709002
 30
0.0
 10
376.605991
 20
229.717002
 30
0.0
 10
376.608991
 20
229.717002
 30
0.0
  0
SPLINE
  5
3db
100
AcDbEntity
  8
ink_ext_XXXXXX
 62
7
100
AcDbSpline
 70
8
 71
3
 72
8
 73
4
 74
0
 40
0
 40
0
 40
0
 40
0
 40
1
 40
1
 40
1
 40
1
 10
376.608991
 20
229.717002
 30
0.0
 10
376.737991
 20
229.842002
 30
0.0
 10
376.862991
 20
229.977002
 30
0.0
 10
376.985991
 20
230.111002
 30
0.0
  0
SPLINE
  5
3dc
100
AcDbEntity
  8
ink_ext_XXXXXX
 62
7
100
AcDbSpline
 70
8
 71
3
 72
8
 73
4
 74
0
 40
0
 40
0
 40
0
 40
0
 40
1
 40
1
 40
1
 40
1
 10
376.985991
 20
230.111002
 30
0.0
 10
376.880991
 20
229.994002
 30
0.0
 10
376.768991
 20
229.878002
 30
0.0
 10
376.655991
 20
229.772002
 30
0.0
  0
SPLINE
  5
3dd
100
AcDbEntity
  8
ink_ext_XXXXXX
 62
7
100
AcDbSpline
 70
8
 71
3
 72
8
 73
4
 74
0
 40
0
 40
0
 40
0
 40
0
 40
1
 40
1
 40
1
 40
1
 10
376.655991
 20
229.772002
 30
0.0
 10
377.216991
 20
230.333002
 30
0.0
 10
377.708991
 20
230.956002
 30
0.0
 10
378.118991
 20
231.642002
 30
0.0
  0
SPLINE
  5
3de
100
AcDbEntity
  8
ink_ext_XXXXXX
 62
7
100
AcDbSpline
 70
8
 71
3
 72
8
 73
4
 74
0
 40
0
 40
0
 40
0
 40
0
 40
1
 40
1
 40
1
 40
1
 10
378.118991
 20
231.642002
 30
0.0
 10
378.033991
 20
231.500002
 30
0.0
 10
377.949991
 20
231.358002
 30
0.0
 10
377.857991
 20
231.216002
 30
0.0
  0
SPLINE
  5
3df
100
AcDbEntity
  8
ink_ext_XXXXXX
 62
7
100
AcDbSpline
 70
8
 71
3
 72
8
 73
4
 74
0
 40
0
 40
0
 40
0
 40
0
 40
1
 40
1
 40
1
 40
1
 10
377.857991
 20
231.216002
 30
0.0
 10
377.951991
 20
231.358002
 30
0.0
 10
378.040991
 20
231.509002
 30
0.0
 10
378.126991
 20
231.653002
 30
0.0
  0
SPLINE
  5
3e0
100
AcDbEntity
  8
ink_ext_XXXXXX
 62
7
100
AcDbSpline
 70
8
 71
3
 72
8
 73
4
 74
0
 40
0
 40
0
 40
0
 40
0
 40
1
 40
1
 40
1
 40
1
 10
378.126991
 20
231.653002
 30
0.0
 10
378.149991
 20
231.688002
 30
0.0
 10
378.174991
 20
231.723002
 30
0.0
 10
378.199991
 20
231.767002
 30
0.0
  0
LWPOLYLINE
  5
3e1
100
AcDbEntity
  8
ink_ext_XXXXXX
 62
7
100
AcDbPolyline
 90
3
 70
0
 10
387.637990
 20
210.588002
 30
0.0
 10
376.596991
 20
229.709002
 30
0.0
 10
376.596991
 20
229.709002
 30
0.0
  0
SPLINE
  5
3e2
100
AcDbEntity
  8
ink_ext_XXXXXX
 62
7
100
AcDbSpline
 70
8
 71
3
 72
8
 73
4
 74
0
 40
0
 40
0
 40
0
 40
0
 40
1
 40
1
 40
1
 40
1
 10
378.199991
 20
231.767002
 30
0.0
 10
378.201991
 20
231.769002
 30
0.0
 10
378.201991
 20
231.770002
 30
0.0
 10
378.201991
 20
231.772002
 30
0.0
  0
SPLINE
  5
3e3
100
AcDbEntity
  8
ink_ext_XXXXXX
 62
7
100
AcDbSpline
 70
8
 71
3
 72
8
 73
4
 74
0
 40
0
 40
0
 40
0
 40
0
 40
1
 40
1
 40
1
 40
1
 10
378.201991
 20
231.772002
 30
0.0
 10
378.202991
 20
231.772002
 30
0.0
 10
378.202991
 20
231.775002
 30
0.0
 10
378.202991
 20
231.777002
 30
0.0
  0
LWPOLYLINE
  5
3e4
100
AcDbEntity
  8
ink_ext_XXXXXX
 62
7
100
AcDbPolyline
 90
1
 70
1
 10
378.199991
 20
231.767002
 30
0.0
  0
SPLINE
  5
3e5
100
AcDbEntity
  8
ink_ext_XXXXXX
 62
7
100
AcDbSpline
 70
8
 71
3
 72
8
 73
4
 74
0
 40
0
 40
0
 40
0
 40
0
 40
1
 40
1
 40
1
 40
1
 10
378.204991
 20
231.777002
 30
0.0
 10
378.202991
 20
231.777002
 30
0.0
 10
378.202991
 20
231.775002
 30
0.0
 10
378.202991
 20
231.775002
 30
0.0
  0
SPLINE
  5
3e6
100
AcDbEntity
  8
ink_ext_XXXXXX
 62
7
100
AcDbSpline
 70
8
 71
3
 72
8
 73
4
 74
0
 40
0
 40
0
 40
0
 40
0
 40
1
 40
1
 40
1
 40
1
 10
378.202991
 20
231.775002
 30
0.0
 10
378.638991
 20
232.522002
 30
0.0
 10
378.976991
 20
233.339002
 30
0.0
 10
379.199991
 20
234.200002
 30
0.0
  0
LWPOLYLINE
  5
3e7
100
AcDbEntity
  8
ink_ext_XXXXXX
 62
7
100
AcDbPolyline
 90
2
 70
0
 10
378.202991
 20
231.777002
 30
0.0
 10
378.204991
 20
231.777002
 30
0.0
  0
SPLINE
  5
3e8
100
AcDbEntity
  8
ink_ext_XXXXXX
 62
7
100
AcDbSpline
 70
8
 71
3
 72
8
 73
4
 74
0
 40
0
 40
0
 40
0
 40
0
 40
1
 40
1
 40
1
 40
1
 10
401.266990
 20
234.200002
 30
0.0
 10
421.419989
 20
234.191002
 30
0.0
 10
440.199989
 20
223.356002
 30
0.0
 10
450.274989
 20
205.902002
 30
0.0
  0
SPLINE
  5
3e9
100
AcDbEntity
  8
ink_ext_XXXXXX
 62
7
100
AcDbSpline
 70
8
 71
3
 72
8
 73
4
 74
0
 40
0
 40
0
 40
0
 40
0
 40
1
 40
1
 40
1
 40
1
 10
450.274989
 20
205.902002
 30
0.0
 10
451.543989
 20
203.706002
 30
0.0
 10
461.688988
 20
187.178003
 30
0.0
 10
460.943988
 20
186.388003
 30
0.0
  0
SPLINE
  5
3ea
100
AcDbEntity
  8
ink_ext_XXXXXX
 62
7
100
AcDbSpline
 70
8
 71
3
 72
8
 73
4
 74
0
 40
0
 40
0
 40
0
 40
0
 40
1
 40
1
 40
1
 40
1
 10
460.943988
 20
186.388003
 30
0.0
 10
460.882988
 20
186.325003
 30
0.0
 10
460.824988
 20
186.253003
 30
0.0
 10
460.766988
 20
186.192003
 30
0.0
  0
SPLINE
  5
3eb
100
AcDbEntity
  8
ink_ext_XXXXXX
 62
7
100
AcDbSpline
 70
8
 71
3
 72
8
 73
4
 74
0
 40
0
 40
0
 40
0
 40
0
 40
1
 40
1
 40
1
 40
1
 10
460.766988
 20
186.192003
 30
0.0
 10
460.699988
 20
186.111003
 30
0.0
 10
460.632988
 20
186.031003
 30
0.0
 10
460.568988
 20
185.952003
 30
0.0
  0
SPLINE
  5
3ec
100
AcDbEntity
  8
ink_ext_XXXXXX
 62
7
100
AcDbSpline
 70
8
 71
3
 72
8
 73
4
 74
0
 40
0
 40
0
 40
0
 40
0
 40
1
 40
1
 40
1
 40
1
 10
460.568988
 20
185.952003
 30
0.0
 10
460.512988
 20
185.880003
 30
0.0
 10
460.454988
 20
185.809003
 30
0.0
 10
460.399988
 20
185.738003
 30
0.0
  0
SPLINE
  5
3ed
100
AcDbEntity
  8
ink_ext_XXXXXX
 62
7
100
AcDbSpline
 70
8
 71
3
 72
8
 73
4
 74
0
 40
0
 40
0
 40
0
 40
0
 40
1
 40
1
 40
1
 40
1
 10
460.399988
 20
185.738003
 30
0.0
 10
460.299988
 20
185.613003
 30
0.0
 10
460.201988
 20
185.480003
 30
0.0
 10
460.107988
 20
185.338003
 30
0.0
  0
SPLINE
  5
3ee
100
AcDbEntity
  8
ink_ext_XXXXXX
 62
7
100
AcDbSpline
 70
8
 71
3
 72
8
 73
4
 74
0
 40
0
 40
0
 40
0
 40
0
 40
1
 40
1
 40
1
 40
1
 10
460.107988
 20
185.338003
 30
0.0
 10
460.054988
 20
185.256003
 30
0.0
 10
460.002988
 20
185.177003
 30
0.0
 10
459.952989
 20
185.095003
 30
0.0
  0
SPLINE
  5
3ef
100
AcDbEntity
  8
ink_ext_XXXXXX
 62
7
100
AcDbSpline
 70
8
 71
3
 72
8
 73
4
 74
0
 40
0
 40
0
 40
0
 40
0
 40
1
 40
1
 40
1
 40
1
 10
459.952989
 20
185.095003
 30
0.0
 10
459.902989
 20
185.025003
 30
0.0
 10
459.851989
 20
184.944003
 30
0.0
 10
459.804989
 20
184.864003
 30
0.0
  0
SPLINE
  5
3f0
100
AcDbEntity
  8
ink_ext_XXXXXX
 62
7
100
AcDbSpline
 70
8
 71
3
 72
8
 73
4
 74
0
 40
0
 40
0
 40
0
 40
0
 40
1
 40
1
 40
1
 40
1
 10
459.804989
 20
184.864003
 30
0.0
 10
459.751989
 20
184.775003
 30
0.0
 10
459.699989
 20
184.686003
 30
0.0
 10
459.649989
 20
184.597003
 30
0.0
  0
SPLINE
  5
3f1
100
AcDbEntity
  8
ink_ext_XXXXXX
 62
7
100
AcDbSpline
 70
8
 71
3
 72
8
 73
4
 74
0
 40
0
 40
0
 40
0
 40
0
 40
1
 40
1
 40
1
 40
1
 10
459.649989
 20
184.597003
 30
0.0
 10
459.607989
 20
184.525003
 30
0.0
 10
459.565989
 20
184.445003
 30
0.0
 10
459.522989
 20
184.366003
 30
0.0
  0
SPLINE
  5
3f2
100
AcDbEntity
  8
ink_ext_XXXXXX
 62
7
100
AcDbSpline
 70
8
 71
3
 72
8
 73
4
 74
0
 40
0
 40
0
 40
0
 40
0
 40
1
 40
1
 40
1
 40
1
 10
459.522989
 20
184.366003
 30
0.0
 10
459.444989
 20
184.214003
 30
0.0
 10
459.368989
 20
184.063003
 30
0.0
 10
459.297989
 20
183.911003
 30
0.0
  0
SPLINE
  5
3f3
100
AcDbEntity
  8
ink_ext_XXXXXX
 62
7
100
AcDbSpline
 70
8
 71
3
 72
8
 73
4
 74
0
 40
0
 40
0
 40
0
 40
0
 40
1
 40
1
 40
1
 40
1
 10
459.297989
 20
183.911003
 30
0.0
 10
459.258989
 20
183.822003
 30
0.0
 10
459.219989
 20
183.742003
 30
0.0
 10
459.183989
 20
183.653003
 30
0.0
  0
SPLINE
  5
3f4
100
AcDbEntity
  8
ink_ext_XXXXXX
 62
7
100
AcDbSpline
 70
8
 71
3
 72
8
 73
4
 74
0
 40
0
 40
0
 40
0
 40
0
 40
1
 40
1
 40
1
 40
1
 10
459.183989
 20
183.653003
 30
0.0
 10
459.141989
 20
183.555003
 30
0.0
 10
459.102989
 20
183.456003
 30
0.0
 10
459.063989
 20
183.358003
 30
0.0
  0
SPLINE
  5
3f5
100
AcDbEntity
  8
ink_ext_XXXXXX
 62
7
100
AcDbSpline
 70
8
 71
3
 72
8
 73
4
 74
0
 40
0
 40
0
 40
0
 40
0
 40
1
 40
1
 40
1
 40
1
 10
459.063989
 20
183.358003
 30
0.0
 10
459.033989
 20
183.278003
 30
0.0
 10
459.005989
 20
183.198003
 30
0.0
 10
458.977989
 20
183.127003
 30
0.0
  0
SPLINE
  5
3f6
100
AcDbEntity
  8
ink_ext_XXXXXX
 62
7
100
AcDbSpline
 70
8
 71
3
 72
8
 73
4
 74
0
 40
0
 40
0
 40
0
 40
0
 40
1
 40
1
 40
1
 40
1
 10
458.977989
 20
183.127003
 30
0.0
 10
458.940989
 20
183.019003
 30
0.0
 10
458.905989
 20
182.922003
 30
0.0
 10
458.872989
 20
182.816003
 30
0.0
  0
SPLINE
  5
3f7
100
AcDbEntity
  8
ink_ext_XXXXXX
 62
7
100
AcDbSpline
 70
8
 71
3
 72
8
 73
4
 74
0
 40
0
 40
0
 40
0
 40
0
 40
1
 40
1
 40
1
 40
1
 10
458.872989
 20
182.816003
 30
0.0
 10
458.844989
 20
182.734003
 30
0.0
 10
458.819989
 20
182.645003
 30
0.0
 10
458.794989
 20
182.556003
 30
0.0
  0
SPLINE
  5
3f8
100
AcDbEntity
  8
ink_ext_XXXXXX
 62
7
100
AcDbSpline
 70
8
 71
3
 72
8
 73
4
 74
0
 40
0
 40
0
 40
0
 40
0
 40
1
 40
1
 40
1
 40
1
 10
458.794989
 20
182.556003
 30
0.0
 10
458.768989
 20
182.467003
 30
0.0
 10
458.740989
 20
182.378003
 30
0.0
 10
458.716989
 20
182.289003
 30
0.0
  0
LWPOLYLINE
  5
3f9
100
AcDbEntity
  8
ink_ext_XXXXXX
 62
7
100
AcDbPolyline
 90
2
 70
0
 10
379.199991
 20
234.200002
 30
0.0
 10
401.266990
 20
234.200002
 30
0.0
  0
SPLINE
  5
3fa
100
AcDbEntity
  8
ink_ext_XXXXXX
 62
7
100
AcDbSpline
 70
8
 71
3
 72
8
 73
4
 74
0
 40
0
 40
0
 40
0
 40
0
 40
1
 40
1
 40
1
 40
1
 10
436.641989
 20
182.289003
 30
0.0
 10
416.490990
 20
182.289003
 30
0.0
 10
397.712990
 20
193.133003
 30
0.0
 10
387.637990
 20
210.588002
 30
0.0
  0
LWPOLYLINE
  5
3fb
100
AcDbEntity
  8
ink_ext_XXXXXX
 62
7
100
AcDbPolyline
 90
2
 70
0
 10
458.716989
 20
182.289003
 30
0.0
 10
436.641989
 20
182.289003
 30
0.0
  0
LWPOLYLINE
  5
3fc
100
AcDbEntity
  8
ink_ext_XXXXXX
 62
7
100
AcDbPolyline
 90
1
 70
1
 10
387.637990
 20
210.588002
 30
0.0
  0
SPLINE
  5
3fd
100
AcDbEntity
  8
ink_ext_XXXXXX
 62
7
100
AcDbSpline
 70
8
 71
3
 72
8
 73
4
 74
0
 40
0
 40
0
 40
0
 40
0
 40
1
 40
1
 40
1
 40
1
 10
341.622991
 20
168.594003
 30
0.0
 10
336.621992
 20
172.639003
 30
0.0
 10
331.008992
 20
175.873003
 30
0.0
 10
325.007992
 20
178.191003
 30
0.0
  0
LWPOLYLINE
  5
3fe
100
AcDbEntity
  8
ink_ext_XXXXXX
 62
7
100
AcDbPolyline
 90
3
 70
0
 10
325.007992
 20
178.191003
 30
0.0
 10
336.085992
 20
178.191003
 30
0.0
 10
341.622991
 20
168.594003
 30
0.0
  0
SPLINE
  5
3ff
100
AcDbEntity
  8
ink_ext_XXXXXX
 62
7
100
AcDbSpline
 70
8
 71
3
 72
8
 73
4
 74
0
 40
0
 40
0
 40
0
 40
0
 40
1
 40
1
 40
1
 40
1
 10
423.279989
 20
124.836004
 30
0.0
 10
429.280989
 20
127.144004
 30
0.0
 10
434.891989
 20
130.388004
 30
0.0
 10
439.896989
 20
134.423004
 30
0.0
  0
LWPOLYLINE
  5
400
100
AcDbEntity
  8
ink_ext_XXXXXX
 62
7
100
AcDbPolyline
 90
1
 70
1
 10
325.007992
 20
178.191003
 30
0.0
  0
SPLINE
  5
401
100
AcDbEntity
  8
ink_ext_XXXXXX
 62
7
100
AcDbSpline
 70
8
 71
3
 72
8
 73
4
 74
0
 40
0
 40
0
 40
0
 40
0
 40
1
 40
1
 40
1
 40
1
 10
395.087990
 20
170.288003
 30
0.0
 10
396.085990
 20
176.641003
 30
0.0
 10
396.085990
 20
183.119003
 30
0.0
 10
395.087990
 20
189.470003
 30
0.0
  0
LWPOLYLINE
  5
402
100
AcDbEntity
  8
ink_ext_XXXXXX
 62
7
100
AcDbPolyline
 90
3
 70
0
 10
439.896989
 20
134.423004
 30
0.0
 10
434.357989
 20
124.836004
 30
0.0
 10
423.279989
 20
124.836004
 30
0.0
  0
LWPOLYLINE
  5
403
100
AcDbEntity
  8
ink_ext_XXXXXX
 62
7
100
AcDbPolyline
 90
3
 70
0
 10
395.087990
 20
189.470003
 30
0.0
 10
400.626990
 20
179.873003
 30
0.0
 10
395.087990
 20
170.288003
 30
0.0
  0
SPLINE
  5
404
100
AcDbEntity
  8
ink_ext_XXXXXX
 62
7
100
AcDbSpline
 70
8
 71
3
 72
8
 73
4
 74
0
 40
0
 40
0
 40
0
 40
0
 40
1
 40
1
 40
1
 40
1
 10
414.630990
 20
178.191003
 30
0.0
 10
408.627990
 20
175.873003
 30
0.0
 10
403.016990
 20
172.639003
 30
0.0
 10
398.015990
 20
168.594003
 30
0.0
  0
LWPOLYLINE
  5
405
100
AcDbEntity
  8
ink_ext_XXXXXX
 62
7
100
AcDbPolyline
 90
2
 70
0
 10
403.552990
 20
178.191003
 30
0.0
 10
414.630990
 20
178.191003
 30
0.0
  0
LWPOLYLINE
  5
406
100
AcDbEntity
  8
ink_ext_XXXXXX
 62
7
100
AcDbPolyline
 90
2
 70
0
 10
398.015990
 20
168.594003
 30
0.0
 10
403.552990
 20
178.191003
 30
0.0
  0
SPLINE
  5
407
100
AcDbEntity
  8
ink_ext_XXXXXX
 62
7
100
AcDbSpline
 70
8
 71
3
 72
8
 73
4
 74
0
 40
0
 40
0
 40
0
 40
0
 40
1
 40
1
 40
1
 40
1
 10
398.015990
 20
191.155003
 30
0.0
 10
403.016990
 20
187.119003
 30
0.0
 10
408.627990
 20
183.884003
 30
0.0
 10
414.630990
 20
181.567003
 30
0.0
  0
LWPOLYLINE
  5
408
100
AcDbEntity
  8
ink_ext_XXXXXX
 62
7
100
AcDbPolyline
 90
2
 70
0
 10
403.552990
 20
181.567003
 30
0.0
 10
398.015990
 20
191.155003
 30
0.0
  0
SPLINE
  5
409
100
AcDbEntity
  8
ink_ext_XXXXXX
 62
7
100
AcDbSpline
 70
8
 71
3
 72
8
 73
4
 74
0
 40
0
 40
0
 40
0
 40
0
 40
1
 40
1
 40
1
 40
1
 10
463.243988
 20
179.873003
 30
0.0
 10
463.243988
 20
182.548003
 30
0.0
 10
465.418988
 20
184.722003
 30
0.0
 10
468.091988
 20
184.722003
 30
0.0
  0
SPLINE
  5
40a
100
AcDbEntity
  8
ink_ext_XXXXXX
 62
7
100
AcDbSpline
 70
8
 71
3
 72
8
 73
4
 74
0
 40
0
 40
0
 40
0
 40
0
 40
1
 40
1
 40
1
 40
1
 10
468.091988
 20
184.722003
 30
0.0
 10
470.763988
 20
184.722003
 30
0.0
 10
472.938988
 20
182.548003
 30
0.0
 10
472.938988
 20
179.873003
 30
0.0
  0
SPLINE
  5
40b
100
AcDbEntity
  8
ink_ext_XXXXXX
 62
7
100
AcDbSpline
 70
8
 71
3
 72
8
 73
4
 74
0
 40
0
 40
0
 40
0
 40
0
 40
1
 40
1
 40
1
 40
1
 10
472.938988
 20
179.873003
 30
0.0
 10
472.938988
 20
177.202003
 30
0.0
 10
470.763988
 20
175.028003
 30
0.0
 10
468.091988
 20
175.028003
 30
0.0
  0
SPLINE
  5
40c
100
AcDbEntity
  8
ink_ext_XXXXXX
 62
7
100
AcDbSpline
 70
8
 71
3
 72
8
 73
4
 74
0
 40
0
 40
0
 40
0
 40
0
 40
1
 40
1
 40
1
 40
1
 10
468.091988
 20
175.028003
 30
0.0
 10
465.418988
 20
175.028003
 30
0.0
 10
463.243988
 20
177.202003
 30
0.0
 10
463.243988
 20
179.873003
 30
0.0
  0
LWPOLYLINE
  5
40d
100
AcDbEntity
  8
ink_ext_XXXXXX
 62
7
100
AcDbPolyline
 90
2
 70
0
 10
414.630990
 20
181.567003
 30
0.0
 10
403.552990
 20
181.567003
 30
0.0
  0
SPLINE
  5
40e
100
AcDbEntity
  8
ink_ext_XXXXXX
 62
7
100
AcDbSpline
 70
8
 71
3
 72
8
 73
4
 74
0
 40
0
 40
0
 40
0
 40
0
 40
1
 40
1
 40
1
 40
1
 10
364.965991
 20
236.614002
 30
0.0
 10
364.965991
 20
239.134002
 30
0.0
 10
366.896991
 20
241.209001
 30
0.0
 10
369.355991
 20
241.441001
 30
0.0
  0
LWPOLYLINE
  5
40f
100
AcDbEntity
  8
ink_ext_XXXXXX
 62
7
100
AcDbPolyline
 90
1
 70
1
 10
463.243988
 20
179.873003
 30
0.0
  0
SPLINE
  5
410
100
AcDbEntity
  8
ink_ext_XXXXXX
 62
7
100
AcDbSpline
 70
8
 71
3
 72
8
 73
4
 74
0
 40
0
 40
0
 40
0
 40
0
 40
1
 40
1
 40
1
 40
1
 10
369.355991
 20
241.439001
 30
0.0
 10
369.476991
 20
241.450001
 30
0.0
 10
369.596991
 20
241.458001
 30
0.0
 10
369.719991
 20
241.461001
 30
0.0
  0
LWPOLYLINE
  5
411
100
AcDbEntity
  8
ink_ext_XXXXXX
 62
7
100
AcDbPolyline
 90
2
 70
0
 10
369.355991
 20
241.441001
 30
0.0
 10
369.355991
 20
241.439001
 30
0.0
  0
SPLINE
  5
412
100
AcDbEntity
  8
ink_ext_XXXXXX
 62
7
100
AcDbSpline
 70
8
 71
3
 72
8
 73
4
 74
0
 40
0
 40
0
 40
0
 40
0
 40
1
 40
1
 40
1
 40
1
 10
369.918991
 20
241.461001
 30
0.0
 10
370.040991
 20
241.458001
 30
0.0
 10
370.162991
 20
241.450001
 30
0.0
 10
370.282991
 20
241.439001
 30
0.0
  0
LWPOLYLINE
  5
413
100
AcDbEntity
  8
ink_ext_XXXXXX
 62
7
100
AcDbPolyline
 90
10
 70
0
 10
369.719991
 20
241.461001
 30
0.0
 10
369.810991
 20
241.463001
 30
0.0
 10
369.812991
 20
241.463001
 30
0.0
 10
369.812991
 20
241.463001
 30
0.0
 10
369.818991
 20
241.463001
 30
0.0
 10
369.819991
 20
241.463001
 30
0.0
 10
369.826991
 20
241.463001
 30
0.0
 10
369.827991
 20
241.463001
 30
0.0
 10
369.827991
 20
241.463001
 30
0.0
 10
369.918991
 20
241.461001
 30
0.0
  0
SPLINE
  5
414
100
AcDbEntity
  8
ink_ext_XXXXXX
 62
7
100
AcDbSpline
 70
8
 71
3
 72
8
 73
4
 74
0
 40
0
 40
0
 40
0
 40
0
 40
1
 40
1
 40
1
 40
1
 10
370.282991
 20
241.441001
 30
0.0
 10
372.741991
 20
241.209001
 30
0.0
 10
374.672991
 20
239.134002
 30
0.0
 10
374.672991
 20
236.614002
 30
0.0
  0
SPLINE
  5
415
100
AcDbEntity
  8
ink_ext_XXXXXX
 62
7
100
AcDbSpline
 70
8
 71
3
 72
8
 73
4
 74
0
 40
0
 40
0
 40
0
 40
0
 40
1
 40
1
 40
1
 40
1
 10
374.672991
 20
236.614002
 30
0.0
 10
374.672991
 20
234.095002
 30
0.0
 10
372.741991
 20
232.019002
 30
0.0
 10
370.282991
 20
231.789002
 30
0.0
  0
LWPOLYLINE
  5
416
100
AcDbEntity
  8
ink_ext_XXXXXX
 62
7
100
AcDbPolyline
 90
2
 70
0
 10
370.282991
 20
241.439001
 30
0.0
 10
370.282991
 20
241.441001
 30
0.0
  0
SPLINE
  5
417
100
AcDbEntity
  8
ink_ext_XXXXXX
 62
7
100
AcDbSpline
 70
8
 71
3
 72
8
 73
4
 74
0
 40
0
 40
0
 40
0
 40
0
 40
1
 40
1
 40
1
 40
1
 10
370.282991
 20
231.791002
 30
0.0
 10
370.162991
 20
231.778002
 30
0.0
 10
370.040991
 20
231.772002
 30
0.0
 10
369.918991
 20
231.769002
 30
0.0
  0
LWPOLYLINE
  5
418
100
AcDbEntity
  8
ink_ext_XXXXXX
 62
7
100
AcDbPolyline
 90
2
 70
0
 10
370.282991
 20
231.789002
 30
0.0
 10
370.282991
 20
231.791002
 30
0.0
  0
SPLINE
  5
419
100
AcDbEntity
  8
ink_ext_XXXXXX
 62
7
100
AcDbSpline
 70
8
 71
3
 72
8
 73
4
 74
0
 40
0
 40
0
 40
0
 40
0
 40
1
 40
1
 40
1
 40
1
 10
369.719991
 20
231.769002
 30
0.0
 10
369.596991
 20
231.772002
 30
0.0
 10
369.476991
 20
231.778002
 30
0.0
 10
369.355991
 20
231.791002
 30
0.0
  0
LWPOLYLINE
  5
41a
100
AcDbEntity
  8
ink_ext_XXXXXX
 62
7
100
AcDbPolyline
 90
10
 70
0
 10
369.918991
 20
231.769002
 30
0.0
 10
369.827991
 20
231.767002
 30
0.0
 10
369.827991
 20
231.767002
 30
0.0
 10
369.826991
 20
231.767002
 30
0.0
 10
369.819991
 20
231.767002
 30
0.0
 10
369.818991
 20
231.767002
 30
0.0
 10
369.812991
 20
231.767002
 30
0.0
 10
369.812991
 20
231.767002
 30
0.0
 10
369.810991
 20
231.767002
 30
0.0
 10
369.719991
 20
231.769002
 30
0.0
  0
SPLINE
  5
41b
100
AcDbEntity
  8
ink_ext_XXXXXX
 62
7
100
AcDbSpline
 70
8
 71
3
 72
8
 73
4
 74
0
 40
0
 40
0
 40
0
 40
0
 40
1
 40
1
 40
1
 40
1
 10
369.355991
 20
231.789002
 30
0.0
 10
366.896991
 20
232.019002
 30
0.0
 10
364.965991
 20
234.095002
 30
0.0
 10
364.965991
 20
236.614002
 30
0.0
  0
LWPOLYLINE
  5
41c
100
AcDbEntity
  8
ink_ext_XXXXXX
 62
7
100
AcDbPolyline
 90
2
 70
0
 10
369.355991
 20
231.791002
 30
0.0
 10
369.355991
 20
231.789002
 30
0.0
  0
SPLINE
  5
41d
100
AcDbEntity
  8
ink_ext_XXXXXX
 62
7
100
AcDbSpline
 70
8
 71
3
 72
8
 73
4
 74
0
 40
0
 40
0
 40
0
 40
0
 40
1
 40
1
 40
1
 40
1
 10
299.743993
 20
134.423004
 30
0.0
 10
304.746992
 20
130.388004
 30
0.0
 10
310.357992
 20
127.144004
 30
0.0
 10
316.358992
 20
124.836004
 30
0.0
  0
LWPOLYLINE
  5
41e
100
AcDbEntity
  8
ink_ext_XXXXXX
 62
7
100
AcDbPolyline
 90
1
 70
1
 10
364.965991
 20
236.614002
 30
0.0
  0
SPLINE
  5
41f
100
AcDbEntity
  8
ink_ext_XXXXXX
 62
7
100
AcDbSpline
 70
8
 71
3
 72
8
 73
4
 74
0
 40
0
 40
0
 40
0
 40
0
 40
1
 40
1
 40
1
 40
1
 10
271.546993
 20
184.722003
 30
0.0
 10
274.219993
 20
184.722003
 30
0.0
 10
276.393993
 20
182.548003
 30
0.0
 10
276.393993
 20
179.873003
 30
0.0
  0
SPLINE
  5
420
100
AcDbEntity
  8
ink_ext_XXXXXX
 62
7
100
AcDbSpline
 70
8
 71
3
 72
8
 73
4
 74
0
 40
0
 40
0
 40
0
 40
0
 40
1
 40
1
 40
1
 40
1
 10
276.393993
 20
179.873003
 30
0.0
 10
276.393993
 20
177.202003
 30
0.0
 10
274.219993
 20
175.028003
 30
0.0
 10
271.546993
 20
175.028003
 30
0.0
  0
SPLINE
  5
421
100
AcDbEntity
  8
ink_ext_XXXXXX
 62
7
100
AcDbSpline
 70
8
 71
3
 72
8
 73
4
 74
0
 40
0
 40
0
 40
0
 40
0
 40
1
 40
1
 40
1
 40
1
 10
271.546993
 20
175.028003
 30
0.0
 10
268.874993
 20
175.028003
 30
0.0
 10
266.699993
 20
177.202003
 30
0.0
 10
266.699993
 20
179.873003
 30
0.0
  0
SPLINE
  5
422
100
AcDbEntity
  8
ink_ext_XXXXXX
 62
7
100
AcDbSpline
 70
8
 71
3
 72
8
 73
4
 74
0
 40
0
 40
0
 40
0
 40
0
 40
1
 40
1
 40
1
 40
1
 10
266.699993
 20
179.873003
 30
0.0
 10
266.699993
 20
182.548003
 30
0.0
 10
268.874993
 20
184.722003
 30
0.0
 10
271.546993
 20
184.722003
 30
0.0
  0
LWPOLYLINE
  5
423
100
AcDbEntity
  8
ink_ext_XXXXXX
 62
7
100
AcDbPolyline
 90
3
 70
0
 10
316.358992
 20
124.836004
 30
0.0
 10
305.280992
 20
124.836004
 30
0.0
 10
299.743993
 20
134.423004
 30
0.0
  0
LWPOLYLINE
  5
424
100
AcDbEntity
  8
ink_ext_XXXXXX
 62
7
100
AcDbPolyline
 90
1
 70
1
 10
271.546993
 20
184.722003
 30
0.0
  0
SPLINE
  5
425
100
AcDbEntity
  8
ink_ext_XXXXXX
 62
7
100
AcDbSpline
 70
8
 71
3
 72
8
 73
4
 74
0
 40
0
 40
0
 40
0
 40
0
 40
1
 40
1
 40
1
 40
1
 10
363.794991
 20
203.780002
 30
0.0
 10
355.282991
 20
189.034003
 30
0.0
 10
355.282991
 20
170.723003
 30
0.0
 10
363.794991
 20
155.978004
 30
0.0
  0
LWPOLYLINE
  5
426
100
AcDbEntity
  8
ink_ext_XXXXXX
 62
7
100
AcDbPolyline
 90
2
 70
0
 10
369.815991
 20
214.206002
 30
0.0
 10
363.794991
 20
203.780002
 30
0.0
  0
SPLINE
  5
427
100
AcDbEntity
  8
ink_ext_XXXXXX
 62
7
100
AcDbSpline
 70
8
 71
3
 72
8
 73
4
 74
0
 40
0
 40
0
 40
0
 40
0
 40
1
 40
1
 40
1
 40
1
 10
375.843991
 20
155.978004
 30
0.0
 10
384.355990
 20
170.723003
 30
0.0
 10
384.355990
 20
189.034003
 30
0.0
 10
375.843991
 20
203.780002
 30
0.0
  0
LWPOLYLINE
  5
428
100
AcDbEntity
  8
ink_ext_XXXXXX
 62
7
100
AcDbPolyline
 90
5
 70
0
 10
363.794991
 20
155.978004
 30
0.0
 10
369.815991
 20
145.544004
 30
0.0
 10
369.819991
 20
145.548004
 30
0.0
 10
369.821991
 20
145.544004
 30
0.0
 10
375.843991
 20
155.978004
 30
0.0
  0
SPLINE
  5
429
100
AcDbEntity
  8
ink_ext_XXXXXX
 62
7
100
AcDbSpline
 70
8
 71
3
 72
8
 73
4
 74
0
 40
0
 40
0
 40
0
 40
0
 40
1
 40
1
 40
1
 40
1
 10
371.662991
 20
201.366002
 30
0.0
 10
379.312991
 20
188.108003
 30
0.0
 10
379.312991
 20
171.642003
 30
0.0
 10
371.662991
 20
158.392004
 30
0.0
  0
LWPOLYLINE
  5
42a
100
AcDbEntity
  8
ink_ext_XXXXXX
 62
7
100
AcDbPolyline
 90
4
 70
0
 10
375.843991
 20
203.780002
 30
0.0
 10
369.821991
 20
214.206002
 30
0.0
 10
369.819991
 20
214.202002
 30
0.0
 10
369.815991
 20
214.206002
 30
0.0
  0
SPLINE
  5
42b
100
AcDbEntity
  8
ink_ext_XXXXXX
 62
7
100
AcDbSpline
 70
8
 71
3
 72
8
 73
4
 74
0
 40
0
 40
0
 40
0
 40
0
 40
1
 40
1
 40
1
 40
1
 10
367.977991
 20
158.392004
 30
0.0
 10
360.326991
 20
171.642003
 30
0.0
 10
360.326991
 20
188.108003
 30
0.0
 10
367.977991
 20
201.366002
 30
0.0
  0
LWPOLYLINE
  5
42c
100
AcDbEntity
  8
ink_ext_XXXXXX
 62
7
100
AcDbPolyline
 90
7
 70
0
 10
371.662991
 20
158.392004
 30
0.0
 10
370.282991
 20
156.002004
 30
0.0
 10
370.282991
 20
156.011004
 30
0.0
 10
369.819991
 20
155.206004
 30
0.0
 10
369.355991
 20
156.011004
 30
0.0
 10
369.355991
 20
156.002004
 30
0.0
 10
367.977991
 20
158.392004
 30
0.0
  0
SPLINE
  5
42d
100
AcDbEntity
  8
ink_ext_XXXXXX
 62
7
100
AcDbSpline
 70
8
 71
3
 72
8
 73
4
 74
0
 40
0
 40
0
 40
0
 40
0
 40
1
 40
1
 40
1
 40
1
 10
395.246990
 20
214.981002
 30
0.0
 10
403.755990
 20
200.234002
 30
0.0
 10
419.621990
 20
191.084003
 30
0.0
 10
436.641989
 20
191.084003
 30
0.0
  0
LWPOLYLINE
  5
42e
100
AcDbEntity
  8
ink_ext_XXXXXX
 62
7
100
AcDbPolyline
 90
7
 70
0
 10
367.977991
 20
201.366002
 30
0.0
 10
369.355991
 20
203.748002
 30
0.0
 10
369.355991
 20
203.741002
 30
0.0
 10
369.819991
 20
204.544002
 30
0.0
 10
370.282991
 20
203.741002
 30
0.0
 10
370.282991
 20
203.748002
 30
0.0
 10
371.662991
 20
201.366002
 30
0.0
  0
SPLINE
  5
42f
100
AcDbEntity
  8
ink_ext_XXXXXX
 62
7
100
AcDbSpline
 70
8
 71
3
 72
8
 73
4
 74
0
 40
0
 40
0
 40
0
 40
0
 40
1
 40
1
 40
1
 40
1
 10
442.663989
 20
201.509002
 30
0.0
 10
434.154989
 20
216.255002
 30
0.0
 10
418.290990
 20
225.406002
 30
0.0
 10
401.266990
 20
225.406002
 30
0.0
  0
LWPOLYLINE
  5
430
100
AcDbEntity
  8
ink_ext_XXXXXX
 62
7
100
AcDbPolyline
 90
3
 70
0
 10
436.641989
 20
191.084003
 30
0.0
 10
448.687989
 20
191.084003
 30
0.0
 10
442.663989
 20
201.509002
 30
0.0
  0
LWPOLYLINE
  5
431
100
AcDbEntity
  8
ink_ext_XXXXXX
 62
7
100
AcDbPolyline
 90
3
 70
0
 10
401.266990
 20
225.406002
 30
0.0
 10
389.221990
 20
225.406002
 30
0.0
 10
395.246990
 20
214.981002
 30
0.0
  0
SPLINE
  5
432
100
AcDbEntity
  8
ink_ext_XXXXXX
 62
7
100
AcDbSpline
 70
8
 71
3
 72
8
 73
4
 74
0
 40
0
 40
0
 40
0
 40
0
 40
1
 40
1
 40
1
 40
1
 10
401.266990
 20
220.584002
 30
0.0
 10
416.569990
 20
220.584002
 30
0.0
 10
430.830989
 20
212.353002
 30
0.0
 10
438.482989
 20
199.094003
 30
0.0
  0
LWPOLYLINE
  5
433
100
AcDbEntity
  8
ink_ext_XXXXXX
 62
7
100
AcDbPolyline
 90
3
 70
0
 10
399.427990
 20
217.395002
 30
0.0
 10
397.587990
 20
220.584002
 30
0.0
 10
401.266990
 20
220.584002
 30
0.0
  0
SPLINE
  5
434
100
AcDbEntity
  8
ink_ext_XXXXXX
 62
7
100
AcDbSpline
 70
8
 71
3
 72
8
 73
4
 74
0
 40
0
 40
0
 40
0
 40
0
 40
1
 40
1
 40
1
 40
1
 10
436.641989
 20
195.905003
 30
0.0
 10
421.340989
 20
195.905003
 30
0.0
 10
407.079990
 20
204.147002
 30
0.0
 10
399.427990
 20
217.395002
 30
0.0
  0
LWPOLYLINE
  5
435
100
AcDbEntity
  8
ink_ext_XXXXXX
 62
7
100
AcDbPolyline
 90
3
 70
0
 10
438.482989
 20
199.094003
 30
0.0
 10
440.321989
 20
195.905003
 30
0.0
 10
436.641989
 20
195.905003
 30
0.0
  0
SPLINE
  5
436
100
AcDbEntity
  8
ink_ext_XXXXXX
 62
7
100
AcDbSpline
 70
8
 71
3
 72
8
 73
4
 74
0
 40
0
 40
0
 40
0
 40
0
 40
1
 40
1
 40
1
 40
1
 10
302.996992
 20
191.084003
 30
0.0
 10
320.018992
 20
191.084003
 30
0.0
 10
335.882992
 20
200.234002
 30
0.0
 10
344.391991
 20
214.981002
 30
0.0
  0
LWPOLYLINE
  5
437
100
AcDbEntity
  8
ink_ext_XXXXXX
 62
7
100
AcDbPolyline
 90
1
 70
1
 10
399.427990
 20
217.395002
 30
0.0
  0
SPLINE
  5
438
100
AcDbEntity
  8
ink_ext_XXXXXX
 62
7
100
AcDbSpline
 70
8
 71
3
 72
8
 73
4
 74
0
 40
0
 40
0
 40
0
 40
0
 40
1
 40
1
 40
1
 40
1
 10
338.371992
 20
225.406002
 30
0.0
 10
321.349992
 20
225.406002
 30
0.0
 10
305.483992
 20
216.255002
 30
0.0
 10
296.974993
 20
201.509002
 30
0.0
  0
LWPOLYLINE
  5
439
100
AcDbEntity
  8
ink_ext_XXXXXX
 62
7
100
AcDbPolyline
 90
3
 70
0
 10
344.391991
 20
214.981002
 30
0.0
 10
350.415991
 20
225.406002
 30
0.0
 10
338.371992
 20
225.406002
 30
0.0
  0
LWPOLYLINE
  5
43a
100
AcDbEntity
  8
ink_ext_XXXXXX
 62
7
100
AcDbPolyline
 90
3
 70
0
 10
296.974993
 20
201.509002
 30
0.0
 10
290.951993
 20
191.084003
 30
0.0
 10
302.996992
 20
191.084003
 30
0.0
  0
SPLINE
  5
43b
100
AcDbEntity
  8
ink_ext_XXXXXX
 62
7
100
AcDbSpline
 70
8
 71
3
 72
8
 73
4
 74
0
 40
0
 40
0
 40
0
 40
0
 40
1
 40
1
 40
1
 40
1
 10
340.210991
 20
217.395002
 30
0.0
 10
332.560992
 20
204.147002
 30
0.0
 10
318.297992
 20
195.905003
 30
0.0
 10
302.996992
 20
195.905003
 30
0.0
  0
LWPOLYLINE
  5
43c
100
AcDbEntity
  8
ink_ext_XXXXXX
 62
7
100
AcDbPolyline
 90
2
 70
0
 10
342.049991
 20
220.584002
 30
0.0
 10
340.210991
 20
217.395002
 30
0.0
  0
SPLINE
  5
43d
100
AcDbEntity
  8
ink_ext_XXXXXX
 62
7
100
AcDbSpline
 70
8
 71
3
 72
8
 73
4
 74
0
 40
0
 40
0
 40
0
 40
0
 40
1
 40
1
 40
1
 40
1
 10
301.155992
 20
199.094003
 30
0.0
 10
308.808992
 20
212.353002
 30
0.0
 10
323.068992
 20
220.584002
 30
0.0
 10
338.371992
 20
220.584002
 30
0.0
  0
LWPOLYLINE
  5
43e
100
AcDbEntity
  8
ink_ext_XXXXXX
 62
7
100
AcDbPolyline
 90
3
 70
0
 10
302.996992
 20
195.905003
 30
0.0
 10
299.315993
 20
195.905003
 30
0.0
 10
301.155992
 20
199.094003
 30
0.0
  0
LWPOLYLINE
  5
43f
100
AcDbEntity
  8
ink_ext_XXXXXX
 62
7
100
AcDbPolyline
 90
2
 70
0
 10
338.371992
 20
220.584002
 30
0.0
 10
342.049991
 20
220.584002
 30
0.0
  0
SPLINE
  5
440
100
AcDbEntity
  8
ink_ext_XXXXXX
 62
7
100
AcDbSpline
 70
8
 71
3
 72
8
 73
4
 74
0
 40
0
 40
0
 40
0
 40
0
 40
1
 40
1
 40
1
 40
1
 10
338.371992
 20
139.173004
 30
0.0
 10
323.068992
 20
139.173004
 30
0.0
 10
308.808992
 20
147.406004
 30
0.0
 10
301.155992
 20
160.664003
 30
0.0
  0
LWPOLYLINE
  5
441
100
AcDbEntity
  8
ink_ext_XXXXXX
 62
7
100
AcDbPolyline
 90
2
 70
0
 10
342.049991
 20
139.173004
 30
0.0
 10
338.371992
 20
139.173004
 30
0.0
  0
SPLINE
  5
442
100
AcDbEntity
  8
ink_ext_XXXXXX
 62
7
100
AcDbSpline
 70
8
 71
3
 72
8
 73
4
 74
0
 40
0
 40
0
 40
0
 40
0
 40
1
 40
1
 40
1
 40
1
 10
302.996992
 20
163.845003
 30
0.0
 10
318.297992
 20
163.845003
 30
0.0
 10
332.560992
 20
155.613004
 30
0.0
 10
340.210991
 20
142.363004
 30
0.0
  0
LWPOLYLINE
  5
443
100
AcDbEntity
  8
ink_ext_XXXXXX
 62
7
100
AcDbPolyline
 90
3
 70
0
 10
301.155992
 20
160.664003
 30
0.0
 10
299.315993
 20
163.845003
 30
0.0
 10
302.996992
 20
163.845003
 30
0.0
  0
SPLINE
  5
444
100
AcDbEntity
  8
ink_ext_XXXXXX
 62
7
100
AcDbSpline
 70
8
 71
3
 72
8
 73
4
 74
0
 40
0
 40
0
 40
0
 40
0
 40
1
 40
1
 40
1
 40
1
 10
344.391991
 20
144.778004
 30
0.0
 10
335.882992
 20
159.514004
 30
0.0
 10
320.018992
 20
168.675003
 30
0.0
 10
302.996992
 20
168.675003
 30
0.0
  0
LWPOLYLINE
  5
445
100
AcDbEntity
  8
ink_ext_XXXXXX
 62
7
100
AcDbPolyline
 90
2
 70
0
 10
340.210991
 20
142.363004
 30
0.0
 10
342.049991
 20
139.173004
 30
0.0
  0
SPLINE
  5
446
100
AcDbEntity
  8
ink_ext_XXXXXX
 62
7
100
AcDbSpline
 70
8
 71
3
 72
8
 73
4
 74
0
 40
0
 40
0
 40
0
 40
0
 40
1
 40
1
 40
1
 40
1
 10
296.974993
 20
158.248004
 30
0.0
 10
305.483992
 20
143.503004
 30
0.0
 10
321.349992
 20
134.344004
 30
0.0
 10
338.371992
 20
134.344004
 30
0.0
  0
LWPOLYLINE
  5
447
100
AcDbEntity
  8
ink_ext_XXXXXX
 62
7
100
AcDbPolyline
 90
3
 70
0
 10
302.996992
 20
168.675003
 30
0.0
 10
290.951993
 20
168.675003
 30
0.0
 10
296.974993
 20
158.248004
 30
0.0
  0
LWPOLYLINE
  5
448
100
AcDbEntity
  8
ink_ext_XXXXXX
 62
7
100
AcDbPolyline
 90
3
 70
0
 10
338.371992
 20
134.344004
 30
0.0
 10
350.415991
 20
134.344004
 30
0.0
 10
344.391991
 20
144.778004
 30
0.0
  0
SPLINE
  5
449
100
AcDbEntity
  8
ink_ext_XXXXXX
 62
7
100
AcDbSpline
 70
8
 71
3
 72
8
 73
4
 74
0
 40
0
 40
0
 40
0
 40
0
 40
1
 40
1
 40
1
 40
1
 10
401.266990
 20
134.344004
 30
0.0
 10
418.290990
 20
134.344004
 30
0.0
 10
434.154989
 20
143.503004
 30
0.0
 10
442.663989
 20
158.248004
 30
0.0
  0
LWPOLYLINE
  5
44a
100
AcDbEntity
  8
ink_ext_XXXXXX
 62
7
100
AcDbPolyline
 90
3
 70
0
 10
395.246990
 20
144.778004
 30
0.0
 10
389.221990
 20
134.344004
 30
0.0
 10
401.266990
 20
134.344004
 30
0.0
  0
SPLINE
  5
44b
100
AcDbEntity
  8
ink_ext_XXXXXX
 62
7
100
AcDbSpline
 70
8
 71
3
 72
8
 73
4
 74
0
 40
0
 40
0
 40
0
 40
0
 40
1
 40
1
 40
1
 40
1
 10
436.641989
 20
168.675003
 30
0.0
 10
419.621990
 20
168.675003
 30
0.0
 10
403.755990
 20
159.514004
 30
0.0
 10
395.246990
 20
144.778004
 30
0.0
  0
LWPOLYLINE
  5
44c
100
AcDbEntity
  8
ink_ext_XXXXXX
 62
7
100
AcDbPolyline
 90
3
 70
0
 10
442.663989
 20
158.248004
 30
0.0
 10
448.687989
 20
168.675003
 30
0.0
 10
436.641989
 20
168.675003
 30
0.0
  0
LWPOLYLINE
  5
44d
100
AcDbEntity
  8
ink_ext_XXXXXX
 62
7
100
AcDbPolyline
 90
1
 70
1
 10
395.246990
 20
144.778004
 30
0.0
  0
SPLINE
  5
44e
100
AcDbEntity
  8
ink_ext_XXXXXX
 62
7
100
AcDbSpline
 70
8
 71
3
 72
8
 73
4
 74
0
 40
0
 40
0
 40
0
 40
0
 40
1
 40
1
 40
1
 40
1
 10
399.427990
 20
142.363004
 30
0.0
 10
407.079990
 20
155.613004
 30
0.0
 10
421.340989
 20
163.845003
 30
0.0
 10
436.641989
 20
163.845003
 30
0.0
  0
LWPOLYLINE
  5
44f
100
AcDbEntity
  8
ink_ext_XXXXXX
 62
7
100
AcDbPolyline
 90
3
 70
0
 10
401.266990
 20
139.173004
 30
0.0
 10
397.587990
 20
139.173004
 30
0.0
 10
399.427990
 20
142.363004
 30
0.0
  0
SPLINE
  5
450
100
AcDbEntity
  8
ink_ext_XXXXXX
 62
7
100
AcDbSpline
 70
8
 71
3
 72
8
 73
4
 74
0
 40
0
 40
0
 40
0
 40
0
 40
1
 40
1
 40
1
 40
1
 10
438.482989
 20
160.664003
 30
0.0
 10
430.830989
 20
147.406004
 30
0.0
 10
416.569990
 20
139.173004
 30
0.0
 10
401.266990
 20
139.173004
 30
0.0
  0
LWPOLYLINE
  5
451
100
AcDbEntity
  8
ink_ext_XXXXXX
 62
7
100
AcDbPolyline
 90
3
 70
0
 10
436.641989
 20
163.845003
 30
0.0
 10
440.321989
 20
163.845003
 30
0.0
 10
438.482989
 20
160.664003
 30
0.0
  0
ENDSEC
  0
SECTION
  2
OBJECTS
  0
DICTIONARY
  5
C
330
0
100
AcDbDictionary
  3
ACAD_GROUP
350
D
  3
ACAD_MLINESTYLE
350
17
  0
DICTIONARY
  5
D
330
C
100
AcDbDictionary
  0
DICTIONARY
  5
1A
330
C
100
AcDbDictionary
  0
DICTIONARY
  5
17
330
C
100
AcDbDictionary
  3
STANDARD
350
18
  0
DICTIONARY
  5
19
330
C
100
AcDbDictionary
  0
ENDSEC
  0
EOF
