  0
SECTION
  2
HEADER
  9
$ACADVER
  1
AC1021
  9
$ACADMAINTVER
 70
    25
  9
$DWGCODEPAGE
  3
ANSI_1256
  9
$INSBASE
 10
0.0
 20
0.0
 30
0.0
  9
$EXTMIN
 10
-44.93243
 20
-26.56379
 30
0.0
  9
$EXTMAX
 10
-34.1133
 20
-14.95075
 30
0.0
  9
$LIMMIN
 10
0.0
 20
0.0
  9
$LIMMAX
 10
12.0
 20
9.0
  9
$ORTHOMODE
 70
     0
  9
$REGENMODE
 70
     1
  9
$FILLMODE
 70
     1
  9
$QTEXTMODE
 70
     0
  9
$MIRRTEXT
 70
     1
  9
$LTSCALE
 40
1.0
  9
$ATTMODE
 70
     1
  9
$TEXTSIZE
 40
0.2
  9
$TRACEWID
 40
0.05
  9
$TEXTSTYLE
  7
Standard
  9
$CLAYER
  8
0
  9
$CELTYPE
  6
ByLayer
  9
$CECOLOR
 62
   256
  9
$CELTSCALE
 40
1.0
  9
$DISPSILH
 70
     0
  9
$DIMSCALE
 40
1.0
  9
$DIMASZ
 40
0.18
  9
$DIMEXO
 40
0.0625
  9
$DIMDLI
 40
0.38
  9
$DIMRND
 40
0.0
  9
$DIMDLE
 40
0.0
  9
$DIMEXE
 40
0.18
  9
$DIMTP
 40
0.0
  9
$DIMTM
 40
0.0
  9
$DIMTXT
 40
0.18
  9
$DIMCEN
 40
0.09
  9
$DIMTSZ
 40
0.0
  9
$DIMTOL
 70
     0
  9
$DIMLIM
 70
     0
  9
$DIMTIH
 70
     1
  9
$DIMTOH
 70
     1
  9
$DIMSE1
 70
     0
  9
$DIMSE2
 70
     0
  9
$DIMTAD
 70
     0
  9
$DIMZIN
 70
     0
  9
$DIMBLK
  1

  9
$DIMASO
 70
     1
  9
$DIMSHO
 70
     1
  9
$DIMPOST
  1

  9
$DIMAPOST
  1

  9
$DIMALT
 70
     0
  9
$DIMALTD
 70
     2
  9
$DIMALTF
 40
25.4
  9
$DIMLFAC
 40
1.0
  9
$DIMTOFL
 70
     0
  9
$DIMTVP
 40
0.0
  9
$DIMTIX
 70
     0
  9
$DIMSOXD
 70
     0
  9
$DIMSAH
 70
     0
  9
$DIMBLK1
  1

  9
$DIMBLK2
  1

  9
$DIMSTYLE
  2
Standard
  9
$DIMCLRD
 70
     0
  9
$DIMCLRE
 70
     0
  9
$DIMCLRT
 70
     0
  9
$DIMTFAC
 40
1.0
  9
$DIMGAP
 40
0.09
  9
$DIMJUST
 70
     0
  9
$DIMSD1
 70
     0
  9
$DIMSD2
 70
     0
  9
$DIMTOLJ
 70
     1
  9
$DIMTZIN
 70
     0
  9
$DIMALTZ
 70
     0
  9
$DIMALTTZ
 70
     0
  9
$DIMUPT
 70
     0
  9
$DIMDEC
 70
     4
  9
$DIMTDEC
 70
     4
  9
$DIMALTU
 70
     2
  9
$DIMALTTD
 70
     2
  9
$DIMTXSTY
  7
Standard
  9
$DIMAUNIT
 70
     0
  9
$DIMADEC
 70
     0
  9
$DIMALTRND
 40
0.0
  9
$DIMAZIN
 70
     0
  9
$DIMDSEP
 70
    46
  9
$DIMATFIT
 70
     3
  9
$DIMFRAC
 70
     0
  9
$DIMLDRBLK
  1

  9
$DIMLUNIT
 70
     2
  9
$DIMLWD
 70
    -2
  9
$DIMLWE
 70
    -2
  9
$DIMTMOVE
 70
     0
  9
$DIMFXL
 40
1.0
  9
$DIMFXLON
 70
     0
  9
$DIMJOGANG
 40
0.7853981633974483
  9
$DIMTFILL
 70
     0
  9
$DIMTFILLCLR
 70
     0
  9
$DIMARCSYM
 70
     0
  9
$DIMLTYPE
  6

  9
$DIMLTEX1
  6

  9
$DIMLTEX2
  6

  9
$LUNITS
 70
     2
  9
$LUPREC
 70
     4
  9
$SKETCHINC
 40
0.1
  9
$FILLETRAD
 40
0.5
  9
$AUNITS
 70
     0
  9
$AUPREC
 70
     0
  9
$MENU
  1
.
  9
$ELEVATION
 40
0.0
  9
$PELEVATION
 40
0.0
  9
$THICKNESS
 40
0.0
  9
$LIMCHECK
 70
     0
  9
$CHAMFERA
 40
0.0
  9
$CHAMFERB
 40
0.0
  9
$CHAMFERC
 40
0.0
  9
$CHAMFERD
 40
0.0
  9
$SKPOLY
 70
     0
  9
$TDCREATE
 40
2457728.946406528
  9
$TDUCREATE
 40
2457728.904739861
  9
$TDUPDATE
 40
2457728.946406562
  9
$TDUUPDATE
 40
2457728.904739896
  9
$TDINDWG
 40
0.0000000116
  9
$TDUSRTIMER
 40
0.0000000116
  9
$USRTIMER
 70
     1
  9
$ANGBASE
 50
0.0
  9
$ANGDIR
 70
     0
  9
$PDMODE
 70
     0
  9
$PDSIZE
 40
0.0
  9
$PLINEWID
 40
0.0
  9
$SPLFRAME
 70
     0
  9
$SPLINETYPE
 70
     6
  9
$SPLINESEGS
 70
     8
  9
$HANDSEED
  5
CD
  9
$SURFTAB1
 70
     6
  9
$SURFTAB2
 70
     6
  9
$SURFTYPE
 70
     6
  9
$SURFU
 70
     6
  9
$SURFV
 70
     6
  9
$UCSBASE
  2

  9
$UCSNAME
  2

  9
$UCSORG
 10
0.0
 20
0.0
 30
0.0
  9
$UCSXDIR
 10
1.0
 20
0.0
 30
0.0
  9
$UCSYDIR
 10
0.0
 20
1.0
 30
0.0
  9
$UCSORTHOREF
  2

  9
$UCSORTHOVIEW
 70
     0
  9
$UCSORGTOP
 10
0.0
 20
0.0
 30
0.0
  9
$UCSORGBOTTOM
 10
0.0
 20
0.0
 30
0.0
  9
$UCSORGLEFT
 10
0.0
 20
0.0
 30
0.0
  9
$UCSORGRIGHT
 10
0.0
 20
0.0
 30
0.0
  9
$UCSORGFRONT
 10
0.0
 20
0.0
 30
0.0
  9
$UCSORGBACK
 10
0.0
 20
0.0
 30
0.0
  9
$PUCSBASE
  2

  9
$PUCSNAME
  2

  9
$PUCSORG
 10
0.0
 20
0.0
 30
0.0
  9
$PUCSXDIR
 10
1.0
 20
0.0
 30
0.0
  9
$PUCSYDIR
 10
0.0
 20
1.0
 30
0.0
  9
$PUCSORTHOREF
  2

  9
$PUCSORTHOVIEW
 70
     0
  9
$PUCSORGTOP
 10
0.0
 20
0.0
 30
0.0
  9
$PUCSORGBOTTOM
 10
0.0
 20
0.0
 30
0.0
  9
$PUCSORGLEFT
 10
0.0
 20
0.0
 30
0.0
  9
$PUCSORGRIGHT
 10
0.0
 20
0.0
 30
0.0
  9
$PUCSORGFRONT
 10
0.0
 20
0.0
 30
0.0
  9
$PUCSORGBACK
 10
0.0
 20
0.0
 30
0.0
  9
$USERI1
 70
     0
  9
$USERI2
 70
     0
  9
$USERI3
 70
     0
  9
$USERI4
 70
     0
  9
$USERI5
 70
     0
  9
$USERR1
 40
0.0
  9
$USERR2
 40
0.0
  9
$USERR3
 40
0.0
  9
$USERR4
 40
0.0
  9
$USERR5
 40
0.0
  9
$WORLDVIEW
 70
     1
  9
$SHADEDGE
 70
     3
  9
$SHADEDIF
 70
    70
  9
$TILEMODE
 70
     1
  9
$MAXACTVP
 70
    64
  9
$PINSBASE
 10
0.0
 20
0.0
 30
0.0
  9
$PLIMCHECK
 70
     0
  9
$PEXTMIN
 10
1.000000000000000E+20
 20
1.000000000000000E+20
 30
1.000000000000000E+20
  9
$PEXTMAX
 10
-1.000000000000000E+20
 20
-1.000000000000000E+20
 30
-1.000000000000000E+20
  9
$PLIMMIN
 10
0.0
 20
0.0
  9
$PLIMMAX
 10
12.0
 20
9.0
  9
$UNITMODE
 70
     0
  9
$VISRETAIN
 70
     1
  9
$PLINEGEN
 70
     0
  9
$PSLTSCALE
 70
     1
  9
$TREEDEPTH
 70
  3020
  9
$CMLSTYLE
  2
Standard
  9
$CMLJUST
 70
     0
  9
$CMLSCALE
 40
1.0
  9
$PROXYGRAPHICS
 70
     1
  9
$MEASUREMENT
 70
     0
  9
$CELWEIGHT
370
    -1
  9
$ENDCAPS
280
     0
  9
$JOINSTYLE
280
     0
  9
$LWDISPLAY
290
     0
  9
$INSUNITS
 70
     5
  9
$HYPERLINKBASE
  1

  9
$STYLESHEET
  1

  9
$XEDIT
290
     1
  9
$CEPSNTYPE
380
     0
  9
$PSTYLEMODE
290
     1
  9
$FINGERPRINTGUID
  2
{922A9F0A-5E51-4E43-8622-765C863D24EC}
  9
$VERSIONGUID
  2
{FAEB1C32-E019-11D5-929B-00C0DF256EC4}
  9
$EXTNAMES
290
     1
  9
$PSVPSCALE
 40
0.0
  9
$OLESTARTUP
290
     0
  9
$SORTENTS
280
   127
  9
$INDEXCTL
280
     0
  9
$HIDETEXT
280
     1
  9
$XCLIPFRAME
290
     0
  9
$HALOGAP
280
     0
  9
$OBSCOLOR
 70
   257
  9
$OBSLTYPE
280
     0
  9
$INTERSECTIONDISPLAY
280
     0
  9
$INTERSECTIONCOLOR
 70
   257
  9
$DIMASSOC
280
     2
  9
$PROJECTNAME
  1

  9
$CAMERADISPLAY
290
     0
  9
$LENSLENGTH
 40
50.0
  9
$CAMERAHEIGHT
 40
0.0
  9
$STEPSPERSEC
 40
2.0
  9
$STEPSIZE
 40
6.0
  9
$3DDWFPREC
 40
2.0
  9
$PSOLWIDTH
 40
0.25
  9
$PSOLHEIGHT
 40
4.0
  9
$LOFTANG1
 40
1.570796326794897
  9
$LOFTANG2
 40
1.570796326794897
  9
$LOFTMAG1
 40
0.0
  9
$LOFTMAG2
 40
0.0
  9
$LOFTPARAM
 70
     7
  9
$LOFTNORMALS
280
     1
  9
$LATITUDE
 40
37.795
  9
$LONGITUDE
 40
-122.394
  9
$NORTHDIRECTION
 40
0.0
  9
$TIMEZONE
 70
 -8000
  9
$LIGHTGLYPHDISPLAY
280
     1
  9
$TILEMODELIGHTSYNCH
280
     1
  9
$CMATERIAL
347
44
  9
$SOLIDHIST
280
     0
  9
$SHOWHIST
280
     1
  9
$DWFFRAME
280
     2
  9
$DGNFRAME
280
     2
  9
$REALWORLDSCALE
290
     1
  9
$INTERFERECOLOR
 62
   256
  9
$CSHADOW
280
     0
  9
$SHADOWPLANELOCATION
 40
0.0
  0
ENDSEC
  0
SECTION
  2
CLASSES
  0
CLASS
  1
ACDBDICTIONARYWDFLT
  2
AcDbDictionaryWithDefault
  3
ObjectDBX Classes
 90
        0
 91
        4
280
     0
281
     0
  0
CLASS
  1
VISUALSTYLE
  2
AcDbVisualStyle
  3
ObjectDBX Classes
 90
     4095
 91
        4
280
     0
281
     0
  0
CLASS
  1
MATERIAL
  2
AcDbMaterial
  3
ObjectDBX Classes
 90
     1153
 91
        4
280
     0
281
     0
  0
CLASS
  1
SCALE
  2
AcDbScale
  3
ObjectDBX Classes
 90
     1153
 91
        4
280
     0
281
     0
  0
CLASS
  1
TABLESTYLE
  2
AcDbTableStyle
  3
ObjectDBX Classes
 90
     4095
 91
        4
280
     0
281
     0
  0
CLASS
  1
MLEADERSTYLE
  2
AcDbMLeaderStyle
  3
ACDB_MLEADERSTYLE_CLASS
 90
     4095
 91
        4
280
     0
281
     0
  0
CLASS
  1
SUN
  2
AcDbSun
  3
SCENEOE
 90
     1153
 91
        4
280
     0
281
     0
  0
CLASS
  1
DICTIONARYVAR
  2
AcDbDictionaryVar
  3
ObjectDBX Classes
 90
        0
 91
        4
280
     0
281
     0
  0
CLASS
  1
CELLSTYLEMAP
  2
AcDbCellStyleMap
  3
ObjectDBX Classes
 90
     1152
 91
        4
280
     0
281
     0
  0
ENDSEC
  0
SECTION
  2
TABLES
  0
TABLE
  2
VPORT
  5
8
330
0
100
AcDbSymbolTable
 70
     1
  0
VPORT
  5
29
330
8
100
AcDbSymbolTableRecord
100
AcDbViewportTableRecord
  2
*Active
 70
     0
 10
0.0
 20
0.0
 11
1.0
 21
1.0
 12
10.42990654205607
 22
4.5
 13
0.0
 23
0.0
 14
0.5
 24
0.5
 15
0.5
 25
0.5
 16
0.0
 26
0.0
 36
1.0
 17
0.0
 27
0.0
 37
0.0
 40
9.0
 41
1.972972972850329
 42
50.0
 43
0.0
 44
0.0
 50
0.0
 51
0.0
 71
     0
 72
   100
 73
     1
 74
     3
 75
     0
 76
     0
 77
     0
 78
     0
281
     0
 65
     1
110
0.0
120
0.0
130
0.0
111
1.0
121
0.0
131
0.0
112
0.0
122
1.0
132
0.0
 79
     0
146
0.0
 60
     3
 61
     5
292
     1
282
     1
141
0.0
142
0.0
 63
   250
361
6D
  0
ENDTAB
  0
TABLE
  2
LTYPE
  5
5
330
0
100
AcDbSymbolTable
 70
     1
  0
LTYPE
  5
14
330
5
100
AcDbSymbolTableRecord
100
AcDbLinetypeTableRecord
  2
ByBlock
 70
     0
  3

 72
    65
 73
     0
 40
0.0
  0
LTYPE
  5
15
330
5
100
AcDbSymbolTableRecord
100
AcDbLinetypeTableRecord
  2
ByLayer
 70
     0
  3

 72
    65
 73
     0
 40
0.0
  0
LTYPE
  5
16
330
5
100
AcDbSymbolTableRecord
100
AcDbLinetypeTableRecord
  2
Continuous
 70
     0
  3
Solid line
 72
    65
 73
     0
 40
0.0
  0
ENDTAB
  0
TABLE
  2
LAYER
  5
2
330
0
100
AcDbSymbolTable
 70
     2
  0
LAYER
  5
10
330
2
100
AcDbSymbolTableRecord
100
AcDbLayerTableRecord
  2
0
 70
     0
 62
     7
  6
Continuous
370
    -3
390
F
347
46
  0
LAYER
  5
6F
330
2
100
AcDbSymbolTableRecord
100
AcDbLayerTableRecord
  2
Layer 1
 70
     0
 62
     7
  6
Continuous
370
    -3
390
F
347
46
  0
ENDTAB
  0
TABLE
  2
STYLE
  5
3
330
0
100
AcDbSymbolTable
 70
     1
  0
STYLE
  5
11
330
3
100
AcDbSymbolTableRecord
100
AcDbTextStyleTableRecord
  2
Standard
 70
     0
 40
0.0
 41
1.0
 50
0.0
 71
     0
 42
0.2
  3
txt
  4

  0
ENDTAB
  0
TABLE
  2
VIEW
  5
6
330
0
100
AcDbSymbolTable
 70
     0
  0
ENDTAB
  0
TABLE
  2
UCS
  5
7
330
0
100
AcDbSymbolTable
 70
     0
  0
ENDTAB
  0
TABLE
  2
APPID
  5
9
330
0
100
AcDbSymbolTable
 70
     3
  0
APPID
  5
12
330
9
100
AcDbSymbolTableRecord
100
AcDbRegAppTableRecord
  2
ACAD
 70
     0
  0
APPID
  5
6E
330
9
100
AcDbSymbolTableRecord
100
AcDbRegAppTableRecord
  2
ODA
 70
     0
  0
APPID
  5
C5
330
9
100
AcDbSymbolTableRecord
100
AcDbRegAppTableRecord
  2
ACAD_MLEADERVER
 70
     0
  0
ENDTAB
  0
TABLE
  2
DIMSTYLE
  5
A
330
0
100
AcDbSymbolTable
 70
     1
100
AcDbDimStyleTable
  0
DIMSTYLE
105
27
330
A
100
AcDbSymbolTableRecord
100
AcDbDimStyleTableRecord
  2
Standard
 70
     0
178
     0
340
11
  0
ENDTAB
  0
TABLE
  2
BLOCK_RECORD
  5
1
330
0
100
AcDbSymbolTable
 70
     1
  0
BLOCK_RECORD
  5
1F
330
1
100
AcDbSymbolTableRecord
100
AcDbBlockTableRecord
  2
*Model_Space
340
22
 70
     0
280
     1
281
     0
  0
BLOCK_RECORD
  5
1B
330
1
100
AcDbSymbolTableRecord
100
AcDbBlockTableRecord
  2
*Paper_Space
340
1E
 70
     0
280
     1
281
     0
  0
BLOCK_RECORD
  5
23
330
1
100
AcDbSymbolTableRecord
100
AcDbBlockTableRecord
  2
*Paper_Space0
340
26
 70
     0
280
     1
281
     0
  0
ENDTAB
  0
ENDSEC
  0
SECTION
  2
BLOCKS
  0
BLOCK
  5
20
330
1F
100
AcDbEntity
  8
0
100
AcDbBlockBegin
  2
*Model_Space
 70
     0
 10
0.0
 20
0.0
 30
0.0
  3
*Model_Space
  1
*Model_Space
  0
ENDBLK
  5
21
330
1F
100
AcDbEntity
  8
0
100
AcDbBlockEnd
  0
BLOCK
  5
1C
330
1B
100
AcDbEntity
 67
     1
  8
0
100
AcDbBlockBegin
  2
*Paper_Space
 70
     0
 10
0.0
 20
0.0
 30
0.0
  3
*Paper_Space
  1
*Paper_Space
  0
ENDBLK
  5
1D
330
1B
100
AcDbEntity
 67
     1
  8
0
100
AcDbBlockEnd
  0
BLOCK
  5
24
330
23
100
AcDbEntity
  8
0
100
AcDbBlockBegin
  2
*Paper_Space0
 70
     0
 10
0.0
 20
0.0
 30
0.0
  3
*Paper_Space0
  1
*Paper_Space0
  0
ENDBLK
  5
25
330
23
100
AcDbEntity
  8
0
100
AcDbBlockEnd
  0
ENDSEC
  0
SECTION
  2
ENTITIES
  0
SPLINE
  5
70
330
1F
100
AcDbEntity
  8
Layer 1
370
     9
100
AcDbSpline
210
0.0
220
0.0
230
1.0
 70
    11
 71
     3
 72
   532
 73
   528
 74
     0
 42
0.000000001
 43
0.0000000001
 40
0.0
 40
0.0
 40
0.0
 40
0.0
 40
0.0075187969924812
 40
0.0075187969924812
 40
0.0075187969924812
 40
0.0075187969924812
 40
0.0150375939849624
 40
0.0150375939849624
 40
0.0150375939849624
 40
0.0150375939849624
 40
0.0225563909774436
 40
0.0225563909774436
 40
0.0225563909774436
 40
0.0225563909774436
 40
0.0300751879699248
 40
0.0300751879699248
 40
0.0300751879699248
 40
0.0300751879699248
 40
0.037593984962406
 40
0.037593984962406
 40
0.037593984962406
 40
0.037593984962406
 40
0.0451127819548872
 40
0.0451127819548872
 40
0.0451127819548872
 40
0.0451127819548872
 40
0.0526315789473684
 40
0.0526315789473684
 40
0.0526315789473684
 40
0.0526315789473684
 40
0.0601503759398496
 40
0.0601503759398496
 40
0.0601503759398496
 40
0.0601503759398496
 40
0.0676691729323308
 40
0.0676691729323308
 40
0.0676691729323308
 40
0.0676691729323308
 40
0.075187969924812
 40
0.075187969924812
 40
0.075187969924812
 40
0.075187969924812
 40
0.0827067669172932
 40
0.0827067669172932
 40
0.0827067669172932
 40
0.0827067669172932
 40
0.0902255639097744
 40
0.0902255639097744
 40
0.0902255639097744
 40
0.0902255639097744
 40
0.0977443609022556
 40
0.0977443609022556
 40
0.0977443609022556
 40
0.0977443609022556
 40
0.1052631578947368
 40
0.1052631578947368
 40
0.1052631578947368
 40
0.1052631578947368
 40
0.112781954887218
 40
0.112781954887218
 40
0.112781954887218
 40
0.112781954887218
 40
0.1203007518796992
 40
0.1203007518796992
 40
0.1203007518796992
 40
0.1203007518796992
 40
0.1278195488721804
 40
0.1278195488721804
 40
0.1278195488721804
 40
0.1278195488721804
 40
0.1353383458646616
 40
0.1353383458646616
 40
0.1353383458646616
 40
0.1353383458646616
 40
0.1428571428571428
 40
0.1428571428571428
 40
0.1428571428571428
 40
0.1428571428571428
 40
0.1503759398496241
 40
0.1503759398496241
 40
0.1503759398496241
 40
0.1503759398496241
 40
0.1578947368421053
 40
0.1578947368421053
 40
0.1578947368421053
 40
0.1578947368421053
 40
0.1654135338345865
 40
0.1654135338345865
 40
0.1654135338345865
 40
0.1654135338345865
 40
0.1729323308270677
 40
0.1729323308270677
 40
0.1729323308270677
 40
0.1729323308270677
 40
0.1804511278195489
 40
0.1804511278195489
 40
0.1804511278195489
 40
0.1804511278195489
 40
0.1879699248120301
 40
0.1879699248120301
 40
0.1879699248120301
 40
0.1879699248120301
 40
0.1954887218045113
 40
0.1954887218045113
 40
0.1954887218045113
 40
0.1954887218045113
 40
0.2030075187969925
 40
0.2030075187969925
 40
0.2030075187969925
 40
0.2030075187969925
 40
0.2105263157894737
 40
0.2105263157894737
 40
0.2105263157894737
 40
0.2105263157894737
 40
0.2180451127819549
 40
0.2180451127819549
 40
0.2180451127819549
 40
0.2180451127819549
 40
0.2255639097744361
 40
0.2255639097744361
 40
0.2255639097744361
 40
0.2255639097744361
 40
0.2330827067669173
 40
0.2330827067669173
 40
0.2330827067669173
 40
0.2330827067669173
 40
0.2406015037593985
 40
0.2406015037593985
 40
0.2406015037593985
 40
0.2406015037593985
 40
0.2481203007518797
 40
0.2481203007518797
 40
0.2481203007518797
 40
0.2481203007518797
 40
0.2556390977443609
 40
0.2556390977443609
 40
0.2556390977443609
 40
0.2556390977443609
 40
0.2631578947368421
 40
0.2631578947368421
 40
0.2631578947368421
 40
0.2631578947368421
 40
0.2706766917293233
 40
0.2706766917293233
 40
0.2706766917293233
 40
0.2706766917293233
 40
0.2781954887218045
 40
0.2781954887218045
 40
0.2781954887218045
 40
0.2781954887218045
 40
0.2857142857142857
 40
0.2857142857142857
 40
0.2857142857142857
 40
0.2857142857142857
 40
0.2932330827067669
 40
0.2932330827067669
 40
0.2932330827067669
 40
0.2932330827067669
 40
0.3007518796992481
 40
0.3007518796992481
 40
0.3007518796992481
 40
0.3007518796992481
 40
0.3082706766917293
 40
0.3082706766917293
 40
0.3082706766917293
 40
0.3082706766917293
 40
0.3157894736842105
 40
0.3157894736842105
 40
0.3157894736842105
 40
0.3157894736842105
 40
0.3233082706766917
 40
0.3233082706766917
 40
0.3233082706766917
 40
0.3233082706766917
 40
0.3308270676691729
 40
0.3308270676691729
 40
0.3308270676691729
 40
0.3308270676691729
 40
0.3383458646616541
 40
0.3383458646616541
 40
0.3383458646616541
 40
0.3383458646616541
 40
0.3458646616541353
 40
0.3458646616541353
 40
0.3458646616541353
 40
0.3458646616541353
 40
0.3533834586466165
 40
0.3533834586466165
 40
0.3533834586466165
 40
0.3533834586466165
 40
0.3609022556390977
 40
0.3609022556390977
 40
0.3609022556390977
 40
0.3609022556390977
 40
0.3684210526315789
 40
0.3684210526315789
 40
0.3684210526315789
 40
0.3684210526315789
 40
0.3759398496240601
 40
0.3759398496240601
 40
0.3759398496240601
 40
0.3759398496240601
 40
0.3834586466165413
 40
0.3834586466165413
 40
0.3834586466165413
 40
0.3834586466165413
 40
0.3909774436090225
 40
0.3909774436090225
 40
0.3909774436090225
 40
0.3909774436090225
 40
0.3984962406015037
 40
0.3984962406015037
 40
0.3984962406015037
 40
0.3984962406015037
 40
0.4060150375939849
 40
0.4060150375939849
 40
0.4060150375939849
 40
0.4060150375939849
 40
0.4135338345864661
 40
0.4135338345864661
 40
0.4135338345864661
 40
0.4135338345864661
 40
0.4210526315789473
 40
0.4210526315789473
 40
0.4210526315789473
 40
0.4210526315789473
 40
0.4285714285714285
 40
0.4285714285714285
 40
0.4285714285714285
 40
0.4285714285714285
 40
0.4360902255639098
 40
0.4360902255639098
 40
0.4360902255639098
 40
0.4360902255639098
 40
0.443609022556391
 40
0.443609022556391
 40
0.443609022556391
 40
0.443609022556391
 40
0.4511278195488722
 40
0.4511278195488722
 40
0.4511278195488722
 40
0.4511278195488722
 40
0.4586466165413534
 40
0.4586466165413534
 40
0.4586466165413534
 40
0.4586466165413534
 40
0.4661654135338346
 40
0.4661654135338346
 40
0.4661654135338346
 40
0.4661654135338346
 40
0.4736842105263158
 40
0.4736842105263158
 40
0.4736842105263158
 40
0.4736842105263158
 40
0.481203007518797
 40
0.481203007518797
 40
0.481203007518797
 40
0.481203007518797
 40
0.4887218045112782
 40
0.4887218045112782
 40
0.4887218045112782
 40
0.4887218045112782
 40
0.4962406015037594
 40
0.4962406015037594
 40
0.4962406015037594
 40
0.4962406015037594
 40
0.5037593984962406
 40
0.5037593984962406
 40
0.5037593984962406
 40
0.5037593984962406
 40
0.5112781954887218
 40
0.5112781954887218
 40
0.5112781954887218
 40
0.5112781954887218
 40
0.518796992481203
 40
0.518796992481203
 40
0.518796992481203
 40
0.518796992481203
 40
0.5263157894736842
 40
0.5263157894736842
 40
0.5263157894736842
 40
0.5263157894736842
 40
0.5338345864661654
 40
0.5338345864661654
 40
0.5338345864661654
 40
0.5338345864661654
 40
0.5413533834586466
 40
0.5413533834586466
 40
0.5413533834586466
 40
0.5413533834586466
 40
0.5488721804511278
 40
0.5488721804511278
 40
0.5488721804511278
 40
0.5488721804511278
 40
0.556390977443609
 40
0.556390977443609
 40
0.556390977443609
 40
0.556390977443609
 40
0.5639097744360902
 40
0.5639097744360902
 40
0.5639097744360902
 40
0.5639097744360902
 40
0.5714285714285714
 40
0.5714285714285714
 40
0.5714285714285714
 40
0.5714285714285714
 40
0.5789473684210527
 40
0.5789473684210527
 40
0.5789473684210527
 40
0.5789473684210527
 40
0.5864661654135338
 40
0.5864661654135338
 40
0.5864661654135338
 40
0.5864661654135338
 40
0.5939849624060151
 40
0.5939849624060151
 40
0.5939849624060151
 40
0.5939849624060151
 40
0.6015037593984962
 40
0.6015037593984962
 40
0.6015037593984962
 40
0.6015037593984962
 40
0.6090225563909775
 40
0.6090225563909775
 40
0.6090225563909775
 40
0.6090225563909775
 40
0.6165413533834586
 40
0.6165413533834586
 40
0.6165413533834586
 40
0.6165413533834586
 40
0.6240601503759399
 40
0.6240601503759399
 40
0.6240601503759399
 40
0.6240601503759399
 40
0.631578947368421
 40
0.631578947368421
 40
0.631578947368421
 40
0.631578947368421
 40
0.6390977443609023
 40
0.6390977443609023
 40
0.6390977443609023
 40
0.6390977443609023
 40
0.6466165413533834
 40
0.6466165413533834
 40
0.6466165413533834
 40
0.6466165413533834
 40
0.6541353383458647
 40
0.6541353383458647
 40
0.6541353383458647
 40
0.6541353383458647
 40
0.6616541353383458
 40
0.6616541353383458
 40
0.6616541353383458
 40
0.6616541353383458
 40
0.6691729323308271
 40
0.6691729323308271
 40
0.6691729323308271
 40
0.6691729323308271
 40
0.6766917293233082
 40
0.6766917293233082
 40
0.6766917293233082
 40
0.6766917293233082
 40
0.6842105263157895
 40
0.6842105263157895
 40
0.6842105263157895
 40
0.6842105263157895
 40
0.6917293233082706
 40
0.6917293233082706
 40
0.6917293233082706
 40
0.6917293233082706
 40
0.6992481203007519
 40
0.6992481203007519
 40
0.6992481203007519
 40
0.6992481203007519
 40
0.706766917293233
 40
0.706766917293233
 40
0.706766917293233
 40
0.706766917293233
 40
0.7142857142857143
 40
0.7142857142857143
 40
0.7142857142857143
 40
0.7142857142857143
 40
0.7218045112781954
 40
0.7218045112781954
 40
0.7218045112781954
 40
0.7218045112781954
 40
0.7293233082706767
 40
0.7293233082706767
 40
0.7293233082706767
 40
0.7293233082706767
 40
0.7368421052631579
 40
0.7368421052631579
 40
0.7368421052631579
 40
0.7368421052631579
 40
0.7443609022556391
 40
0.7443609022556391
 40
0.7443609022556391
 40
0.7443609022556391
 40
0.7518796992481203
 40
0.7518796992481203
 40
0.7518796992481203
 40
0.7518796992481203
 40
0.7593984962406015
 40
0.7593984962406015
 40
0.7593984962406015
 40
0.7593984962406015
 40
0.7669172932330827
 40
0.7669172932330827
 40
0.7669172932330827
 40
0.7669172932330827
 40
0.7744360902255639
 40
0.7744360902255639
 40
0.7744360902255639
 40
0.7744360902255639
 40
0.7819548872180451
 40
0.7819548872180451
 40
0.7819548872180451
 40
0.7819548872180451
 40
0.7894736842105263
 40
0.7894736842105263
 40
0.7894736842105263
 40
0.7894736842105263
 40
0.7969924812030075
 40
0.7969924812030075
 40
0.7969924812030075
 40
0.7969924812030075
 40
0.8045112781954887
 40
0.8045112781954887
 40
0.8045112781954887
 40
0.8045112781954887
 40
0.8120300751879699
 40
0.8120300751879699
 40
0.8120300751879699
 40
0.8120300751879699
 40
0.8195488721804511
 40
0.8195488721804511
 40
0.8195488721804511
 40
0.8195488721804511
 40
0.8270676691729323
 40
0.8270676691729323
 40
0.8270676691729323
 40
0.8270676691729323
 40
0.8345864661654135
 40
0.8345864661654135
 40
0.8345864661654135
 40
0.8345864661654135
 40
0.8421052631578947
 40
0.8421052631578947
 40
0.8421052631578947
 40
0.8421052631578947
 40
0.849624060150376
 40
0.849624060150376
 40
0.849624060150376
 40
0.849624060150376
 40
0.8571428571428571
 40
0.8571428571428571
 40
0.8571428571428571
 40
0.8571428571428571
 40
0.8646616541353384
 40
0.8646616541353384
 40
0.8646616541353384
 40
0.8646616541353384
 40
0.8721804511278195
 40
0.8721804511278195
 40
0.8721804511278195
 40
0.8721804511278195
 40
0.8796992481203008
 40
0.8796992481203008
 40
0.8796992481203008
 40
0.8796992481203008
 40
0.8872180451127819
 40
0.8872180451127819
 40
0.8872180451127819
 40
0.8872180451127819
 40
0.8947368421052632
 40
0.8947368421052632
 40
0.8947368421052632
 40
0.8947368421052632
 40
0.9022556390977443
 40
0.9022556390977443
 40
0.9022556390977443
 40
0.9022556390977443
 40
0.9097744360902256
 40
0.9097744360902256
 40
0.9097744360902256
 40
0.9097744360902256
 40
0.9172932330827067
 40
0.9172932330827067
 40
0.9172932330827067
 40
0.9172932330827067
 40
0.924812030075188
 40
0.924812030075188
 40
0.924812030075188
 40
0.924812030075188
 40
0.9323308270676691
 40
0.9323308270676691
 40
0.9323308270676691
 40
0.9323308270676691
 40
0.9398496240601504
 40
0.9398496240601504
 40
0.9398496240601504
 40
0.9398496240601504
 40
0.9473684210526315
 40
0.9473684210526315
 40
0.9473684210526315
 40
0.9473684210526315
 40
0.9548872180451128
 40
0.9548872180451128
 40
0.9548872180451128
 40
0.9548872180451128
 40
0.9624060150375939
 40
0.9624060150375939
 40
0.9624060150375939
 40
0.9624060150375939
 40
0.9699248120300752
 40
0.9699248120300752
 40
0.9699248120300752
 40
0.9699248120300752
 40
0.9774436090225563
 40
0.9774436090225563
 40
0.9774436090225563
 40
0.9774436090225563
 40
0.9849624060150376
 40
0.9849624060150376
 40
0.9849624060150376
 40
0.9849624060150376
 40
1.0
 40
1.0
 40
1.0
 40
1.0
 10
-41.77521
 20
-18.63985
 30
0.0
 10
-41.4031
 20
-19.01815
 30
0.0
 10
-41.0679
 20
-19.42992
 30
0.0
 10
-40.7213
 20
-19.83115
 30
0.0
 10
-40.7213
 20
-19.83115
 30
0.0
 10
-40.4402
 20
-20.15678
 30
0.0
 10
-40.15429
 20
-20.48834
 30
0.0
 10
-39.81794
 20
-20.75937
 30
0.0
 10
-39.81794
 20
-20.75937
 30
0.0
 10
-39.8026
 20
-20.76602
 30
0.0
 10
-39.78739
 20
-20.77306
 30
0.0
 10
-39.77215
 20
-20.78005
 30
0.0
 10
-39.77215
 20
-20.78005
 30
0.0
 10
-39.77085
 20
-20.77808
 30
0.0
 10
-39.76915
 20
-20.77643
 30
0.0
 10
-39.76713
 20
-20.77507
 30
0.0
 10
-39.76713
 20
-20.77507
 30
0.0
 10
-39.85493
 20
-20.49981
 30
0.0
 10
-39.948
 20
-20.23149
 30
0.0
 10
-40.07634
 20
-19.97023
 30
0.0
 10
-40.07634
 20
-19.97023
 30
0.0
 10
-40.221
 20
-19.67594
 30
0.0
 10
-40.37958
 20
-19.38911
 30
0.0
 10
-40.51971
 20
-19.09247
 30
0.0
 10
-40.51971
 20
-19.09247
 30
0.0
 10
-40.66797
 20
-18.77852
 30
0.0
 10
-40.80851
 20
-18.46064
 30
0.0
 10
-40.9616
 20
-18.1488
 30
0.0
 10
-40.9616
 20
-18.1488
 30
0.0
 10
-41.08385
 20
-17.90006
 30
0.0
 10
-41.22126
 20
-17.66026
 30
0.0
 10
-41.29215
 20
-17.39015
 30
0.0
 10
-41.29215
 20
-17.39015
 30
0.0
 10
-41.41547
 20
-16.92049
 30
0.0
 10
-41.39676
 20
-16.4312
 30
0.0
 10
-41.22357
 20
-15.97647
 30
0.0
 10
-41.22357
 20
-15.97647
 30
0.0
 10
-41.06554
 20
-15.56129
 30
0.0
 10
-40.74937
 20
-15.14428
 30
0.0
 10
-40.33793
 20
-14.95554
 30
0.0
 10
-40.33793
 20
-14.95554
 30
0.0
 10
-40.32781
 20
-14.95088
 30
0.0
 10
-40.31493
 20
-14.96394
 30
0.0
 10
-40.32485
 20
-14.97216
 30
0.0
 10
-40.32485
 20
-14.97216
 30
0.0
 10
-40.3266
 20
-14.97359
 30
0.0
 10
-40.32837
 20
-14.97511
 30
0.0
 10
-40.33018
 20
-14.97658
 30
0.0
 10
-40.33018
 20
-14.97658
 30
0.0
 10
-40.09301
 20
-15.05934
 30
0.0
 10
-39.86277
 20
-15.17402
 30
0.0
 10
-39.66474
 20
-15.32965
 30
0.0
 10
-39.66474
 20
-15.32965
 30
0.0
 10
-38.87428
 20
-15.95053
 30
0.0
 10
-38.90074
 20
-16.99217
 30
0.0
 10
-39.07749
 20
-17.8908
 30
0.0
 10
-39.07749
 20
-17.8908
 30
0.0
 10
-39.17999
 20
-18.41154
 30
0.0
 10
-39.33096
 20
-18.92054
 30
0.0
 10
-39.46691
 20
-19.43303
 30
0.0
 10
-39.46691
 20
-19.43303
 30
0.0
 10
-39.56276
 20
-19.79438
 30
0.0
 10
-39.65902
 20
-20.1612
 30
0.0
 10
-39.7053
 20
-20.53356
 30
0.0
 10
-39.7053
 20
-20.53356
 30
0.0
 10
-39.70554
 20
-20.53689
 30
0.0
 10
-39.70575
 20
-20.54011
 30
0.0
 10
-39.7061
 20
-20.54333
 30
0.0
 10
-39.7061
 20
-20.54333
 30
0.0
 10
-39.70614
 20
-20.54428
 30
0.0
 10
-39.70665
 20
-20.54509
 30
0.0
 10
-39.7069
 20
-20.54599
 30
0.0
 10
-39.7069
 20
-20.54599
 30
0.0
 10
-39.70857
 20
-20.56029
 30
0.0
 10
-39.71077
 20
-20.57443
 30
0.0
 10
-39.71244
 20
-20.58867
 30
0.0
 10
-39.71244
 20
-20.58867
 30
0.0
 10
-39.70861
 20
-20.59968
 30
0.0
 10
-39.70484
 20
-20.6107
 30
0.0
 10
-39.70108
 20
-20.62161
 30
0.0
 10
-39.70108
 20
-20.62161
 30
0.0
 10
-39.69649
 20
-20.63509
 30
0.0
 10
-39.70665
 20
-20.64365
 30
0.0
 10
-39.71803
 20
-20.64472
 30
0.0
 10
-39.71803
 20
-20.64472
 30
0.0
 10
-39.71989
 20
-20.66398
 30
0.0
 10
-39.72235
 20
-20.68326
 30
0.0
 10
-39.72396
 20
-20.70252
 30
0.0
 10
-39.72396
 20
-20.70252
 30
0.0
 10
-39.71885
 20
-20.72888
 30
0.0
 10
-39.71432
 20
-20.75534
 30
0.0
 10
-39.71028
 20
-20.78186
 30
0.0
 10
-39.71028
 20
-20.78186
 30
0.0
 10
-39.70487
 20
-20.78322
 30
0.0
 10
-39.70045
 20
-20.78719
 30
0.0
 10
-39.69757
 20
-20.79234
 30
0.0
 10
-39.69757
 20
-20.79234
 30
0.0
 10
-39.69672
 20
-20.78987
 30
0.0
 10
-39.69534
 20
-20.78744
 30
0.0
 10
-39.69338
 20
-20.78528
 30
0.0
 10
-39.69338
 20
-20.78528
 30
0.0
 10
-39.68754
 20
-20.77884
 30
0.0
 10
-39.68184
 20
-20.77236
 30
0.0
 10
-39.67602
 20
-20.76592
 30
0.0
 10
-39.67602
 20
-20.76592
 30
0.0
 10
-39.67867
 20
-20.75888
 30
0.0
 10
-39.67752
 20
-20.75057
 30
0.0
 10
-39.66908
 20
-20.74524
 30
0.0
 10
-39.66908
 20
-20.74524
 30
0.0
 10
-39.66067
 20
-20.74005
 30
0.0
 10
-39.65221
 20
-20.73522
 30
0.0
 10
-39.64402
 20
-20.73014
 30
0.0
 10
-39.64402
 20
-20.73014
 30
0.0
 10
-39.60573
 20
-20.68733
 30
0.0
 10
-39.56799
 20
-20.64435
 30
0.0
 10
-39.53051
 20
-20.6013
 30
0.0
 10
-39.53051
 20
-20.6013
 30
0.0
 10
-39.53241
 20
-20.59303
 30
0.0
 10
-39.53097
 20
-20.58373
 30
0.0
 10
-39.52442
 20
-20.57669
 30
0.0
 10
-39.52442
 20
-20.57669
 30
0.0
 10
-39.49016
 20
-20.53961
 30
0.0
 10
-39.45428
 20
-20.50414
 30
0.0
 10
-39.41792
 20
-20.46897
 30
0.0
 10
-39.41792
 20
-20.46897
 30
0.0
 10
-39.30783
 20
-20.33645
 30
0.0
 10
-39.20297
 20
-20.19985
 30
0.0
 10
-39.10672
 20
-20.05344
 30
0.0
 10
-39.10672
 20
-20.05344
 30
0.0
 10
-38.92685
 20
-19.77934
 30
0.0
 10
-38.76042
 20
-19.49698
 30
0.0
 10
-38.57603
 20
-19.22569
 30
0.0
 10
-38.57603
 20
-19.22569
 30
0.0
 10
-38.38091
 20
-18.93842
 30
0.0
 10
-38.17866
 20
-18.65581
 30
0.0
 10
-37.98787
 20
-18.3655
 30
0.0
 10
-37.98787
 20
-18.3655
 30
0.0
 10
-37.83578
 20
-18.13376
 30
0.0
 10
-37.69909
 20
-17.89362
 30
0.0
 10
-37.50241
 20
-17.69524
 30
0.0
 10
-37.50241
 20
-17.69524
 30
0.0
 10
-37.16069
 20
-17.35039
 30
0.0
 10
-36.72966
 20
-17.11785
 30
0.0
 10
-36.25004
 20
-17.0361
 30
0.0
 10
-36.25004
 20
-17.0361
 30
0.0
 10
-35.89451
 20
-16.97536
 30
0.0
 10
-35.48507
 20
-17.00374
 30
0.0
 10
-35.14471
 20
-17.15479
 30
0.0
 10
-35.14471
 20
-17.15479
 30
0.0
 10
-35.0938
 20
-17.16177
 30
0.0
 10
-35.04398
 20
-17.17566
 30
0.0
 10
-35.00409
 20
-17.20424
 30
0.0
 10
-35.00409
 20
-17.20424
 30
0.0
 10
-34.99232
 20
-17.20594
 30
0.0
 10
-34.98129
 20
-17.21243
 30
0.0
 10
-34.97561
 20
-17.22255
 30
0.0
 10
-34.97561
 20
-17.22255
 30
0.0
 10
-34.97013
 20
-17.2237
 30
0.0
 10
-34.96439
 20
-17.22502
 30
0.0
 10
-34.95881
 20
-17.22648
 30
0.0
 10
-34.95881
 20
-17.22648
 30
0.0
 10
-34.9417
 20
-17.23101
 30
0.0
 10
-34.94276
 20
-17.24973
 30
0.0
 10
-34.95332
 20
-17.25887
 30
0.0
 10
-34.95332
 20
-17.25887
 30
0.0
 10
-34.9424
 20
-17.26592
 30
0.0
 10
-34.93124
 20
-17.27266
 30
0.0
 10
-34.92057
 20
-17.28006
 30
0.0
 10
-34.92057
 20
-17.28006
 30
0.0
 10
-34.91157
 20
-17.2864
 30
0.0
 10
-34.91614
 20
-17.30416
 30
0.0
 10
-34.92836
 20
-17.29973
 30
0.0
 10
-34.92836
 20
-17.29973
 30
0.0
 10
-34.93054
 20
-17.29893
 30
0.0
 10
-34.93264
 20
-17.29823
 30
0.0
 10
-34.9348
 20
-17.29751
 30
0.0
 10
-34.9348
 20
-17.29751
 30
0.0
 10
-34.88566
 20
-17.54375
 30
0.0
 10
-34.86739
 20
-17.80029
 30
0.0
 10
-34.90079
 20
-18.05009
 30
0.0
 10
-34.90079
 20
-18.05009
 30
0.0
 10
-35.03392
 20
-19.04628
 30
0.0
 10
-35.94458
 20
-19.55278
 30
0.0
 10
-36.80835
 20
-19.85716
 30
0.0
 10
-36.80835
 20
-19.85716
 30
0.0
 10
-37.30891
 20
-20.03346
 30
0.0
 10
-37.82405
 20
-20.16207
 30
0.0
 10
-38.33438
 20
-20.3054
 30
0.0
 10
-38.33438
 20
-20.3054
 30
0.0
 10
-38.74865
 20
-20.42173
 30
0.0
 10
-39.17022
 20
-20.53976
 30
0.0
 10
-39.55844
 20
-20.72908
 30
0.0
 10
-39.55844
 20
-20.72908
 30
0.0
 10
-39.59355
 20
-20.76018
 30
0.0
 10
-39.62943
 20
-20.79026
 30
0.0
 10
-39.66686
 20
-20.81843
 30
0.0
 10
-39.66686
 20
-20.81843
 30
0.0
 10
-39.67821
 20
-20.82695
 30
0.0
 10
-39.6899
 20
-20.82075
 30
0.0
 10
-39.69538
 20
-20.81074
 30
0.0
 10
-39.69538
 20
-20.81074
 30
0.0
 10
-39.69598
 20
-20.81265
 30
0.0
 10
-39.69705
 20
-20.81442
 30
0.0
 10
-39.6983
 20
-20.81618
 30
0.0
 10
-39.6983
 20
-20.81618
 30
0.0
 10
-39.69594
 20
-20.81744
 30
0.0
 10
-39.6935
 20
-20.81849
 30
0.0
 10
-39.69116
 20
-20.81975
 30
0.0
 10
-39.69116
 20
-20.81975
 30
0.0
 10
-39.68618
 20
-20.82236
 30
0.0
 10
-39.68351
 20
-20.82613
 30
0.0
 10
-39.68221
 20
-20.8302
 30
0.0
 10
-39.68221
 20
-20.8302
 30
0.0
 10
-39.67358
 20
-20.83409
 30
0.0
 10
-39.66519
 20
-20.83827
 30
0.0
 10
-39.65669
 20
-20.84224
 30
0.0
 10
-39.65669
 20
-20.84224
 30
0.0
 10
-39.61604
 20
-20.84802
 30
0.0
 10
-39.57574
 20
-20.8536
 30
0.0
 10
-39.53539
 20
-20.85909
 30
0.0
 10
-39.53539
 20
-20.85909
 30
0.0
 10
-39.53414
 20
-20.8438
 30
0.0
 10
-39.51854
 20
-20.82845
 30
0.0
 10
-39.50284
 20
-20.83545
 30
0.0
 10
-39.50284
 20
-20.83545
 30
0.0
 10
-39.47693
 20
-20.84732
 30
0.0
 10
-39.45142
 20
-20.85985
 30
0.0
 10
-39.42615
 20
-20.87308
 30
0.0
 10
-39.42615
 20
-20.87308
 30
0.0
 10
-39.21742
 20
-20.89878
 30
0.0
 10
-39.00918
 20
-20.91646
 30
0.0
 10
-38.7958
 20
-20.91529
 30
0.0
 10
-38.7958
 20
-20.91529
 30
0.0
 10
-38.46796
 20
-20.91348
 30
0.0
 10
-38.14067
 20
-20.89592
 30
0.0
 10
-37.81263
 20
-20.89934
 30
0.0
 10
-37.81263
 20
-20.89934
 30
0.0
 10
-37.46533
 20
-20.90292
 30
0.0
 10
-37.11808
 20
-20.91514
 30
0.0
 10
-36.77076
 20
-20.91333
 30
0.0
 10
-36.77076
 20
-20.91333
 30
0.0
 10
-36.49359
 20
-20.91181
 30
0.0
 10
-36.21788
 20
-20.8929
 30
0.0
 10
-35.94377
 20
-20.94693
 30
0.0
 10
-35.94377
 20
-20.94693
 30
0.0
 10
-35.46746
 20
-21.04087
 30
0.0
 10
-35.03528
 20
-21.2712
 30
0.0
 10
-34.70175
 20
-21.6254
 30
0.0
 10
-34.70175
 20
-21.6254
 30
0.0
 10
-34.41493
 20
-21.92979
 30
0.0
 10
-34.18796
 20
-22.36098
 30
0.0
 10
-34.17037
 20
-22.78813
 30
0.0
 10
-34.17037
 20
-22.78813
 30
0.0
 10
-34.17037
 20
-22.78859
 30
0.0
 10
-34.17041
 20
-22.78904
 30
0.0
 10
-34.17045
 20
-22.78948
 30
0.0
 10
-34.17045
 20
-22.78948
 30
0.0
 10
-34.17025
 20
-22.79381
 30
0.0
 10
-34.17045
 20
-22.79803
 30
0.0
 10
-34.17025
 20
-22.80227
 30
0.0
 10
-34.17025
 20
-22.80227
 30
0.0
 10
-34.16638
 20
-22.80096
 30
0.0
 10
-34.16261
 20
-22.7995
 30
0.0
 10
-34.15874
 20
-22.79809
 30
0.0
 10
-34.15874
 20
-22.79809
 30
0.0
 10
-34.13076
 20
-22.78818
 30
0.0
 10
-34.10088
 20
-22.82223
 30
0.0
 10
-34.12739
 20
-22.84433
 30
0.0
 10
-34.12739
 20
-22.84433
 30
0.0
 10
-34.16784
 20
-22.87793
 30
0.0
 10
-34.21257
 20
-22.90672
 30
0.0
 10
-34.26042
 20
-22.93166
 30
0.0
 10
-34.26042
 20
-22.93166
 30
0.0
 10
-34.42147
 20
-23.08175
 30
0.0
 10
-34.60189
 20
-23.21377
 30
0.0
 10
-34.79982
 20
-23.31032
 30
0.0
 10
-34.79982
 20
-23.31032
 30
0.0
 10
-35.70338
 20
-23.75066
 30
0.0
 10
-36.62913
 20
-23.27229
 30
0.0
 10
-37.36062
 20
-22.7213
 30
0.0
 10
-37.36062
 20
-22.7213
 30
0.0
 10
-37.78446
 20
-22.40188
 30
0.0
 10
-38.1766
 20
-22.04395
 30
0.0
 10
-38.57834
 20
-21.69805
 30
0.0
 10
-38.57834
 20
-21.69805
 30
0.0
 10
-38.90447
 20
-21.41736
 30
0.0
 10
-39.23602
 20
-21.13159
 30
0.0
 10
-39.60859
 20
-20.91298
 30
0.0
 10
-39.60859
 20
-20.91298
 30
0.0
 10
-39.63379
 20
-20.90623
 30
0.0
 10
-39.65888
 20
-20.89899
 30
0.0
 10
-39.68381
 20
-20.89129
 30
0.0
 10
-39.68381
 20
-20.89129
 30
0.0
 10
-39.67615
 20
-20.9078
 30
0.0
 10
-39.66846
 20
-20.92424
 30
0.0
 10
-39.66077
 20
-20.9407
 30
0.0
 10
-39.66077
 20
-20.9407
 30
0.0
 10
-39.66032
 20
-20.93803
 30
0.0
 10
-39.66017
 20
-20.93537
 30
0.0
 10
-39.65956
 20
-20.93275
 30
0.0
 10
-39.65956
 20
-20.93275
 30
0.0
 10
-39.65871
 20
-20.92788
 30
0.0
 10
-39.65095
 20
-20.92953
 30
0.0
 10
-39.65126
 20
-20.93421
 30
0.0
 10
-39.65126
 20
-20.93421
 30
0.0
 10
-39.65166
 20
-20.94261
 30
0.0
 10
-39.65171
 20
-20.95111
 30
0.0
 10
-39.65206
 20
-20.95952
 30
0.0
 10
-39.65206
 20
-20.95952
 30
0.0
 10
-39.65196
 20
-20.95977
 30
0.0
 10
-39.65186
 20
-20.95992
 30
0.0
 10
-39.65182
 20
-20.96012
 30
0.0
 10
-39.65182
 20
-20.96012
 30
0.0
 10
-39.65001
 20
-20.95811
 30
0.0
 10
-39.64638
 20
-20.95881
 30
0.0
 10
-39.64638
 20
-20.96218
 30
0.0
 10
-39.64638
 20
-20.96218
 30
0.0
 10
-39.64638
 20
-20.96531
 30
0.0
 10
-39.64628
 20
-20.96842
 30
0.0
 10
-39.64622
 20
-20.97159
 30
0.0
 10
-39.64622
 20
-20.97159
 30
0.0
 10
-39.63355
 20
-20.9986
 30
0.0
 10
-39.62072
 20
-21.02548
 30
0.0
 10
-39.60778
 20
-21.05229
 30
0.0
 10
-39.60778
 20
-21.05229
 30
0.0
 10
-39.59587
 20
-21.05138
 30
0.0
 10
-39.5843
 20
-21.05622
 30
0.0
 10
-39.5792
 20
-21.07021
 30
0.0
 10
-39.5792
 20
-21.07021
 30
0.0
 10
-39.56708
 20
-21.10361
 30
0.0
 10
-39.55728
 20
-21.13762
 30
0.0
 10
-39.54838
 20
-21.17194
 30
0.0
 10
-39.54838
 20
-21.17194
 30
0.0
 10
-39.47214
 20
-21.32246
 30
0.0
 10
-39.39039
 20
-21.46989
 30
0.0
 10
-39.2966
 20
-21.61332
 30
0.0
 10
-39.2966
 20
-21.61332
 30
0.0
 10
-39.11704
 20
-21.88769
 30
0.0
 10
-38.92449
 20
-22.15293
 30
0.0
 10
-38.74921
 20
-22.43016
 30
0.0
 10
-38.74921
 20
-22.43016
 30
0.0
 10
-38.56365
 20
-22.72367
 30
0.0
 10
-38.38529
 20
-23.02203
 30
0.0
 10
-38.19516
 20
-23.31279
 30
0.0
 10
-38.19516
 20
-23.31279
 30
0.0
 10
-38.04338
 20
-23.54473
 30
0.0
 10
-37.87769
 20
-23.76585
 30
0.0
 10
-37.77419
 20
-24.02531
 30
0.0
 10
-37.77419
 20
-24.02531
 30
0.0
 10
-37.59448
 20
-24.47627
 30
0.0
 10
-37.55318
 20
-24.96425
 30
0.0
 10
-37.66945
 20
-25.43668
 30
0.0
 10
-37.66945
 20
-25.43668
 30
0.0
 10
-37.77551
 20
-25.86811
 30
0.0
 10
-38.0383
 20
-26.32062
 30
0.0
 10
-38.42354
 20
-26.55835
 30
0.0
 10
-38.42354
 20
-26.55835
 30
0.0
 10
-38.43304
 20
-26.56429
 30
0.0
 10
-38.44739
 20
-26.55281
 30
0.0
 10
-38.43858
 20
-26.54345
 30
0.0
 10
-38.43858
 20
-26.54345
 30
0.0
 10
-38.43691
 20
-26.54184
 30
0.0
 10
-38.43541
 20
-26.54009
 30
0.0
 10
-38.43375
 20
-26.53838
 30
0.0
 10
-38.43375
 20
-26.53838
 30
0.0
 10
-38.4344
 20
-26.53828
 30
0.0
 10
-38.43496
 20
-26.53812
 30
0.0
 10
-38.43561
 20
-26.53797
 30
0.0
 10
-38.43561
 20
-26.53797
 30
0.0
 10
-38.44793
 20
-26.54044
 30
0.0
 10
-38.46122
 20
-26.53717
 30
0.0
 10
-38.47062
 20
-26.52972
 30
0.0
 10
-38.47062
 20
-26.52972
 30
0.0
 10
-38.70347
 20
-26.47618
 30
0.0
 10
-38.93259
 20
-26.39311
 30
0.0
 10
-39.13746
 20
-26.2694
 30
0.0
 10
-39.13746
 20
-26.2694
 30
0.0
 10
-39.99792
 20
-25.74977
 30
0.0
 10
-40.0991
 20
-24.71274
 30
0.0
 10
-40.03354
 20
-23.79921
 30
0.0
 10
-40.03354
 20
-23.79921
 30
0.0
 10
-39.99555
 20
-23.26997
 30
0.0
 10
-39.908
 20
-22.74622
 30
0.0
 10
-39.83575
 20
-22.22101
 30
0.0
 10
-39.83575
 20
-22.22101
 30
0.0
 10
-39.77709
 20
-21.79486
 30
0.0
 10
-39.71721
 20
-21.36117
 30
0.0
 10
-39.73604
 20
-20.92953
 30
0.0
 10
-39.73604
 20
-20.92953
 30
0.0
 10
-39.74223
 20
-20.91041
 30
0.0
 10
-39.74806
 20
-20.89109
 30
0.0
 10
-39.75374
 20
-20.87172
 30
0.0
 10
-39.75374
 20
-20.87172
 30
0.0
 10
-39.79377
 20
-20.91117
 30
0.0
 10
-39.83342
 20
-20.95082
 30
0.0
 10
-39.87273
 20
-20.99066
 30
0.0
 10
-39.87273
 20
-20.99066
 30
0.0
 10
-39.8744
 20
-20.99272
 30
0.0
 10
-39.87625
 20
-20.99479
 30
0.0
 10
-39.87868
 20
-20.9965
 30
0.0
 10
-39.87868
 20
-20.9965
 30
0.0
 10
-39.96743
 20
-21.08665
 30
0.0
 10
-40.05396
 20
-21.17818
 30
0.0
 10
-40.13729
 20
-21.27326
 30
0.0
 10
-40.13729
 20
-21.27326
 30
0.0
 10
-40.13572
 20
-21.28314
 30
0.0
 10
-40.13793
 20
-21.29349
 30
0.0
 10
-40.14659
 20
-21.30124
 30
0.0
 10
-40.14659
 20
-21.30124
 30
0.0
 10
-40.165
 20
-21.31765
 30
0.0
 10
-40.18381
 20
-21.33374
 30
0.0
 10
-40.20274
 20
-21.34974
 30
0.0
 10
-40.20274
 20
-21.34974
 30
0.0
 10
-40.24707
 20
-21.40267
 30
0.0
 10
-40.29038
 20
-21.4565
 30
0.0
 10
-40.33229
 20
-21.5123
 30
0.0
 10
-40.33229
 20
-21.5123
 30
0.0
 10
-40.52942
 20
-21.77437
 30
0.0
 10
-40.7134
 20
-22.04556
 30
0.0
 10
-40.91466
 20
-22.30468
 30
0.0
 10
-40.91466
 20
-22.30468
 30
0.0
 10
-41.12758
 20
-22.57893
 30
0.0
 10
-41.3475
 20
-22.84805
 30
0.0
 10
-41.55625
 20
-23.12562
 30
0.0
 10
-41.55625
 20
-23.12562
 30
0.0
 10
-41.72288
 20
-23.34711
 30
0.0
 10
-41.87458
 20
-23.57819
 30
0.0
 10
-42.08347
 20
-23.76354
 30
0.0
 10
-42.08347
 20
-23.76354
 30
0.0
 10
-42.44652
 20
-24.08599
 30
0.0
 10
-42.89145
 20
-24.29062
 30
0.0
 10
-43.3753
 20
-24.34188
 30
0.0
 10
-43.3753
 20
-24.34188
 30
0.0
 10
-43.78243
 20
-24.38495
 30
0.0
 10
-44.25134
 20
-24.30873
 30
0.0
 10
-44.59985
 20
-24.07608
 30
0.0
 10
-44.59985
 20
-24.07608
 30
0.0
 10
-44.60287
 20
-24.07638
 30
0.0
 10
-44.60579
 20
-24.07679
 30
0.0
 10
-44.6087
 20
-24.07714
 30
0.0
 10
-44.6087
 20
-24.07714
 30
0.0
 10
-44.63919
 20
-24.08041
 30
0.0
 10
-44.65736
 20
-24.05786
 30
0.0
 10
-44.6572
 20
-24.03538
 30
0.0
 10
-44.6572
 20
-24.03538
 30
0.0
 10
-44.66691
 20
-24.02812
 30
0.0
 10
-44.67693
 20
-24.02129
 30
0.0
 10
-44.6865
 20
-24.01378
 30
0.0
 10
-44.6865
 20
-24.01378
 30
0.0
 10
-44.69514
 20
-24.00685
 30
0.0
 10
-44.6894
 20
-23.98934
 30
0.0
 10
-44.67743
 20
-23.99458
 30
0.0
 10
-44.67743
 20
-23.99458
 30
0.0
 10
-44.67543
 20
-23.99553
 30
0.0
 10
-44.67331
 20
-23.99629
 30
0.0
 10
-44.67115
 20
-23.9973
 30
0.0
 10
-44.67115
 20
-23.9973
 30
0.0
 10
-44.70461
 20
-23.74834
 30
0.0
 10
-44.70642
 20
-23.49125
 30
0.0
 10
-44.65732
 20
-23.24412
 30
0.0
 10
-44.65732
 20
-23.24412
 30
0.0
 10
-44.46104
 20
-22.25828
 30
0.0
 10
-43.52004
 20
-21.81071
 30
0.0
 10
-42.63856
 20
-21.56191
 30
0.0
 10
-42.63856
 20
-21.56191
 30
0.0
 10
-42.12784
 20
-21.41781
 30
0.0
 10
-41.6057
 20
-21.32227
 30
0.0
 10
-41.08708
 20
-21.21174
 30
0.0
 10
-41.08708
 20
-21.21174
 30
0.0
 10
-40.66632
 20
-21.12198
 30
0.0
 10
-40.2381
 20
-21.03091
 30
0.0
 10
-39.83868
 20
-20.8667
 30
0.0
 10
-39.83868
 20
-20.8667
 30
0.0
 10
-39.82375
 20
-20.85512
 30
0.0
 10
-39.80864
 20
-20.8439
 30
0.0
 10
-39.79346
 20
-20.83273
 30
0.0
 10
-39.79346
 20
-20.83273
 30
0.0
 10
-39.90793
 20
-20.79861
 30
0.0
 10
-40.02188
 20
-20.76612
 30
0.0
 10
-40.13663
 20
-20.73668
 30
0.0
 10
-40.13663
 20
-20.73668
 30
0.0
 10
-40.1401
 20
-20.73764
 30
0.0
 10
-40.14387
 20
-20.73769
 30
0.0
 10
-40.14774
 20
-20.73623
 30
0.0
 10
-40.14774
 20
-20.73623
 30
0.0
 10
-40.15332
 20
-20.73382
 30
0.0
 10
-40.15891
 20
-20.73186
 30
0.0
 10
-40.16439
 20
-20.72964
 30
0.0
 10
-40.16439
 20
-20.72964
 30
0.0
 10
-40.31443
 20
-20.69195
 30
0.0
 10
-40.46586
 20
-20.65974
 30
0.0
 10
-40.62144
 20
-20.63741
 30
0.0
 10
-40.62144
 20
-20.63741
 30
0.0
 10
-40.94611
 20
-20.59093
 30
0.0
 10
-41.27243
 20
-20.56009
 30
0.0
 10
-41.59624
 20
-20.50846
 30
0.0
 10
-41.59624
 20
-20.50846
 30
0.0
 10
-41.93927
 20
-20.45387
 30
0.0
 10
-42.28099
 20
-20.39058
 30
0.0
 10
-42.62488
 20
-20.34117
 30
0.0
 10
-42.62488
 20
-20.34117
 30
0.0
 10
-42.89923
 20
-20.30183
 30
0.0
 10
-43.17469
 20
-20.2801
 30
0.0
 10
-43.43783
 20
-20.18626
 30
0.0
 10
-43.43783
 20
-20.18626
 30
0.0
 10
-43.89513
 20
-20.02325
 30
0.0
 10
-44.28862
 20
-19.73184
 30
0.0
 10
-44.56645
 20
-19.3323
 30
0.0
 10
-44.56645
 20
-19.3323
 30
0.0
 10
-44.82017
 20
-18.96774
 30
0.0
 10
-44.9862
 20
-18.47146
 30
0.0
 10
-44.91009
 20
-18.02519
 30
0.0
 10
-44.91009
 20
-18.02519
 30
0.0
 10
-44.90822
 20
-18.01427
 30
0.0
 10
-44.89015
 20
-18.01095
 30
0.0
 10
-44.889
 20
-18.02378
 30
0.0
 10
-44.889
 20
-18.02378
 30
0.0
 10
-44.88875
 20
-18.0261
 30
0.0
 10
-44.88844
 20
-18.0284
 30
0.0
 10
-44.88834
 20
-18.03062
 30
0.0
 10
-44.88834
 20
-18.03062
 30
0.0
 10
-44.68619
 20
-17.88144
 30
0.0
 10
-44.4617
 20
-17.75601
 30
0.0
 10
-44.22146
 20
-17.68024
 30
0.0
 10
-44.22146
 20
-17.68024
 30
0.0
 10
-43.26289
 20
-17.37772
 30
0.0
 10
-42.41765
 20
-17.9871
 30
0.0
 10
-41.77521
 20
-18.63985
 30
0.0
  0
SPLINE
  5
71
330
1F
100
AcDbEntity
  8
Layer 1
370
     9
100
AcDbSpline
210
0.0
220
0.0
230
1.0
 70
    11
 71
     3
 72
    40
 73
    36
 74
     0
 42
0.000000001
 43
0.0000000001
 40
0.0
 40
0.0
 40
0.0
 40
0.0
 40
0.1
 40
0.1
 40
0.1
 40
0.1
 40
0.2
 40
0.2
 40
0.2
 40
0.2
 40
0.3
 40
0.3
 40
0.3
 40
0.3
 40
0.4
 40
0.4
 40
0.4
 40
0.4
 40
0.5
 40
0.5
 40
0.5
 40
0.5
 40
0.6
 40
0.6
 40
0.6
 40
0.6
 40
0.7
 40
0.7
 40
0.7
 40
0.7
 40
0.8
 40
0.8
 40
0.8
 40
0.8
 40
1.0
 40
1.0
 40
1.0
 40
1.0
 10
-44.59981
 20
-23.89807
 30
0.0
 10
-44.59981
 20
-23.89807
 30
0.0
 10
-44.59981
 20
-23.89807
 30
0.0
 10
-44.59981
 20
-23.89807
 30
0.0
 10
-44.59981
 20
-23.89807
 30
0.0
 10
-44.52614
 20
-23.48631
 30
0.0
 10
-44.32826
 20
-23.06465
 30
0.0
 10
-44.05491
 20
-22.75301
 30
0.0
 10
-44.05491
 20
-22.75301
 30
0.0
 10
-43.73553
 20
-22.389
 30
0.0
 10
-43.32122
 20
-22.16571
 30
0.0
 10
-42.87001
 20
-22.0044
 30
0.0
 10
-42.87001
 20
-22.0044
 30
0.0
 10
-42.36491
 20
-21.82378
 30
0.0
 10
-41.84886
 20
-21.67733
 30
0.0
 10
-41.3395
 20
-21.50963
 30
0.0
 10
-41.3395
 20
-21.50963
 30
0.0
 10
-41.07445
 20
-21.42244
 30
0.0
 10
-40.81067
 20
-21.32936
 30
0.0
 10
-40.55356
 20
-21.22089
 30
0.0
 10
-40.55356
 20
-21.22089
 30
0.0
 10
-40.42361
 20
-21.1661
 30
0.0
 10
-40.29456
 20
-21.10905
 30
0.0
 10
-40.16828
 20
-21.04651
 30
0.0
 10
-40.16828
 20
-21.04651
 30
0.0
 10
-41.08039
 20
-21.36327
 30
0.0
 10
-42.0639
 20
-21.43341
 30
0.0
 10
-42.97727
 20
-21.75229
 30
0.0
 10
-42.97727
 20
-21.75229
 30
0.0
 10
-43.42948
 20
-21.91012
 30
0.0
 10
-43.89322
 20
-22.12832
 30
0.0
 10
-44.21078
 20
-22.49899
 30
0.0
 10
-44.21078
 20
-22.49899
 30
0.0
 10
-44.55145
 20
-22.89666
 30
0.0
 10
-44.63819
 20
-23.39198
 30
0.0
 10
-44.59981
 20
-23.89807
 30
0.0
  0
SPLINE
  5
72
330
1F
100
AcDbEntity
  8
Layer 1
370
     9
100
AcDbSpline
210
0.0
220
0.0
230
1.0
 70
    11
 71
     3
 72
    48
 73
    44
 74
     0
 42
0.000000001
 43
0.0000000001
 40
0.0
 40
0.0
 40
0.0
 40
0.0
 40
0.0833333333333333
 40
0.0833333333333333
 40
0.0833333333333333
 40
0.0833333333333333
 40
0.1666666666666667
 40
0.1666666666666667
 40
0.1666666666666667
 40
0.1666666666666667
 40
0.25
 40
0.25
 40
0.25
 40
0.25
 40
0.3333333333333333
 40
0.3333333333333333
 40
0.3333333333333333
 40
0.3333333333333333
 40
0.4166666666666667
 40
0.4166666666666667
 40
0.4166666666666667
 40
0.4166666666666667
 40
0.5
 40
0.5
 40
0.5
 40
0.5
 40
0.5833333333333334
 40
0.5833333333333334
 40
0.5833333333333334
 40
0.5833333333333334
 40
0.6666666666666666
 40
0.6666666666666666
 40
0.6666666666666666
 40
0.6666666666666666
 40
0.75
 40
0.75
 40
0.75
 40
0.75
 40
0.8333333333333334
 40
0.8333333333333334
 40
0.8333333333333334
 40
0.8333333333333334
 40
1.0
 40
1.0
 40
1.0
 40
1.0
 10
-40.47498
 20
-21.57157
 30
0.0
 10
-40.47498
 20
-21.57157
 30
0.0
 10
-40.47498
 20
-21.57157
 30
0.0
 10
-40.47498
 20
-21.57157
 30
0.0
 10
-40.47498
 20
-21.57157
 30
0.0
 10
-40.68986
 20
-21.80678
 30
0.0
 10
-40.91983
 20
-22.02866
 30
0.0
 10
-41.14881
 20
-22.24937
 30
0.0
 10
-41.14881
 20
-22.24937
 30
0.0
 10
-41.51061
 20
-22.59799
 30
0.0
 10
-41.86079
 20
-22.97131
 30
0.0
 10
-42.2562
 20
-23.28215
 30
0.0
 10
-42.2562
 20
-23.28215
 30
0.0
 10
-42.5864
 20
-23.54187
 30
0.0
 10
-42.96691
 20
-23.82104
 30
0.0
 10
-43.37741
 20
-23.93485
 30
0.0
 10
-43.37741
 20
-23.93485
 30
0.0
 10
-43.57086
 20
-23.98853
 30
0.0
 10
-43.76803
 20
-24.0059
 30
0.0
 10
-43.96783
 20
-24.0167
 30
0.0
 10
-43.96783
 20
-24.0167
 30
0.0
 10
-44.1488
 20
-24.02658
 30
0.0
 10
-44.32696
 20
-24.04619
 30
0.0
 10
-44.50627
 20
-24.06586
 30
0.0
 10
-44.50627
 20
-24.06586
 30
0.0
 10
-44.09512
 20
-24.23019
 30
0.0
 10
-43.68397
 20
-24.33021
 30
0.0
 10
-43.22934
 20
-24.24391
 30
0.0
 10
-43.22934
 20
-24.24391
 30
0.0
 10
-42.73955
 20
-24.15095
 30
0.0
 10
-42.28346
 20
-23.89843
 30
0.0
 10
-41.95553
 20
-23.52047
 30
0.0
 10
-41.95553
 20
-23.52047
 30
0.0
 10
-41.74834
 20
-23.28149
 30
0.0
 10
-41.57284
 20
-23.01263
 30
0.0
 10
-41.37678
 20
-22.76392
 30
0.0
 10
-41.37678
 20
-22.76392
 30
0.0
 10
-41.17282
 20
-22.50512
 30
0.0
 10
-40.96512
 20
-22.24872
 30
0.0
 10
-40.77001
 20
-21.98298
 30
0.0
 10
-40.77001
 20
-21.98298
 30
0.0
 10
-40.6728
 20
-21.8504
 30
0.0
 10
-40.5758
 20
-21.71038
 30
0.0
 10
-40.47498
 20
-21.57157
 30
0.0
  0
SPLINE
  5
73
330
1F
100
AcDbEntity
  8
Layer 1
370
     9
100
AcDbSpline
210
0.0
220
0.0
230
1.0
 70
    11
 71
     3
 72
    44
 73
    40
 74
     0
 42
0.000000001
 43
0.0000000001
 40
0.0
 40
0.0
 40
0.0
 40
0.0
 40
0.0909090909090909
 40
0.0909090909090909
 40
0.0909090909090909
 40
0.0909090909090909
 40
0.1818181818181818
 40
0.1818181818181818
 40
0.1818181818181818
 40
0.1818181818181818
 40
0.2727272727272727
 40
0.2727272727272727
 40
0.2727272727272727
 40
0.2727272727272727
 40
0.3636363636363636
 40
0.3636363636363636
 40
0.3636363636363636
 40
0.3636363636363636
 40
0.4545454545454545
 40
0.4545454545454545
 40
0.4545454545454545
 40
0.4545454545454545
 40
0.5454545454545454
 40
0.5454545454545454
 40
0.5454545454545454
 40
0.5454545454545454
 40
0.6363636363636364
 40
0.6363636363636364
 40
0.6363636363636364
 40
0.6363636363636364
 40
0.7272727272727273
 40
0.7272727272727273
 40
0.7272727272727273
 40
0.7272727272727273
 40
0.8181818181818182
 40
0.8181818181818182
 40
0.8181818181818182
 40
0.8181818181818182
 40
1.0
 40
1.0
 40
1.0
 40
1.0
 10
-43.43744
 20
-23.86844
 30
0.0
 10
-43.43744
 20
-23.86844
 30
0.0
 10
-43.43744
 20
-23.86844
 30
0.0
 10
-43.43744
 20
-23.86844
 30
0.0
 10
-43.43744
 20
-23.86844
 30
0.0
 10
-42.98648
 20
-23.75916
 30
0.0
 10
-42.56455
 20
-23.46438
 30
0.0
 10
-42.21222
 20
-23.17241
 30
0.0
 10
-42.21222
 20
-23.17241
 30
0.0
 10
-41.83699
 20
-22.86159
 30
0.0
 10
-41.4937
 20
-22.50654
 30
0.0
 10
-41.14298
 20
-22.16838
 30
0.0
 10
-41.14298
 20
-22.16838
 30
0.0
 10
-40.97785
 20
-22.00893
 30
0.0
 10
-40.81569
 20
-21.84672
 30
0.0
 10
-40.6554
 20
-21.68291
 30
0.0
 10
-40.6554
 20
-21.68291
 30
0.0
 10
-40.85483
 20
-21.81458
 30
0.0
 10
-41.06107
 20
-21.93765
 30
0.0
 10
-41.2583
 20
-22.06196
 30
0.0
 10
-41.2583
 20
-22.06196
 30
0.0
 10
-41.63992
 20
-22.30252
 30
0.0
 10
-42.02672
 20
-22.53481
 30
0.0
 10
-42.40643
 20
-22.77847
 30
0.0
 10
-42.40643
 20
-22.77847
 30
0.0
 10
-42.79363
 20
-23.02695
 30
0.0
 10
-43.18687
 20
-23.26589
 30
0.0
 10
-43.57257
 20
-23.5172
 30
0.0
 10
-43.57257
 20
-23.5172
 30
0.0
 10
-43.84807
 20
-23.69663
 30
0.0
 10
-44.16967
 20
-23.78381
 30
0.0
 10
-44.45474
 20
-23.94053
 30
0.0
 10
-44.45474
 20
-23.94053
 30
0.0
 10
-44.46219
 20
-23.94793
 30
0.0
 10
-44.47005
 20
-23.95462
 30
0.0
 10
-44.47779
 20
-23.96172
 30
0.0
 10
-44.47779
 20
-23.96172
 30
0.0
 10
-44.13687
 20
-23.90063
 30
0.0
 10
-43.77613
 20
-23.9505
 30
0.0
 10
-43.43744
 20
-23.86844
 30
0.0
  0
SPLINE
  5
74
330
1F
100
AcDbEntity
  8
Layer 1
370
     9
100
AcDbSpline
210
0.0
220
0.0
230
1.0
 70
    11
 71
     3
 72
    48
 73
    44
 74
     0
 42
0.000000001
 43
0.0000000001
 40
0.0
 40
0.0
 40
0.0
 40
0.0
 40
0.0833333333333333
 40
0.0833333333333333
 40
0.0833333333333333
 40
0.0833333333333333
 40
0.1666666666666667
 40
0.1666666666666667
 40
0.1666666666666667
 40
0.1666666666666667
 40
0.25
 40
0.25
 40
0.25
 40
0.25
 40
0.3333333333333333
 40
0.3333333333333333
 40
0.3333333333333333
 40
0.3333333333333333
 40
0.4166666666666667
 40
0.4166666666666667
 40
0.4166666666666667
 40
0.4166666666666667
 40
0.5
 40
0.5
 40
0.5
 40
0.5
 40
0.5833333333333334
 40
0.5833333333333334
 40
0.5833333333333334
 40
0.5833333333333334
 40
0.6666666666666666
 40
0.6666666666666666
 40
0.6666666666666666
 40
0.6666666666666666
 40
0.75
 40
0.75
 40
0.75
 40
0.75
 40
0.8333333333333334
 40
0.8333333333333334
 40
0.8333333333333334
 40
0.8333333333333334
 40
1.0
 40
1.0
 40
1.0
 40
1.0
 10
-40.27765
 20
-21.28981
 30
0.0
 10
-40.27765
 20
-21.28981
 30
0.0
 10
-40.27765
 20
-21.28981
 30
0.0
 10
-40.27765
 20
-21.28981
 30
0.0
 10
-40.27765
 20
-21.28981
 30
0.0
 10
-40.49475
 20
-21.43382
 30
0.0
 10
-40.75647
 20
-21.53292
 30
0.0
 10
-40.9701
 20
-21.65423
 30
0.0
 10
-40.9701
 20
-21.65423
 30
0.0
 10
-41.41225
 20
-21.90549
 30
0.0
 10
-41.88297
 20
-22.10654
 30
0.0
 10
-42.34711
 20
-22.31322
 30
0.0
 10
-42.34711
 20
-22.31322
 30
0.0
 10
-42.81491
 20
-22.52148
 30
0.0
 10
-43.29867
 20
-22.73776
 30
0.0
 10
-43.69659
 20
-23.06631
 30
0.0
 10
-43.69659
 20
-23.06631
 30
0.0
 10
-43.89186
 20
-23.22766
 30
0.0
 10
-44.04339
 20
-23.40501
 30
0.0
 10
-44.1894
 20
-23.6114
 30
0.0
 10
-44.1894
 20
-23.6114
 30
0.0
 10
-44.25395
 20
-23.70266
 30
0.0
 10
-44.31976
 20
-23.79383
 30
0.0
 10
-44.39412
 20
-23.87684
 30
0.0
 10
-44.39412
 20
-23.87684
 30
0.0
 10
-44.13833
 20
-23.73154
 30
0.0
 10
-43.84375
 20
-23.6435
 30
0.0
 10
-43.59959
 20
-23.4773
 30
0.0
 10
-43.59959
 20
-23.4773
 30
0.0
 10
-43.23326
 20
-23.22801
 30
0.0
 10
-42.85441
 20
-22.99853
 30
0.0
 10
-42.48386
 20
-22.75587
 30
0.0
 10
-42.48386
 20
-22.75587
 30
0.0
 10
-42.08961
 20
-22.49742
 30
0.0
 10
-41.68992
 20
-22.24727
 30
0.0
 10
-41.29301
 20
-21.99288
 30
0.0
 10
-41.29301
 20
-21.99288
 30
0.0
 10
-40.96426
 20
-21.78217
 30
0.0
 10
-40.64955
 20
-21.54642
 30
0.0
 10
-40.32098
 20
-21.33555
 30
0.0
 10
-40.32098
 20
-21.33555
 30
0.0
 10
-40.30647
 20
-21.3203
 30
0.0
 10
-40.29205
 20
-21.30511
 30
0.0
 10
-40.27765
 20
-21.28981
 30
0.0
  0
SPLINE
  5
75
330
1F
100
AcDbEntity
  8
Layer 1
370
     9
100
AcDbSpline
210
0.0
220
0.0
230
1.0
 70
    11
 71
     3
 72
    56
 73
    52
 74
     0
 42
0.000000001
 43
0.0000000001
 40
0.0
 40
0.0
 40
0.0
 40
0.0
 40
0.0714285714285714
 40
0.0714285714285714
 40
0.0714285714285714
 40
0.0714285714285714
 40
0.1428571428571428
 40
0.1428571428571428
 40
0.1428571428571428
 40
0.1428571428571428
 40
0.2142857142857143
 40
0.2142857142857143
 40
0.2142857142857143
 40
0.2142857142857143
 40
0.2857142857142857
 40
0.2857142857142857
 40
0.2857142857142857
 40
0.2857142857142857
 40
0.3571428571428572
 40
0.3571428571428572
 40
0.3571428571428572
 40
0.3571428571428572
 40
0.4285714285714285
 40
0.4285714285714285
 40
0.4285714285714285
 40
0.4285714285714285
 40
0.5
 40
0.5
 40
0.5
 40
0.5
 40
0.5714285714285714
 40
0.5714285714285714
 40
0.5714285714285714
 40
0.5714285714285714
 40
0.6428571428571429
 40
0.6428571428571429
 40
0.6428571428571429
 40
0.6428571428571429
 40
0.7142857142857143
 40
0.7142857142857143
 40
0.7142857142857143
 40
0.7142857142857143
 40
0.7857142857142857
 40
0.7857142857142857
 40
0.7857142857142857
 40
0.7857142857142857
 40
0.8571428571428571
 40
0.8571428571428571
 40
0.8571428571428571
 40
0.8571428571428571
 40
1.0
 40
1.0
 40
1.0
 40
1.0
 10
-40.0925
 20
-21.09445
 30
0.0
 10
-40.0925
 20
-21.09445
 30
0.0
 10
-40.0925
 20
-21.09445
 30
0.0
 10
-40.0925
 20
-21.09445
 30
0.0
 10
-40.0925
 20
-21.09445
 30
0.0
 10
-40.15282
 20
-21.12585
 30
0.0
 10
-40.2126
 20
-21.15836
 30
0.0
 10
-40.27308
 20
-21.18552
 30
0.0
 10
-40.27308
 20
-21.18552
 30
0.0
 10
-40.38653
 20
-21.23649
 30
0.0
 10
-40.50088
 20
-21.28559
 30
0.0
 10
-40.61675
 20
-21.33092
 30
0.0
 10
-40.61675
 20
-21.33092
 30
0.0
 10
-40.83345
 20
-21.41584
 30
0.0
 10
-41.05286
 20
-21.49298
 30
0.0
 10
-41.27394
 20
-21.56548
 30
0.0
 10
-41.27394
 20
-21.56548
 30
0.0
 10
-41.74587
 20
-21.72024
 30
0.0
 10
-42.22424
 20
-21.85553
 30
0.0
 10
-42.69356
 20
-22.01829
 30
0.0
 10
-42.69356
 20
-22.01829
 30
0.0
 10
-43.15528
 20
-22.17838
 30
0.0
 10
-43.61166
 20
-22.37133
 30
0.0
 10
-43.94951
 20
-22.73846
 30
0.0
 10
-43.94951
 20
-22.73846
 30
0.0
 10
-44.27494
 20
-23.09216
 30
0.0
 10
-44.41853
 20
-23.51036
 30
0.0
 10
-44.58049
 20
-23.9505
 30
0.0
 10
-44.58049
 20
-23.9505
 30
0.0
 10
-44.41375
 20
-23.80711
 30
0.0
 10
-44.29681
 20
-23.62442
 30
0.0
 10
-44.16701
 20
-23.44701
 30
0.0
 10
-44.16701
 20
-23.44701
 30
0.0
 10
-44.03454
 20
-23.26604
 30
0.0
 10
-43.88441
 20
-23.1128
 30
0.0
 10
-43.70519
 20
-22.9772
 30
0.0
 10
-43.70519
 20
-22.9772
 30
0.0
 10
-43.32891
 20
-22.69268
 30
0.0
 10
-42.90361
 20
-22.48872
 30
0.0
 10
-42.47364
 20
-22.29904
 30
0.0
 10
-42.47364
 20
-22.29904
 30
0.0
 10
-42.01127
 20
-22.09498
 30
0.0
 10
-41.53843
 20
-21.90217
 30
0.0
 10
-41.09467
 20
-21.65891
 30
0.0
 10
-41.09467
 20
-21.65891
 30
0.0
 10
-40.90112
 20
-21.55286
 30
0.0
 10
-40.70587
 20
-21.45364
 30
0.0
 10
-40.50938
 20
-21.35316
 30
0.0
 10
-40.50938
 20
-21.35316
 30
0.0
 10
-40.3652
 20
-21.27946
 30
0.0
 10
-40.21622
 20
-21.20112
 30
0.0
 10
-40.0925
 20
-21.09445
 30
0.0
  0
SPLINE
  5
76
330
1F
100
AcDbEntity
  8
Layer 1
370
     9
100
AcDbSpline
210
0.0
220
0.0
230
1.0
 70
    11
 71
     3
 72
    40
 73
    36
 74
     0
 42
0.000000001
 43
0.0000000001
 40
0.0
 40
0.0
 40
0.0
 40
0.0
 40
0.1
 40
0.1
 40
0.1
 40
0.1
 40
0.2
 40
0.2
 40
0.2
 40
0.2
 40
0.3
 40
0.3
 40
0.3
 40
0.3
 40
0.4
 40
0.4
 40
0.4
 40
0.4
 40
0.5
 40
0.5
 40
0.5
 40
0.5
 40
0.6
 40
0.6
 40
0.6
 40
0.6
 40
0.7
 40
0.7
 40
0.7
 40
0.7
 40
0.8
 40
0.8
 40
0.8
 40
0.8
 40
1.0
 40
1.0
 40
1.0
 40
1.0
 10
-34.49975
 20
-23.02016
 30
0.0
 10
-34.49975
 20
-23.02016
 30
0.0
 10
-34.49975
 20
-23.02016
 30
0.0
 10
-34.49975
 20
-23.02016
 30
0.0
 10
-34.49975
 20
-23.02016
 30
0.0
 10
-34.74624
 20
-23.0821
 30
0.0
 10
-35.02522
 20
-23.0813
 30
0.0
 10
-35.24735
 20
-23.06938
 30
0.0
 10
-35.24735
 20
-23.06938
 30
0.0
 10
-35.67918
 20
-23.04628
 30
0.0
 10
-36.10744
 20
-22.95923
 30
0.0
 10
-36.52157
 20
-22.83647
 30
0.0
 10
-36.52157
 20
-22.83647
 30
0.0
 10
-37.00104
 20
-22.69449
 30
0.0
 10
-37.43525
 20
-22.50588
 30
0.0
 10
-37.832
 20
-22.1948
 30
0.0
 10
-37.832
 20
-22.1948
 30
0.0
 10
-38.2251
 20
-21.88672
 30
0.0
 10
-38.58377
 20
-21.52689
 30
0.0
 10
-38.98924
 20
-21.23322
 30
0.0
 10
-38.98924
 20
-21.23322
 30
0.0
 10
-39.03936
 20
-21.20791
 30
0.0
 10
-39.08906
 20
-21.18165
 30
0.0
 10
-39.13752
 20
-21.15371
 30
0.0
 10
-39.13752
 20
-21.15371
 30
0.0
 10
-38.39109
 20
-21.67939
 30
0.0
 10
-37.76746
 20
-22.37013
 30
0.0
 10
-37.00406
 20
-22.87573
 30
0.0
 10
-37.00406
 20
-22.87573
 30
0.0
 10
-36.60478
 20
-23.14006
 30
0.0
 10
-36.15047
 20
-23.37734
 30
0.0
 10
-35.66318
 20
-23.40577
 30
0.0
 10
-35.66318
 20
-23.40577
 30
0.0
 10
-35.22331
 20
-23.43158
 30
0.0
 10
-34.83731
 20
-23.27198
 30
0.0
 10
-34.49975
 20
-23.02016
 30
0.0
  0
SPLINE
  5
77
330
1F
100
AcDbEntity
  8
Layer 1
370
     9
100
AcDbSpline
210
0.0
220
0.0
230
1.0
 70
    11
 71
     3
 72
    36
 73
    32
 74
     0
 42
0.000000001
 43
0.0000000001
 40
0.0
 40
0.0
 40
0.0
 40
0.0
 40
0.1111111111111111
 40
0.1111111111111111
 40
0.1111111111111111
 40
0.1111111111111111
 40
0.2222222222222222
 40
0.2222222222222222
 40
0.2222222222222222
 40
0.2222222222222222
 40
0.3333333333333333
 40
0.3333333333333333
 40
0.3333333333333333
 40
0.3333333333333333
 40
0.4444444444444444
 40
0.4444444444444444
 40
0.4444444444444444
 40
0.4444444444444444
 40
0.5555555555555556
 40
0.5555555555555556
 40
0.5555555555555556
 40
0.5555555555555556
 40
0.6666666666666666
 40
0.6666666666666666
 40
0.6666666666666666
 40
0.6666666666666666
 40
0.7777777777777778
 40
0.7777777777777778
 40
0.7777777777777778
 40
0.7777777777777778
 40
1.0
 40
1.0
 40
1.0
 40
1.0
 10
-34.36819
 20
-22.63537
 30
0.0
 10
-34.36819
 20
-22.63537
 30
0.0
 10
-34.36819
 20
-22.63537
 30
0.0
 10
-34.36819
 20
-22.63537
 30
0.0
 10
-34.36819
 20
-22.63537
 30
0.0
 10
-34.76897
 20
-21.91405
 30
0.0
 10
-35.66565
 20
-21.43668
 30
0.0
 10
-36.47322
 20
-21.42501
 30
0.0
 10
-36.47322
 20
-21.42501
 30
0.0
 10
-36.99375
 20
-21.41741
 30
0.0
 10
-37.51705
 20
-21.39069
 30
0.0
 10
-38.03266
 20
-21.31613
 30
0.0
 10
-38.03266
 20
-21.31613
 30
0.0
 10
-38.37156
 20
-21.26707
 30
0.0
 10
-38.71937
 20
-21.20806
 30
0.0
 10
-39.04846
 20
-21.10105
 30
0.0
 10
-39.04846
 20
-21.10105
 30
0.0
 10
-38.99725
 20
-21.13204
 30
0.0
 10
-38.94543
 20
-21.16182
 30
0.0
 10
-38.8922
 20
-21.18869
 30
0.0
 10
-38.8922
 20
-21.18869
 30
0.0
 10
-38.65221
 20
-21.30979
 30
0.0
 10
-38.402
 20
-21.39456
 30
0.0
 10
-38.13896
 20
-21.44901
 30
0.0
 10
-38.13896
 20
-21.44901
 30
0.0
 10
-37.64726
 20
-21.5506
 30
0.0
 10
-37.14328
 20
-21.56638
 30
0.0
 10
-36.65077
 20
-21.66118
 30
0.0
 10
-36.65077
 20
-21.66118
 30
0.0
 10
-35.85941
 20
-21.81343
 30
0.0
 10
-35.01586
 20
-22.13185
 30
0.0
 10
-34.36819
 20
-22.63537
 30
0.0
  0
SPLINE
  5
78
330
1F
100
AcDbEntity
  8
Layer 1
370
     9
100
AcDbSpline
210
0.0
220
0.0
230
1.0
 70
    11
 71
     3
 72
    36
 73
    32
 74
     0
 42
0.000000001
 43
0.0000000001
 40
0.0
 40
0.0
 40
0.0
 40
0.0
 40
0.1111111111111111
 40
0.1111111111111111
 40
0.1111111111111111
 40
0.1111111111111111
 40
0.2222222222222222
 40
0.2222222222222222
 40
0.2222222222222222
 40
0.2222222222222222
 40
0.3333333333333333
 40
0.3333333333333333
 40
0.3333333333333333
 40
0.3333333333333333
 40
0.4444444444444444
 40
0.4444444444444444
 40
0.4444444444444444
 40
0.4444444444444444
 40
0.5555555555555556
 40
0.5555555555555556
 40
0.5555555555555556
 40
0.5555555555555556
 40
0.6666666666666666
 40
0.6666666666666666
 40
0.6666666666666666
 40
0.6666666666666666
 40
0.7777777777777778
 40
0.7777777777777778
 40
0.7777777777777778
 40
0.7777777777777778
 40
1.0
 40
1.0
 40
1.0
 40
1.0
 10
-36.86153
 20
-21.70772
 30
0.0
 10
-36.86153
 20
-21.70772
 30
0.0
 10
-36.86153
 20
-21.70772
 30
0.0
 10
-36.86153
 20
-21.70772
 30
0.0
 10
-36.86153
 20
-21.70772
 30
0.0
 10
-37.34856
 20
-21.64105
 30
0.0
 10
-37.84564
 20
-21.61474
 30
0.0
 10
-38.3224
 20
-21.48724
 30
0.0
 10
-38.3224
 20
-21.48724
 30
0.0
 10
-38.47797
 20
-21.44559
 30
0.0
 10
-38.63851
 20
-21.39045
 30
0.0
 10
-38.7958
 20
-21.32328
 30
0.0
 10
-38.7958
 20
-21.32328
 30
0.0
 10
-38.49583
 20
-21.49786
 30
0.0
 10
-38.19516
 20
-21.67345
 30
0.0
 10
-37.88243
 20
-21.82287
 30
0.0
 10
-37.88243
 20
-21.82287
 30
0.0
 10
-37.45934
 20
-22.02498
 30
0.0
 10
-37.02283
 20
-22.15645
 30
0.0
 10
-36.57077
 20
-22.2753
 30
0.0
 10
-36.57077
 20
-22.2753
 30
0.0
 10
-35.82826
 20
-22.47035
 30
0.0
 10
-35.07362
 20
-22.66239
 30
0.0
 10
-34.30957
 20
-22.75024
 30
0.0
 10
-34.30957
 20
-22.75024
 30
0.0
 10
-34.31249
 20
-22.74425
 30
0.0
 10
-34.31536
 20
-22.73826
 30
0.0
 10
-34.31818
 20
-22.73217
 30
0.0
 10
-34.31818
 20
-22.73217
 30
0.0
 10
-35.10119
 20
-22.24414
 30
0.0
 10
-35.93624
 20
-21.8347
 30
0.0
 10
-36.86153
 20
-21.70772
 30
0.0
  0
SPLINE
  5
79
330
1F
100
AcDbEntity
  8
Layer 1
370
     9
100
AcDbSpline
210
0.0
220
0.0
230
1.0
 70
    11
 71
     3
 72
    48
 73
    44
 74
     0
 42
0.000000001
 43
0.0000000001
 40
0.0
 40
0.0
 40
0.0
 40
0.0
 40
0.0833333333333333
 40
0.0833333333333333
 40
0.0833333333333333
 40
0.0833333333333333
 40
0.1666666666666667
 40
0.1666666666666667
 40
0.1666666666666667
 40
0.1666666666666667
 40
0.25
 40
0.25
 40
0.25
 40
0.25
 40
0.3333333333333333
 40
0.3333333333333333
 40
0.3333333333333333
 40
0.3333333333333333
 40
0.4166666666666667
 40
0.4166666666666667
 40
0.4166666666666667
 40
0.4166666666666667
 40
0.5
 40
0.5
 40
0.5
 40
0.5
 40
0.5833333333333334
 40
0.5833333333333334
 40
0.5833333333333334
 40
0.5833333333333334
 40
0.6666666666666666
 40
0.6666666666666666
 40
0.6666666666666666
 40
0.6666666666666666
 40
0.75
 40
0.75
 40
0.75
 40
0.75
 40
0.8333333333333334
 40
0.8333333333333334
 40
0.8333333333333334
 40
0.8333333333333334
 40
1.0
 40
1.0
 40
1.0
 40
1.0
 10
-34.27093
 20
-22.82978
 30
0.0
 10
-34.27093
 20
-22.82978
 30
0.0
 10
-34.27093
 20
-22.82978
 30
0.0
 10
-34.27093
 20
-22.82978
 30
0.0
 10
-34.27093
 20
-22.82978
 30
0.0
 10
-34.59378
 20
-22.86656
 30
0.0
 10
-34.94256
 20
-22.71673
 30
0.0
 10
-35.25675
 20
-22.67739
 30
0.0
 10
-35.25675
 20
-22.67739
 30
0.0
 10
-35.70786
 20
-22.62078
 30
0.0
 10
-36.15821
 20
-22.47312
 30
0.0
 10
-36.59637
 20
-22.35609
 30
0.0
 10
-36.59637
 20
-22.35609
 30
0.0
 10
-37.03666
 20
-22.23867
 30
0.0
 10
-37.45924
 20
-22.10574
 30
0.0
 10
-37.86944
 20
-21.90423
 30
0.0
 10
-37.86944
 20
-21.90423
 30
0.0
 10
-38.08583
 20
-21.79787
 30
0.0
 10
-38.29539
 20
-21.68165
 30
0.0
 10
-38.49951
 20
-21.55663
 30
0.0
 10
-38.49951
 20
-21.55663
 30
0.0
 10
-38.29267
 20
-21.72351
 30
0.0
 10
-38.09192
 20
-21.89921
 30
0.0
 10
-37.87969
 20
-22.06549
 30
0.0
 10
-37.87969
 20
-22.06549
 30
0.0
 10
-37.48058
 20
-22.37814
 30
0.0
 10
-37.05659
 20
-22.59307
 30
0.0
 10
-36.57254
 20
-22.73871
 30
0.0
 10
-36.57254
 20
-22.73871
 30
0.0
 10
-36.16751
 20
-22.86063
 30
0.0
 10
-35.74928
 20
-22.95748
 30
0.0
 10
-35.32624
 20
-22.9844
 30
0.0
 10
-35.32624
 20
-22.9844
 30
0.0
 10
-35.11744
 20
-22.99769
 30
0.0
 10
-34.90538
 20
-22.9994
 30
0.0
 10
-34.69839
 20
-22.96553
 30
0.0
 10
-34.69839
 20
-22.96553
 30
0.0
 10
-34.55314
 20
-22.94178
 30
0.0
 10
-34.42243
 20
-22.89493
 30
0.0
 10
-34.28879
 20
-22.84553
 30
0.0
 10
-34.28879
 20
-22.84553
 30
0.0
 10
-34.28291
 20
-22.8403
 30
0.0
 10
-34.27687
 20
-22.83507
 30
0.0
 10
-34.27093
 20
-22.82978
 30
0.0
  0
SPLINE
  5
7A
330
1F
100
AcDbEntity
  8
Layer 1
370
     9
100
AcDbSpline
210
0.0
220
0.0
230
1.0
 70
    11
 71
     3
 72
    48
 73
    44
 74
     0
 42
0.000000001
 43
0.0000000001
 40
0.0
 40
0.0
 40
0.0
 40
0.0
 40
0.0833333333333333
 40
0.0833333333333333
 40
0.0833333333333333
 40
0.0833333333333333
 40
0.1666666666666667
 40
0.1666666666666667
 40
0.1666666666666667
 40
0.1666666666666667
 40
0.25
 40
0.25
 40
0.25
 40
0.25
 40
0.3333333333333333
 40
0.3333333333333333
 40
0.3333333333333333
 40
0.3333333333333333
 40
0.4166666666666667
 40
0.4166666666666667
 40
0.4166666666666667
 40
0.4166666666666667
 40
0.5
 40
0.5
 40
0.5
 40
0.5
 40
0.5833333333333334
 40
0.5833333333333334
 40
0.5833333333333334
 40
0.5833333333333334
 40
0.6666666666666666
 40
0.6666666666666666
 40
0.6666666666666666
 40
0.6666666666666666
 40
0.75
 40
0.75
 40
0.75
 40
0.75
 40
0.8333333333333334
 40
0.8333333333333334
 40
0.8333333333333334
 40
0.8333333333333334
 40
1.0
 40
1.0
 40
1.0
 40
1.0
 10
-39.24614
 20
-20.97753
 30
0.0
 10
-39.24614
 20
-20.97753
 30
0.0
 10
-39.24614
 20
-20.97753
 30
0.0
 10
-39.24614
 20
-20.97753
 30
0.0
 10
-39.24614
 20
-20.97753
 30
0.0
 10
-39.23874
 20
-20.98216
 30
0.0
 10
-39.23377
 20
-20.98553
 30
0.0
 10
-39.22631
 20
-20.99021
 30
0.0
 10
-39.22631
 20
-20.99021
 30
0.0
 10
-38.74337
 20
-21.11282
 30
0.0
 10
-38.26329
 20
-21.21369
 30
0.0
 10
-37.76539
 20
-21.26723
 30
0.0
 10
-37.76539
 20
-21.26723
 30
0.0
 10
-37.4847
 20
-21.29742
 30
0.0
 10
-37.20793
 20
-21.31608
 30
0.0
 10
-36.92597
 20
-21.32744
 30
0.0
 10
-36.92597
 20
-21.32744
 30
0.0
 10
-36.69967
 20
-21.3366
 30
0.0
 10
-36.47769
 20
-21.31956
 30
0.0
 10
-36.25304
 20
-21.34979
 30
0.0
 10
-36.25304
 20
-21.34979
 30
0.0
 10
-35.44921
 20
-21.45827
 30
0.0
 10
-34.52485
 20
-21.99405
 30
0.0
 10
-34.26626
 20
-22.70587
 30
0.0
 10
-34.26626
 20
-22.70587
 30
0.0
 10
-34.33503
 20
-22.2926
 30
0.0
 10
-34.53432
 20
-21.876
 30
0.0
 10
-34.88741
 20
-21.55793
 30
0.0
 10
-34.88741
 20
-21.55793
 30
0.0
 10
-35.25782
 20
-21.22435
 30
0.0
 10
-35.71545
 20
-21.02457
 30
0.0
 10
-36.21481
 20
-20.99222
 30
0.0
 10
-36.21481
 20
-20.99222
 30
0.0
 10
-36.53042
 20
-20.97179
 30
0.0
 10
-36.85081
 20
-20.99494
 30
0.0
 10
-37.16728
 20
-20.98934
 30
0.0
 10
-37.16728
 20
-20.98934
 30
0.0
 10
-37.49688
 20
-20.98366
 30
0.0
 10
-37.82662
 20
-20.9734
 30
0.0
 10
-38.15622
 20
-20.97893
 30
0.0
 10
-38.15622
 20
-20.97893
 30
0.0
 10
-38.50731
 20
-20.98482
 30
0.0
 10
-38.8845
 20
-21.01436
 30
0.0
 10
-39.24614
 20
-20.97753
 30
0.0
  0
SPLINE
  5
7B
330
1F
100
AcDbEntity
  8
Layer 1
370
     9
100
AcDbSpline
210
0.0
220
0.0
230
1.0
 70
    11
 71
     3
 72
    40
 73
    36
 74
     0
 42
0.000000001
 43
0.0000000001
 40
0.0
 40
0.0
 40
0.0
 40
0.0
 40
0.1
 40
0.1
 40
0.1
 40
0.1
 40
0.2
 40
0.2
 40
0.2
 40
0.2
 40
0.3
 40
0.3
 40
0.3
 40
0.3
 40
0.4
 40
0.4
 40
0.4
 40
0.4
 40
0.5
 40
0.5
 40
0.5
 40
0.5
 40
0.6
 40
0.6
 40
0.6
 40
0.6
 40
0.7
 40
0.7
 40
0.7
 40
0.7
 40
0.8
 40
0.8
 40
0.8
 40
0.8
 40
1.0
 40
1.0
 40
1.0
 40
1.0
 10
-35.00701
 20
-17.35352
 30
0.0
 10
-35.00701
 20
-17.35352
 30
0.0
 10
-35.00701
 20
-17.35352
 30
0.0
 10
-35.00701
 20
-17.35352
 30
0.0
 10
-35.00701
 20
-17.35352
 30
0.0
 10
-35.06829
 20
-17.56071
 30
0.0
 10
-35.10119
 20
-17.7708
 30
0.0
 10
-35.19401
 20
-17.97105
 30
0.0
 10
-35.19401
 20
-17.97105
 30
0.0
 10
-35.29691
 20
-18.19277
 30
0.0
 10
-35.41937
 20
-18.42196
 30
0.0
 10
-35.5775
 20
-18.60962
 30
0.0
 10
-35.5775
 20
-18.60962
 30
0.0
 10
-35.85568
 20
-18.93951
 30
0.0
 10
-36.22205
 20
-19.12869
 30
0.0
 10
-36.60744
 20
-19.30735
 30
0.0
 10
-36.60744
 20
-19.30735
 30
0.0
 10
-37.09643
 20
-19.5341
 30
0.0
 10
-37.57526
 20
-19.7809
 30
0.0
 10
-38.05554
 20
-20.02541
 30
0.0
 10
-38.05554
 20
-20.02541
 30
0.0
 10
-38.22711
 20
-20.11281
 30
0.0
 10
-38.39943
 20
-20.20291
 30
0.0
 10
-38.57367
 20
-20.28991
 30
0.0
 10
-38.57367
 20
-20.28991
 30
0.0
 10
-37.87718
 20
-20.07497
 30
0.0
 10
-37.15536
 20
-19.92977
 30
0.0
 10
-36.48242
 20
-19.64565
 30
0.0
 10
-36.48242
 20
-19.64565
 30
0.0
 10
-36.04124
 20
-19.45934
 30
0.0
 10
-35.59224
 20
-19.21211
 30
0.0
 10
-35.29893
 20
-18.82199
 30
0.0
 10
-35.29893
 20
-18.82199
 30
0.0
 10
-34.97435
 20
-18.39025
 30
0.0
 10
-34.92626
 20
-17.87204
 30
0.0
 10
-35.00701
 20
-17.35352
 30
0.0
  0
SPLINE
  5
7C
330
1F
100
AcDbEntity
  8
Layer 1
370
     9
100
AcDbSpline
210
0.0
220
0.0
230
1.0
 70
    11
 71
     3
 72
    48
 73
    44
 74
     0
 42
0.000000001
 43
0.0000000001
 40
0.0
 40
0.0
 40
0.0
 40
0.0
 40
0.0833333333333333
 40
0.0833333333333333
 40
0.0833333333333333
 40
0.0833333333333333
 40
0.1666666666666667
 40
0.1666666666666667
 40
0.1666666666666667
 40
0.1666666666666667
 40
0.25
 40
0.25
 40
0.25
 40
0.25
 40
0.3333333333333333
 40
0.3333333333333333
 40
0.3333333333333333
 40
0.3333333333333333
 40
0.4166666666666667
 40
0.4166666666666667
 40
0.4166666666666667
 40
0.4166666666666667
 40
0.5
 40
0.5
 40
0.5
 40
0.5
 40
0.5833333333333334
 40
0.5833333333333334
 40
0.5833333333333334
 40
0.5833333333333334
 40
0.6666666666666666
 40
0.6666666666666666
 40
0.6666666666666666
 40
0.6666666666666666
 40
0.75
 40
0.75
 40
0.75
 40
0.75
 40
0.8333333333333334
 40
0.8333333333333334
 40
0.8333333333333334
 40
0.8333333333333334
 40
1.0
 40
1.0
 40
1.0
 40
1.0
 10
-38.80646
 20
-19.72596
 30
0.0
 10
-38.80646
 20
-19.72596
 30
0.0
 10
-38.80646
 20
-19.72596
 30
0.0
 10
-38.80646
 20
-19.72596
 30
0.0
 10
-38.80646
 20
-19.72596
 30
0.0
 10
-38.78588
 20
-19.70176
 30
0.0
 10
-38.76551
 20
-19.67775
 30
0.0
 10
-38.74528
 20
-19.65361
 30
0.0
 10
-38.74528
 20
-19.65361
 30
0.0
 10
-38.53573
 20
-19.40395
 30
0.0
 10
-38.32829
 20
-19.15264
 30
0.0
 10
-38.11608
 20
-18.90521
 30
0.0
 10
-38.11608
 20
-18.90521
 30
0.0
 10
-37.73983
 20
-18.46678
 30
0.0
 10
-37.36329
 20
-18.01361
 30
0.0
 10
-36.88527
 20
-17.68125
 30
0.0
 10
-36.88527
 20
-17.68125
 30
0.0
 10
-36.54279
 20
-17.44312
 30
0.0
 10
-36.19761
 20
-17.29354
 30
0.0
 10
-35.79142
 20
-17.21193
 30
0.0
 10
-35.79142
 20
-17.21193
 30
0.0
 10
-35.66831
 20
-17.18724
 30
0.0
 10
-35.54026
 20
-17.16213
 30
0.0
 10
-35.41252
 20
-17.15156
 30
0.0
 10
-35.41252
 20
-17.15156
 30
0.0
 10
-35.73035
 20
-17.0769
 30
0.0
 10
-36.05094
 20
-17.05612
 30
0.0
 10
-36.38949
 20
-17.14306
 30
0.0
 10
-36.38949
 20
-17.14306
 30
0.0
 10
-36.87224
 20
-17.26702
 30
0.0
 10
-37.31142
 20
-17.54797
 30
0.0
 10
-37.6146
 20
-17.94605
 30
0.0
 10
-37.6146
 20
-17.94605
 30
0.0
 10
-37.80629
 20
-18.19775
 30
0.0
 10
-37.96424
 20
-18.47735
 30
0.0
 10
-38.14404
 20
-18.73792
 30
0.0
 10
-38.14404
 20
-18.73792
 30
0.0
 10
-38.33121
 20
-19.0092
 30
0.0
 10
-38.52214
 20
-19.27827
 30
0.0
 10
-38.69989
 20
-19.55595
 30
0.0
 10
-38.69989
 20
-19.55595
 30
0.0
 10
-38.73552
 20
-19.61153
 30
0.0
 10
-38.7709
 20
-19.6684
 30
0.0
 10
-38.80646
 20
-19.72596
 30
0.0
  0
SPLINE
  5
7D
330
1F
100
AcDbEntity
  8
Layer 1
370
     9
100
AcDbSpline
210
0.0
220
0.0
230
1.0
 70
    11
 71
     3
 72
    52
 73
    48
 74
     0
 42
0.000000001
 43
0.0000000001
 40
0.0
 40
0.0
 40
0.0
 40
0.0
 40
0.0769230769230769
 40
0.0769230769230769
 40
0.0769230769230769
 40
0.0769230769230769
 40
0.1538461538461539
 40
0.1538461538461539
 40
0.1538461538461539
 40
0.1538461538461539
 40
0.2307692307692308
 40
0.2307692307692308
 40
0.2307692307692308
 40
0.2307692307692308
 40
0.3076923076923077
 40
0.3076923076923077
 40
0.3076923076923077
 40
0.3076923076923077
 40
0.3846153846153846
 40
0.3846153846153846
 40
0.3846153846153846
 40
0.3846153846153846
 40
0.4615384615384616
 40
0.4615384615384616
 40
0.4615384615384616
 40
0.4615384615384616
 40
0.5384615384615384
 40
0.5384615384615384
 40
0.5384615384615384
 40
0.5384615384615384
 40
0.6153846153846154
 40
0.6153846153846154
 40
0.6153846153846154
 40
0.6153846153846154
 40
0.6923076923076923
 40
0.6923076923076923
 40
0.6923076923076923
 40
0.6923076923076923
 40
0.7692307692307693
 40
0.7692307692307693
 40
0.7692307692307693
 40
0.7692307692307693
 40
0.8461538461538461
 40
0.8461538461538461
 40
0.8461538461538461
 40
0.8461538461538461
 40
1.0
 40
1.0
 40
1.0
 40
1.0
 10
-38.9993
 20
-20.03527
 30
0.0
 10
-38.9993
 20
-20.03527
 30
0.0
 10
-38.9993
 20
-20.03527
 30
0.0
 10
-38.9993
 20
-20.03527
 30
0.0
 10
-38.9993
 20
-20.03527
 30
0.0
 10
-38.98045
 20
-20.01656
 30
0.0
 10
-38.96142
 20
-19.99805
 30
0.0
 10
-38.94165
 20
-19.98029
 30
0.0
 10
-38.94165
 20
-19.98029
 30
0.0
 10
-38.741
 20
-19.79977
 30
0.0
 10
-38.49945
 20
-19.67046
 30
0.0
 10
-38.27475
 20
-19.5226
 30
0.0
 10
-38.27475
 20
-19.5226
 30
0.0
 10
-37.80318
 20
-19.21242
 30
0.0
 10
-37.3638
 20
-18.87819
 30
0.0
 10
-36.97585
 20
-18.46688
 30
0.0
 10
-36.97585
 20
-18.46688
 30
0.0
 10
-36.65096
 20
-18.1226
 30
0.0
 10
-36.31951
 20
-17.80613
 30
0.0
 10
-35.92079
 20
-17.54832
 30
0.0
 10
-35.92079
 20
-17.54832
 30
0.0
 10
-35.72255
 20
-17.42007
 30
0.0
 10
-35.45917
 20
-17.25072
 30
0.0
 10
-35.20037
 20
-17.21496
 30
0.0
 10
-35.20037
 20
-17.21496
 30
0.0
 10
-35.28192
 20
-17.21173
 30
0.0
 10
-35.36603
 20
-17.22134
 30
0.0
 10
-35.43124
 20
-17.22879
 30
0.0
 10
-35.43124
 20
-17.22879
 30
0.0
 10
-35.60256
 20
-17.24821
 30
0.0
 10
-35.77216
 20
-17.28121
 30
0.0
 10
-35.93929
 20
-17.32282
 30
0.0
 10
-35.93929
 20
-17.32282
 30
0.0
 10
-36.34951
 20
-17.42466
 30
0.0
 10
-36.70506
 20
-17.62349
 30
0.0
 10
-37.03425
 20
-17.88959
 30
0.0
 10
-37.03425
 20
-17.88959
 30
0.0
 10
-37.46402
 20
-18.23705
 30
0.0
 10
-37.82224
 20
-18.66431
 30
0.0
 10
-38.18108
 20
-19.08205
 30
0.0
 10
-38.18108
 20
-19.08205
 30
0.0
 10
-38.44869
 20
-19.39344
 30
0.0
 10
-38.7231
 20
-19.70065
 30
0.0
 10
-38.98683
 20
-20.01581
 30
0.0
 10
-38.98683
 20
-20.01581
 30
0.0
 10
-38.99097
 20
-20.02235
 30
0.0
 10
-38.99523
 20
-20.02879
 30
0.0
 10
-38.9993
 20
-20.03527
 30
0.0
  0
SPLINE
  5
7E
330
1F
100
AcDbEntity
  8
Layer 1
370
     9
100
AcDbSpline
210
0.0
220
0.0
230
1.0
 70
    11
 71
     3
 72
    48
 73
    44
 74
     0
 42
0.000000001
 43
0.0000000001
 40
0.0
 40
0.0
 40
0.0
 40
0.0
 40
0.0833333333333333
 40
0.0833333333333333
 40
0.0833333333333333
 40
0.0833333333333333
 40
0.1666666666666667
 40
0.1666666666666667
 40
0.1666666666666667
 40
0.1666666666666667
 40
0.25
 40
0.25
 40
0.25
 40
0.25
 40
0.3333333333333333
 40
0.3333333333333333
 40
0.3333333333333333
 40
0.3333333333333333
 40
0.4166666666666667
 40
0.4166666666666667
 40
0.4166666666666667
 40
0.4166666666666667
 40
0.5
 40
0.5
 40
0.5
 40
0.5
 40
0.5833333333333334
 40
0.5833333333333334
 40
0.5833333333333334
 40
0.5833333333333334
 40
0.6666666666666666
 40
0.6666666666666666
 40
0.6666666666666666
 40
0.6666666666666666
 40
0.75
 40
0.75
 40
0.75
 40
0.75
 40
0.8333333333333334
 40
0.8333333333333334
 40
0.8333333333333334
 40
0.8333333333333334
 40
1.0
 40
1.0
 40
1.0
 40
1.0
 10
-39.12373
 20
-20.2722
 30
0.0
 10
-39.12373
 20
-20.2722
 30
0.0
 10
-39.12373
 20
-20.2722
 30
0.0
 10
-39.12373
 20
-20.2722
 30
0.0
 10
-39.12373
 20
-20.2722
 30
0.0
 10
-38.942
 20
-20.17141
 30
0.0
 10
-38.73773
 20
-20.0961
 30
0.0
 10
-38.57538
 20
-20.0151
 30
0.0
 10
-38.57538
 20
-20.0151
 30
0.0
 10
-38.12447
 20
-19.79051
 30
0.0
 10
-37.70401
 20
-19.51338
 30
0.0
 10
-37.27545
 20
-19.25004
 30
0.0
 10
-37.27545
 20
-19.25004
 30
0.0
 10
-36.84401
 20
-18.9849
 30
0.0
 10
-36.42266
 20
-18.7037
 30
0.0
 10
-36.04093
 20
-18.36957
 30
0.0
 10
-36.04093
 20
-18.36957
 30
0.0
 10
-35.67732
 20
-18.05141
 30
0.0
 10
-35.36634
 20
-17.69378
 30
0.0
 10
-35.07353
 20
-17.31185
 30
0.0
 10
-35.07353
 20
-17.31185
 30
0.0
 10
-35.06964
 20
-17.29893
 30
0.0
 10
-35.06501
 20
-17.28634
 30
0.0
 10
-35.06079
 20
-17.27352
 30
0.0
 10
-35.06079
 20
-17.27352
 30
0.0
 10
-35.42742
 20
-17.31854
 30
0.0
 10
-35.74508
 20
-17.50964
 30
0.0
 10
-36.0438
 20
-17.72462
 30
0.0
 10
-36.0438
 20
-17.72462
 30
0.0
 10
-36.43241
 20
-18.00461
 30
0.0
 10
-36.74263
 20
-18.34488
 30
0.0
 10
-37.07888
 20
-18.68262
 30
0.0
 10
-37.07888
 20
-18.68262
 30
0.0
 10
-37.44043
 20
-19.04598
 30
0.0
 10
-37.86356
 20
-19.33609
 30
0.0
 10
-38.29226
 20
-19.61427
 30
0.0
 10
-38.29226
 20
-19.61427
 30
0.0
 10
-38.52858
 20
-19.76761
 30
0.0
 10
-38.7797
 20
-19.90386
 30
0.0
 10
-38.97687
 20
-20.10832
 30
0.0
 10
-38.97687
 20
-20.10832
 30
0.0
 10
-39.02642
 20
-20.1597
 30
0.0
 10
-39.07478
 20
-20.21575
 30
0.0
 10
-39.12373
 20
-20.2722
 30
0.0
  0
SPLINE
  5
7F
330
1F
100
AcDbEntity
  8
Layer 1
370
     9
100
AcDbSpline
210
0.0
220
0.0
230
1.0
 70
    11
 71
     3
 72
    56
 73
    52
 74
     0
 42
0.000000001
 43
0.0000000001
 40
0.0
 40
0.0
 40
0.0
 40
0.0
 40
0.0714285714285714
 40
0.0714285714285714
 40
0.0714285714285714
 40
0.0714285714285714
 40
0.1428571428571428
 40
0.1428571428571428
 40
0.1428571428571428
 40
0.1428571428571428
 40
0.2142857142857143
 40
0.2142857142857143
 40
0.2142857142857143
 40
0.2142857142857143
 40
0.2857142857142857
 40
0.2857142857142857
 40
0.2857142857142857
 40
0.2857142857142857
 40
0.3571428571428572
 40
0.3571428571428572
 40
0.3571428571428572
 40
0.3571428571428572
 40
0.4285714285714285
 40
0.4285714285714285
 40
0.4285714285714285
 40
0.4285714285714285
 40
0.5
 40
0.5
 40
0.5
 40
0.5
 40
0.5714285714285714
 40
0.5714285714285714
 40
0.5714285714285714
 40
0.5714285714285714
 40
0.6428571428571429
 40
0.6428571428571429
 40
0.6428571428571429
 40
0.6428571428571429
 40
0.7142857142857143
 40
0.7142857142857143
 40
0.7142857142857143
 40
0.7142857142857143
 40
0.7857142857142857
 40
0.7857142857142857
 40
0.7857142857142857
 40
0.7857142857142857
 40
0.8571428571428571
 40
0.8571428571428571
 40
0.8571428571428571
 40
0.8571428571428571
 40
1.0
 40
1.0
 40
1.0
 40
1.0
 10
-39.43854
 20
-20.61674
 30
0.0
 10
-39.43854
 20
-20.61674
 30
0.0
 10
-39.43854
 20
-20.61674
 30
0.0
 10
-39.43854
 20
-20.61674
 30
0.0
 10
-39.43854
 20
-20.61674
 30
0.0
 10
-39.41434
 20
-20.60501
 30
0.0
 10
-39.39014
 20
-20.59349
 30
0.0
 10
-39.36568
 20
-20.58237
 30
0.0
 10
-39.36568
 20
-20.58237
 30
0.0
 10
-39.33565
 20
-20.56879
 30
0.0
 10
-39.3053
 20
-20.55641
 30
0.0
 10
-39.27507
 20
-20.54354
 30
0.0
 10
-39.27507
 20
-20.54354
 30
0.0
 10
-38.88173
 20
-20.3451
 30
0.0
 10
-38.4813
 20
-20.1597
 30
0.0
 10
-38.08956
 20
-19.9578
 30
0.0
 10
-38.08956
 20
-19.9578
 30
0.0
 10
-37.63896
 20
-19.72565
 30
0.0
 10
-37.18837
 20
-19.4927
 30
0.0
 10
-36.72839
 20
-19.27907
 30
0.0
 10
-36.72839
 20
-19.27907
 30
0.0
 10
-36.32011
 20
-19.08939
 30
0.0
 10
-35.88953
 20
-18.89996
 30
0.0
 10
-35.61076
 20
-18.52927
 30
0.0
 10
-35.61076
 20
-18.52927
 30
0.0
 10
-35.45503
 20
-18.32239
 30
0.0
 10
-35.32457
 20
-18.08908
 30
0.0
 10
-35.2227
 20
-17.85115
 30
0.0
 10
-35.2227
 20
-17.85115
 30
0.0
 10
-35.16091
 20
-17.70656
 30
0.0
 10
-35.13606
 20
-17.5523
 30
0.0
 10
-35.09808
 20
-17.40146
 30
0.0
 10
-35.09808
 20
-17.40146
 30
0.0
 10
-35.57987
 20
-18.16662
 30
0.0
 10
-36.34623
 20
-18.75236
 30
0.0
 10
-37.10433
 20
-19.21931
 30
0.0
 10
-37.10433
 20
-19.21931
 30
0.0
 10
-37.5328
 20
-19.48325
 30
0.0
 10
-37.95315
 20
-19.76524
 30
0.0
 10
-38.39973
 20
-19.99815
 30
0.0
 10
-38.39973
 20
-19.99815
 30
0.0
 10
-38.70137
 20
-20.15557
 30
0.0
 10
-39.10683
 20
-20.27979
 30
0.0
 10
-39.35979
 20
-20.52864
 30
0.0
 10
-39.35979
 20
-20.52864
 30
0.0
 10
-39.38164
 20
-20.55359
 30
0.0
 10
-39.40387
 20
-20.57815
 30
0.0
 10
-39.42661
 20
-20.6021
 30
0.0
 10
-39.42661
 20
-20.6021
 30
0.0
 10
-39.43064
 20
-20.60698
 30
0.0
 10
-39.43467
 20
-20.61181
 30
0.0
 10
-39.43854
 20
-20.61674
 30
0.0
  0
SPLINE
  5
80
330
1F
100
AcDbEntity
  8
Layer 1
370
     9
100
AcDbSpline
210
0.0
220
0.0
230
1.0
 70
    11
 71
     3
 72
    48
 73
    44
 74
     0
 42
0.000000001
 43
0.0000000001
 40
0.0
 40
0.0
 40
0.0
 40
0.0
 40
0.0833333333333333
 40
0.0833333333333333
 40
0.0833333333333333
 40
0.0833333333333333
 40
0.1666666666666667
 40
0.1666666666666667
 40
0.1666666666666667
 40
0.1666666666666667
 40
0.25
 40
0.25
 40
0.25
 40
0.25
 40
0.3333333333333333
 40
0.3333333333333333
 40
0.3333333333333333
 40
0.3333333333333333
 40
0.4166666666666667
 40
0.4166666666666667
 40
0.4166666666666667
 40
0.4166666666666667
 40
0.5
 40
0.5
 40
0.5
 40
0.5
 40
0.5833333333333334
 40
0.5833333333333334
 40
0.5833333333333334
 40
0.5833333333333334
 40
0.6666666666666666
 40
0.6666666666666666
 40
0.6666666666666666
 40
0.6666666666666666
 40
0.75
 40
0.75
 40
0.75
 40
0.75
 40
0.8333333333333334
 40
0.8333333333333334
 40
0.8333333333333334
 40
0.8333333333333334
 40
1.0
 40
1.0
 40
1.0
 40
1.0
 10
-38.44965
 20
-26.36992
 30
0.0
 10
-38.44965
 20
-26.36992
 30
0.0
 10
-38.44965
 20
-26.36992
 30
0.0
 10
-38.44965
 20
-26.36992
 30
0.0
 10
-38.44965
 20
-26.36992
 30
0.0
 10
-38.4891
 20
-26.14804
 30
0.0
 10
-38.62221
 20
-25.95756
 30
0.0
 10
-38.73713
 20
-25.76844
 30
0.0
 10
-38.73713
 20
-25.76844
 30
0.0
 10
-38.84903
 20
-25.5844
 30
0.0
 10
-38.92208
 20
-25.37495
 30
0.0
 10
-38.97842
 20
-25.16755
 30
0.0
 10
-38.97842
 20
-25.16755
 30
0.0
 10
-39.10497
 20
-24.70156
 30
0.0
 10
-39.16283
 20
-24.21801
 30
0.0
 10
-39.2323
 20
-23.74114
 30
0.0
 10
-39.2323
 20
-23.74114
 30
0.0
 10
-39.30798
 20
-23.22152
 30
0.0
 10
-39.39034
 20
-22.70562
 30
0.0
 10
-39.51778
 20
-22.19589
 30
0.0
 10
-39.51778
 20
-22.19589
 30
0.0
 10
-39.56342
 20
-22.01276
 30
0.0
 10
-39.61231
 20
-21.82353
 30
0.0
 10
-39.64527
 20
-21.63235
 30
0.0
 10
-39.64527
 20
-21.63235
 30
0.0
 10
-39.64447
 20
-21.93633
 30
0.0
 10
-39.6413
 20
-22.24042
 30
0.0
 10
-39.62822
 20
-22.54422
 30
0.0
 10
-39.62822
 20
-22.54422
 30
0.0
 10
-39.60628
 20
-23.05407
 30
0.0
 10
-39.56758
 20
-23.56269
 30
0.0
 10
-39.53097
 20
-24.0716
 30
0.0
 10
-39.53097
 20
-24.0716
 30
0.0
 10
-39.49977
 20
-24.50374
 30
0.0
 10
-39.48819
 20
-24.97335
 30
0.0
 10
-39.30938
 20
-25.37585
 30
0.0
 10
-39.30938
 20
-25.37585
 30
0.0
 10
-39.20071
 20
-25.62078
 30
0.0
 10
-39.0456
 20
-25.84064
 30
0.0
 10
-38.83831
 20
-26.01196
 30
0.0
 10
-38.83831
 20
-26.01196
 30
0.0
 10
-38.70442
 20
-26.12269
 30
0.0
 10
-38.55616
 20
-26.23051
 30
0.0
 10
-38.44965
 20
-26.36992
 30
0.0
  0
SPLINE
  5
81
330
1F
100
AcDbEntity
  8
Layer 1
370
     9
100
AcDbSpline
210
0.0
220
0.0
230
1.0
 70
    11
 71
     3
 72
    44
 73
    40
 74
     0
 42
0.000000001
 43
0.0000000001
 40
0.0
 40
0.0
 40
0.0
 40
0.0
 40
0.0909090909090909
 40
0.0909090909090909
 40
0.0909090909090909
 40
0.0909090909090909
 40
0.1818181818181818
 40
0.1818181818181818
 40
0.1818181818181818
 40
0.1818181818181818
 40
0.2727272727272727
 40
0.2727272727272727
 40
0.2727272727272727
 40
0.2727272727272727
 40
0.3636363636363636
 40
0.3636363636363636
 40
0.3636363636363636
 40
0.3636363636363636
 40
0.4545454545454545
 40
0.4545454545454545
 40
0.4545454545454545
 40
0.4545454545454545
 40
0.5454545454545454
 40
0.5454545454545454
 40
0.5454545454545454
 40
0.5454545454545454
 40
0.6363636363636364
 40
0.6363636363636364
 40
0.6363636363636364
 40
0.6363636363636364
 40
0.7272727272727273
 40
0.7272727272727273
 40
0.7272727272727273
 40
0.7272727272727273
 40
0.8181818181818182
 40
0.8181818181818182
 40
0.8181818181818182
 40
0.8181818181818182
 40
1.0
 40
1.0
 40
1.0
 40
1.0
 10
-38.37296
 20
-26.21175
 30
0.0
 10
-38.37296
 20
-26.21175
 30
0.0
 10
-38.37296
 20
-26.21175
 30
0.0
 10
-38.37296
 20
-26.21175
 30
0.0
 10
-38.37296
 20
-26.21175
 30
0.0
 10
-38.24131
 20
-25.87278
 30
0.0
 10
-38.1131
 20
-25.52378
 30
0.0
 10
-38.10721
 20
-25.16051
 30
0.0
 10
-38.10721
 20
-25.16051
 30
0.0
 10
-38.10057
 20
-24.75188
 30
0.0
 10
-38.23441
 20
-24.36739
 30
0.0
 10
-38.3609
 20
-23.98452
 30
0.0
 10
-38.3609
 20
-23.98452
 30
0.0
 10
-38.5141
 20
-23.52113
 30
0.0
 10
-38.71686
 20
-23.05559
 30
0.0
 10
-38.93002
 20
-22.61671
 30
0.0
 10
-38.93002
 20
-22.61671
 30
0.0
 10
-39.00661
 20
-22.45903
 30
0.0
 10
-39.09737
 20
-22.30734
 30
0.0
 10
-39.18581
 20
-22.15439
 30
0.0
 10
-39.18581
 20
-22.15439
 30
0.0
 10
-39.12826
 20
-22.28455
 30
0.0
 10
-39.07292
 20
-22.41586
 30
0.0
 10
-39.02593
 20
-22.55039
 30
0.0
 10
-39.02593
 20
-22.55039
 30
0.0
 10
-38.93451
 20
-22.81213
 30
0.0
 10
-38.85084
 20
-23.07798
 30
0.0
 10
-38.79685
 20
-23.35042
 30
0.0
 10
-38.79685
 20
-23.35042
 30
0.0
 10
-38.74417
 20
-23.61753
 30
0.0
 10
-38.73386
 20
-23.88308
 30
0.0
 10
-38.70402
 20
-24.15251
 30
0.0
 10
-38.70402
 20
-24.15251
 30
0.0
 10
-38.64637
 20
-24.67263
 30
0.0
 10
-38.48632
 20
-25.1758
 30
0.0
 10
-38.40874
 20
-25.69323
 30
0.0
 10
-38.40874
 20
-25.69323
 30
0.0
 10
-38.38313
 20
-25.86299
 30
0.0
 10
-38.3608
 20
-26.03988
 30
0.0
 10
-38.37296
 20
-26.21175
 30
0.0
  0
SPLINE
  5
82
330
1F
100
AcDbEntity
  8
Layer 1
370
     9
100
AcDbSpline
210
0.0
220
0.0
230
1.0
 70
    11
 71
     3
 72
    52
 73
    48
 74
     0
 42
0.000000001
 43
0.0000000001
 40
0.0
 40
0.0
 40
0.0
 40
0.0
 40
0.0769230769230769
 40
0.0769230769230769
 40
0.0769230769230769
 40
0.0769230769230769
 40
0.1538461538461539
 40
0.1538461538461539
 40
0.1538461538461539
 40
0.1538461538461539
 40
0.2307692307692308
 40
0.2307692307692308
 40
0.2307692307692308
 40
0.2307692307692308
 40
0.3076923076923077
 40
0.3076923076923077
 40
0.3076923076923077
 40
0.3076923076923077
 40
0.3846153846153846
 40
0.3846153846153846
 40
0.3846153846153846
 40
0.3846153846153846
 40
0.4615384615384616
 40
0.4615384615384616
 40
0.4615384615384616
 40
0.4615384615384616
 40
0.5384615384615384
 40
0.5384615384615384
 40
0.5384615384615384
 40
0.5384615384615384
 40
0.6153846153846154
 40
0.6153846153846154
 40
0.6153846153846154
 40
0.6153846153846154
 40
0.6923076923076923
 40
0.6923076923076923
 40
0.6923076923076923
 40
0.6923076923076923
 40
0.7692307692307693
 40
0.7692307692307693
 40
0.7692307692307693
 40
0.7692307692307693
 40
0.8461538461538461
 40
0.8461538461538461
 40
0.8461538461538461
 40
0.8461538461538461
 40
1.0
 40
1.0
 40
1.0
 40
1.0
 10
-39.43823
 20
-21.54062
 30
0.0
 10
-39.43823
 20
-21.54062
 30
0.0
 10
-39.43823
 20
-21.54062
 30
0.0
 10
-39.43823
 20
-21.54062
 30
0.0
 10
-39.43823
 20
-21.54062
 30
0.0
 10
-39.26205
 20
-21.96094
 30
0.0
 10
-38.99549
 20
-22.33425
 30
0.0
 10
-38.81044
 20
-22.75095
 30
0.0
 10
-38.81044
 20
-22.75095
 30
0.0
 10
-38.61381
 20
-23.19369
 30
0.0
 10
-38.41704
 20
-23.63776
 30
0.0
 10
-38.25609
 20
-24.095
 30
0.0
 10
-38.25609
 20
-24.095
 30
0.0
 10
-38.13077
 20
-24.45145
 30
0.0
 10
-38.00303
 20
-24.8283
 30
0.0
 10
-38.02867
 20
-25.21208
 30
0.0
 10
-38.02867
 20
-25.21208
 30
0.0
 10
-38.05801
 20
-25.65066
 30
0.0
 10
-38.22615
 20
-26.06524
 30
0.0
 10
-38.38917
 20
-26.46909
 30
0.0
 10
-38.38917
 20
-26.46909
 30
0.0
 10
-38.38932
 20
-26.47408
 30
0.0
 10
-38.39098
 20
-26.47855
 30
0.0
 10
-38.3935
 20
-26.48262
 30
0.0
 10
-38.3935
 20
-26.48262
 30
0.0
 10
-38.39208
 20
-26.48554
 30
0.0
 10
-38.39088
 20
-26.48857
 30
0.0
 10
-38.39017
 20
-26.49168
 30
0.0
 10
-38.39017
 20
-26.49168
 30
0.0
 10
-38.06007
 20
-26.13582
 30
0.0
 10
-37.7915
 20
-25.76241
 30
0.0
 10
-37.71191
 20
-25.26617
 30
0.0
 10
-37.71191
 20
-25.26617
 30
0.0
 10
-37.63297
 20
-24.77401
 30
0.0
 10
-37.71538
 20
-24.25922
 30
0.0
 10
-37.95945
 20
-23.8224
 30
0.0
 10
-37.95945
 20
-23.8224
 30
0.0
 10
-38.11375
 20
-23.54623
 30
0.0
 10
-38.30705
 20
-23.28984
 30
0.0
 10
-38.47434
 20
-23.02102
 30
0.0
 10
-38.47434
 20
-23.02102
 30
0.0
 10
-38.64843
 20
-22.74118
 30
0.0
 10
-38.81889
 20
-22.45872
 30
0.0
 10
-39.00258
 20
-22.18488
 30
0.0
 10
-39.00258
 20
-22.18488
 30
0.0
 10
-39.1424
 20
-21.97654
 30
0.0
 10
-39.29952
 20
-21.7633
 30
0.0
 10
-39.43823
 20
-21.54062
 30
0.0
  0
SPLINE
  5
83
330
1F
100
AcDbEntity
  8
Layer 1
370
     9
100
AcDbSpline
210
0.0
220
0.0
230
1.0
 70
    11
 71
     3
 72
    60
 73
    56
 74
     0
 42
0.000000001
 43
0.0000000001
 40
0.0
 40
0.0
 40
0.0
 40
0.0
 40
0.0666666666666667
 40
0.0666666666666667
 40
0.0666666666666667
 40
0.0666666666666667
 40
0.1333333333333333
 40
0.1333333333333333
 40
0.1333333333333333
 40
0.1333333333333333
 40
0.2
 40
0.2
 40
0.2
 40
0.2
 40
0.2666666666666667
 40
0.2666666666666667
 40
0.2666666666666667
 40
0.2666666666666667
 40
0.3333333333333333
 40
0.3333333333333333
 40
0.3333333333333333
 40
0.3333333333333333
 40
0.4
 40
0.4
 40
0.4
 40
0.4
 40
0.4666666666666667
 40
0.4666666666666667
 40
0.4666666666666667
 40
0.4666666666666667
 40
0.5333333333333333
 40
0.5333333333333333
 40
0.5333333333333333
 40
0.5333333333333333
 40
0.6
 40
0.6
 40
0.6
 40
0.6
 40
0.6666666666666666
 40
0.6666666666666666
 40
0.6666666666666666
 40
0.6666666666666666
 40
0.7333333333333333
 40
0.7333333333333333
 40
0.7333333333333333
 40
0.7333333333333333
 40
0.8
 40
0.8
 40
0.8
 40
0.8
 40
0.8666666666666667
 40
0.8666666666666667
 40
0.8666666666666667
 40
0.8666666666666667
 40
1.0
 40
1.0
 40
1.0
 40
1.0
 10
-39.64577
 20
-21.16137
 30
0.0
 10
-39.64577
 20
-21.16137
 30
0.0
 10
-39.64577
 20
-21.16137
 30
0.0
 10
-39.64577
 20
-21.16137
 30
0.0
 10
-39.64577
 20
-21.16137
 30
0.0
 10
-39.64573
 20
-21.19976
 30
0.0
 10
-39.64573
 20
-21.23814
 30
0.0
 10
-39.64568
 20
-21.27649
 30
0.0
 10
-39.64568
 20
-21.27649
 30
0.0
 10
-39.61856
 20
-21.63028
 30
0.0
 10
-39.53066
 20
-21.97401
 30
0.0
 10
-39.44382
 20
-22.32158
 30
0.0
 10
-39.44382
 20
-22.32158
 30
0.0
 10
-39.31905
 20
-22.82058
 30
0.0
 10
-39.24478
 20
-23.33106
 30
0.0
 10
-39.16252
 20
-23.8382
 30
0.0
 10
-39.16252
 20
-23.8382
 30
0.0
 10
-39.08614
 20
-24.30937
 30
0.0
 10
-39.03231
 20
-24.795
 30
0.0
 10
-38.8849
 20
-25.25068
 30
0.0
 10
-38.8849
 20
-25.25068
 30
0.0
 10
-38.80917
 20
-25.48468
 30
0.0
 10
-38.70131
 20
-25.67938
 30
0.0
 10
-38.57447
 20
-25.88753
 30
0.0
 10
-38.57447
 20
-25.88753
 30
0.0
 10
-38.49679
 20
-26.01517
 30
0.0
 10
-38.44004
 20
-26.13205
 30
0.0
 10
-38.41467
 20
-26.26769
 30
0.0
 10
-38.41467
 20
-26.26769
 30
0.0
 10
-38.41045
 20
-26.14956
 30
0.0
 10
-38.4328
 20
-26.01612
 30
0.0
 10
-38.44043
 20
-25.94464
 30
0.0
 10
-38.44043
 20
-25.94464
 30
0.0
 10
-38.45729
 20
-25.78856
 30
0.0
 10
-38.48305
 20
-25.63255
 30
0.0
 10
-38.51118
 20
-25.47814
 30
0.0
 10
-38.51118
 20
-25.47814
 30
0.0
 10
-38.60431
 20
-24.96596
 30
0.0
 10
-38.7581
 20
-24.47335
 30
0.0
 10
-38.7968
 20
-23.95191
 30
0.0
 10
-38.7968
 20
-23.95191
 30
0.0
 10
-38.83625
 20
-23.41865
 30
0.0
 10
-38.97451
 20
-22.88719
 30
0.0
 10
-39.17958
 20
-22.39357
 30
0.0
 10
-39.17958
 20
-22.39357
 30
0.0
 10
-39.27448
 20
-22.165
 30
0.0
 10
-39.3858
 20
-21.94337
 30
0.0
 10
-39.47757
 20
-21.7134
 30
0.0
 10
-39.47757
 20
-21.7134
 30
0.0
 10
-39.54354
 20
-21.54827
 30
0.0
 10
-39.62947
 20
-21.35446
 30
0.0
 10
-39.64175
 20
-21.16992
 30
0.0
 10
-39.64175
 20
-21.16992
 30
0.0
 10
-39.64305
 20
-21.16705
 30
0.0
 10
-39.64451
 20
-21.16423
 30
0.0
 10
-39.64577
 20
-21.16137
 30
0.0
  0
SPLINE
  5
84
330
1F
100
AcDbEntity
  8
Layer 1
370
     9
100
AcDbSpline
210
0.0
220
0.0
230
1.0
 70
    11
 71
     3
 72
    44
 73
    40
 74
     0
 42
0.000000001
 43
0.0000000001
 40
0.0
 40
0.0
 40
0.0
 40
0.0
 40
0.0909090909090909
 40
0.0909090909090909
 40
0.0909090909090909
 40
0.0909090909090909
 40
0.1818181818181818
 40
0.1818181818181818
 40
0.1818181818181818
 40
0.1818181818181818
 40
0.2727272727272727
 40
0.2727272727272727
 40
0.2727272727272727
 40
0.2727272727272727
 40
0.3636363636363636
 40
0.3636363636363636
 40
0.3636363636363636
 40
0.3636363636363636
 40
0.4545454545454545
 40
0.4545454545454545
 40
0.4545454545454545
 40
0.4545454545454545
 40
0.5454545454545454
 40
0.5454545454545454
 40
0.5454545454545454
 40
0.5454545454545454
 40
0.6363636363636364
 40
0.6363636363636364
 40
0.6363636363636364
 40
0.6363636363636364
 40
0.7272727272727273
 40
0.7272727272727273
 40
0.7272727272727273
 40
0.7272727272727273
 40
0.8181818181818182
 40
0.8181818181818182
 40
0.8181818181818182
 40
0.8181818181818182
 40
1.0
 40
1.0
 40
1.0
 40
1.0
 10
-39.69966
 20
-22.54089
 30
0.0
 10
-39.69966
 20
-22.54089
 30
0.0
 10
-39.69966
 20
-22.54089
 30
0.0
 10
-39.69966
 20
-22.54089
 30
0.0
 10
-39.69966
 20
-22.54089
 30
0.0
 10
-39.70635
 20
-22.31096
 30
0.0
 10
-39.71168
 20
-22.08084
 30
0.0
 10
-39.70993
 20
-21.851
 30
0.0
 10
-39.70993
 20
-21.851
 30
0.0
 10
-39.78378
 20
-22.62854
 30
0.0
 10
-39.96109
 20
-23.39927
 30
0.0
 10
-39.96954
 20
-24.18249
 30
0.0
 10
-39.96954
 20
-24.18249
 30
0.0
 10
-39.97482
 20
-24.66142
 30
0.0
 10
-39.92722
 20
-25.17173
 30
0.0
 10
-39.68663
 20
-25.59627
 30
0.0
 10
-39.68663
 20
-25.59627
 30
0.0
 10
-39.42636
 20
-26.05532
 30
0.0
 10
-38.98527
 20
-26.30543
 30
0.0
 10
-38.49175
 20
-26.44056
 30
0.0
 10
-38.49175
 20
-26.44056
 30
0.0
 10
-38.58875
 20
-26.33758
 30
0.0
 10
-38.68723
 20
-26.24243
 30
0.0
 10
-38.80008
 20
-26.15267
 30
0.0
 10
-38.80008
 20
-26.15267
 30
0.0
 10
-38.88847
 20
-26.08244
 30
0.0
 10
-38.98064
 20
-26.01196
 30
0.0
 10
-39.05776
 20
-25.92904
 30
0.0
 10
-39.05776
 20
-25.92904
 30
0.0
 10
-39.20489
 20
-25.77076
 30
0.0
 10
-39.32866
 20
-25.5762
 30
0.0
 10
-39.40619
 20
-25.37408
 30
0.0
 10
-39.40619
 20
-25.37408
 30
0.0
 10
-39.55249
 20
-24.99217
 30
0.0
 10
-39.58153
 20
-24.58156
 30
0.0
 10
-39.61005
 20
-24.17716
 30
0.0
 10
-39.61005
 20
-24.17716
 30
0.0
 10
-39.64865
 20
-23.63227
 30
0.0
 10
-39.6833
 20
-23.08683
 30
0.0
 10
-39.69966
 20
-22.54089
 30
0.0
  0
SPLINE
  5
85
330
1F
100
AcDbEntity
  8
Layer 1
370
     9
100
AcDbSpline
210
0.0
220
0.0
230
1.0
 70
    11
 71
     3
 72
    60
 73
    56
 74
     0
 42
0.000000001
 43
0.0000000001
 40
0.0
 40
0.0
 40
0.0
 40
0.0
 40
0.0666666666666667
 40
0.0666666666666667
 40
0.0666666666666667
 40
0.0666666666666667
 40
0.1333333333333333
 40
0.1333333333333333
 40
0.1333333333333333
 40
0.1333333333333333
 40
0.2
 40
0.2
 40
0.2
 40
0.2
 40
0.2666666666666667
 40
0.2666666666666667
 40
0.2666666666666667
 40
0.2666666666666667
 40
0.3333333333333333
 40
0.3333333333333333
 40
0.3333333333333333
 40
0.3333333333333333
 40
0.4
 40
0.4
 40
0.4
 40
0.4
 40
0.4666666666666667
 40
0.4666666666666667
 40
0.4666666666666667
 40
0.4666666666666667
 40
0.5333333333333333
 40
0.5333333333333333
 40
0.5333333333333333
 40
0.5333333333333333
 40
0.6
 40
0.6
 40
0.6
 40
0.6
 40
0.6666666666666666
 40
0.6666666666666666
 40
0.6666666666666666
 40
0.6666666666666666
 40
0.7333333333333333
 40
0.7333333333333333
 40
0.7333333333333333
 40
0.7333333333333333
 40
0.8
 40
0.8
 40
0.8
 40
0.8
 40
0.8666666666666667
 40
0.8666666666666667
 40
0.8666666666666667
 40
0.8666666666666667
 40
1.0
 40
1.0
 40
1.0
 40
1.0
 10
-39.65861
 20
-18.97111
 30
0.0
 10
-39.65861
 20
-18.97111
 30
0.0
 10
-39.65861
 20
-18.97111
 30
0.0
 10
-39.65861
 20
-18.97111
 30
0.0
 10
-39.65861
 20
-18.97111
 30
0.0
 10
-39.62404
 20
-18.4615
 30
0.0
 10
-39.42148
 20
-17.9776
 30
0.0
 10
-39.40638
 20
-17.46511
 30
0.0
 10
-39.40638
 20
-17.46511
 30
0.0
 10
-39.39286
 20
-17.00777
 30
0.0
 10
-39.49046
 20
-16.53001
 30
0.0
 10
-39.64814
 20
-16.1017
 30
0.0
 10
-39.64814
 20
-16.1017
 30
0.0
 10
-39.72291
 20
-15.89889
 30
0.0
 10
-39.81065
 20
-15.69692
 30
0.0
 10
-39.93154
 20
-15.51679
 30
0.0
 10
-39.93154
 20
-15.51679
 30
0.0
 10
-40.04344
 20
-15.35013
 30
0.0
 10
-40.17863
 20
-15.22747
 30
0.0
 10
-40.32826
 20
-15.10168
 30
0.0
 10
-40.32826
 20
-15.10168
 30
0.0
 10
-40.3275
 20
-15.11034
 30
0.0
 10
-40.32641
 20
-15.11897
 30
0.0
 10
-40.32585
 20
-15.12758
 30
0.0
 10
-40.32585
 20
-15.12758
 30
0.0
 10
-40.31271
 20
-15.14141
 30
0.0
 10
-40.30034
 20
-15.15389
 30
0.0
 10
-40.2945
 20
-15.16204
 30
0.0
 10
-40.2945
 20
-15.16204
 30
0.0
 10
-40.27896
 20
-15.18332
 30
0.0
 10
-40.2618
 20
-15.2314
 30
0.0
 10
-40.25133
 20
-15.25605
 30
0.0
 10
-40.25133
 20
-15.25605
 30
0.0
 10
-40.21602
 20
-15.33891
 30
0.0
 10
-40.18402
 20
-15.42382
 30
0.0
 10
-40.1584
 20
-15.51014
 30
0.0
 10
-40.1584
 20
-15.51014
 30
0.0
 10
-40.09431
 20
-15.72602
 30
0.0
 10
-40.07233
 20
-15.94579
 30
0.0
 10
-40.02815
 20
-16.16552
 30
0.0
 10
-40.02815
 20
-16.16552
 30
0.0
 10
-39.93874
 20
-16.61122
 30
0.0
 10
-39.77824
 20
-17.04197
 30
0.0
 10
-39.73633
 20
-17.49686
 30
0.0
 10
-39.73633
 20
-17.49686
 30
0.0
 10
-39.68985
 20
-18.004
 30
0.0
 10
-39.69569
 20
-18.51785
 30
0.0
 10
-39.69886
 20
-19.02651
 30
0.0
 10
-39.69886
 20
-19.02651
 30
0.0
 10
-39.70026
 20
-19.26781
 30
0.0
 10
-39.70283
 20
-19.509
 30
0.0
 10
-39.70373
 20
-19.7503
 30
0.0
 10
-39.70373
 20
-19.7503
 30
0.0
 10
-39.66348
 20
-19.49074
 30
0.0
 10
-39.67632
 20
-19.23209
 30
0.0
 10
-39.65861
 20
-18.97111
 30
0.0
  0
SPLINE
  5
86
330
1F
100
AcDbEntity
  8
Layer 1
370
     9
100
AcDbSpline
210
0.0
220
0.0
230
1.0
 70
    11
 71
     3
 72
    40
 73
    36
 74
     0
 42
0.000000001
 43
0.0000000001
 40
0.0
 40
0.0
 40
0.0
 40
0.0
 40
0.1
 40
0.1
 40
0.1
 40
0.1
 40
0.2
 40
0.2
 40
0.2
 40
0.2
 40
0.3
 40
0.3
 40
0.3
 40
0.3
 40
0.4
 40
0.4
 40
0.4
 40
0.4
 40
0.5
 40
0.5
 40
0.5
 40
0.5
 40
0.6
 40
0.6
 40
0.6
 40
0.6
 40
0.7
 40
0.7
 40
0.7
 40
0.7
 40
0.8
 40
0.8
 40
0.8
 40
0.8
 40
1.0
 40
1.0
 40
1.0
 40
1.0
 10
-40.33194
 20
-15.06184
 30
0.0
 10
-40.33194
 20
-15.06184
 30
0.0
 10
-40.33194
 20
-15.06184
 30
0.0
 10
-40.33194
 20
-15.06184
 30
0.0
 10
-40.33194
 20
-15.06184
 30
0.0
 10
-40.33174
 20
-15.0638
 30
0.0
 10
-40.33164
 20
-15.06584
 30
0.0
 10
-40.33137
 20
-15.06773
 30
0.0
 10
-40.33137
 20
-15.06773
 30
0.0
 10
-39.97673
 20
-15.19814
 30
0.0
 10
-39.75038
 20
-15.67015
 30
0.0
 10
-39.62424
 20
-15.99078
 30
0.0
 10
-39.62424
 20
-15.99078
 30
0.0
 10
-39.4722
 20
-16.37706
 30
0.0
 10
-39.3607
 20
-16.79561
 30
0.0
 10
-39.32996
 20
-17.21092
 30
0.0
 10
-39.32996
 20
-17.21092
 30
0.0
 10
-39.28744
 20
-17.78535
 30
0.0
 10
-39.51566
 20
-18.30593
 30
0.0
 10
-39.56597
 20
-18.86833
 30
0.0
 10
-39.56597
 20
-18.86833
 30
0.0
 10
-39.58927
 20
-19.12929
 30
0.0
 10
-39.57332
 20
-19.39274
 30
0.0
 10
-39.60653
 20
-19.6525
 30
0.0
 10
-39.60653
 20
-19.6525
 30
0.0
 10
-39.43773
 20
-18.93605
 30
0.0
 10
-39.19225
 20
-18.23399
 30
0.0
 10
-39.09404
 20
-17.50269
 30
0.0
 10
-39.09404
 20
-17.50269
 30
0.0
 10
-39.03035
 20
-17.02799
 30
0.0
 10
-39.01521
 20
-16.51573
 30
0.0
 10
-39.20211
 20
-16.06482
 30
0.0
 10
-39.20211
 20
-16.06482
 30
0.0
 10
-39.41092
 20
-15.56139
 30
0.0
 10
-39.83862
 20
-15.25554
 30
0.0
 10
-40.33194
 20
-15.06184
 30
0.0
  0
SPLINE
  5
87
330
1F
100
AcDbEntity
  8
Layer 1
370
     9
100
AcDbSpline
210
0.0
220
0.0
230
1.0
 70
    11
 71
     3
 72
    48
 73
    44
 74
     0
 42
0.000000001
 43
0.0000000001
 40
0.0
 40
0.0
 40
0.0
 40
0.0
 40
0.0833333333333333
 40
0.0833333333333333
 40
0.0833333333333333
 40
0.0833333333333333
 40
0.1666666666666667
 40
0.1666666666666667
 40
0.1666666666666667
 40
0.1666666666666667
 40
0.25
 40
0.25
 40
0.25
 40
0.25
 40
0.3333333333333333
 40
0.3333333333333333
 40
0.3333333333333333
 40
0.3333333333333333
 40
0.4166666666666667
 40
0.4166666666666667
 40
0.4166666666666667
 40
0.4166666666666667
 40
0.5
 40
0.5
 40
0.5
 40
0.5
 40
0.5833333333333334
 40
0.5833333333333334
 40
0.5833333333333334
 40
0.5833333333333334
 40
0.6666666666666666
 40
0.6666666666666666
 40
0.6666666666666666
 40
0.6666666666666666
 40
0.75
 40
0.75
 40
0.75
 40
0.75
 40
0.8333333333333334
 40
0.8333333333333334
 40
0.8333333333333334
 40
0.8333333333333334
 40
1.0
 40
1.0
 40
1.0
 40
1.0
 10
-40.07801
 20
-19.78899
 30
0.0
 10
-40.07801
 20
-19.78899
 30
0.0
 10
-40.07801
 20
-19.78899
 30
0.0
 10
-40.07801
 20
-19.78899
 30
0.0
 10
-40.07801
 20
-19.78899
 30
0.0
 10
-40.14754
 20
-19.5643
 30
0.0
 10
-40.21445
 20
-19.3389
 30
0.0
 10
-40.30236
 20
-19.12643
 30
0.0
 10
-40.30236
 20
-19.12643
 30
0.0
 10
-40.47673
 20
-18.70512
 30
0.0
 10
-40.73443
 20
-18.30412
 30
0.0
 10
-40.85197
 20
-17.86157
 30
0.0
 10
-40.85197
 20
-17.86157
 30
0.0
 10
-40.9784
 20
-17.38566
 30
0.0
 10
-40.97794
 20
-16.84125
 30
0.0
 10
-40.92779
 20
-16.35483
 30
0.0
 10
-40.92779
 20
-16.35483
 30
0.0
 10
-40.90223
 20
-16.10751
 30
0.0
 10
-40.87271
 20
-15.84398
 30
0.0
 10
-40.76834
 20
-15.61563
 30
0.0
 10
-40.76834
 20
-15.61563
 30
0.0
 10
-40.68065
 20
-15.42357
 30
0.0
 10
-40.56679
 20
-15.24323
 30
0.0
 10
-40.44277
 20
-15.07201
 30
0.0
 10
-40.44277
 20
-15.07201
 30
0.0
 10
-40.78575
 20
-15.36989
 30
0.0
 10
-41.07058
 20
-15.69601
 30
0.0
 10
-41.20229
 20
-16.15093
 30
0.0
 10
-41.20229
 20
-16.15093
 30
0.0
 10
-41.34091
 20
-16.62974
 30
0.0
 10
-41.32194
 20
-17.15076
 30
0.0
 10
-41.13311
 20
-17.61409
 30
0.0
 10
-41.13311
 20
-17.61409
 30
0.0
 10
-41.01372
 20
-17.9071
 30
0.0
 10
-40.85322
 20
-18.18524
 30
0.0
 10
-40.7203
 20
-18.47247
 30
0.0
 10
-40.7203
 20
-18.47247
 30
0.0
 10
-40.58165
 20
-18.77152
 30
0.0
 10
-40.44689
 20
-19.0727
 30
0.0
 10
-40.29808
 20
-19.36692
 30
0.0
 10
-40.29808
 20
-19.36692
 30
0.0
 10
-40.2283
 20
-19.50503
 30
0.0
 10
-40.15207
 20
-19.64565
 30
0.0
 10
-40.07801
 20
-19.78899
 30
0.0
  0
SPLINE
  5
88
330
1F
100
AcDbEntity
  8
Layer 1
370
     9
100
AcDbSpline
210
0.0
220
0.0
230
1.0
 70
    11
 71
     3
 72
    52
 73
    48
 74
     0
 42
0.000000001
 43
0.0000000001
 40
0.0
 40
0.0
 40
0.0
 40
0.0
 40
0.0769230769230769
 40
0.0769230769230769
 40
0.0769230769230769
 40
0.0769230769230769
 40
0.1538461538461539
 40
0.1538461538461539
 40
0.1538461538461539
 40
0.1538461538461539
 40
0.2307692307692308
 40
0.2307692307692308
 40
0.2307692307692308
 40
0.2307692307692308
 40
0.3076923076923077
 40
0.3076923076923077
 40
0.3076923076923077
 40
0.3076923076923077
 40
0.3846153846153846
 40
0.3846153846153846
 40
0.3846153846153846
 40
0.3846153846153846
 40
0.4615384615384616
 40
0.4615384615384616
 40
0.4615384615384616
 40
0.4615384615384616
 40
0.5384615384615384
 40
0.5384615384615384
 40
0.5384615384615384
 40
0.5384615384615384
 40
0.6153846153846154
 40
0.6153846153846154
 40
0.6153846153846154
 40
0.6153846153846154
 40
0.6923076923076923
 40
0.6923076923076923
 40
0.6923076923076923
 40
0.6923076923076923
 40
0.7692307692307693
 40
0.7692307692307693
 40
0.7692307692307693
 40
0.7692307692307693
 40
0.8461538461538461
 40
0.8461538461538461
 40
0.8461538461538461
 40
0.8461538461538461
 40
1.0
 40
1.0
 40
1.0
 40
1.0
 10
-39.88385
 20
-20.0884
 30
0.0
 10
-39.88385
 20
-20.0884
 30
0.0
 10
-39.88385
 20
-20.0884
 30
0.0
 10
-39.88385
 20
-20.0884
 30
0.0
 10
-39.88385
 20
-20.0884
 30
0.0
 10
-39.92391
 20
-19.78602
 30
0.0
 10
-39.94942
 20
-19.48078
 30
0.0
 10
-40.02584
 20
-19.18423
 30
0.0
 10
-40.02584
 20
-19.18423
 30
0.0
 10
-40.15464
 20
-18.68417
 30
0.0
 10
-40.29983
 20
-18.18866
 30
0.0
 10
-40.39623
 20
-17.6809
 30
0.0
 10
-40.39623
 20
-17.6809
 30
0.0
 10
-40.446
 20
-17.41933
 30
0.0
 10
-40.48957
 20
-17.15644
 30
0.0
 10
-40.52066
 20
-16.89201
 30
0.0
 10
-40.52066
 20
-16.89201
 30
0.0
 10
-40.54546
 20
-16.68014
 30
0.0
 10
-40.5833
 20
-16.45465
 30
0.0
 10
-40.56741
 20
-16.24095
 30
0.0
 10
-40.56741
 20
-16.24095
 30
0.0
 10
-40.53827
 20
-15.85042
 30
0.0
 10
-40.39423
 20
-15.48159
 30
0.0
 10
-40.37446
 20
-15.09045
 30
0.0
 10
-40.37446
 20
-15.09045
 30
0.0
 10
-40.37767
 20
-15.08363
 30
0.0
 10
-40.38024
 20
-15.07691
 30
0.0
 10
-40.38059
 20
-15.06968
 30
0.0
 10
-40.38059
 20
-15.06968
 30
0.0
 10
-40.5107
 20
-15.28832
 30
0.0
 10
-40.66651
 20
-15.49554
 30
0.0
 10
-40.74661
 20
-15.73944
 30
0.0
 10
-40.74661
 20
-15.73944
 30
0.0
 10
-40.82853
 20
-15.9889
 30
0.0
 10
-40.85836
 20
-16.25983
 30
0.0
 10
-40.8731
 20
-16.52126
 30
0.0
 10
-40.8731
 20
-16.52126
 30
0.0
 10
-40.90037
 20
-17.00812
 30
0.0
 10
-40.90374
 20
-17.5527
 30
0.0
 10
-40.72744
 20
-18.01468
 30
0.0
 10
-40.72744
 20
-18.01468
 30
0.0
 10
-40.5671
 20
-18.43519
 30
0.0
 10
-40.3353
 20
-18.82309
 30
0.0
 10
-40.18089
 20
-19.24713
 30
0.0
 10
-40.18089
 20
-19.24713
 30
0.0
 10
-40.07937
 20
-19.52606
 30
0.0
 10
-39.98086
 20
-19.8071
 30
0.0
 10
-39.88385
 20
-20.0884
 30
0.0
  0
SPLINE
  5
89
330
1F
100
AcDbEntity
  8
Layer 1
370
     9
100
AcDbSpline
210
0.0
220
0.0
230
1.0
 70
    11
 71
     3
 72
    52
 73
    48
 74
     0
 42
0.000000001
 43
0.0000000001
 40
0.0
 40
0.0
 40
0.0
 40
0.0
 40
0.0769230769230769
 40
0.0769230769230769
 40
0.0769230769230769
 40
0.0769230769230769
 40
0.1538461538461539
 40
0.1538461538461539
 40
0.1538461538461539
 40
0.1538461538461539
 40
0.2307692307692308
 40
0.2307692307692308
 40
0.2307692307692308
 40
0.2307692307692308
 40
0.3076923076923077
 40
0.3076923076923077
 40
0.3076923076923077
 40
0.3076923076923077
 40
0.3846153846153846
 40
0.3846153846153846
 40
0.3846153846153846
 40
0.3846153846153846
 40
0.4615384615384616
 40
0.4615384615384616
 40
0.4615384615384616
 40
0.4615384615384616
 40
0.5384615384615384
 40
0.5384615384615384
 40
0.5384615384615384
 40
0.5384615384615384
 40
0.6153846153846154
 40
0.6153846153846154
 40
0.6153846153846154
 40
0.6153846153846154
 40
0.6923076923076923
 40
0.6923076923076923
 40
0.6923076923076923
 40
0.6923076923076923
 40
0.7692307692307693
 40
0.7692307692307693
 40
0.7692307692307693
 40
0.7692307692307693
 40
0.8461538461538461
 40
0.8461538461538461
 40
0.8461538461538461
 40
0.8461538461538461
 40
1.0
 40
1.0
 40
1.0
 40
1.0
 10
-39.8025
 20
-17.50223
 30
0.0
 10
-39.8025
 20
-17.50223
 30
0.0
 10
-39.8025
 20
-17.50223
 30
0.0
 10
-39.8025
 20
-17.50223
 30
0.0
 10
-39.8025
 20
-17.50223
 30
0.0
 10
-39.84133
 20
-17.01486
 30
0.0
 10
-40.02578
 20
-16.55727
 30
0.0
 10
-40.09577
 20
-16.07564
 30
0.0
 10
-40.09577
 20
-16.07564
 30
0.0
 10
-40.12717
 20
-15.85975
 30
0.0
 10
-40.15684
 20
-15.64561
 30
0.0
 10
-40.22789
 20
-15.43825
 30
0.0
 10
-40.22789
 20
-15.43825
 30
0.0
 10
-40.25662
 20
-15.35461
 30
0.0
 10
-40.28822
 20
-15.27489
 30
0.0
 10
-40.32388
 20
-15.196
 30
0.0
 10
-40.32388
 20
-15.196
 30
0.0
 10
-40.32474
 20
-15.53166
 30
0.0
 10
-40.47463
 20
-15.86662
 30
0.0
 10
-40.49772
 20
-16.19835
 30
0.0
 10
-40.49772
 20
-16.19835
 30
0.0
 10
-40.51599
 20
-16.46078
 30
0.0
 10
-40.47391
 20
-16.73046
 30
0.0
 10
-40.43784
 20
-16.99015
 30
0.0
 10
-40.43784
 20
-16.99015
 30
0.0
 10
-40.40378
 20
-17.23523
 30
0.0
 10
-40.36298
 20
-17.47939
 30
0.0
 10
-40.31362
 20
-17.72185
 30
0.0
 10
-40.31362
 20
-17.72185
 30
0.0
 10
-40.21053
 20
-18.22835
 30
0.0
 10
-40.0608
 20
-18.72187
 30
0.0
 10
-39.93819
 20
-19.22353
 30
0.0
 10
-39.93819
 20
-19.22353
 30
0.0
 10
-39.86201
 20
-19.53532
 30
0.0
 10
-39.83244
 20
-19.8545
 30
0.0
 10
-39.79118
 20
-20.17203
 30
0.0
 10
-39.79118
 20
-20.17203
 30
0.0
 10
-39.78987
 20
-20.05062
 30
0.0
 10
-39.78444
 20
-19.92916
 30
0.0
 10
-39.78353
 20
-19.81148
 30
0.0
 10
-39.78353
 20
-19.81148
 30
0.0
 10
-39.78166
 20
-19.54861
 30
0.0
 10
-39.77765
 20
-19.28577
 30
0.0
 10
-39.77534
 20
-19.02299
 30
0.0
 10
-39.77534
 20
-19.02299
 30
0.0
 10
-39.77085
 20
-18.51744
 30
0.0
 10
-39.7624
 20
-18.00667
 30
0.0
 10
-39.8025
 20
-17.50223
 30
0.0
  0
SPLINE
  5
8A
330
1F
100
AcDbEntity
  8
Layer 1
370
     9
100
AcDbSpline
210
0.0
220
0.0
230
1.0
 70
    11
 71
     3
 72
    68
 73
    64
 74
     0
 42
0.000000001
 43
0.0000000001
 40
0.0
 40
0.0
 40
0.0
 40
0.0
 40
0.0588235294117647
 40
0.0588235294117647
 40
0.0588235294117647
 40
0.0588235294117647
 40
0.1176470588235294
 40
0.1176470588235294
 40
0.1176470588235294
 40
0.1176470588235294
 40
0.1764705882352941
 40
0.1764705882352941
 40
0.1764705882352941
 40
0.1764705882352941
 40
0.2352941176470588
 40
0.2352941176470588
 40
0.2352941176470588
 40
0.2352941176470588
 40
0.2941176470588235
 40
0.2941176470588235
 40
0.2941176470588235
 40
0.2941176470588235
 40
0.3529411764705883
 40
0.3529411764705883
 40
0.3529411764705883
 40
0.3529411764705883
 40
0.4117647058823529
 40
0.4117647058823529
 40
0.4117647058823529
 40
0.4117647058823529
 40
0.4705882352941176
 40
0.4705882352941176
 40
0.4705882352941176
 40
0.4705882352941176
 40
0.5294117647058824
 40
0.5294117647058824
 40
0.5294117647058824
 40
0.5294117647058824
 40
0.5882352941176471
 40
0.5882352941176471
 40
0.5882352941176471
 40
0.5882352941176471
 40
0.6470588235294118
 40
0.6470588235294118
 40
0.6470588235294118
 40
0.6470588235294118
 40
0.7058823529411765
 40
0.7058823529411765
 40
0.7058823529411765
 40
0.7058823529411765
 40
0.7647058823529411
 40
0.7647058823529411
 40
0.7647058823529411
 40
0.7647058823529411
 40
0.8235294117647058
 40
0.8235294117647058
 40
0.8235294117647058
 40
0.8235294117647058
 40
0.8823529411764706
 40
0.8823529411764706
 40
0.8823529411764706
 40
0.8823529411764706
 40
1.0
 40
1.0
 40
1.0
 40
1.0
 10
-44.84951
 20
-18.15036
 30
0.0
 10
-44.84951
 20
-18.15036
 30
0.0
 10
-44.84951
 20
-18.15036
 30
0.0
 10
-44.84951
 20
-18.15036
 30
0.0
 10
-44.84951
 20
-18.15036
 30
0.0
 10
-44.81846
 20
-18.16703
 30
0.0
 10
-44.793
 20
-18.21084
 30
0.0
 10
-44.77107
 20
-18.26226
 30
0.0
 10
-44.77107
 20
-18.26226
 30
0.0
 10
-44.69082
 20
-18.35197
 30
0.0
 10
-44.58349
 20
-18.42784
 30
0.0
 10
-44.49837
 20
-18.48857
 30
0.0
 10
-44.49837
 20
-18.48857
 30
0.0
 10
-44.36128
 20
-18.58643
 30
0.0
 10
-44.2209
 20
-18.68127
 30
0.0
 10
-44.07499
 20
-18.76553
 30
0.0
 10
-44.07499
 20
-18.76553
 30
0.0
 10
-43.63883
 20
-19.0171
 30
0.0
 10
-43.16926
 20
-19.20664
 30
0.0
 10
-42.707
 20
-19.40416
 30
0.0
 10
-42.707
 20
-19.40416
 30
0.0
 10
-42.22727
 20
-19.60898
 30
0.0
 10
-41.75327
 20
-19.82613
 30
0.0
 10
-41.28038
 20
-20.04599
 30
0.0
 10
-41.28038
 20
-20.04599
 30
0.0
 10
-41.04578
 20
-20.15503
 30
0.0
 10
-40.81121
 20
-20.26425
 30
0.0
 10
-40.57655
 20
-20.37282
 30
0.0
 10
-40.57655
 20
-20.37282
 30
0.0
 10
-40.53062
 20
-20.39399
 30
0.0
 10
-40.48327
 20
-20.41438
 30
0.0
 10
-40.43574
 20
-20.43465
 30
0.0
 10
-40.43574
 20
-20.43465
 30
0.0
 10
-40.48524
 20
-20.39139
 30
0.0
 10
-40.53358
 20
-20.34635
 30
0.0
 10
-40.58083
 20
-20.30172
 30
0.0
 10
-40.58083
 20
-20.30172
 30
0.0
 10
-40.63482
 20
-20.26003
 30
0.0
 10
-40.68951
 20
-20.21902
 30
0.0
 10
-40.74556
 20
-20.17982
 30
0.0
 10
-40.74556
 20
-20.17982
 30
0.0
 10
-40.93851
 20
-20.04519
 30
0.0
 10
-41.14222
 20
-19.92963
 30
0.0
 10
-41.34397
 20
-19.80911
 30
0.0
 10
-41.34397
 20
-19.80911
 30
0.0
 10
-41.77702
 20
-19.55042
 30
0.0
 10
-42.22776
 20
-19.3322
 30
0.0
 10
-42.68657
 20
-19.12361
 30
0.0
 10
-42.68657
 20
-19.12361
 30
0.0
 10
-43.11327
 20
-18.92965
 30
0.0
 10
-43.54289
 20
-18.74033
 30
0.0
 10
-43.98256
 20
-18.57731
 30
0.0
 10
-43.98256
 20
-18.57731
 30
0.0
 10
-44.278
 20
-18.46774
 30
0.0
 10
-44.6151
 20
-18.37204
 30
0.0
 10
-44.83663
 20
-18.13629
 30
0.0
 10
-44.83663
 20
-18.13629
 30
0.0
 10
-44.83632
 20
-18.13688
 30
0.0
 10
-44.83601
 20
-18.13744
 30
0.0
 10
-44.83562
 20
-18.13804
 30
0.0
 10
-44.83562
 20
-18.13804
 30
0.0
 10
-44.83058
 20
-18.14705
 30
0.0
 10
-44.84165
 20
-18.15464
 30
0.0
 10
-44.84951
 20
-18.15036
 30
0.0
  0
SPLINE
  5
8B
330
1F
100
AcDbEntity
  8
Layer 1
370
     9
100
AcDbSpline
210
0.0
220
0.0
230
1.0
 70
    11
 71
     3
 72
    44
 73
    40
 74
     0
 42
0.000000001
 43
0.0000000001
 40
0.0
 40
0.0
 40
0.0
 40
0.0
 40
0.0909090909090909
 40
0.0909090909090909
 40
0.0909090909090909
 40
0.0909090909090909
 40
0.1818181818181818
 40
0.1818181818181818
 40
0.1818181818181818
 40
0.1818181818181818
 40
0.2727272727272727
 40
0.2727272727272727
 40
0.2727272727272727
 40
0.2727272727272727
 40
0.3636363636363636
 40
0.3636363636363636
 40
0.3636363636363636
 40
0.3636363636363636
 40
0.4545454545454545
 40
0.4545454545454545
 40
0.4545454545454545
 40
0.4545454545454545
 40
0.5454545454545454
 40
0.5454545454545454
 40
0.5454545454545454
 40
0.5454545454545454
 40
0.6363636363636364
 40
0.6363636363636364
 40
0.6363636363636364
 40
0.6363636363636364
 40
0.7272727272727273
 40
0.7272727272727273
 40
0.7272727272727273
 40
0.7272727272727273
 40
0.8181818181818182
 40
0.8181818181818182
 40
0.8181818181818182
 40
0.8181818181818182
 40
1.0
 40
1.0
 40
1.0
 40
1.0
 10
-43.73745
 20
-18.60026
 30
0.0
 10
-43.73745
 20
-18.60026
 30
0.0
 10
-43.73745
 20
-18.60026
 30
0.0
 10
-43.73745
 20
-18.60026
 30
0.0
 10
-43.73745
 20
-18.60026
 30
0.0
 10
-43.30279
 20
-18.7673
 30
0.0
 10
-42.87865
 20
-18.95939
 30
0.0
 10
-42.45532
 20
-19.1532
 30
0.0
 10
-42.45532
 20
-19.1532
 30
0.0
 10
-42.02862
 20
-19.34841
 30
0.0
 10
-41.59891
 20
-19.55408
 30
0.0
 10
-41.20616
 20
-19.81244
 30
0.0
 10
-41.20616
 20
-19.81244
 30
0.0
 10
-41.09483
 20
-19.8857
 30
0.0
 10
-40.98137
 20
-19.95986
 30
0.0
 10
-40.86806
 20
-20.03578
 30
0.0
 10
-40.86806
 20
-20.03578
 30
0.0
 10
-40.97926
 20
-19.9336
 30
0.0
 10
-41.09039
 20
-19.83136
 30
0.0
 10
-41.2035
 20
-19.73143
 30
0.0
 10
-41.2035
 20
-19.73143
 30
0.0
 10
-41.55413
 20
-19.42187
 30
0.0
 10
-41.92106
 20
-19.14701
 30
0.0
 10
-42.33176
 20
-18.92206
 30
0.0
 10
-42.33176
 20
-18.92206
 30
0.0
 10
-42.72984
 20
-18.70386
 30
0.0
 10
-43.14461
 20
-18.51015
 30
0.0
 10
-43.57825
 20
-18.3735
 30
0.0
 10
-43.57825
 20
-18.3735
 30
0.0
 10
-43.7791
 20
-18.31025
 30
0.0
 10
-43.98283
 20
-18.25522
 30
0.0
 10
-44.1899
 20
-18.21607
 30
0.0
 10
-44.1899
 20
-18.21607
 30
0.0
 10
-44.39176
 20
-18.17799
 30
0.0
 10
-44.59764
 20
-18.16189
 30
0.0
 10
-44.79899
 20
-18.12283
 30
0.0
 10
-44.79899
 20
-18.12283
 30
0.0
 10
-44.50108
 20
-18.36796
 30
0.0
 10
-44.09049
 20
-18.46461
 30
0.0
 10
-43.73745
 20
-18.60026
 30
0.0
  0
SPLINE
  5
8C
330
1F
100
AcDbEntity
  8
Layer 1
370
     9
100
AcDbSpline
210
0.0
220
0.0
230
1.0
 70
    11
 71
     3
 72
    32
 73
    28
 74
     0
 42
0.000000001
 43
0.0000000001
 40
0.0
 40
0.0
 40
0.0
 40
0.0
 40
0.125
 40
0.125
 40
0.125
 40
0.125
 40
0.25
 40
0.25
 40
0.25
 40
0.25
 40
0.375
 40
0.375
 40
0.375
 40
0.375
 40
0.5
 40
0.5
 40
0.5
 40
0.5
 40
0.625
 40
0.625
 40
0.625
 40
0.625
 40
0.75
 40
0.75
 40
0.75
 40
0.75
 40
1.0
 40
1.0
 40
1.0
 40
1.0
 10
-44.87118
 20
-18.09849
 30
0.0
 10
-44.87118
 20
-18.09849
 30
0.0
 10
-44.87118
 20
-18.09849
 30
0.0
 10
-44.87118
 20
-18.09849
 30
0.0
 10
-44.87118
 20
-18.09849
 30
0.0
 10
-44.86731
 20
-18.11022
 30
0.0
 10
-44.86284
 20
-18.12168
 30
0.0
 10
-44.85776
 20
-18.13306
 30
0.0
 10
-44.85776
 20
-18.13306
 30
0.0
 10
-44.85609
 20
-18.13094
 30
0.0
 10
-44.85393
 20
-18.12913
 30
0.0
 10
-44.85136
 20
-18.12873
 30
0.0
 10
-44.85136
 20
-18.12873
 30
0.0
 10
-44.85136
 20
-18.12873
 30
0.0
 10
-44.8497
 20
-18.12853
 30
0.0
 10
-44.8497
 20
-18.12853
 30
0.0
 10
-44.8497
 20
-18.12853
 30
0.0
 10
-44.84719
 20
-18.12822
 30
0.0
 10
-44.84497
 20
-18.12853
 30
0.0
 10
-44.84296
 20
-18.12948
 30
0.0
 10
-44.84296
 20
-18.12948
 30
0.0
 10
-44.85202
 20
-18.11958
 30
0.0
 10
-44.86077
 20
-18.10911
 30
0.0
 10
-44.86933
 20
-18.09869
 30
0.0
 10
-44.86933
 20
-18.09869
 30
0.0
 10
-44.86992
 20
-18.09864
 30
0.0
 10
-44.87058
 20
-18.09869
 30
0.0
 10
-44.87118
 20
-18.09849
 30
0.0
  0
SPLINE
  5
8D
330
1F
100
AcDbEntity
  8
Layer 1
370
     9
100
AcDbSpline
210
0.0
220
0.0
230
1.0
 70
    11
 71
     3
 72
    48
 73
    44
 74
     0
 42
0.000000001
 43
0.0000000001
 40
0.0
 40
0.0
 40
0.0
 40
0.0
 40
0.0833333333333333
 40
0.0833333333333333
 40
0.0833333333333333
 40
0.0833333333333333
 40
0.1666666666666667
 40
0.1666666666666667
 40
0.1666666666666667
 40
0.1666666666666667
 40
0.25
 40
0.25
 40
0.25
 40
0.25
 40
0.3333333333333333
 40
0.3333333333333333
 40
0.3333333333333333
 40
0.3333333333333333
 40
0.4166666666666667
 40
0.4166666666666667
 40
0.4166666666666667
 40
0.4166666666666667
 40
0.5
 40
0.5
 40
0.5
 40
0.5
 40
0.5833333333333334
 40
0.5833333333333334
 40
0.5833333333333334
 40
0.5833333333333334
 40
0.6666666666666666
 40
0.6666666666666666
 40
0.6666666666666666
 40
0.6666666666666666
 40
0.75
 40
0.75
 40
0.75
 40
0.75
 40
0.8333333333333334
 40
0.8333333333333334
 40
0.8333333333333334
 40
0.8333333333333334
 40
1.0
 40
1.0
 40
1.0
 40
1.0
 10
-40.64126
 20
-20.55354
 30
0.0
 10
-40.64126
 20
-20.55354
 30
0.0
 10
-40.64126
 20
-20.55354
 30
0.0
 10
-40.64126
 20
-20.55354
 30
0.0
 10
-40.64126
 20
-20.55354
 30
0.0
 10
-41.57562
 20
-20.23487
 30
0.0
 10
-42.55138
 20
-20.03733
 30
0.0
 10
-43.46153
 20
-19.64727
 30
0.0
 10
-43.46153
 20
-19.64727
 30
0.0
 10
-43.91495
 20
-19.4529
 30
0.0
 10
-44.37451
 20
-19.20295
 30
0.0
 10
-44.62466
 20
-18.75724
 30
0.0
 10
-44.62466
 20
-18.75724
 30
0.0
 10
-44.69374
 20
-18.63402
 30
0.0
 10
-44.74751
 20
-18.50194
 30
0.0
 10
-44.79739
 20
-18.36983
 30
0.0
 10
-44.79739
 20
-18.36983
 30
0.0
 10
-44.81358
 20
-18.32701
 30
0.0
 10
-44.84508
 20
-18.26845
 30
0.0
 10
-44.8579
 20
-18.213
 30
0.0
 10
-44.8579
 20
-18.213
 30
0.0
 10
-44.86348
 20
-18.20148
 30
0.0
 10
-44.86846
 20
-18.18966
 30
0.0
 10
-44.87295
 20
-18.17773
 30
0.0
 10
-44.87295
 20
-18.17773
 30
0.0
 10
-44.82037
 20
-18.62888
 30
0.0
 10
-44.71175
 20
-19.04789
 30
0.0
 10
-44.41038
 20
-19.41317
 30
0.0
 10
-44.41038
 20
-19.41317
 30
0.0
 10
-44.09316
 20
-19.79765
 30
0.0
 10
-43.65222
 20
-20.07587
 30
0.0
 10
-43.16313
 20
-20.18139
 30
0.0
 10
-43.16313
 20
-20.18139
 30
0.0
 10
-42.85391
 20
-20.248
 30
0.0
 10
-42.53376
 20
-20.2723
 30
0.0
 10
-42.22138
 20
-20.32442
 30
0.0
 10
-42.22138
 20
-20.32442
 30
0.0
 10
-41.89631
 20
-20.3786
 30
0.0
 10
-41.57159
 20
-20.43722
 30
0.0
 10
-41.24476
 20
-20.48029
 30
0.0
 10
-41.24476
 20
-20.48029
 30
0.0
 10
-41.04969
 20
-20.50609
 30
0.0
 10
-40.84522
 20
-20.52562
 30
0.0
 10
-40.64126
 20
-20.55354
 30
0.0
  0
SPLINE
  5
8E
330
1F
100
AcDbEntity
  8
Layer 1
370
     9
100
AcDbSpline
210
0.0
220
0.0
230
1.0
 70
    11
 71
     3
 72
    60
 73
    56
 74
     0
 42
0.000000001
 43
0.0000000001
 40
0.0
 40
0.0
 40
0.0
 40
0.0
 40
0.0666666666666667
 40
0.0666666666666667
 40
0.0666666666666667
 40
0.0666666666666667
 40
0.1333333333333333
 40
0.1333333333333333
 40
0.1333333333333333
 40
0.1333333333333333
 40
0.2
 40
0.2
 40
0.2
 40
0.2
 40
0.2666666666666667
 40
0.2666666666666667
 40
0.2666666666666667
 40
0.2666666666666667
 40
0.3333333333333333
 40
0.3333333333333333
 40
0.3333333333333333
 40
0.3333333333333333
 40
0.4
 40
0.4
 40
0.4
 40
0.4
 40
0.4666666666666667
 40
0.4666666666666667
 40
0.4666666666666667
 40
0.4666666666666667
 40
0.5333333333333333
 40
0.5333333333333333
 40
0.5333333333333333
 40
0.5333333333333333
 40
0.6
 40
0.6
 40
0.6
 40
0.6
 40
0.6666666666666666
 40
0.6666666666666666
 40
0.6666666666666666
 40
0.6666666666666666
 40
0.7333333333333333
 40
0.7333333333333333
 40
0.7333333333333333
 40
0.7333333333333333
 40
0.8
 40
0.8
 40
0.8
 40
0.8
 40
0.8666666666666667
 40
0.8666666666666667
 40
0.8666666666666667
 40
0.8666666666666667
 40
1.0
 40
1.0
 40
1.0
 40
1.0
 10
-40.20847
 20
-20.63157
 30
0.0
 10
-40.20847
 20
-20.63157
 30
0.0
 10
-40.20847
 20
-20.63157
 30
0.0
 10
-40.20847
 20
-20.63157
 30
0.0
 10
-40.20847
 20
-20.63157
 30
0.0
 10
-40.37812
 20
-20.55807
 30
0.0
 10
-40.54471
 20
-20.46755
 30
0.0
 10
-40.70677
 20
-20.39274
 30
0.0
 10
-40.70677
 20
-20.39274
 30
0.0
 10
-40.95994
 20
-20.27582
 30
0.0
 10
-41.2126
 20
-20.15803
 30
0.0
 10
-41.46584
 20
-20.04106
 30
0.0
 10
-41.46584
 20
-20.04106
 30
0.0
 10
-41.97001
 20
-19.80816
 30
0.0
 10
-42.47697
 20
-19.58146
 30
0.0
 10
-42.98668
 20
-19.36064
 30
0.0
 10
-42.98668
 20
-19.36064
 30
0.0
 10
-43.43898
 20
-19.16462
 30
0.0
 10
-43.89346
 20
-18.97488
 30
0.0
 10
-44.30577
 20
-18.70113
 30
0.0
 10
-44.30577
 20
-18.70113
 30
0.0
 10
-44.42597
 20
-18.62124
 30
0.0
 10
-44.59567
 20
-18.5198
 30
0.0
 10
-44.72251
 20
-18.39478
 30
0.0
 10
-44.72251
 20
-18.39478
 30
0.0
 10
-44.71457
 20
-18.41793
 30
0.0
 10
-44.70702
 20
-18.43916
 30
0.0
 10
-44.69967
 20
-18.45641
 30
0.0
 10
-44.69967
 20
-18.45641
 30
0.0
 10
-44.63306
 20
-18.6139
 30
0.0
 10
-44.56378
 20
-18.76417
 30
0.0
 10
-44.4541
 20
-18.89846
 30
0.0
 10
-44.4541
 20
-18.89846
 30
0.0
 10
-44.10549
 20
-19.32516
 30
0.0
 10
-43.57851
 20
-19.542
 30
0.0
 10
-43.07407
 20
-19.72742
 30
0.0
 10
-43.07407
 20
-19.72742
 30
0.0
 10
-42.56053
 20
-19.91613
 30
0.0
 10
-42.03366
 20
-20.0619
 30
0.0
 10
-41.5088
 20
-20.21503
 30
0.0
 10
-41.5088
 20
-20.21503
 30
0.0
 10
-41.23706
 20
-20.29439
 30
0.0
 10
-40.96518
 20
-20.37444
 30
0.0
 10
-40.69706
 20
-20.46529
 30
0.0
 10
-40.69706
 20
-20.46529
 30
0.0
 10
-40.57183
 20
-20.50776
 30
0.0
 10
-40.44705
 20
-20.55198
 30
0.0
 10
-40.32363
 20
-20.59958
 30
0.0
 10
-40.32363
 20
-20.59958
 30
0.0
 10
-40.31026
 20
-20.60476
 30
0.0
 10
-40.29687
 20
-20.60959
 30
0.0
 10
-40.28358
 20
-20.61452
 30
0.0
 10
-40.28358
 20
-20.61452
 30
0.0
 10
-40.25849
 20
-20.61996
 30
0.0
 10
-40.23342
 20
-20.62569
 30
0.0
 10
-40.20847
 20
-20.63157
 30
0.0
  0
SPLINE
  5
8F
330
1F
100
AcDbEntity
  8
Layer 1
370
     9
100
AcDbSpline
210
0.0
220
0.0
230
1.0
 70
    11
 71
     3
 72
    56
 73
    52
 74
     0
 42
0.000000001
 43
0.0000000001
 40
0.0
 40
0.0
 40
0.0
 40
0.0
 40
0.0714285714285714
 40
0.0714285714285714
 40
0.0714285714285714
 40
0.0714285714285714
 40
0.1428571428571428
 40
0.1428571428571428
 40
0.1428571428571428
 40
0.1428571428571428
 40
0.2142857142857143
 40
0.2142857142857143
 40
0.2142857142857143
 40
0.2142857142857143
 40
0.2857142857142857
 40
0.2857142857142857
 40
0.2857142857142857
 40
0.2857142857142857
 40
0.3571428571428572
 40
0.3571428571428572
 40
0.3571428571428572
 40
0.3571428571428572
 40
0.4285714285714285
 40
0.4285714285714285
 40
0.4285714285714285
 40
0.4285714285714285
 40
0.5
 40
0.5
 40
0.5
 40
0.5
 40
0.5714285714285714
 40
0.5714285714285714
 40
0.5714285714285714
 40
0.5714285714285714
 40
0.6428571428571429
 40
0.6428571428571429
 40
0.6428571428571429
 40
0.6428571428571429
 40
0.7142857142857143
 40
0.7142857142857143
 40
0.7142857142857143
 40
0.7142857142857143
 40
0.7857142857142857
 40
0.7857142857142857
 40
0.7857142857142857
 40
0.7857142857142857
 40
0.8571428571428571
 40
0.8571428571428571
 40
0.8571428571428571
 40
0.8571428571428571
 40
1.0
 40
1.0
 40
1.0
 40
1.0
 10
-44.83612
 20
-18.09174
 30
0.0
 10
-44.83612
 20
-18.09174
 30
0.0
 10
-44.83612
 20
-18.09174
 30
0.0
 10
-44.83612
 20
-18.09174
 30
0.0
 10
-44.83612
 20
-18.09174
 30
0.0
 10
-44.83284
 20
-18.09462
 30
0.0
 10
-44.82949
 20
-18.09723
 30
0.0
 10
-44.82626
 20
-18.10001
 30
0.0
 10
-44.82626
 20
-18.10001
 30
0.0
 10
-44.8249
 20
-18.09921
 30
0.0
 10
-44.8234
 20
-18.09859
 30
0.0
 10
-44.82169
 20
-18.09845
 30
0.0
 10
-44.82169
 20
-18.09845
 30
0.0
 10
-44.3913
 20
-18.0674
 30
0.0
 10
-43.9147
 20
-18.19549
 30
0.0
 10
-43.50863
 20
-18.32737
 30
0.0
 10
-43.50863
 20
-18.32737
 30
0.0
 10
-43.10341
 20
-18.45904
 30
0.0
 10
-42.71333
 20
-18.63155
 30
0.0
 10
-42.33937
 20
-18.83557
 30
0.0
 10
-42.33937
 20
-18.83557
 30
0.0
 10
-41.92308
 20
-19.06268
 30
0.0
 10
-41.54537
 20
-19.33115
 30
0.0
 10
-41.18961
 20
-19.64455
 30
0.0
 10
-41.18961
 20
-19.64455
 30
0.0
 10
-41.00698
 20
-19.80535
 30
0.0
 10
-40.82888
 20
-19.97128
 30
0.0
 10
-40.64861
 20
-20.1348
 30
0.0
 10
-40.64861
 20
-20.1348
 30
0.0
 10
-40.5024
 20
-20.26742
 30
0.0
 10
-40.3345
 20
-20.39037
 30
0.0
 10
-40.19705
 20
-20.53377
 30
0.0
 10
-40.19705
 20
-20.53377
 30
0.0
 10
-40.19388
 20
-20.53653
 30
0.0
 10
-40.19061
 20
-20.53916
 30
0.0
 10
-40.18744
 20
-20.54192
 30
0.0
 10
-40.18744
 20
-20.54192
 30
0.0
 10
-40.16309
 20
-20.55289
 30
0.0
 10
-40.13863
 20
-20.56371
 30
0.0
 10
-40.11469
 20
-20.57527
 30
0.0
 10
-40.11469
 20
-20.57527
 30
0.0
 10
-40.8416
 20
-19.9257
 30
0.0
 10
-41.37929
 20
-19.08774
 30
0.0
 10
-42.10516
 20
-18.43463
 30
0.0
 10
-42.10516
 20
-18.43463
 30
0.0
 10
-42.46121
 20
-18.11429
 30
0.0
 10
-42.87559
 20
-17.81277
 30
0.0
 10
-43.3533
 20
-17.7129
 30
0.0
 10
-43.3533
 20
-17.7129
 30
0.0
 10
-43.89392
 20
-17.59985
 30
0.0
 10
-44.39367
 20
-17.78665
 30
0.0
 10
-44.83612
 20
-18.09174
 30
0.0
  0
ENDSEC
  0
SECTION
  2
OBJECTS
  0
DICTIONARY
  5
C
330
0
100
AcDbDictionary
281
     1
  3
ACAD_DETAILVIEWSTYLE
350
CB
  3
ACAD_GROUP
350
D
  3
ACAD_LAYOUT
350
1A
  3
ACAD_MATERIAL
350
43
  3
ACAD_MLEADERSTYLE
350
6B
  3
ACAD_MLINESTYLE
350
17
  3
ACAD_PLOTSETTINGS
350
19
  3
ACAD_PLOTSTYLENAME
350
E
  3
ACAD_SCALELIST
350
47
  3
ACAD_SECTIONVIEWSTYLE
350
CC
  3
ACAD_TABLESTYLE
350
69
  3
ACAD_VISUALSTYLE
350
2A
  3
ACDB_RECOMPOSE_DATA
350
C8
  3
AcDbVariableDictionary
350
90
  0
SUN
  5
6D
330
29
100
AcDbSun
 90
        1
290
     0
 63
     7
421
 16777215
 40
1.0
291
     1
 91
  2455826
 92
 54000000
292
     0
 70
     2
 71
   256
280
     1
  0
DICTIONARY
  5
CB
102
{ACAD_REACTORS
330
C
102
}
330
C
100
AcDbDictionary
281
     1
  0
DICTIONARY
  5
D
102
{ACAD_REACTORS
330
C
102
}
330
C
100
AcDbDictionary
281
     1
  0
DICTIONARY
  5
1A
102
{ACAD_REACTORS
330
C
102
}
330
C
100
AcDbDictionary
281
     1
  3
Layout1
350
1E
  3
Layout2
350
26
  3
Model
350
22
  0
DICTIONARY
  5
43
102
{ACAD_REACTORS
330
C
102
}
330
C
100
AcDbDictionary
281
     1
  3
ByBlock
350
45
  3
ByLayer
350
44
  3
Global
350
46
  0
DICTIONARY
  5
6B
102
{ACAD_REACTORS
330
C
102
}
330
C
100
AcDbDictionary
281
     1
  3
Standard
350
6C
  0
DICTIONARY
  5
17
102
{ACAD_REACTORS
330
C
102
}
330
C
100
AcDbDictionary
281
     1
  3
Standard
350
18
  0
DICTIONARY
  5
19
102
{ACAD_REACTORS
330
C
102
}
330
C
100
AcDbDictionary
281
     1
  0
ACDBDICTIONARYWDFLT
  5
E
102
{ACAD_REACTORS
330
C
102
}
330
C
100
AcDbDictionary
281
     1
  3
Normal
350
F
100
AcDbDictionaryWithDefault
340
F
  0
DICTIONARY
  5
47
102
{ACAD_REACTORS
330
C
102
}
330
C
100
AcDbDictionary
281
     1
  3
A0
350
48
  3
A1
350
49
  3
A2
350
4A
  3
A3
350
4B
  3
A4
350
4C
  3
A5
350
4D
  3
A6
350
4E
  3
A7
350
4F
  3
A8
350
50
  3
A9
350
51
  3
B0
350
52
  3
B1
350
53
  3
B2
350
54
  3
B3
350
55
  3
B4
350
56
  3
B5
350
57
  3
B6
350
58
  3
B7
350
59
  3
B8
350
5A
  3
B9
350
5B
  3
C0
350
5C
  3
C1
350
5D
  3
C2
350
5E
  3
C3
350
5F
  3
C4
350
60
  3
C5
350
61
  3
C6
350
62
  3
C7
350
63
  3
C8
350
64
  3
C9
350
65
  3
D0
350
66
  3
D1
350
67
  3
D2
350
68
  0
DICTIONARY
  5
CC
102
{ACAD_REACTORS
330
C
102
}
330
C
100
AcDbDictionary
281
     1
  0
DICTIONARY
  5
69
102
{ACAD_REACTORS
330
C
102
}
330
C
100
AcDbDictionary
281
     1
  3
Standard
350
6A
  0
DICTIONARY
  5
2A
102
{ACAD_REACTORS
330
C
102
}
330
C
100
AcDbDictionary
281
     1
  3
2dWireframe
350
2F
  3
Basic
350
32
  3
Brighten
350
36
  3
ColorChange
350
3A
  3
Conceptual
350
34
  3
Dim
350
35
  3
EdgeColorOff
350
3D
  3
Facepattern
350
39
  3
Flat
350
2B
  3
FlatWithEdges
350
2C
  3
Gouraud
350
2D
  3
GouraudWithEdges
350
2E
  3
Hidden
350
31
  3
JitterOff
350
3B
  3
Linepattern
350
38
  3
OverhangOff
350
3C
  3
Realistic
350
33
  3
Shaded
350
42
  3
Shaded with edges
350
41
  3
Shades of Gray
350
3E
  3
Sketchy
350
3F
  3
Thicken
350
37
  3
Wireframe
350
30
  3
X-Ray
350
40
  0
XRECORD
  5
C8
102
{ACAD_REACTORS
330
C
102
}
330
C
100
AcDbXrecord
280
     1
 90
        1
330
6A
  0
DICTIONARY
  5
90
102
{ACAD_REACTORS
330
C
102
}
330
C
100
AcDbDictionary
281
     1
  3
CANNOSCALE
350
91
  3
CMLEADERSTYLE
350
CA
  3
CTABLESTYLE
350
C9
  3
XCLIPFRAME
350
92
  0
LAYOUT
  5
1E
102
{ACAD_REACTORS
330
1A
102
}
330
1A
100
AcDbPlotSettings
  1

  2
none_device
  4

  6

 40
0.0
 41
0.0
 42
0.0
 43
0.0
 44
0.0
 45
0.0
 46
0.0
 47
0.0
 48
0.0
 49
0.0
140
0.0
141
0.0
142
1.0
143
1.0
 70
   688
 72
     0
 73
     0
 74
     5
  7

 75
    16
 76
     0
 77
     2
 78
   300
147
1.0
148
0.0
149
0.0
100
AcDbLayout
  1
Layout1
 70
     1
 71
     1
 10
0.0
 20
0.0
 11
12.0
 21
9.0
 12
0.0
 22
0.0
 32
0.0
 14
1.000000000000000E+20
 24
1.000000000000000E+20
 34
1.000000000000000E+20
 15
-1.000000000000000E+20
 25
-1.000000000000000E+20
 35
-1.000000000000000E+20
146
0.0
 13
0.0
 23
0.0
 33
0.0
 16
1.0
 26
0.0
 36
0.0
 17
0.0
 27
1.0
 37
0.0
 76
     0
330
1B
  0
LAYOUT
  5
26
102
{ACAD_REACTORS
330
1A
102
}
330
1A
100
AcDbPlotSettings
  1

  2
none_device
  4

  6

 40
0.0
 41
0.0
 42
0.0
 43
0.0
 44
0.0
 45
0.0
 46
0.0
 47
0.0
 48
0.0
 49
0.0
140
0.0
141
0.0
142
1.0
143
1.0
 70
   688
 72
     0
 73
     0
 74
     5
  7

 75
    16
 76
     0
 77
     2
 78
   300
147
1.0
148
0.0
149
0.0
100
AcDbLayout
  1
Layout2
 70
     1
 71
     2
 10
0.0
 20
0.0
 11
0.0
 21
0.0
 12
0.0
 22
0.0
 32
0.0
 14
0.0
 24
0.0
 34
0.0
 15
0.0
 25
0.0
 35
0.0
146
0.0
 13
0.0
 23
0.0
 33
0.0
 16
1.0
 26
0.0
 36
0.0
 17
0.0
 27
1.0
 37
0.0
 76
     0
330
23
  0
LAYOUT
  5
22
102
{ACAD_REACTORS
330
1A
102
}
330
1A
100
AcDbPlotSettings
  1

  2
none_device
  4
Letter_(8.50_x_11.00_Inches)
  6

 40
6.35
 41
6.35
 42
6.35000508
 43
6.35000508
 44
215.9
 45
279.4
 46
0.0
 47
0.0
 48
0.0
 49
0.0
140
0.0
141
0.0
142
1.0
143
1.0
 70
  1712
 72
     0
 73
     0
 74
     0
  7

 75
     0
 76
     0
 77
     2
 78
   300
147
1.0
148
0.0
149
0.0
100
AcDbLayout
  1
Model
 70
     1
 71
     0
 10
0.0
 20
0.0
 11
12.0
 21
9.0
 12
0.0
 22
0.0
 32
0.0
 14
-44.93243
 24
-26.56379
 34
0.0
 15
-34.1133
 25
-14.95075
 35
0.0
146
0.0
 13
0.0
 23
0.0
 33
0.0
 16
1.0
 26
0.0
 36
0.0
 17
0.0
 27
1.0
 37
0.0
 76
     0
330
1F
331
29
  0
MATERIAL
  5
45
102
{ACAD_REACTORS
330
43
102
}
330
43
100
AcDbMaterial
  1
ByBlock
 72
     1
 94
      127
  0
MATERIAL
  5
44
102
{ACAD_REACTORS
330
43
102
}
330
43
100
AcDbMaterial
  1
ByLayer
 72
     1
 94
      127
  0
MATERIAL
  5
46
102
{ACAD_REACTORS
330
43
102
}
330
43
100
AcDbMaterial
  1
Global
 72
     1
 94
      127
  0
MLEADERSTYLE
  5
6C
102
{ACAD_REACTORS
330
6B
102
}
102
{ACAD_XDICTIONARY
360
C6
102
}
330
6B
100
AcDbMLeaderStyle
170
     2
171
     1
172
     0
 90
        2
 40
0.0
 41
0.0
173
     1
 91
-1056964608
340
14
 92
       -2
290
     1
 42
0.09
291
     1
 43
0.36
  3
Standard
341
0
 44
0.18
300

342
11
174
     1
178
     6
175
     1
176
     0
 93
-1056964608
 45
0.18
292
     0
297
     0
 46
0.18
343
0
 94
-1056964608
 47
1.0
 49
1.0
140
1.0
293
     1
141
0.0
294
     1
177
     0
142
1.0
295
     0
296
     0
143
0.125
1001
ACAD_MLEADERVER
1070
     2
  0
MLINESTYLE
  5
18
102
{ACAD_REACTORS
330
17
102
}
330
17
100
AcDbMlineStyle
  2
Standard
 70
     0
  3

 62
   256
 51
90.0
 52
90.0
 71
     2
 49
0.5
 62
   256
  6
BYLAYER
 49
-0.5
 62
   256
  6
BYLAYER
  0
ACDBPLACEHOLDER
  5
F
102
{ACAD_REACTORS
330
E
102
}
330
E
  0
SCALE
  5
48
102
{ACAD_REACTORS
330
47
102
}
330
47
100
AcDbScale
 70
     0
300
1:1
140
1.0
141
1.0
290
     1
  0
SCALE
  5
49
102
{ACAD_REACTORS
330
47
102
}
330
47
100
AcDbScale
 70
     0
300
1:2
140
1.0
141
2.0
290
     0
  0
SCALE
  5
4A
102
{ACAD_REACTORS
330
47
102
}
330
47
100
AcDbScale
 70
     0
300
1:4
140
1.0
141
4.0
290
     0
  0
SCALE
  5
4B
102
{ACAD_REACTORS
330
47
102
}
330
47
100
AcDbScale
 70
     0
300
1:5
140
1.0
141
5.0
290
     0
  0
SCALE
  5
4C
102
{ACAD_REACTORS
330
47
102
}
330
47
100
AcDbScale
 70
     0
300
1:8
140
1.0
141
8.0
290
     0
  0
SCALE
  5
4D
102
{ACAD_REACTORS
330
47
102
}
330
47
100
AcDbScale
 70
     0
300
1:10
140
1.0
141
10.0
290
     0
  0
SCALE
  5
4E
102
{ACAD_REACTORS
330
47
102
}
330
47
100
AcDbScale
 70
     0
300
1:16
140
1.0
141
16.0
290
     0
  0
SCALE
  5
4F
102
{ACAD_REACTORS
330
47
102
}
330
47
100
AcDbScale
 70
     0
300
1:20
140
1.0
141
20.0
290
     0
  0
SCALE
  5
50
102
{ACAD_REACTORS
330
47
102
}
330
47
100
AcDbScale
 70
     0
300
1:30
140
1.0
141
30.0
290
     0
  0
SCALE
  5
51
102
{ACAD_REACTORS
330
47
102
}
330
47
100
AcDbScale
 70
     0
300
1:40
140
1.0
141
40.0
290
     0
  0
SCALE
  5
52
102
{ACAD_REACTORS
330
47
102
}
330
47
100
AcDbScale
 70
     0
300
1:50
140
1.0
141
50.0
290
     0
  0
SCALE
  5
53
102
{ACAD_REACTORS
330
47
102
}
330
47
100
AcDbScale
 70
     0
300
1:100
140
1.0
141
100.0
290
     0
  0
SCALE
  5
54
102
{ACAD_REACTORS
330
47
102
}
330
47
100
AcDbScale
 70
     0
300
2:1
140
2.0
141
1.0
290
     0
  0
SCALE
  5
55
102
{ACAD_REACTORS
330
47
102
}
330
47
100
AcDbScale
 70
     0
300
4:1
140
4.0
141
1.0
290
     0
  0
SCALE
  5
56
102
{ACAD_REACTORS
330
47
102
}
330
47
100
AcDbScale
 70
     0
300
8:1
140
8.0
141
1.0
290
     0
  0
SCALE
  5
57
102
{ACAD_REACTORS
330
47
102
}
330
47
100
AcDbScale
 70
     0
300
10:1
140
10.0
141
1.0
290
     0
  0
SCALE
  5
58
102
{ACAD_REACTORS
330
47
102
}
330
47
100
AcDbScale
 70
     0
300
100:1
140
100.0
141
1.0
290
     0
  0
SCALE
  5
59
102
{ACAD_REACTORS
330
47
102
}
330
47
100
AcDbScale
 70
     0
300
1/128\" = 1\'-0\"
140
0.0078125
141
12.0
290
     0
  0
SCALE
  5
5A
102
{ACAD_REACTORS
330
47
102
}
330
47
100
AcDbScale
 70
     0
300
1/64\" = 1\'-0\"
140
0.015625
141
12.0
290
     0
  0
SCALE
  5
5B
102
{ACAD_REACTORS
330
47
102
}
330
47
100
AcDbScale
 70
     0
300
1/32\" = 1\'-0\"
140
0.03125
141
12.0
290
     0
  0
SCALE
  5
5C
102
{ACAD_REACTORS
330
47
102
}
330
47
100
AcDbScale
 70
     0
300
1/16\" = 1\'-0\"
140
0.0625
141
12.0
290
     0
  0
SCALE
  5
5D
102
{ACAD_REACTORS
330
47
102
}
330
47
100
AcDbScale
 70
     0
300
3/32\" = 1\'-0\"
140
0.09375
141
12.0
290
     0
  0
SCALE
  5
5E
102
{ACAD_REACTORS
330
47
102
}
330
47
100
AcDbScale
 70
     0
300
1/8\" = 1\'-0\"
140
0.125
141
12.0
290
     0
  0
SCALE
  5
5F
102
{ACAD_REACTORS
330
47
102
}
330
47
100
AcDbScale
 70
     0
300
3/16\" = 1\'-0\"
140
0.1875
141
12.0
290
     0
  0
SCALE
  5
60
102
{ACAD_REACTORS
330
47
102
}
330
47
100
AcDbScale
 70
     0
300
1/4\" = 1\'-0\"
140
0.25
141
12.0
290
     0
  0
SCALE
  5
61
102
{ACAD_REACTORS
330
47
102
}
330
47
100
AcDbScale
 70
     0
300
3/8\" = 1\'-0\"
140
0.375
141
12.0
290
     0
  0
SCALE
  5
62
102
{ACAD_REACTORS
330
47
102
}
330
47
100
AcDbScale
 70
     0
300
1/2\" = 1\'-0\"
140
0.5
141
12.0
290
     0
  0
SCALE
  5
63
102
{ACAD_REACTORS
330
47
102
}
330
47
100
AcDbScale
 70
     0
300
3/4\" = 1\'-0\"
140
0.75
141
12.0
290
     0
  0
SCALE
  5
64
102
{ACAD_REACTORS
330
47
102
}
330
47
100
AcDbScale
 70
     0
300
1\" = 1\'-0\"
140
1.0
141
12.0
290
     0
  0
SCALE
  5
65
102
{ACAD_REACTORS
330
47
102
}
330
47
100
AcDbScale
 70
     0
300
1-1/2\" = 1\'-0\"
140
1.5
141
12.0
290
     0
  0
SCALE
  5
66
102
{ACAD_REACTORS
330
47
102
}
330
47
100
AcDbScale
 70
     0
300
3\" = 1\'-0\"
140
3.0
141
12.0
290
     0
  0
SCALE
  5
67
102
{ACAD_REACTORS
330
47
102
}
330
47
100
AcDbScale
 70
     0
300
6\" = 1\'-0\"
140
6.0
141
12.0
290
     0
  0
SCALE
  5
68
102
{ACAD_REACTORS
330
47
102
}
330
47
100
AcDbScale
 70
     0
300
1\'-0\" = 1\'-0\"
140
12.0
141
12.0
290
     0
  0
TABLESTYLE
  5
6A
102
{ACAD_REACTORS
330
69
102
}
102
{ACAD_XDICTIONARY
360
C3
102
}
330
69
100
AcDbTableStyle
  3
Standard
 70
     0
 71
     0
 40
0.06
 41
0.06
280
     0
281
     0
  7
Standard
140
0.18
170
     2
 62
     0
 63
   257
283
     0
 90
        4
 91
        0
  1

274
    -2
284
     1
 64
     0
275
    -2
285
     1
 65
     0
276
    -2
286
     1
 66
     0
277
    -2
287
     1
 67
     0
278
    -2
288
     1
 68
     0
279
    -2
289
     1
 69
     0
  7
Standard
140
0.25
170
     5
 62
     0
 63
   257
283
     0
 90
        4
 91
        0
  1

274
    -2
284
     1
 64
     0
275
    -2
285
     1
 65
     0
276
    -2
286
     1
 66
     0
277
    -2
287
     1
 67
     0
278
    -2
288
     1
 68
     0
279
    -2
289
     1
 69
     0
  7
Standard
140
0.18
170
     5
 62
     0
 63
   257
283
     0
 90
        4
 91
        0
  1

274
    -2
284
     1
 64
     0
275
    -2
285
     1
 65
     0
276
    -2
286
     1
 66
     0
277
    -2
287
     1
 67
     0
278
    -2
288
     1
 68
     0
279
    -2
289
     1
 69
     0
  0
VISUALSTYLE
  5
2F
102
{ACAD_REACTORS
330
2A
102
}
102
{ACAD_XDICTIONARY
360
9B
102
}
330
2A
100
AcDbVisualStyle
  2
2dWireframe
 70
     4
 71
     0
 72
     2
 73
     0
 90
        0
 40
0.6
 41
30.0
 62
     5
 63
     7
421
 16777215
 74
     1
 91
        4
 64
     7
 65
   257
 75
     1
175
     1
 42
1.0
 92
        0
 66
   257
 43
1.0
 76
     1
 77
     6
 78
     2
 67
     7
 79
     5
170
     0
171
     0
290
     0
174
     0
 93
        1
 44
0.0
173
     0
291
     0
 45
0.0
  0
VISUALSTYLE
  5
32
102
{ACAD_REACTORS
330
2A
102
}
102
{ACAD_XDICTIONARY
360
A1
102
}
330
2A
100
AcDbVisualStyle
  2
Basic
 70
     7
 71
     1
 72
     0
 73
     1
 90
        0
 40
0.6
 41
30.0
 62
     5
 63
     7
421
 16777215
 74
     0
 91
        4
 64
     7
 65
   257
 75
     1
175
     1
 42
1.0
 92
        8
 66
     7
 43
1.0
 76
     1
 77
     6
 78
     2
 67
     7
 79
     5
170
     0
171
     0
290
     0
174
     0
 93
        1
 44
0.0
173
     0
291
     1
 45
0.0
  0
VISUALSTYLE
  5
36
102
{ACAD_REACTORS
330
2A
102
}
102
{ACAD_XDICTIONARY
360
A9
102
}
330
2A
100
AcDbVisualStyle
  2
Brighten
 70
    12
 71
     2
 72
     2
 73
     0
 90
        0
 40
0.6
 41
30.0
 62
     5
 63
     7
421
 16777215
 74
     1
 91
        4
 64
     7
 65
   257
 75
     1
175
     1
 42
1.0
 92
        8
 66
     7
 43
1.0
 76
     1
 77
     6
 78
     2
 67
     7
 79
     5
170
     0
171
     0
290
     0
174
     0
 93
        1
 44
50.0
173
     0
291
     1
 45
0.0
  0
VISUALSTYLE
  5
3A
102
{ACAD_REACTORS
330
2A
102
}
102
{ACAD_XDICTIONARY
360
B1
102
}
330
2A
100
AcDbVisualStyle
  2
ColorChange
 70
    16
 71
     2
 72
     2
 73
     3
 90
        0
 40
0.6
 41
30.0
 62
     5
 63
     8
421
  8421504
 74
     1
 91
        4
 64
     7
 65
   257
 75
     1
175
     1
 42
1.0
 92
        8
 66
     8
424
  8421504
 43
1.0
 76
     1
 77
     6
 78
     2
 67
     7
 79
     5
170
     0
171
     0
290
     0
174
     0
 93
        1
 44
0.0
173
     0
291
     1
 45
0.0
  0
VISUALSTYLE
  5
34
102
{ACAD_REACTORS
330
2A
102
}
102
{ACAD_XDICTIONARY
360
A5
102
}
330
2A
100
AcDbVisualStyle
  2
Conceptual
 70
     9
 71
     3
 72
     2
 73
     0
 90
        0
 40
0.6
 41
30.0
 62
     5
 63
     7
421
 16777215
 74
     2
 91
        2
 64
     7
 65
   257
 75
     1
175
     1
 42
179.0
 92
        8
 66
     7
 43
1.0
 76
     1
 77
     6
 78
     2
 67
     7
 79
     3
170
     0
171
     0
290
     0
174
     0
 93
        1
 44
0.0
173
     0
291
     0
 45
0.0
  0
VISUALSTYLE
  5
35
102
{ACAD_REACTORS
330
2A
102
}
102
{ACAD_XDICTIONARY
360
A7
102
}
330
2A
100
AcDbVisualStyle
  2
Dim
 70
    11
 71
     2
 72
     2
 73
     0
 90
        0
 40
0.6
 41
30.0
 62
     5
 63
     7
421
 16777215
 74
     1
 91
        4
 64
     7
 65
   257
 75
     1
175
     1
 42
1.0
 92
        8
 66
     7
 43
1.0
 76
     1
 77
     6
 78
     2
 67
     7
 79
     5
170
     0
171
     0
290
     0
174
     0
 93
        1
 44
-50.0
173
     0
291
     1
 45
0.0
  0
VISUALSTYLE
  5
3D
102
{ACAD_REACTORS
330
2A
102
}
102
{ACAD_XDICTIONARY
360
B7
102
}
330
2A
100
AcDbVisualStyle
  2
EdgeColorOff
 70
    22
 71
     2
 72
     2
 73
     0
 90
        0
 40
0.6
 41
30.0
 62
     5
 63
     7
421
 16777215
 74
     1
 91
        4
 64
     7
 65
   257
 75
     1
175
     1
 42
1.0
 92
        8
 66
     7
 43
1.0
 76
     1
 77
     6
 78
     2
 67
     7
 79
     5
170
     0
171
     0
290
     0
174
     0
 93
        1
 44
0.0
173
     0
291
     1
 45
0.0
  0
VISUALSTYLE
  5
39
102
{ACAD_REACTORS
330
2A
102
}
102
{ACAD_XDICTIONARY
360
AF
102
}
330
2A
100
AcDbVisualStyle
  2
Facepattern
 70
    15
 71
     2
 72
     2
 73
     0
 90
        0
 40
0.6
 41
30.0
 62
     5
 63
     7
421
 16777215
 74
     1
 91
        4
 64
     7
 65
   257
 75
     1
175
     1
 42
1.0
 92
        8
 66
     7
 43
1.0
 76
     1
 77
     6
 78
     2
 67
     7
 79
     5
170
     0
171
     0
290
     0
174
     0
 93
        1
 44
0.0
173
     0
291
     1
 45
0.0
  0
VISUALSTYLE
  5
2B
102
{ACAD_REACTORS
330
2A
102
}
102
{ACAD_XDICTIONARY
360
93
102
}
330
2A
100
AcDbVisualStyle
  2
Flat
 70
     0
 71
     2
 72
     1
 73
     1
 90
        2
 40
0.6
 41
30.0
 62
     5
 63
     7
421
 16777215
 74
     0
 91
        0
 64
     7
 65
   257
 75
     1
175
     1
 42
1.0
 92
        8
 66
     7
 43
1.0
 76
     1
 77
     6
 78
     2
 67
     7
 79
     5
170
     0
171
     0
290
     0
174
     0
 93
       13
 44
0.0
173
     0
291
     1
 45
0.0
  0
VISUALSTYLE
  5
2C
102
{ACAD_REACTORS
330
2A
102
}
102
{ACAD_XDICTIONARY
360
95
102
}
330
2A
100
AcDbVisualStyle
  2
FlatWithEdges
 70
     1
 71
     2
 72
     1
 73
     1
 90
        2
 40
0.6
 41
30.0
 62
     5
 63
     7
421
 16777215
 74
     1
 91
        0
 64
     7
 65
   257
 75
     1
175
     1
 42
1.0
 92
        0
 66
   257
 43
1.0
 76
     1
 77
     6
 78
     2
 67
     7
 79
     5
170
     0
171
     0
290
     0
174
     0
 93
       13
 44
0.0
173
     0
291
     1
 45
0.0
  0
VISUALSTYLE
  5
2D
102
{ACAD_REACTORS
330
2A
102
}
102
{ACAD_XDICTIONARY
360
97
102
}
330
2A
100
AcDbVisualStyle
  2
Gouraud
 70
     2
 71
     2
 72
     2
 73
     1
 90
        2
 40
0.6
 41
30.0
 62
     5
 63
     7
421
 16777215
 74
     0
 91
        0
 64
     7
 65
   257
 75
     1
175
     1
 42
1.0
 92
        0
 66
     7
 43
1.0
 76
     1
 77
     6
 78
     2
 67
     7
 79
     5
170
     0
171
     0
290
     0
174
     0
 93
       13
 44
0.0
173
     0
291
     1
 45
0.0
  0
VISUALSTYLE
  5
2E
102
{ACAD_REACTORS
330
2A
102
}
102
{ACAD_XDICTIONARY
360
99
102
}
330
2A
100
AcDbVisualStyle
  2
GouraudWithEdges
 70
     3
 71
     2
 72
     2
 73
     1
 90
        2
 40
0.6
 41
30.0
 62
     5
 63
     7
421
 16777215
 74
     1
 91
        0
 64
     7
 65
   257
 75
     1
175
     1
 42
1.0
 92
        0
 66
   257
 43
1.0
 76
     1
 77
     6
 78
     2
 67
     7
 79
     5
170
     0
171
     0
290
     0
174
     0
 93
       13
 44
0.0
173
     0
291
     1
 45
0.0
  0
VISUALSTYLE
  5
31
102
{ACAD_REACTORS
330
2A
102
}
102
{ACAD_XDICTIONARY
360
9F
102
}
330
2A
100
AcDbVisualStyle
  2
Hidden
 70
     6
 71
     1
 72
     2
 73
     2
 90
        0
 40
0.6
 41
30.0
 62
     5
 63
     7
421
 16777215
 74
     2
 91
        2
 64
     7
 65
   257
 75
     2
175
     1
 42
40.0
 92
        0
 66
   257
 43
1.0
 76
     1
 77
     6
 78
     2
 67
     7
 79
     3
170
     0
171
     0
290
     0
174
     0
 93
        1
 44
0.0
173
     0
291
     0
 45
0.0
  0
VISUALSTYLE
  5
3B
102
{ACAD_REACTORS
330
2A
102
}
102
{ACAD_XDICTIONARY
360
B3
102
}
330
2A
100
AcDbVisualStyle
  2
JitterOff
 70
    20
 71
     2
 72
     2
 73
     0
 90
        0
 40
0.6
 41
30.0
 62
     5
 63
     7
421
 16777215
 74
     1
 91
        4
 64
     7
 65
   257
 75
     1
175
     1
 42
1.0
 92
       10
 66
     7
 43
1.0
 76
     1
 77
     6
 78
     2
 67
     7
 79
     5
170
     0
171
     0
290
     0
174
     0
 93
        1
 44
0.0
173
     0
291
     1
 45
0.0
  0
VISUALSTYLE
  5
38
102
{ACAD_REACTORS
330
2A
102
}
102
{ACAD_XDICTIONARY
360
AD
102
}
330
2A
100
AcDbVisualStyle
  2
Linepattern
 70
    14
 71
     2
 72
     2
 73
     0
 90
        0
 40
0.6
 41
30.0
 62
     5
 63
     7
421
 16777215
 74
     1
 91
        4
 64
     7
 65
   257
 75
     7
175
     7
 42
1.0
 92
        8
 66
     7
 43
1.0
 76
     1
 77
     6
 78
     2
 67
     7
 79
     5
170
     0
171
     0
290
     0
174
     0
 93
        1
 44
0.0
173
     0
291
     1
 45
0.0
  0
VISUALSTYLE
  5
3C
102
{ACAD_REACTORS
330
2A
102
}
102
{ACAD_XDICTIONARY
360
B5
102
}
330
2A
100
AcDbVisualStyle
  2
OverhangOff
 70
    21
 71
     2
 72
     2
 73
     0
 90
        0
 40
0.6
 41
30.0
 62
     5
 63
     7
421
 16777215
 74
     1
 91
        4
 64
     7
 65
   257
 75
     1
175
     1
 42
1.0
 92
        9
 66
     7
 43
1.0
 76
     1
 77
     6
 78
     2
 67
     7
 79
     5
170
     0
171
     0
290
     0
174
     0
 93
        1
 44
0.0
173
     0
291
     1
 45
0.0
  0
VISUALSTYLE
  5
33
102
{ACAD_REACTORS
330
2A
102
}
102
{ACAD_XDICTIONARY
360
A3
102
}
330
2A
100
AcDbVisualStyle
  2
Realistic
 70
     8
 71
     2
 72
     3
 73
     0
 90
        2
 40
0.6
 41
30.0
 62
     5
 63
     7
421
 16777215
 74
     0
 91
        0
 64
     7
 65
   257
 75
     1
175
     1
 42
1.0
 92
        8
 66
   257
 43
1.0
 76
     1
 77
     6
 78
     2
 67
     7
 79
     3
170
     0
171
     0
290
     0
174
     0
 93
       13
 44
0.0
173
     0
291
     0
 45
0.0
  0
VISUALSTYLE
  5
42
102
{ACAD_REACTORS
330
2A
102
}
102
{ACAD_XDICTIONARY
360
C1
102
}
330
2A
100
AcDbVisualStyle
  2
Shaded
 70
    27
 71
     2
 72
     2
 73
     1
 90
        2
 40
0.6
 41
30.0
 62
     5
 63
     7
421
 16777215
 74
     0
 91
        4
 64
     7
 65
   257
 75
     1
175
     1
 42
1.0
 92
        8
 66
   257
 43
1.0
 76
     1
 77
     6
 78
     2
 67
     8
425
  7895160
 79
     3
170
     0
171
     0
290
     0
174
     0
 93
        5
 44
0.0
173
     0
291
     0
 45
0.0
  0
VISUALSTYLE
  5
41
102
{ACAD_REACTORS
330
2A
102
}
102
{ACAD_XDICTIONARY
360
BF
102
}
330
2A
100
AcDbVisualStyle
  2
Shaded with edges
 70
    26
 71
     2
 72
     2
 73
     1
 90
        2
 40
0.6
 41
30.0
 62
     5
 63
     7
421
 16777215
 74
     1
 91
       10
 64
     7
 65
   257
 75
     2
175
     1
 42
1.0
 92
        8
 66
   257
 43
1.0
 76
     1
 77
     6
 78
     2
 67
     7
 79
     3
170
     0
171
     0
290
     0
174
     0
 93
        5
 44
0.0
173
     0
291
     0
 45
0.0
  0
VISUALSTYLE
  5
3E
102
{ACAD_REACTORS
330
2A
102
}
102
{ACAD_XDICTIONARY
360
B9
102
}
330
2A
100
AcDbVisualStyle
  2
Shades of Gray
 70
    23
 71
     2
 72
     2
 73
     3
 90
        0
 40
0.6
 41
30.0
 62
     5
 63
     7
421
 16777215
 74
     2
 91
        2
 64
     7
 65
     7
 75
     1
175
     1
 42
40.0
 92
        8
 66
     7
 43
1.0
 76
     1
 77
     6
 78
     2
 67
     7
 79
     3
170
     0
171
     0
290
     0
174
     0
 93
        1
 44
0.0
173
     0
291
     0
 45
0.0
  0
VISUALSTYLE
  5
3F
102
{ACAD_REACTORS
330
2A
102
}
102
{ACAD_XDICTIONARY
360
BB
102
}
330
2A
100
AcDbVisualStyle
  2
Sketchy
 70
    24
 71
     1
 72
     2
 73
     2
 90
        0
 40
0.6
 41
30.0
 62
     5
 63
     7
421
 16777215
 74
     2
 91
        2
 64
     7
 65
     7
 75
     1
175
     1
 42
40.0
 92
       11
 66
     7
 43
1.0
 76
     1
 77
     6
 78
     2
 67
     7
 79
     6
170
     0
171
     0
290
     0
174
     0
 93
        1
 44
0.0
173
     0
291
     0
 45
0.0
  0
VISUALSTYLE
  5
37
102
{ACAD_REACTORS
330
2A
102
}
102
{ACAD_XDICTIONARY
360
AB
102
}
330
2A
100
AcDbVisualStyle
  2
Thicken
 70
    13
 71
     2
 72
     2
 73
     0
 90
        0
 40
0.6
 41
30.0
 62
     5
 63
     7
421
 16777215
 74
     1
 91
        4
 64
     7
 65
   257
 75
     1
175
     1
 42
1.0
 92
       12
 66
     7
 43
1.0
 76
     1
 77
     6
 78
     2
 67
     7
 79
     5
170
     0
171
     0
290
     0
174
     0
 93
        1
 44
0.0
173
     0
291
     1
 45
0.0
  0
VISUALSTYLE
  5
30
102
{ACAD_REACTORS
330
2A
102
}
102
{ACAD_XDICTIONARY
360
9D
102
}
330
2A
100
AcDbVisualStyle
  2
Wireframe
 70
     5
 71
     0
 72
     2
 73
     0
 90
        0
 40
0.6
 41
30.0
 62
     5
 63
     7
421
 16777215
 74
     1
 91
        4
 64
     7
 65
   257
 75
     1
175
     1
 42
1.0
 92
        0
 66
   257
 43
1.0
 76
     1
 77
     6
 78
     2
 67
     7
 79
     3
170
     0
171
     0
290
     0
174
     0
 93
        1
 44
0.0
173
     0
291
     0
 45
0.0
  0
VISUALSTYLE
  5
40
102
{ACAD_REACTORS
330
2A
102
}
102
{ACAD_XDICTIONARY
360
BD
102
}
330
2A
100
AcDbVisualStyle
  2
X-Ray
 70
    25
 71
     2
 72
     2
 73
     1
 90
        1
 40
0.5
 41
30.0
 62
     5
 63
     7
421
 16777215
 74
     1
 91
        0
 64
     7
 65
   257
 75
     1
175
     1
 42
1.0
 92
        8
 66
     7
 43
1.0
 76
     1
 77
     6
 78
     2
 67
     7
 79
     3
170
     0
171
     0
290
     0
174
     0
 93
       13
 44
0.0
173
     0
291
     0
 45
0.0
  0
DICTIONARYVAR
  5
91
102
{ACAD_REACTORS
330
90
102
}
330
90
100
DictionaryVariables
280
     0
  1
1:1
  0
DICTIONARYVAR
  5
CA
102
{ACAD_REACTORS
330
90
102
}
330
90
100
DictionaryVariables
280
     0
  1
Standard
  0
DICTIONARYVAR
  5
C9
102
{ACAD_REACTORS
330
90
102
}
330
90
100
DictionaryVariables
280
     0
  1
Standard
  0
DICTIONARYVAR
  5
92
102
{ACAD_REACTORS
330
90
102
}
330
90
100
DictionaryVariables
280
     0
  1
2
  0
DICTIONARY
  5
C6
330
6C
100
AcDbDictionary
280
     1
281
     1
  3
ACAD_XREC_ROUNDTRIP
360
C7
  0
DICTIONARY
  5
C3
330
6A
100
AcDbDictionary
280
     1
281
     1
  3
ACAD_ROUNDTRIP_2008_TABLESTYLE_CELLSTYLEMAP
360
C4
  0
DICTIONARY
  5
9B
330
2F
100
AcDbDictionary
280
     1
281
     1
  3
ACAD_XREC_ROUNDTRIP
360
9C
  0
DICTIONARY
  5
A1
330
32
100
AcDbDictionary
280
     1
281
     1
  3
ACAD_XREC_ROUNDTRIP
360
A2
  0
DICTIONARY
  5
A9
330
36
100
AcDbDictionary
280
     1
281
     1
  3
ACAD_XREC_ROUNDTRIP
360
AA
  0
DICTIONARY
  5
B1
330
3A
100
AcDbDictionary
280
     1
281
     1
  3
ACAD_XREC_ROUNDTRIP
360
B2
  0
DICTIONARY
  5
A5
330
34
100
AcDbDictionary
280
     1
281
     1
  3
ACAD_XREC_ROUNDTRIP
360
A6
  0
DICTIONARY
  5
A7
330
35
100
AcDbDictionary
280
     1
281
     1
  3
ACAD_XREC_ROUNDTRIP
360
A8
  0
DICTIONARY
  5
B7
330
3D
100
AcDbDictionary
280
     1
281
     1
  3
ACAD_XREC_ROUNDTRIP
360
B8
  0
DICTIONARY
  5
AF
330
39
100
AcDbDictionary
280
     1
281
     1
  3
ACAD_XREC_ROUNDTRIP
360
B0
  0
DICTIONARY
  5
93
330
2B
100
AcDbDictionary
280
     1
281
     1
  3
ACAD_XREC_ROUNDTRIP
360
94
  0
DICTIONARY
  5
95
330
2C
100
AcDbDictionary
280
     1
281
     1
  3
ACAD_XREC_ROUNDTRIP
360
96
  0
DICTIONARY
  5
97
330
2D
100
AcDbDictionary
280
     1
281
     1
  3
ACAD_XREC_ROUNDTRIP
360
98
  0
DICTIONARY
  5
99
330
2E
100
AcDbDictionary
280
     1
281
     1
  3
ACAD_XREC_ROUNDTRIP
360
9A
  0
DICTIONARY
  5
9F
330
31
100
AcDbDictionary
280
     1
281
     1
  3
ACAD_XREC_ROUNDTRIP
360
A0
  0
DICTIONARY
  5
B3
330
3B
100
AcDbDictionary
280
     1
281
     1
  3
ACAD_XREC_ROUNDTRIP
360
B4
  0
DICTIONARY
  5
AD
330
38
100
AcDbDictionary
280
     1
281
     1
  3
ACAD_XREC_ROUNDTRIP
360
AE
  0
DICTIONARY
  5
B5
330
3C
100
AcDbDictionary
280
     1
281
     1
  3
ACAD_XREC_ROUNDTRIP
360
B6
  0
DICTIONARY
  5
A3
330
33
100
AcDbDictionary
280
     1
281
     1
  3
ACAD_XREC_ROUNDTRIP
360
A4
  0
DICTIONARY
  5
C1
330
42
100
AcDbDictionary
280
     1
281
     1
  3
ACAD_XREC_ROUNDTRIP
360
C2
  0
DICTIONARY
  5
BF
330
41
100
AcDbDictionary
280
     1
281
     1
  3
ACAD_XREC_ROUNDTRIP
360
C0
  0
DICTIONARY
  5
B9
330
3E
100
AcDbDictionary
280
     1
281
     1
  3
ACAD_XREC_ROUNDTRIP
360
BA
  0
DICTIONARY
  5
BB
330
3F
100
AcDbDictionary
280
     1
281
     1
  3
ACAD_XREC_ROUNDTRIP
360
BC
  0
DICTIONARY
  5
AB
330
37
100
AcDbDictionary
280
     1
281
     1
  3
ACAD_XREC_ROUNDTRIP
360
AC
  0
DICTIONARY
  5
9D
330
30
100
AcDbDictionary
280
     1
281
     1
  3
ACAD_XREC_ROUNDTRIP
360
9E
  0
DICTIONARY
  5
BD
330
40
100
AcDbDictionary
280
     1
281
     1
  3
ACAD_XREC_ROUNDTRIP
360
BE
  0
XRECORD
  5
C7
102
{ACAD_REACTORS
330
C6
102
}
330
C6
100
AcDbXrecord
280
     1
102
ACAD_ROUNDTRIP_2010_MLEADER_STYLE
  0
CELLSTYLEMAP
  5
C4
102
{ACAD_REACTORS
330
C3
102
}
330
C3
100
AcDbCellStyleMap
 90
        3
300
CELLSTYLE
  1
TABLEFORMAT_BEGIN
 90
        5
170
     1
 91
        0
 92
    32768
 62
   257
 93
        1
300
CONTENTFORMAT
  1
CONTENTFORMAT_BEGIN
 90
        0
 91
        0
 92
        4
 93
        0
300

 40
0.0
140
1.0
 94
        5
 62
     0
340
11
144
0.25
309
CONTENTFORMAT_END
171
     1
301
MARGIN
  1
CELLMARGIN_BEGIN
 40
0.06
 40
0.06
 40
0.06
 40
0.06
 40
0.06
 40
0.06
309
CELLMARGIN_END
 94
        6
 95
        1
302
GRIDFORMAT
  1
GRIDFORMAT_BEGIN
 90
        0
 91
        1
 62
     0
 92
       -2
340
14
 93
        0
 40
0.045
309
GRIDFORMAT_END
 95
        2
302
GRIDFORMAT
  1
GRIDFORMAT_BEGIN
 90
        0
 91
        1
 62
     0
 92
       -2
340
14
 93
        0
 40
0.045
309
GRIDFORMAT_END
 95
        4
302
GRIDFORMAT
  1
GRIDFORMAT_BEGIN
 90
        0
 91
        1
 62
     0
 92
       -2
340
14
 93
        0
 40
0.045
309
GRIDFORMAT_END
 95
        8
302
GRIDFORMAT
  1
GRIDFORMAT_BEGIN
 90
        0
 91
        1
 62
     0
 92
       -2
340
14
 93
        0
 40
0.045
309
GRIDFORMAT_END
 95
       16
302
GRIDFORMAT
  1
GRIDFORMAT_BEGIN
 90
        0
 91
        1
 62
     0
 92
       -2
340
14
 93
        0
 40
0.045
309
GRIDFORMAT_END
 95
       32
302
GRIDFORMAT
  1
GRIDFORMAT_BEGIN
 90
        0
 91
        1
 62
     0
 92
       -2
340
14
 93
        0
 40
0.045
309
GRIDFORMAT_END
309
TABLEFORMAT_END
  1
CELLSTYLE_BEGIN
 90
        1
 91
        1
300
_TITLE
309
CELLSTYLE_END
300
CELLSTYLE
  1
TABLEFORMAT_BEGIN
 90
        5
170
     1
 91
        0
 92
        0
 62
   257
 93
        1
300
CONTENTFORMAT
  1
CONTENTFORMAT_BEGIN
 90
        0
 91
        0
 92
        4
 93
        0
300

 40
0.0
140
1.0
 94
        5
 62
     0
340
11
144
0.18
309
CONTENTFORMAT_END
171
     1
301
MARGIN
  1
CELLMARGIN_BEGIN
 40
0.06
 40
0.06
 40
0.06
 40
0.06
 40
0.06
 40
0.06
309
CELLMARGIN_END
 94
        6
 95
        1
302
GRIDFORMAT
  1
GRIDFORMAT_BEGIN
 90
        0
 91
        1
 62
     0
 92
       -2
340
14
 93
        0
 40
0.045
309
GRIDFORMAT_END
 95
        2
302
GRIDFORMAT
  1
GRIDFORMAT_BEGIN
 90
        0
 91
        1
 62
     0
 92
       -2
340
14
 93
        0
 40
0.045
309
GRIDFORMAT_END
 95
        4
302
GRIDFORMAT
  1
GRIDFORMAT_BEGIN
 90
        0
 91
        1
 62
     0
 92
       -2
340
14
 93
        0
 40
0.045
309
GRIDFORMAT_END
 95
        8
302
GRIDFORMAT
  1
GRIDFORMAT_BEGIN
 90
        0
 91
        1
 62
     0
 92
       -2
340
14
 93
        0
 40
0.045
309
GRIDFORMAT_END
 95
       16
302
GRIDFORMAT
  1
GRIDFORMAT_BEGIN
 90
        0
 91
        1
 62
     0
 92
       -2
340
14
 93
        0
 40
0.045
309
GRIDFORMAT_END
 95
       32
302
GRIDFORMAT
  1
GRIDFORMAT_BEGIN
 90
        0
 91
        1
 62
     0
 92
       -2
340
14
 93
        0
 40
0.045
309
GRIDFORMAT_END
309
TABLEFORMAT_END
  1
CELLSTYLE_BEGIN
 90
        2
 91
        1
300
_HEADER
309
CELLSTYLE_END
300
CELLSTYLE
  1
TABLEFORMAT_BEGIN
 90
        5
170
     1
 91
        0
 92
        0
 62
   257
 93
        1
300
CONTENTFORMAT
  1
CONTENTFORMAT_BEGIN
 90
        0
 91
        0
 92
        4
 93
        0
300

 40
0.0
140
1.0
 94
        2
 62
     0
340
11
144
0.18
309
CONTENTFORMAT_END
171
     1
301
MARGIN
  1
CELLMARGIN_BEGIN
 40
0.06
 40
0.06
 40
0.06
 40
0.06
 40
0.06
 40
0.06
309
CELLMARGIN_END
 94
        6
 95
        1
302
GRIDFORMAT
  1
GRIDFORMAT_BEGIN
 90
        0
 91
        1
 62
     0
 92
       -2
340
14
 93
        0
 40
0.045
309
GRIDFORMAT_END
 95
        2
302
GRIDFORMAT
  1
GRIDFORMAT_BEGIN
 90
        0
 91
        1
 62
     0
 92
       -2
340
14
 93
        0
 40
0.045
309
GRIDFORMAT_END
 95
        4
302
GRIDFORMAT
  1
GRIDFORMAT_BEGIN
 90
        0
 91
        1
 62
     0
 92
       -2
340
14
 93
        0
 40
0.045
309
GRIDFORMAT_END
 95
        8
302
GRIDFORMAT
  1
GRIDFORMAT_BEGIN
 90
        0
 91
        1
 62
     0
 92
       -2
340
14
 93
        0
 40
0.045
309
GRIDFORMAT_END
 95
       16
302
GRIDFORMAT
  1
GRIDFORMAT_BEGIN
 90
        0
 91
        1
 62
     0
 92
       -2
340
14
 93
        0
 40
0.045
309
GRIDFORMAT_END
 95
       32
302
GRIDFORMAT
  1
GRIDFORMAT_BEGIN
 90
        0
 91
        1
 62
     0
 92
       -2
340
14
 93
        0
 40
0.045
309
GRIDFORMAT_END
309
TABLEFORMAT_END
  1
CELLSTYLE_BEGIN
 90
        3
 91
        2
300
_DATA
309
CELLSTYLE_END
  0
XRECORD
  5
9C
102
{ACAD_REACTORS
330
9B
102
}
330
9B
100
AcDbXrecord
280
     1
102
RTVSPropertyOp0
 70
     1
102
RTVSPropertyOp1
 70
     1
102
RTVSPropertyOp2
 70
     1
102
RTVSPropertyOp3
 70
     1
102
RTVSPropertyOp4
 70
     1
102
RTVSPropertyOp5
 70
     1
102
RTVSPropertyOp6
 70
     1
102
RTVSPropertyOp7
 70
     1
102
RTVSPropertyOp8
 70
     1
102
RTVSPropertyOp9
 70
     1
102
RTVSPropertyOp10
 70
     1
102
RTVSPropertyOp11
 70
     1
102
RTVSPropertyOp12
 70
     1
102
RTVSPropertyOp13
 70
     1
102
RTVSPropertyOp14
 70
     1
102
RTVSPropertyOp15
 70
     1
102
RTVSPropertyOp16
 70
     1
102
RTVSPropertyOp17
 70
     1
102
RTVSPropertyOp18
 70
     1
102
RTVSPropertyOp19
 70
     1
102
RTVSPropertyOp20
 70
     1
102
RTVSPropertyOp21
 70
     1
102
RTVSPropertyOp22
 70
     1
102
RTVSPropertyOp23
 70
     1
102
RTVSPropertyOp24
 70
     1
102
RTVSPropertyOp25
 70
     1
102
RTVSPropertyOp26
 70
     1
102
RTVSPropertyOp27
 70
     1
102
RTVSPropertyOp28
 70
     1
102
RTVSPropertyOp29
 70
     1
102
RTVSPropertyOp30
 70
     1
102
RTVSPropertyOp31
 70
     1
102
RTVSPropertyOp32
 70
     1
102
RTVSPropertyOp33
 70
     1
102
RTVSPropertyOp34
 70
     1
102
RTVSPropertyOp35
 70
     1
102
RTVSPropertyOp36
 70
     1
102
RTVSPropertyOp37
 70
     1
102
RTVSPropertyOp38
 70
     1
102
RTVSPropertyOp39
 70
     1
102
RTVSPropertyOp40
 70
     1
102
RTVSPropertyOp41
 70
     1
102
RTVSPropertyOp42
 70
     1
102
RTVSPropertyOp43
 70
     1
102
RTVSPropertyOp44
 70
     1
102
RTVSPropertyOp45
 70
     1
102
RTVSPropertyOp46
 70
     1
102
RTVSPropertyOp47
 70
     1
102
RTVSPropertyOp48
 70
     1
102
RTVSPropertyOp49
 70
     1
102
RTVSPropertyOp50
 70
     1
102
RTVSPropertyOp51
 70
     0
102
RTVSPropertyOp52
 70
     0
102
RTVSPropertyOp53
 70
     1
102
RTVSPropertyOp54
 70
     1
102
RTVSPropertyOp55
 70
     1
102
RTVSPropertyOp56
 70
     1
102
RTVSPropertyOp57
 70
     1
102
RTVSPost2010Prop28
280
     1
102
RTVSPost2010PropOp28
 70
     1
102
RTVSPost2010Prop29
280
     1
102
RTVSPost2010PropOp29
 70
     1
102
RTVSPost2010Prop30
280
     0
102
RTVSPost2010PropOp30
 70
     1
102
RTVSPost2010Prop31
280
     0
102
RTVSPost2010PropOp31
 70
     1
102
RTVSPost2010Prop32
280
     0
102
RTVSPost2010PropOp32
 70
     1
102
RTVSPost2010Prop33
280
     0
102
RTVSPost2010PropOp33
 70
     1
102
RTVSPost2010Prop34
280
     0
102
RTVSPost2010PropOp34
 70
     1
102
RTVSPost2010Prop35
280
     0
102
RTVSPost2010PropOp35
 70
     1
102
RTVSPost2010Prop36
280
     0
102
RTVSPost2010PropOp36
 70
     1
102
RTVSPost2010Prop37
 90
       50
102
RTVSPost2010PropOp37
 70
     1
102
RTVSPost2010Prop38
140
0.0
102
RTVSPost2010PropOp38
 70
     1
102
RTVSPost2010Prop39
140
1.0
102
RTVSPost2010PropOp39
 70
     1
102
RTVSPost2010Prop40
 90
        0
102
RTVSPost2010PropOp40
 70
     1
102
RTVSPost2010Prop41ColorIndex
 90
       18
102
RTVSPost2010Prop41ColorRGB
 90
        0
102
RTVSPost2010PropOp41
 70
     1
102
RTVSPost2010Prop42
 90
       50
102
RTVSPost2010PropOp42
 70
     1
102
RTVSPost2010Prop43
 90
        3
102
RTVSPost2010PropOp43
 70
     1
102
RTVSPost2010Prop44ColorIndex
 90
        5
102
RTVSPost2010Prop44ColorRGB
 90
      255
102
RTVSPost2010PropOp44
 70
     1
102
RTVSPost2010Prop45
280
     0
102
RTVSPost2010PropOp45
 70
     1
102
RTVSPost2010Prop46
 90
       50
102
RTVSPost2010PropOp46
 70
     1
102
RTVSPost2010Prop47
 90
       50
102
RTVSPost2010PropOp47
 70
     1
102
RTVSPost2010Prop48
 90
       50
102
RTVSPost2010PropOp48
 70
     1
102
RTVSPost2010Prop49
280
     0
102
RTVSPost2010PropOp49
 70
     1
102
RTVSPost2010Prop50
 90
       50
102
RTVSPost2010PropOp50
 70
     1
102
RTVSPost2010Prop51ColorIndex
 90
      256
102
RTVSPost2010Prop51ColorRGB
 90
-16777216
102
RTVSPost2010PropOp51
 70
     0
102
RTVSPost2010Prop52
140
1.0
102
RTVSPost2010PropOp52
 70
     0
102
RTVSPost2010Prop53
 90
        2
102
RTVSPost2010PropOp53
 70
     1
102
RTVSPost2010Prop54
  1
strokes_ogs.tif
102
RTVSPost2010PropOp54
 70
     1
102
RTVSPost2010Prop55
280
     0
102
RTVSPost2010PropOp55
 70
     1
102
RTVSPost2010Prop56
140
1.0
102
RTVSPost2010PropOp56
 70
     1
102
RTVSPost2010Prop57
140
1.0
102
RTVSPost2010PropOp57
 70
     1
  0
XRECORD
  5
A2
102
{ACAD_REACTORS
330
A1
102
}
330
A1
100
AcDbXrecord
280
     1
102
RTVSPropertyOp0
 70
     1
102
RTVSPropertyOp1
 70
     1
102
RTVSPropertyOp2
 70
     1
102
RTVSPropertyOp3
 70
     1
102
RTVSPropertyOp4
 70
     1
102
RTVSPropertyOp5
 70
     1
102
RTVSPropertyOp6
 70
     1
102
RTVSPropertyOp7
 70
     1
102
RTVSPropertyOp8
 70
     1
102
RTVSPropertyOp9
 70
     1
102
RTVSPropertyOp10
 70
     1
102
RTVSPropertyOp11
 70
     1
102
RTVSPropertyOp12
 70
     1
102
RTVSPropertyOp13
 70
     1
102
RTVSPropertyOp14
 70
     1
102
RTVSPropertyOp15
 70
     1
102
RTVSPropertyOp16
 70
     1
102
RTVSPropertyOp17
 70
     1
102
RTVSPropertyOp18
 70
     1
102
RTVSPropertyOp19
 70
     1
102
RTVSPropertyOp20
 70
     1
102
RTVSPropertyOp21
 70
     1
102
RTVSPropertyOp22
 70
     1
102
RTVSPropertyOp23
 70
     1
102
RTVSPropertyOp24
 70
     1
102
RTVSPropertyOp25
 70
     1
102
RTVSPropertyOp26
 70
     1
102
RTVSPropertyOp27
 70
     1
102
RTVSPropertyOp28
 70
     1
102
RTVSPropertyOp29
 70
     1
102
RTVSPropertyOp30
 70
     1
102
RTVSPropertyOp31
 70
     1
102
RTVSPropertyOp32
 70
     1
102
RTVSPropertyOp33
 70
     1
102
RTVSPropertyOp34
 70
     1
102
RTVSPropertyOp35
 70
     1
102
RTVSPropertyOp36
 70
     1
102
RTVSPropertyOp37
 70
     1
102
RTVSPropertyOp38
 70
     1
102
RTVSPropertyOp39
 70
     1
102
RTVSPropertyOp40
 70
     1
102
RTVSPropertyOp41
 70
     1
102
RTVSPropertyOp42
 70
     1
102
RTVSPropertyOp43
 70
     1
102
RTVSPropertyOp44
 70
     1
102
RTVSPropertyOp45
 70
     1
102
RTVSPropertyOp46
 70
     1
102
RTVSPropertyOp47
 70
     1
102
RTVSPropertyOp48
 70
     1
102
RTVSPropertyOp49
 70
     1
102
RTVSPropertyOp50
 70
     1
102
RTVSPropertyOp51
 70
     0
102
RTVSPropertyOp52
 70
     0
102
RTVSPropertyOp53
 70
     1
102
RTVSPropertyOp54
 70
     1
102
RTVSPropertyOp55
 70
     1
102
RTVSPropertyOp56
 70
     1
102
RTVSPropertyOp57
 70
     1
102
RTVSPost2010Prop28
280
     0
102
RTVSPost2010PropOp28
 70
     1
102
RTVSPost2010Prop29
280
     1
102
RTVSPost2010PropOp29
 70
     1
102
RTVSPost2010Prop30
280
     1
102
RTVSPost2010PropOp30
 70
     1
102
RTVSPost2010Prop31
280
     0
102
RTVSPost2010PropOp31
 70
     1
102
RTVSPost2010Prop32
280
     0
102
RTVSPost2010PropOp32
 70
     1
102
RTVSPost2010Prop33
280
     0
102
RTVSPost2010PropOp33
 70
     1
102
RTVSPost2010Prop34
280
     0
102
RTVSPost2010PropOp34
 70
     1
102
RTVSPost2010Prop35
280
     0
102
RTVSPost2010PropOp35
 70
     1
102
RTVSPost2010Prop36
280
     0
102
RTVSPost2010PropOp36
 70
     1
102
RTVSPost2010Prop37
 90
       50
102
RTVSPost2010PropOp37
 70
     1
102
RTVSPost2010Prop38
140
0.0
102
RTVSPost2010PropOp38
 70
     1
102
RTVSPost2010Prop39
140
1.0
102
RTVSPost2010PropOp39
 70
     1
102
RTVSPost2010Prop40
 90
        0
102
RTVSPost2010PropOp40
 70
     1
102
RTVSPost2010Prop41ColorIndex
 90
       18
102
RTVSPost2010Prop41ColorRGB
 90
        0
102
RTVSPost2010PropOp41
 70
     1
102
RTVSPost2010Prop42
 90
       50
102
RTVSPost2010PropOp42
 70
     1
102
RTVSPost2010Prop43
 90
        3
102
RTVSPost2010PropOp43
 70
     1
102
RTVSPost2010Prop44ColorIndex
 90
        5
102
RTVSPost2010Prop44ColorRGB
 90
      255
102
RTVSPost2010PropOp44
 70
     1
102
RTVSPost2010Prop45
280
     0
102
RTVSPost2010PropOp45
 70
     1
102
RTVSPost2010Prop46
 90
       50
102
RTVSPost2010PropOp46
 70
     1
102
RTVSPost2010Prop47
 90
       50
102
RTVSPost2010PropOp47
 70
     1
102
RTVSPost2010Prop48
 90
       50
102
RTVSPost2010PropOp48
 70
     1
102
RTVSPost2010Prop49
280
     0
102
RTVSPost2010PropOp49
 70
     1
102
RTVSPost2010Prop50
 90
       50
102
RTVSPost2010PropOp50
 70
     1
102
RTVSPost2010Prop51ColorIndex
 90
      256
102
RTVSPost2010Prop51ColorRGB
 90
-16777216
102
RTVSPost2010PropOp51
 70
     0
102
RTVSPost2010Prop52
140
1.0
102
RTVSPost2010PropOp52
 70
     0
102
RTVSPost2010Prop53
 90
        2
102
RTVSPost2010PropOp53
 70
     1
102
RTVSPost2010Prop54
  1
strokes_ogs.tif
102
RTVSPost2010PropOp54
 70
     1
102
RTVSPost2010Prop55
280
     0
102
RTVSPost2010PropOp55
 70
     1
102
RTVSPost2010Prop56
140
1.0
102
RTVSPost2010PropOp56
 70
     1
102
RTVSPost2010Prop57
140
1.0
102
RTVSPost2010PropOp57
 70
     1
  0
XRECORD
  5
AA
102
{ACAD_REACTORS
330
A9
102
}
330
A9
100
AcDbXrecord
280
     1
102
RTVSPropertyOp0
 70
     1
102
RTVSPropertyOp1
 70
     1
102
RTVSPropertyOp2
 70
     1
102
RTVSPropertyOp3
 70
     1
102
RTVSPropertyOp4
 70
     1
102
RTVSPropertyOp5
 70
     1
102
RTVSPropertyOp6
 70
     1
102
RTVSPropertyOp7
 70
     1
102
RTVSPropertyOp8
 70
     1
102
RTVSPropertyOp9
 70
     1
102
RTVSPropertyOp10
 70
     1
102
RTVSPropertyOp11
 70
     1
102
RTVSPropertyOp12
 70
     1
102
RTVSPropertyOp13
 70
     1
102
RTVSPropertyOp14
 70
     1
102
RTVSPropertyOp15
 70
     1
102
RTVSPropertyOp16
 70
     1
102
RTVSPropertyOp17
 70
     1
102
RTVSPropertyOp18
 70
     1
102
RTVSPropertyOp19
 70
     1
102
RTVSPropertyOp20
 70
     1
102
RTVSPropertyOp21
 70
     1
102
RTVSPropertyOp22
 70
     1
102
RTVSPropertyOp23
 70
     1
102
RTVSPropertyOp24
 70
     1
102
RTVSPropertyOp25
 70
     1
102
RTVSPropertyOp26
 70
     1
102
RTVSPropertyOp27
 70
     1
102
RTVSPropertyOp28
 70
     1
102
RTVSPropertyOp29
 70
     1
102
RTVSPropertyOp30
 70
     1
102
RTVSPropertyOp31
 70
     1
102
RTVSPropertyOp32
 70
     1
102
RTVSPropertyOp33
 70
     1
102
RTVSPropertyOp34
 70
     1
102
RTVSPropertyOp35
 70
     1
102
RTVSPropertyOp36
 70
     1
102
RTVSPropertyOp37
 70
     1
102
RTVSPropertyOp38
 70
     1
102
RTVSPropertyOp39
 70
     1
102
RTVSPropertyOp40
 70
     1
102
RTVSPropertyOp41
 70
     1
102
RTVSPropertyOp42
 70
     1
102
RTVSPropertyOp43
 70
     1
102
RTVSPropertyOp44
 70
     1
102
RTVSPropertyOp45
 70
     1
102
RTVSPropertyOp46
 70
     1
102
RTVSPropertyOp47
 70
     1
102
RTVSPropertyOp48
 70
     1
102
RTVSPropertyOp49
 70
     1
102
RTVSPropertyOp50
 70
     1
102
RTVSPropertyOp51
 70
     0
102
RTVSPropertyOp52
 70
     0
102
RTVSPropertyOp53
 70
     1
102
RTVSPropertyOp54
 70
     1
102
RTVSPropertyOp55
 70
     1
102
RTVSPropertyOp56
 70
     1
102
RTVSPropertyOp57
 70
     1
102
RTVSPost2010Prop28
280
     0
102
RTVSPost2010PropOp28
 70
     1
102
RTVSPost2010Prop29
280
     1
102
RTVSPost2010PropOp29
 70
     1
102
RTVSPost2010Prop30
280
     1
102
RTVSPost2010PropOp30
 70
     1
102
RTVSPost2010Prop31
280
     0
102
RTVSPost2010PropOp31
 70
     1
102
RTVSPost2010Prop32
280
     0
102
RTVSPost2010PropOp32
 70
     1
102
RTVSPost2010Prop33
280
     0
102
RTVSPost2010PropOp33
 70
     1
102
RTVSPost2010Prop34
280
     0
102
RTVSPost2010PropOp34
 70
     1
102
RTVSPost2010Prop35
280
     0
102
RTVSPost2010PropOp35
 70
     1
102
RTVSPost2010Prop36
280
     0
102
RTVSPost2010PropOp36
 70
     1
102
RTVSPost2010Prop37
 90
       50
102
RTVSPost2010PropOp37
 70
     1
102
RTVSPost2010Prop38
140
0.0
102
RTVSPost2010PropOp38
 70
     1
102
RTVSPost2010Prop39
140
1.0
102
RTVSPost2010PropOp39
 70
     1
102
RTVSPost2010Prop40
 90
        0
102
RTVSPost2010PropOp40
 70
     1
102
RTVSPost2010Prop41ColorIndex
 90
       18
102
RTVSPost2010Prop41ColorRGB
 90
        0
102
RTVSPost2010PropOp41
 70
     1
102
RTVSPost2010Prop42
 90
       50
102
RTVSPost2010PropOp42
 70
     1
102
RTVSPost2010Prop43
 90
        3
102
RTVSPost2010PropOp43
 70
     1
102
RTVSPost2010Prop44ColorIndex
 90
        5
102
RTVSPost2010Prop44ColorRGB
 90
      255
102
RTVSPost2010PropOp44
 70
     1
102
RTVSPost2010Prop45
280
     0
102
RTVSPost2010PropOp45
 70
     1
102
RTVSPost2010Prop46
 90
       50
102
RTVSPost2010PropOp46
 70
     1
102
RTVSPost2010Prop47
 90
       50
102
RTVSPost2010PropOp47
 70
     1
102
RTVSPost2010Prop48
 90
       50
102
RTVSPost2010PropOp48
 70
     1
102
RTVSPost2010Prop49
280
     0
102
RTVSPost2010PropOp49
 70
     1
102
RTVSPost2010Prop50
 90
       50
102
RTVSPost2010PropOp50
 70
     1
102
RTVSPost2010Prop51ColorIndex
 90
      256
102
RTVSPost2010Prop51ColorRGB
 90
-16777216
102
RTVSPost2010PropOp51
 70
     0
102
RTVSPost2010Prop52
140
1.0
102
RTVSPost2010PropOp52
 70
     0
102
RTVSPost2010Prop53
 90
        2
102
RTVSPost2010PropOp53
 70
     1
102
RTVSPost2010Prop54
  1
strokes_ogs.tif
102
RTVSPost2010PropOp54
 70
     1
102
RTVSPost2010Prop55
280
     0
102
RTVSPost2010PropOp55
 70
     1
102
RTVSPost2010Prop56
140
1.0
102
RTVSPost2010PropOp56
 70
     1
102
RTVSPost2010Prop57
140
1.0
102
RTVSPost2010PropOp57
 70
     1
  0
XRECORD
  5
B2
102
{ACAD_REACTORS
330
B1
102
}
330
B1
100
AcDbXrecord
280
     1
102
RTVSPropertyOp0
 70
     1
102
RTVSPropertyOp1
 70
     1
102
RTVSPropertyOp2
 70
     1
102
RTVSPropertyOp3
 70
     1
102
RTVSPropertyOp4
 70
     1
102
RTVSPropertyOp5
 70
     1
102
RTVSPropertyOp6
 70
     1
102
RTVSPropertyOp7
 70
     1
102
RTVSPropertyOp8
 70
     1
102
RTVSPropertyOp9
 70
     1
102
RTVSPropertyOp10
 70
     1
102
RTVSPropertyOp11
 70
     1
102
RTVSPropertyOp12
 70
     1
102
RTVSPropertyOp13
 70
     1
102
RTVSPropertyOp14
 70
     1
102
RTVSPropertyOp15
 70
     1
102
RTVSPropertyOp16
 70
     1
102
RTVSPropertyOp17
 70
     1
102
RTVSPropertyOp18
 70
     1
102
RTVSPropertyOp19
 70
     1
102
RTVSPropertyOp20
 70
     1
102
RTVSPropertyOp21
 70
     1
102
RTVSPropertyOp22
 70
     1
102
RTVSPropertyOp23
 70
     1
102
RTVSPropertyOp24
 70
     1
102
RTVSPropertyOp25
 70
     1
102
RTVSPropertyOp26
 70
     1
102
RTVSPropertyOp27
 70
     1
102
RTVSPropertyOp28
 70
     1
102
RTVSPropertyOp29
 70
     1
102
RTVSPropertyOp30
 70
     1
102
RTVSPropertyOp31
 70
     1
102
RTVSPropertyOp32
 70
     1
102
RTVSPropertyOp33
 70
     1
102
RTVSPropertyOp34
 70
     1
102
RTVSPropertyOp35
 70
     1
102
RTVSPropertyOp36
 70
     1
102
RTVSPropertyOp37
 70
     1
102
RTVSPropertyOp38
 70
     1
102
RTVSPropertyOp39
 70
     1
102
RTVSPropertyOp40
 70
     1
102
RTVSPropertyOp41
 70
     1
102
RTVSPropertyOp42
 70
     1
102
RTVSPropertyOp43
 70
     1
102
RTVSPropertyOp44
 70
     1
102
RTVSPropertyOp45
 70
     1
102
RTVSPropertyOp46
 70
     1
102
RTVSPropertyOp47
 70
     1
102
RTVSPropertyOp48
 70
     1
102
RTVSPropertyOp49
 70
     1
102
RTVSPropertyOp50
 70
     1
102
RTVSPropertyOp51
 70
     0
102
RTVSPropertyOp52
 70
     0
102
RTVSPropertyOp53
 70
     1
102
RTVSPropertyOp54
 70
     1
102
RTVSPropertyOp55
 70
     1
102
RTVSPropertyOp56
 70
     1
102
RTVSPropertyOp57
 70
     1
102
RTVSPost2010Prop28
280
     0
102
RTVSPost2010PropOp28
 70
     1
102
RTVSPost2010Prop29
280
     1
102
RTVSPost2010PropOp29
 70
     1
102
RTVSPost2010Prop30
280
     1
102
RTVSPost2010PropOp30
 70
     1
102
RTVSPost2010Prop31
280
     0
102
RTVSPost2010PropOp31
 70
     1
102
RTVSPost2010Prop32
280
     0
102
RTVSPost2010PropOp32
 70
     1
102
RTVSPost2010Prop33
280
     0
102
RTVSPost2010PropOp33
 70
     1
102
RTVSPost2010Prop34
280
     0
102
RTVSPost2010PropOp34
 70
     1
102
RTVSPost2010Prop35
280
     0
102
RTVSPost2010PropOp35
 70
     1
102
RTVSPost2010Prop36
280
     0
102
RTVSPost2010PropOp36
 70
     1
102
RTVSPost2010Prop37
 90
       50
102
RTVSPost2010PropOp37
 70
     1
102
RTVSPost2010Prop38
140
0.0
102
RTVSPost2010PropOp38
 70
     1
102
RTVSPost2010Prop39
140
1.0
102
RTVSPost2010PropOp39
 70
     1
102
RTVSPost2010Prop40
 90
        0
102
RTVSPost2010PropOp40
 70
     1
102
RTVSPost2010Prop41ColorIndex
 90
       18
102
RTVSPost2010Prop41ColorRGB
 90
        0
102
RTVSPost2010PropOp41
 70
     1
102
RTVSPost2010Prop42
 90
       50
102
RTVSPost2010PropOp42
 70
     1
102
RTVSPost2010Prop43
 90
        3
102
RTVSPost2010PropOp43
 70
     1
102
RTVSPost2010Prop44ColorIndex
 90
        5
102
RTVSPost2010Prop44ColorRGB
 90
      255
102
RTVSPost2010PropOp44
 70
     1
102
RTVSPost2010Prop45
280
     0
102
RTVSPost2010PropOp45
 70
     1
102
RTVSPost2010Prop46
 90
       50
102
RTVSPost2010PropOp46
 70
     1
102
RTVSPost2010Prop47
 90
       50
102
RTVSPost2010PropOp47
 70
     1
102
RTVSPost2010Prop48
 90
       50
102
RTVSPost2010PropOp48
 70
     1
102
RTVSPost2010Prop49
280
     0
102
RTVSPost2010PropOp49
 70
     1
102
RTVSPost2010Prop50
 90
       50
102
RTVSPost2010PropOp50
 70
     1
102
RTVSPost2010Prop51ColorIndex
 90
      256
102
RTVSPost2010Prop51ColorRGB
 90
-16777216
102
RTVSPost2010PropOp51
 70
     0
102
RTVSPost2010Prop52
140
1.0
102
RTVSPost2010PropOp52
 70
     0
102
RTVSPost2010Prop53
 90
        2
102
RTVSPost2010PropOp53
 70
     1
102
RTVSPost2010Prop54
  1
strokes_ogs.tif
102
RTVSPost2010PropOp54
 70
     1
102
RTVSPost2010Prop55
280
     0
102
RTVSPost2010PropOp55
 70
     1
102
RTVSPost2010Prop56
140
1.0
102
RTVSPost2010PropOp56
 70
     1
102
RTVSPost2010Prop57
140
1.0
102
RTVSPost2010PropOp57
 70
     1
  0
XRECORD
  5
A6
102
{ACAD_REACTORS
330
A5
102
}
330
A5
100
AcDbXrecord
280
     1
102
RTVSPropertyOp0
 70
     1
102
RTVSPropertyOp1
 70
     1
102
RTVSPropertyOp2
 70
     1
102
RTVSPropertyOp3
 70
     1
102
RTVSPropertyOp4
 70
     1
102
RTVSPropertyOp5
 70
     1
102
RTVSPropertyOp6
 70
     1
102
RTVSPropertyOp7
 70
     1
102
RTVSPropertyOp8
 70
     1
102
RTVSPropertyOp9
 70
     1
102
RTVSPropertyOp10
 70
     1
102
RTVSPropertyOp11
 70
     1
102
RTVSPropertyOp12
 70
     1
102
RTVSPropertyOp13
 70
     1
102
RTVSPropertyOp14
 70
     1
102
RTVSPropertyOp15
 70
     1
102
RTVSPropertyOp16
 70
     1
102
RTVSPropertyOp17
 70
     1
102
RTVSPropertyOp18
 70
     1
102
RTVSPropertyOp19
 70
     1
102
RTVSPropertyOp20
 70
     1
102
RTVSPropertyOp21
 70
     1
102
RTVSPropertyOp22
 70
     1
102
RTVSPropertyOp23
 70
     1
102
RTVSPropertyOp24
 70
     1
102
RTVSPropertyOp25
 70
     1
102
RTVSPropertyOp26
 70
     1
102
RTVSPropertyOp27
 70
     1
102
RTVSPropertyOp28
 70
     1
102
RTVSPropertyOp29
 70
     1
102
RTVSPropertyOp30
 70
     1
102
RTVSPropertyOp31
 70
     1
102
RTVSPropertyOp32
 70
     1
102
RTVSPropertyOp33
 70
     1
102
RTVSPropertyOp34
 70
     1
102
RTVSPropertyOp35
 70
     1
102
RTVSPropertyOp36
 70
     1
102
RTVSPropertyOp37
 70
     1
102
RTVSPropertyOp38
 70
     1
102
RTVSPropertyOp39
 70
     1
102
RTVSPropertyOp40
 70
     1
102
RTVSPropertyOp41
 70
     1
102
RTVSPropertyOp42
 70
     1
102
RTVSPropertyOp43
 70
     1
102
RTVSPropertyOp44
 70
     1
102
RTVSPropertyOp45
 70
     1
102
RTVSPropertyOp46
 70
     1
102
RTVSPropertyOp47
 70
     1
102
RTVSPropertyOp48
 70
     1
102
RTVSPropertyOp49
 70
     1
102
RTVSPropertyOp50
 70
     1
102
RTVSPropertyOp51
 70
     0
102
RTVSPropertyOp52
 70
     0
102
RTVSPropertyOp53
 70
     1
102
RTVSPropertyOp54
 70
     1
102
RTVSPropertyOp55
 70
     1
102
RTVSPropertyOp56
 70
     1
102
RTVSPropertyOp57
 70
     1
102
RTVSPost2010Prop28
280
     0
102
RTVSPost2010PropOp28
 70
     1
102
RTVSPost2010Prop29
280
     1
102
RTVSPost2010PropOp29
 70
     1
102
RTVSPost2010Prop30
280
     1
102
RTVSPost2010PropOp30
 70
     1
102
RTVSPost2010Prop31
280
     0
102
RTVSPost2010PropOp31
 70
     1
102
RTVSPost2010Prop32
280
     0
102
RTVSPost2010PropOp32
 70
     1
102
RTVSPost2010Prop33
280
     0
102
RTVSPost2010PropOp33
 70
     1
102
RTVSPost2010Prop34
280
     0
102
RTVSPost2010PropOp34
 70
     1
102
RTVSPost2010Prop35
280
     0
102
RTVSPost2010PropOp35
 70
     1
102
RTVSPost2010Prop36
280
     0
102
RTVSPost2010PropOp36
 70
     1
102
RTVSPost2010Prop37
 90
       50
102
RTVSPost2010PropOp37
 70
     1
102
RTVSPost2010Prop38
140
0.0
102
RTVSPost2010PropOp38
 70
     1
102
RTVSPost2010Prop39
140
1.0
102
RTVSPost2010PropOp39
 70
     1
102
RTVSPost2010Prop40
 90
        0
102
RTVSPost2010PropOp40
 70
     1
102
RTVSPost2010Prop41ColorIndex
 90
       18
102
RTVSPost2010Prop41ColorRGB
 90
        0
102
RTVSPost2010PropOp41
 70
     1
102
RTVSPost2010Prop42
 90
       50
102
RTVSPost2010PropOp42
 70
     1
102
RTVSPost2010Prop43
 90
        3
102
RTVSPost2010PropOp43
 70
     1
102
RTVSPost2010Prop44ColorIndex
 90
        5
102
RTVSPost2010Prop44ColorRGB
 90
      255
102
RTVSPost2010PropOp44
 70
     1
102
RTVSPost2010Prop45
280
     0
102
RTVSPost2010PropOp45
 70
     1
102
RTVSPost2010Prop46
 90
       50
102
RTVSPost2010PropOp46
 70
     1
102
RTVSPost2010Prop47
 90
       50
102
RTVSPost2010PropOp47
 70
     1
102
RTVSPost2010Prop48
 90
       50
102
RTVSPost2010PropOp48
 70
     1
102
RTVSPost2010Prop49
280
     0
102
RTVSPost2010PropOp49
 70
     1
102
RTVSPost2010Prop50
 90
       50
102
RTVSPost2010PropOp50
 70
     1
102
RTVSPost2010Prop51ColorIndex
 90
      256
102
RTVSPost2010Prop51ColorRGB
 90
-16777216
102
RTVSPost2010PropOp51
 70
     0
102
RTVSPost2010Prop52
140
1.0
102
RTVSPost2010PropOp52
 70
     0
102
RTVSPost2010Prop53
 90
        2
102
RTVSPost2010PropOp53
 70
     1
102
RTVSPost2010Prop54
  1
strokes_ogs.tif
102
RTVSPost2010PropOp54
 70
     1
102
RTVSPost2010Prop55
280
     0
102
RTVSPost2010PropOp55
 70
     1
102
RTVSPost2010Prop56
140
1.0
102
RTVSPost2010PropOp56
 70
     1
102
RTVSPost2010Prop57
140
1.0
102
RTVSPost2010PropOp57
 70
     1
  0
XRECORD
  5
A8
102
{ACAD_REACTORS
330
A7
102
}
330
A7
100
AcDbXrecord
280
     1
102
RTVSPropertyOp0
 70
     1
102
RTVSPropertyOp1
 70
     1
102
RTVSPropertyOp2
 70
     1
102
RTVSPropertyOp3
 70
     1
102
RTVSPropertyOp4
 70
     1
102
RTVSPropertyOp5
 70
     1
102
RTVSPropertyOp6
 70
     1
102
RTVSPropertyOp7
 70
     1
102
RTVSPropertyOp8
 70
     1
102
RTVSPropertyOp9
 70
     1
102
RTVSPropertyOp10
 70
     1
102
RTVSPropertyOp11
 70
     1
102
RTVSPropertyOp12
 70
     1
102
RTVSPropertyOp13
 70
     1
102
RTVSPropertyOp14
 70
     1
102
RTVSPropertyOp15
 70
     1
102
RTVSPropertyOp16
 70
     1
102
RTVSPropertyOp17
 70
     1
102
RTVSPropertyOp18
 70
     1
102
RTVSPropertyOp19
 70
     1
102
RTVSPropertyOp20
 70
     1
102
RTVSPropertyOp21
 70
     1
102
RTVSPropertyOp22
 70
     1
102
RTVSPropertyOp23
 70
     1
102
RTVSPropertyOp24
 70
     1
102
RTVSPropertyOp25
 70
     1
102
RTVSPropertyOp26
 70
     1
102
RTVSPropertyOp27
 70
     1
102
RTVSPropertyOp28
 70
     1
102
RTVSPropertyOp29
 70
     1
102
RTVSPropertyOp30
 70
     1
102
RTVSPropertyOp31
 70
     1
102
RTVSPropertyOp32
 70
     1
102
RTVSPropertyOp33
 70
     1
102
RTVSPropertyOp34
 70
     1
102
RTVSPropertyOp35
 70
     1
102
RTVSPropertyOp36
 70
     1
102
RTVSPropertyOp37
 70
     1
102
RTVSPropertyOp38
 70
     1
102
RTVSPropertyOp39
 70
     1
102
RTVSPropertyOp40
 70
     1
102
RTVSPropertyOp41
 70
     1
102
RTVSPropertyOp42
 70
     1
102
RTVSPropertyOp43
 70
     1
102
RTVSPropertyOp44
 70
     1
102
RTVSPropertyOp45
 70
     1
102
RTVSPropertyOp46
 70
     1
102
RTVSPropertyOp47
 70
     1
102
RTVSPropertyOp48
 70
     1
102
RTVSPropertyOp49
 70
     1
102
RTVSPropertyOp50
 70
     1
102
RTVSPropertyOp51
 70
     0
102
RTVSPropertyOp52
 70
     0
102
RTVSPropertyOp53
 70
     1
102
RTVSPropertyOp54
 70
     1
102
RTVSPropertyOp55
 70
     1
102
RTVSPropertyOp56
 70
     1
102
RTVSPropertyOp57
 70
     1
102
RTVSPost2010Prop28
280
     0
102
RTVSPost2010PropOp28
 70
     1
102
RTVSPost2010Prop29
280
     1
102
RTVSPost2010PropOp29
 70
     1
102
RTVSPost2010Prop30
280
     1
102
RTVSPost2010PropOp30
 70
     1
102
RTVSPost2010Prop31
280
     0
102
RTVSPost2010PropOp31
 70
     1
102
RTVSPost2010Prop32
280
     0
102
RTVSPost2010PropOp32
 70
     1
102
RTVSPost2010Prop33
280
     0
102
RTVSPost2010PropOp33
 70
     1
102
RTVSPost2010Prop34
280
     0
102
RTVSPost2010PropOp34
 70
     1
102
RTVSPost2010Prop35
280
     0
102
RTVSPost2010PropOp35
 70
     1
102
RTVSPost2010Prop36
280
     0
102
RTVSPost2010PropOp36
 70
     1
102
RTVSPost2010Prop37
 90
       50
102
RTVSPost2010PropOp37
 70
     1
102
RTVSPost2010Prop38
140
0.0
102
RTVSPost2010PropOp38
 70
     1
102
RTVSPost2010Prop39
140
1.0
102
RTVSPost2010PropOp39
 70
     1
102
RTVSPost2010Prop40
 90
        0
102
RTVSPost2010PropOp40
 70
     1
102
RTVSPost2010Prop41ColorIndex
 90
       18
102
RTVSPost2010Prop41ColorRGB
 90
        0
102
RTVSPost2010PropOp41
 70
     1
102
RTVSPost2010Prop42
 90
       50
102
RTVSPost2010PropOp42
 70
     1
102
RTVSPost2010Prop43
 90
        3
102
RTVSPost2010PropOp43
 70
     1
102
RTVSPost2010Prop44ColorIndex
 90
        5
102
RTVSPost2010Prop44ColorRGB
 90
      255
102
RTVSPost2010PropOp44
 70
     1
102
RTVSPost2010Prop45
280
     0
102
RTVSPost2010PropOp45
 70
     1
102
RTVSPost2010Prop46
 90
       50
102
RTVSPost2010PropOp46
 70
     1
102
RTVSPost2010Prop47
 90
       50
102
RTVSPost2010PropOp47
 70
     1
102
RTVSPost2010Prop48
 90
       50
102
RTVSPost2010PropOp48
 70
     1
102
RTVSPost2010Prop49
280
     0
102
RTVSPost2010PropOp49
 70
     1
102
RTVSPost2010Prop50
 90
       50
102
RTVSPost2010PropOp50
 70
     1
102
RTVSPost2010Prop51ColorIndex
 90
      256
102
RTVSPost2010Prop51ColorRGB
 90
-16777216
102
RTVSPost2010PropOp51
 70
     0
102
RTVSPost2010Prop52
140
1.0
102
RTVSPost2010PropOp52
 70
     0
102
RTVSPost2010Prop53
 90
        2
102
RTVSPost2010PropOp53
 70
     1
102
RTVSPost2010Prop54
  1
strokes_ogs.tif
102
RTVSPost2010PropOp54
 70
     1
102
RTVSPost2010Prop55
280
     0
102
RTVSPost2010PropOp55
 70
     1
102
RTVSPost2010Prop56
140
1.0
102
RTVSPost2010PropOp56
 70
     1
102
RTVSPost2010Prop57
140
1.0
102
RTVSPost2010PropOp57
 70
     1
  0
XRECORD
  5
B8
102
{ACAD_REACTORS
330
B7
102
}
330
B7
100
AcDbXrecord
280
     1
102
RTVSPropertyOp0
 70
     0
102
RTVSPropertyOp1
 70
     0
102
RTVSPropertyOp2
 70
     0
102
RTVSPropertyOp3
 70
     0
102
RTVSPropertyOp4
 70
     0
102
RTVSPropertyOp5
 70
     0
102
RTVSPropertyOp6
 70
     0
102
RTVSPropertyOp7
 70
     0
102
RTVSPropertyOp8
 70
     0
102
RTVSPropertyOp9
 70
     0
102
RTVSPropertyOp10
 70
     0
102
RTVSPropertyOp11
 70
     0
102
RTVSPropertyOp12
 70
     0
102
RTVSPropertyOp13
 70
     0
102
RTVSPropertyOp14
 70
     2
102
RTVSPropertyOp15
 70
     0
102
RTVSPropertyOp16
 70
     0
102
RTVSPropertyOp17
 70
     0
102
RTVSPropertyOp18
 70
     0
102
RTVSPropertyOp19
 70
     0
102
RTVSPropertyOp20
 70
     0
102
RTVSPropertyOp21
 70
     0
102
RTVSPropertyOp22
 70
     0
102
RTVSPropertyOp23
 70
     0
102
RTVSPropertyOp24
 70
     0
102
RTVSPropertyOp25
 70
     0
102
RTVSPropertyOp26
 70
     0
102
RTVSPropertyOp27
 70
     0
102
RTVSPropertyOp28
 70
     0
102
RTVSPropertyOp29
 70
     0
102
RTVSPropertyOp30
 70
     0
102
RTVSPropertyOp31
 70
     0
102
RTVSPropertyOp32
 70
     0
102
RTVSPropertyOp33
 70
     0
102
RTVSPropertyOp34
 70
     0
102
RTVSPropertyOp35
 70
     0
102
RTVSPropertyOp36
 70
     0
102
RTVSPropertyOp37
 70
     0
102
RTVSPropertyOp38
 70
     0
102
RTVSPropertyOp39
 70
     0
102
RTVSPropertyOp40
 70
     0
102
RTVSPropertyOp41
 70
     0
102
RTVSPropertyOp42
 70
     0
102
RTVSPropertyOp43
 70
     0
102
RTVSPropertyOp44
 70
     0
102
RTVSPropertyOp45
 70
     0
102
RTVSPropertyOp46
 70
     0
102
RTVSPropertyOp47
 70
     0
102
RTVSPropertyOp48
 70
     0
102
RTVSPropertyOp49
 70
     0
102
RTVSPropertyOp50
 70
     0
102
RTVSPropertyOp51
 70
     0
102
RTVSPropertyOp52
 70
     0
102
RTVSPropertyOp53
 70
     0
102
RTVSPropertyOp54
 70
     0
102
RTVSPropertyOp55
 70
     0
102
RTVSPropertyOp56
 70
     0
102
RTVSPropertyOp57
 70
     0
102
RTVSPost2010Prop28
280
     0
102
RTVSPost2010PropOp28
 70
     0
102
RTVSPost2010Prop29
280
     1
102
RTVSPost2010PropOp29
 70
     0
102
RTVSPost2010Prop30
280
     1
102
RTVSPost2010PropOp30
 70
     0
102
RTVSPost2010Prop31
280
     0
102
RTVSPost2010PropOp31
 70
     0
102
RTVSPost2010Prop32
280
     0
102
RTVSPost2010PropOp32
 70
     0
102
RTVSPost2010Prop33
280
     0
102
RTVSPost2010PropOp33
 70
     0
102
RTVSPost2010Prop34
280
     0
102
RTVSPost2010PropOp34
 70
     0
102
RTVSPost2010Prop35
280
     0
102
RTVSPost2010PropOp35
 70
     0
102
RTVSPost2010Prop36
280
     0
102
RTVSPost2010PropOp36
 70
     0
102
RTVSPost2010Prop37
 90
       50
102
RTVSPost2010PropOp37
 70
     0
102
RTVSPost2010Prop38
140
0.0
102
RTVSPost2010PropOp38
 70
     0
102
RTVSPost2010Prop39
140
1.0
102
RTVSPost2010PropOp39
 70
     0
102
RTVSPost2010Prop40
 90
        0
102
RTVSPost2010PropOp40
 70
     0
102
RTVSPost2010Prop41ColorIndex
 90
       18
102
RTVSPost2010Prop41ColorRGB
 90
        0
102
RTVSPost2010PropOp41
 70
     0
102
RTVSPost2010Prop42
 90
       50
102
RTVSPost2010PropOp42
 70
     0
102
RTVSPost2010Prop43
 90
        3
102
RTVSPost2010PropOp43
 70
     0
102
RTVSPost2010Prop44ColorIndex
 90
        5
102
RTVSPost2010Prop44ColorRGB
 90
      255
102
RTVSPost2010PropOp44
 70
     0
102
RTVSPost2010Prop45
280
     0
102
RTVSPost2010PropOp45
 70
     0
102
RTVSPost2010Prop46
 90
       50
102
RTVSPost2010PropOp46
 70
     0
102
RTVSPost2010Prop47
 90
       50
102
RTVSPost2010PropOp47
 70
     0
102
RTVSPost2010Prop48
 90
       50
102
RTVSPost2010PropOp48
 70
     0
102
RTVSPost2010Prop49
280
     0
102
RTVSPost2010PropOp49
 70
     0
102
RTVSPost2010Prop50
 90
       50
102
RTVSPost2010PropOp50
 70
     0
102
RTVSPost2010Prop51ColorIndex
 90
      256
102
RTVSPost2010Prop51ColorRGB
 90
-16777216
102
RTVSPost2010PropOp51
 70
     0
102
RTVSPost2010Prop52
140
1.0
102
RTVSPost2010PropOp52
 70
     0
102
RTVSPost2010Prop53
 90
        2
102
RTVSPost2010PropOp53
 70
     0
102
RTVSPost2010Prop54
  1
strokes_ogs.tif
102
RTVSPost2010PropOp54
 70
     0
102
RTVSPost2010Prop55
280
     0
102
RTVSPost2010PropOp55
 70
     0
102
RTVSPost2010Prop56
140
1.0
102
RTVSPost2010PropOp56
 70
     0
102
RTVSPost2010Prop57
140
1.0
102
RTVSPost2010PropOp57
 70
     0
  0
XRECORD
  5
B0
102
{ACAD_REACTORS
330
AF
102
}
330
AF
100
AcDbXrecord
280
     1
102
RTVSPropertyOp0
 70
     1
102
RTVSPropertyOp1
 70
     1
102
RTVSPropertyOp2
 70
     1
102
RTVSPropertyOp3
 70
     1
102
RTVSPropertyOp4
 70
     1
102
RTVSPropertyOp5
 70
     1
102
RTVSPropertyOp6
 70
     1
102
RTVSPropertyOp7
 70
     1
102
RTVSPropertyOp8
 70
     1
102
RTVSPropertyOp9
 70
     1
102
RTVSPropertyOp10
 70
     1
102
RTVSPropertyOp11
 70
     1
102
RTVSPropertyOp12
 70
     1
102
RTVSPropertyOp13
 70
     1
102
RTVSPropertyOp14
 70
     1
102
RTVSPropertyOp15
 70
     1
102
RTVSPropertyOp16
 70
     1
102
RTVSPropertyOp17
 70
     1
102
RTVSPropertyOp18
 70
     1
102
RTVSPropertyOp19
 70
     1
102
RTVSPropertyOp20
 70
     1
102
RTVSPropertyOp21
 70
     1
102
RTVSPropertyOp22
 70
     1
102
RTVSPropertyOp23
 70
     1
102
RTVSPropertyOp24
 70
     1
102
RTVSPropertyOp25
 70
     1
102
RTVSPropertyOp26
 70
     1
102
RTVSPropertyOp27
 70
     1
102
RTVSPropertyOp28
 70
     1
102
RTVSPropertyOp29
 70
     1
102
RTVSPropertyOp30
 70
     1
102
RTVSPropertyOp31
 70
     1
102
RTVSPropertyOp32
 70
     1
102
RTVSPropertyOp33
 70
     1
102
RTVSPropertyOp34
 70
     1
102
RTVSPropertyOp35
 70
     1
102
RTVSPropertyOp36
 70
     1
102
RTVSPropertyOp37
 70
     1
102
RTVSPropertyOp38
 70
     1
102
RTVSPropertyOp39
 70
     1
102
RTVSPropertyOp40
 70
     1
102
RTVSPropertyOp41
 70
     1
102
RTVSPropertyOp42
 70
     1
102
RTVSPropertyOp43
 70
     1
102
RTVSPropertyOp44
 70
     1
102
RTVSPropertyOp45
 70
     1
102
RTVSPropertyOp46
 70
     1
102
RTVSPropertyOp47
 70
     1
102
RTVSPropertyOp48
 70
     1
102
RTVSPropertyOp49
 70
     1
102
RTVSPropertyOp50
 70
     1
102
RTVSPropertyOp51
 70
     0
102
RTVSPropertyOp52
 70
     0
102
RTVSPropertyOp53
 70
     1
102
RTVSPropertyOp54
 70
     1
102
RTVSPropertyOp55
 70
     1
102
RTVSPropertyOp56
 70
     1
102
RTVSPropertyOp57
 70
     1
102
RTVSPost2010Prop28
280
     0
102
RTVSPost2010PropOp28
 70
     1
102
RTVSPost2010Prop29
280
     1
102
RTVSPost2010PropOp29
 70
     1
102
RTVSPost2010Prop30
280
     1
102
RTVSPost2010PropOp30
 70
     1
102
RTVSPost2010Prop31
280
     0
102
RTVSPost2010PropOp31
 70
     1
102
RTVSPost2010Prop32
280
     0
102
RTVSPost2010PropOp32
 70
     1
102
RTVSPost2010Prop33
280
     0
102
RTVSPost2010PropOp33
 70
     1
102
RTVSPost2010Prop34
280
     0
102
RTVSPost2010PropOp34
 70
     1
102
RTVSPost2010Prop35
280
     0
102
RTVSPost2010PropOp35
 70
     1
102
RTVSPost2010Prop36
280
     0
102
RTVSPost2010PropOp36
 70
     1
102
RTVSPost2010Prop37
 90
       50
102
RTVSPost2010PropOp37
 70
     1
102
RTVSPost2010Prop38
140
0.0
102
RTVSPost2010PropOp38
 70
     1
102
RTVSPost2010Prop39
140
1.0
102
RTVSPost2010PropOp39
 70
     1
102
RTVSPost2010Prop40
 90
        0
102
RTVSPost2010PropOp40
 70
     1
102
RTVSPost2010Prop41ColorIndex
 90
       18
102
RTVSPost2010Prop41ColorRGB
 90
        0
102
RTVSPost2010PropOp41
 70
     1
102
RTVSPost2010Prop42
 90
       50
102
RTVSPost2010PropOp42
 70
     1
102
RTVSPost2010Prop43
 90
        3
102
RTVSPost2010PropOp43
 70
     1
102
RTVSPost2010Prop44ColorIndex
 90
        5
102
RTVSPost2010Prop44ColorRGB
 90
      255
102
RTVSPost2010PropOp44
 70
     1
102
RTVSPost2010Prop45
280
     0
102
RTVSPost2010PropOp45
 70
     1
102
RTVSPost2010Prop46
 90
       50
102
RTVSPost2010PropOp46
 70
     1
102
RTVSPost2010Prop47
 90
       50
102
RTVSPost2010PropOp47
 70
     1
102
RTVSPost2010Prop48
 90
       50
102
RTVSPost2010PropOp48
 70
     1
102
RTVSPost2010Prop49
280
     0
102
RTVSPost2010PropOp49
 70
     1
102
RTVSPost2010Prop50
 90
       50
102
RTVSPost2010PropOp50
 70
     1
102
RTVSPost2010Prop51ColorIndex
 90
      256
102
RTVSPost2010Prop51ColorRGB
 90
-16777216
102
RTVSPost2010PropOp51
 70
     0
102
RTVSPost2010Prop52
140
1.0
102
RTVSPost2010PropOp52
 70
     0
102
RTVSPost2010Prop53
 90
        2
102
RTVSPost2010PropOp53
 70
     1
102
RTVSPost2010Prop54
  1
strokes_ogs.tif
102
RTVSPost2010PropOp54
 70
     1
102
RTVSPost2010Prop55
280
     0
102
RTVSPost2010PropOp55
 70
     1
102
RTVSPost2010Prop56
140
1.0
102
RTVSPost2010PropOp56
 70
     1
102
RTVSPost2010Prop57
140
1.0
102
RTVSPost2010PropOp57
 70
     1
  0
XRECORD
  5
94
102
{ACAD_REACTORS
330
93
102
}
330
93
100
AcDbXrecord
280
     1
102
RTVSPropertyOp0
 70
     1
102
RTVSPropertyOp1
 70
     1
102
RTVSPropertyOp2
 70
     1
102
RTVSPropertyOp3
 70
     1
102
RTVSPropertyOp4
 70
     1
102
RTVSPropertyOp5
 70
     1
102
RTVSPropertyOp6
 70
     1
102
RTVSPropertyOp7
 70
     1
102
RTVSPropertyOp8
 70
     1
102
RTVSPropertyOp9
 70
     1
102
RTVSPropertyOp10
 70
     1
102
RTVSPropertyOp11
 70
     1
102
RTVSPropertyOp12
 70
     1
102
RTVSPropertyOp13
 70
     1
102
RTVSPropertyOp14
 70
     1
102
RTVSPropertyOp15
 70
     1
102
RTVSPropertyOp16
 70
     1
102
RTVSPropertyOp17
 70
     1
102
RTVSPropertyOp18
 70
     1
102
RTVSPropertyOp19
 70
     1
102
RTVSPropertyOp20
 70
     1
102
RTVSPropertyOp21
 70
     1
102
RTVSPropertyOp22
 70
     1
102
RTVSPropertyOp23
 70
     1
102
RTVSPropertyOp24
 70
     1
102
RTVSPropertyOp25
 70
     1
102
RTVSPropertyOp26
 70
     1
102
RTVSPropertyOp27
 70
     1
102
RTVSPropertyOp28
 70
     1
102
RTVSPropertyOp29
 70
     1
102
RTVSPropertyOp30
 70
     1
102
RTVSPropertyOp31
 70
     1
102
RTVSPropertyOp32
 70
     1
102
RTVSPropertyOp33
 70
     1
102
RTVSPropertyOp34
 70
     1
102
RTVSPropertyOp35
 70
     1
102
RTVSPropertyOp36
 70
     1
102
RTVSPropertyOp37
 70
     1
102
RTVSPropertyOp38
 70
     1
102
RTVSPropertyOp39
 70
     1
102
RTVSPropertyOp40
 70
     1
102
RTVSPropertyOp41
 70
     1
102
RTVSPropertyOp42
 70
     1
102
RTVSPropertyOp43
 70
     1
102
RTVSPropertyOp44
 70
     1
102
RTVSPropertyOp45
 70
     1
102
RTVSPropertyOp46
 70
     1
102
RTVSPropertyOp47
 70
     1
102
RTVSPropertyOp48
 70
     1
102
RTVSPropertyOp49
 70
     1
102
RTVSPropertyOp50
 70
     1
102
RTVSPropertyOp51
 70
     0
102
RTVSPropertyOp52
 70
     0
102
RTVSPropertyOp53
 70
     1
102
RTVSPropertyOp54
 70
     1
102
RTVSPropertyOp55
 70
     1
102
RTVSPropertyOp56
 70
     1
102
RTVSPropertyOp57
 70
     1
102
RTVSPost2010Prop28
280
     0
102
RTVSPost2010PropOp28
 70
     1
102
RTVSPost2010Prop29
280
     1
102
RTVSPost2010PropOp29
 70
     1
102
RTVSPost2010Prop30
280
     1
102
RTVSPost2010PropOp30
 70
     1
102
RTVSPost2010Prop31
280
     0
102
RTVSPost2010PropOp31
 70
     1
102
RTVSPost2010Prop32
280
     0
102
RTVSPost2010PropOp32
 70
     1
102
RTVSPost2010Prop33
280
     0
102
RTVSPost2010PropOp33
 70
     1
102
RTVSPost2010Prop34
280
     0
102
RTVSPost2010PropOp34
 70
     1
102
RTVSPost2010Prop35
280
     0
102
RTVSPost2010PropOp35
 70
     1
102
RTVSPost2010Prop36
280
     0
102
RTVSPost2010PropOp36
 70
     1
102
RTVSPost2010Prop37
 90
       50
102
RTVSPost2010PropOp37
 70
     1
102
RTVSPost2010Prop38
140
0.0
102
RTVSPost2010PropOp38
 70
     1
102
RTVSPost2010Prop39
140
1.0
102
RTVSPost2010PropOp39
 70
     1
102
RTVSPost2010Prop40
 90
        0
102
RTVSPost2010PropOp40
 70
     1
102
RTVSPost2010Prop41ColorIndex
 90
       18
102
RTVSPost2010Prop41ColorRGB
 90
        0
102
RTVSPost2010PropOp41
 70
     1
102
RTVSPost2010Prop42
 90
       50
102
RTVSPost2010PropOp42
 70
     1
102
RTVSPost2010Prop43
 90
        3
102
RTVSPost2010PropOp43
 70
     1
102
RTVSPost2010Prop44ColorIndex
 90
        5
102
RTVSPost2010Prop44ColorRGB
 90
      255
102
RTVSPost2010PropOp44
 70
     1
102
RTVSPost2010Prop45
280
     0
102
RTVSPost2010PropOp45
 70
     1
102
RTVSPost2010Prop46
 90
       50
102
RTVSPost2010PropOp46
 70
     1
102
RTVSPost2010Prop47
 90
       50
102
RTVSPost2010PropOp47
 70
     1
102
RTVSPost2010Prop48
 90
       50
102
RTVSPost2010PropOp48
 70
     1
102
RTVSPost2010Prop49
280
     0
102
RTVSPost2010PropOp49
 70
     1
102
RTVSPost2010Prop50
 90
       50
102
RTVSPost2010PropOp50
 70
     1
102
RTVSPost2010Prop51ColorIndex
 90
      256
102
RTVSPost2010Prop51ColorRGB
 90
-16777216
102
RTVSPost2010PropOp51
 70
     0
102
RTVSPost2010Prop52
140
1.0
102
RTVSPost2010PropOp52
 70
     0
102
RTVSPost2010Prop53
 90
        2
102
RTVSPost2010PropOp53
 70
     1
102
RTVSPost2010Prop54
  1
strokes_ogs.tif
102
RTVSPost2010PropOp54
 70
     1
102
RTVSPost2010Prop55
280
     0
102
RTVSPost2010PropOp55
 70
     1
102
RTVSPost2010Prop56
140
1.0
102
RTVSPost2010PropOp56
 70
     1
102
RTVSPost2010Prop57
140
1.0
102
RTVSPost2010PropOp57
 70
     1
  0
XRECORD
  5
96
102
{ACAD_REACTORS
330
95
102
}
330
95
100
AcDbXrecord
280
     1
102
RTVSPropertyOp0
 70
     1
102
RTVSPropertyOp1
 70
     1
102
RTVSPropertyOp2
 70
     1
102
RTVSPropertyOp3
 70
     1
102
RTVSPropertyOp4
 70
     1
102
RTVSPropertyOp5
 70
     1
102
RTVSPropertyOp6
 70
     1
102
RTVSPropertyOp7
 70
     1
102
RTVSPropertyOp8
 70
     1
102
RTVSPropertyOp9
 70
     1
102
RTVSPropertyOp10
 70
     1
102
RTVSPropertyOp11
 70
     1
102
RTVSPropertyOp12
 70
     1
102
RTVSPropertyOp13
 70
     1
102
RTVSPropertyOp14
 70
     1
102
RTVSPropertyOp15
 70
     1
102
RTVSPropertyOp16
 70
     1
102
RTVSPropertyOp17
 70
     1
102
RTVSPropertyOp18
 70
     1
102
RTVSPropertyOp19
 70
     1
102
RTVSPropertyOp20
 70
     1
102
RTVSPropertyOp21
 70
     1
102
RTVSPropertyOp22
 70
     1
102
RTVSPropertyOp23
 70
     1
102
RTVSPropertyOp24
 70
     1
102
RTVSPropertyOp25
 70
     1
102
RTVSPropertyOp26
 70
     1
102
RTVSPropertyOp27
 70
     1
102
RTVSPropertyOp28
 70
     1
102
RTVSPropertyOp29
 70
     1
102
RTVSPropertyOp30
 70
     1
102
RTVSPropertyOp31
 70
     1
102
RTVSPropertyOp32
 70
     1
102
RTVSPropertyOp33
 70
     1
102
RTVSPropertyOp34
 70
     1
102
RTVSPropertyOp35
 70
     1
102
RTVSPropertyOp36
 70
     1
102
RTVSPropertyOp37
 70
     1
102
RTVSPropertyOp38
 70
     1
102
RTVSPropertyOp39
 70
     1
102
RTVSPropertyOp40
 70
     1
102
RTVSPropertyOp41
 70
     1
102
RTVSPropertyOp42
 70
     1
102
RTVSPropertyOp43
 70
     1
102
RTVSPropertyOp44
 70
     1
102
RTVSPropertyOp45
 70
     1
102
RTVSPropertyOp46
 70
     1
102
RTVSPropertyOp47
 70
     1
102
RTVSPropertyOp48
 70
     1
102
RTVSPropertyOp49
 70
     1
102
RTVSPropertyOp50
 70
     1
102
RTVSPropertyOp51
 70
     0
102
RTVSPropertyOp52
 70
     0
102
RTVSPropertyOp53
 70
     1
102
RTVSPropertyOp54
 70
     1
102
RTVSPropertyOp55
 70
     1
102
RTVSPropertyOp56
 70
     1
102
RTVSPropertyOp57
 70
     1
102
RTVSPost2010Prop28
280
     0
102
RTVSPost2010PropOp28
 70
     1
102
RTVSPost2010Prop29
280
     1
102
RTVSPost2010PropOp29
 70
     1
102
RTVSPost2010Prop30
280
     1
102
RTVSPost2010PropOp30
 70
     1
102
RTVSPost2010Prop31
280
     0
102
RTVSPost2010PropOp31
 70
     1
102
RTVSPost2010Prop32
280
     0
102
RTVSPost2010PropOp32
 70
     1
102
RTVSPost2010Prop33
280
     0
102
RTVSPost2010PropOp33
 70
     1
102
RTVSPost2010Prop34
280
     0
102
RTVSPost2010PropOp34
 70
     1
102
RTVSPost2010Prop35
280
     0
102
RTVSPost2010PropOp35
 70
     1
102
RTVSPost2010Prop36
280
     0
102
RTVSPost2010PropOp36
 70
     1
102
RTVSPost2010Prop37
 90
       50
102
RTVSPost2010PropOp37
 70
     1
102
RTVSPost2010Prop38
140
0.0
102
RTVSPost2010PropOp38
 70
     1
102
RTVSPost2010Prop39
140
1.0
102
RTVSPost2010PropOp39
 70
     1
102
RTVSPost2010Prop40
 90
        0
102
RTVSPost2010PropOp40
 70
     1
102
RTVSPost2010Prop41ColorIndex
 90
       18
102
RTVSPost2010Prop41ColorRGB
 90
        0
102
RTVSPost2010PropOp41
 70
     1
102
RTVSPost2010Prop42
 90
       50
102
RTVSPost2010PropOp42
 70
     1
102
RTVSPost2010Prop43
 90
        3
102
RTVSPost2010PropOp43
 70
     1
102
RTVSPost2010Prop44ColorIndex
 90
        5
102
RTVSPost2010Prop44ColorRGB
 90
      255
102
RTVSPost2010PropOp44
 70
     1
102
RTVSPost2010Prop45
280
     0
102
RTVSPost2010PropOp45
 70
     1
102
RTVSPost2010Prop46
 90
       50
102
RTVSPost2010PropOp46
 70
     1
102
RTVSPost2010Prop47
 90
       50
102
RTVSPost2010PropOp47
 70
     1
102
RTVSPost2010Prop48
 90
       50
102
RTVSPost2010PropOp48
 70
     1
102
RTVSPost2010Prop49
280
     0
102
RTVSPost2010PropOp49
 70
     1
102
RTVSPost2010Prop50
 90
       50
102
RTVSPost2010PropOp50
 70
     1
102
RTVSPost2010Prop51ColorIndex
 90
      256
102
RTVSPost2010Prop51ColorRGB
 90
-16777216
102
RTVSPost2010PropOp51
 70
     0
102
RTVSPost2010Prop52
140
1.0
102
RTVSPost2010PropOp52
 70
     0
102
RTVSPost2010Prop53
 90
        2
102
RTVSPost2010PropOp53
 70
     1
102
RTVSPost2010Prop54
  1
strokes_ogs.tif
102
RTVSPost2010PropOp54
 70
     1
102
RTVSPost2010Prop55
280
     0
102
RTVSPost2010PropOp55
 70
     1
102
RTVSPost2010Prop56
140
1.0
102
RTVSPost2010PropOp56
 70
     1
102
RTVSPost2010Prop57
140
1.0
102
RTVSPost2010PropOp57
 70
     1
  0
XRECORD
  5
98
102
{ACAD_REACTORS
330
97
102
}
330
97
100
AcDbXrecord
280
     1
102
RTVSPropertyOp0
 70
     1
102
RTVSPropertyOp1
 70
     1
102
RTVSPropertyOp2
 70
     1
102
RTVSPropertyOp3
 70
     1
102
RTVSPropertyOp4
 70
     1
102
RTVSPropertyOp5
 70
     1
102
RTVSPropertyOp6
 70
     1
102
RTVSPropertyOp7
 70
     1
102
RTVSPropertyOp8
 70
     1
102
RTVSPropertyOp9
 70
     1
102
RTVSPropertyOp10
 70
     1
102
RTVSPropertyOp11
 70
     1
102
RTVSPropertyOp12
 70
     1
102
RTVSPropertyOp13
 70
     1
102
RTVSPropertyOp14
 70
     1
102
RTVSPropertyOp15
 70
     1
102
RTVSPropertyOp16
 70
     1
102
RTVSPropertyOp17
 70
     1
102
RTVSPropertyOp18
 70
     1
102
RTVSPropertyOp19
 70
     1
102
RTVSPropertyOp20
 70
     1
102
RTVSPropertyOp21
 70
     1
102
RTVSPropertyOp22
 70
     1
102
RTVSPropertyOp23
 70
     1
102
RTVSPropertyOp24
 70
     1
102
RTVSPropertyOp25
 70
     1
102
RTVSPropertyOp26
 70
     1
102
RTVSPropertyOp27
 70
     1
102
RTVSPropertyOp28
 70
     1
102
RTVSPropertyOp29
 70
     1
102
RTVSPropertyOp30
 70
     1
102
RTVSPropertyOp31
 70
     1
102
RTVSPropertyOp32
 70
     1
102
RTVSPropertyOp33
 70
     1
102
RTVSPropertyOp34
 70
     1
102
RTVSPropertyOp35
 70
     1
102
RTVSPropertyOp36
 70
     1
102
RTVSPropertyOp37
 70
     1
102
RTVSPropertyOp38
 70
     1
102
RTVSPropertyOp39
 70
     1
102
RTVSPropertyOp40
 70
     1
102
RTVSPropertyOp41
 70
     1
102
RTVSPropertyOp42
 70
     1
102
RTVSPropertyOp43
 70
     1
102
RTVSPropertyOp44
 70
     1
102
RTVSPropertyOp45
 70
     1
102
RTVSPropertyOp46
 70
     1
102
RTVSPropertyOp47
 70
     1
102
RTVSPropertyOp48
 70
     1
102
RTVSPropertyOp49
 70
     1
102
RTVSPropertyOp50
 70
     1
102
RTVSPropertyOp51
 70
     0
102
RTVSPropertyOp52
 70
     0
102
RTVSPropertyOp53
 70
     1
102
RTVSPropertyOp54
 70
     1
102
RTVSPropertyOp55
 70
     1
102
RTVSPropertyOp56
 70
     1
102
RTVSPropertyOp57
 70
     1
102
RTVSPost2010Prop28
280
     0
102
RTVSPost2010PropOp28
 70
     1
102
RTVSPost2010Prop29
280
     1
102
RTVSPost2010PropOp29
 70
     1
102
RTVSPost2010Prop30
280
     1
102
RTVSPost2010PropOp30
 70
     1
102
RTVSPost2010Prop31
280
     0
102
RTVSPost2010PropOp31
 70
     1
102
RTVSPost2010Prop32
280
     0
102
RTVSPost2010PropOp32
 70
     1
102
RTVSPost2010Prop33
280
     0
102
RTVSPost2010PropOp33
 70
     1
102
RTVSPost2010Prop34
280
     0
102
RTVSPost2010PropOp34
 70
     1
102
RTVSPost2010Prop35
280
     0
102
RTVSPost2010PropOp35
 70
     1
102
RTVSPost2010Prop36
280
     0
102
RTVSPost2010PropOp36
 70
     1
102
RTVSPost2010Prop37
 90
       50
102
RTVSPost2010PropOp37
 70
     1
102
RTVSPost2010Prop38
140
0.0
102
RTVSPost2010PropOp38
 70
     1
102
RTVSPost2010Prop39
140
1.0
102
RTVSPost2010PropOp39
 70
     1
102
RTVSPost2010Prop40
 90
        0
102
RTVSPost2010PropOp40
 70
     1
102
RTVSPost2010Prop41ColorIndex
 90
       18
102
RTVSPost2010Prop41ColorRGB
 90
        0
102
RTVSPost2010PropOp41
 70
     1
102
RTVSPost2010Prop42
 90
       50
102
RTVSPost2010PropOp42
 70
     1
102
RTVSPost2010Prop43
 90
        3
102
RTVSPost2010PropOp43
 70
     1
102
RTVSPost2010Prop44ColorIndex
 90
        5
102
RTVSPost2010Prop44ColorRGB
 90
      255
102
RTVSPost2010PropOp44
 70
     1
102
RTVSPost2010Prop45
280
     0
102
RTVSPost2010PropOp45
 70
     1
102
RTVSPost2010Prop46
 90
       50
102
RTVSPost2010PropOp46
 70
     1
102
RTVSPost2010Prop47
 90
       50
102
RTVSPost2010PropOp47
 70
     1
102
RTVSPost2010Prop48
 90
       50
102
RTVSPost2010PropOp48
 70
     1
102
RTVSPost2010Prop49
280
     0
102
RTVSPost2010PropOp49
 70
     1
102
RTVSPost2010Prop50
 90
       50
102
RTVSPost2010PropOp50
 70
     1
102
RTVSPost2010Prop51ColorIndex
 90
      256
102
RTVSPost2010Prop51ColorRGB
 90
-16777216
102
RTVSPost2010PropOp51
 70
     0
102
RTVSPost2010Prop52
140
1.0
102
RTVSPost2010PropOp52
 70
     0
102
RTVSPost2010Prop53
 90
        2
102
RTVSPost2010PropOp53
 70
     1
102
RTVSPost2010Prop54
  1
strokes_ogs.tif
102
RTVSPost2010PropOp54
 70
     1
102
RTVSPost2010Prop55
280
     0
102
RTVSPost2010PropOp55
 70
     1
102
RTVSPost2010Prop56
140
1.0
102
RTVSPost2010PropOp56
 70
     1
102
RTVSPost2010Prop57
140
1.0
102
RTVSPost2010PropOp57
 70
     1
  0
XRECORD
  5
9A
102
{ACAD_REACTORS
330
99
102
}
330
99
100
AcDbXrecord
280
     1
102
RTVSPropertyOp0
 70
     1
102
RTVSPropertyOp1
 70
     1
102
RTVSPropertyOp2
 70
     1
102
RTVSPropertyOp3
 70
     1
102
RTVSPropertyOp4
 70
     1
102
RTVSPropertyOp5
 70
     1
102
RTVSPropertyOp6
 70
     1
102
RTVSPropertyOp7
 70
     1
102
RTVSPropertyOp8
 70
     1
102
RTVSPropertyOp9
 70
     1
102
RTVSPropertyOp10
 70
     1
102
RTVSPropertyOp11
 70
     1
102
RTVSPropertyOp12
 70
     1
102
RTVSPropertyOp13
 70
     1
102
RTVSPropertyOp14
 70
     1
102
RTVSPropertyOp15
 70
     1
102
RTVSPropertyOp16
 70
     1
102
RTVSPropertyOp17
 70
     1
102
RTVSPropertyOp18
 70
     1
102
RTVSPropertyOp19
 70
     1
102
RTVSPropertyOp20
 70
     1
102
RTVSPropertyOp21
 70
     1
102
RTVSPropertyOp22
 70
     1
102
RTVSPropertyOp23
 70
     1
102
RTVSPropertyOp24
 70
     1
102
RTVSPropertyOp25
 70
     1
102
RTVSPropertyOp26
 70
     1
102
RTVSPropertyOp27
 70
     1
102
RTVSPropertyOp28
 70
     1
102
RTVSPropertyOp29
 70
     1
102
RTVSPropertyOp30
 70
     1
102
RTVSPropertyOp31
 70
     1
102
RTVSPropertyOp32
 70
     1
102
RTVSPropertyOp33
 70
     1
102
RTVSPropertyOp34
 70
     1
102
RTVSPropertyOp35
 70
     1
102
RTVSPropertyOp36
 70
     1
102
RTVSPropertyOp37
 70
     1
102
RTVSPropertyOp38
 70
     1
102
RTVSPropertyOp39
 70
     1
102
RTVSPropertyOp40
 70
     1
102
RTVSPropertyOp41
 70
     1
102
RTVSPropertyOp42
 70
     1
102
RTVSPropertyOp43
 70
     1
102
RTVSPropertyOp44
 70
     1
102
RTVSPropertyOp45
 70
     1
102
RTVSPropertyOp46
 70
     1
102
RTVSPropertyOp47
 70
     1
102
RTVSPropertyOp48
 70
     1
102
RTVSPropertyOp49
 70
     1
102
RTVSPropertyOp50
 70
     1
102
RTVSPropertyOp51
 70
     0
102
RTVSPropertyOp52
 70
     0
102
RTVSPropertyOp53
 70
     1
102
RTVSPropertyOp54
 70
     1
102
RTVSPropertyOp55
 70
     1
102
RTVSPropertyOp56
 70
     1
102
RTVSPropertyOp57
 70
     1
102
RTVSPost2010Prop28
280
     0
102
RTVSPost2010PropOp28
 70
     1
102
RTVSPost2010Prop29
280
     1
102
RTVSPost2010PropOp29
 70
     1
102
RTVSPost2010Prop30
280
     1
102
RTVSPost2010PropOp30
 70
     1
102
RTVSPost2010Prop31
280
     0
102
RTVSPost2010PropOp31
 70
     1
102
RTVSPost2010Prop32
280
     0
102
RTVSPost2010PropOp32
 70
     1
102
RTVSPost2010Prop33
280
     0
102
RTVSPost2010PropOp33
 70
     1
102
RTVSPost2010Prop34
280
     0
102
RTVSPost2010PropOp34
 70
     1
102
RTVSPost2010Prop35
280
     0
102
RTVSPost2010PropOp35
 70
     1
102
RTVSPost2010Prop36
280
     0
102
RTVSPost2010PropOp36
 70
     1
102
RTVSPost2010Prop37
 90
       50
102
RTVSPost2010PropOp37
 70
     1
102
RTVSPost2010Prop38
140
0.0
102
RTVSPost2010PropOp38
 70
     1
102
RTVSPost2010Prop39
140
1.0
102
RTVSPost2010PropOp39
 70
     1
102
RTVSPost2010Prop40
 90
        0
102
RTVSPost2010PropOp40
 70
     1
102
RTVSPost2010Prop41ColorIndex
 90
       18
102
RTVSPost2010Prop41ColorRGB
 90
        0
102
RTVSPost2010PropOp41
 70
     1
102
RTVSPost2010Prop42
 90
       50
102
RTVSPost2010PropOp42
 70
     1
102
RTVSPost2010Prop43
 90
        3
102
RTVSPost2010PropOp43
 70
     1
102
RTVSPost2010Prop44ColorIndex
 90
        5
102
RTVSPost2010Prop44ColorRGB
 90
      255
102
RTVSPost2010PropOp44
 70
     1
102
RTVSPost2010Prop45
280
     0
102
RTVSPost2010PropOp45
 70
     1
102
RTVSPost2010Prop46
 90
       50
102
RTVSPost2010PropOp46
 70
     1
102
RTVSPost2010Prop47
 90
       50
102
RTVSPost2010PropOp47
 70
     1
102
RTVSPost2010Prop48
 90
       50
102
RTVSPost2010PropOp48
 70
     1
102
RTVSPost2010Prop49
280
     0
102
RTVSPost2010PropOp49
 70
     1
102
RTVSPost2010Prop50
 90
       50
102
RTVSPost2010PropOp50
 70
     1
102
RTVSPost2010Prop51ColorIndex
 90
      256
102
RTVSPost2010Prop51ColorRGB
 90
-16777216
102
RTVSPost2010PropOp51
 70
     0
102
RTVSPost2010Prop52
140
1.0
102
RTVSPost2010PropOp52
 70
     0
102
RTVSPost2010Prop53
 90
        2
102
RTVSPost2010PropOp53
 70
     1
102
RTVSPost2010Prop54
  1
strokes_ogs.tif
102
RTVSPost2010PropOp54
 70
     1
102
RTVSPost2010Prop55
280
     0
102
RTVSPost2010PropOp55
 70
     1
102
RTVSPost2010Prop56
140
1.0
102
RTVSPost2010PropOp56
 70
     1
102
RTVSPost2010Prop57
140
1.0
102
RTVSPost2010PropOp57
 70
     1
  0
XRECORD
  5
A0
102
{ACAD_REACTORS
330
9F
102
}
330
9F
100
AcDbXrecord
280
     1
102
RTVSPropertyOp0
 70
     1
102
RTVSPropertyOp1
 70
     1
102
RTVSPropertyOp2
 70
     1
102
RTVSPropertyOp3
 70
     1
102
RTVSPropertyOp4
 70
     1
102
RTVSPropertyOp5
 70
     1
102
RTVSPropertyOp6
 70
     1
102
RTVSPropertyOp7
 70
     1
102
RTVSPropertyOp8
 70
     1
102
RTVSPropertyOp9
 70
     1
102
RTVSPropertyOp10
 70
     1
102
RTVSPropertyOp11
 70
     1
102
RTVSPropertyOp12
 70
     1
102
RTVSPropertyOp13
 70
     1
102
RTVSPropertyOp14
 70
     1
102
RTVSPropertyOp15
 70
     1
102
RTVSPropertyOp16
 70
     1
102
RTVSPropertyOp17
 70
     1
102
RTVSPropertyOp18
 70
     1
102
RTVSPropertyOp19
 70
     1
102
RTVSPropertyOp20
 70
     1
102
RTVSPropertyOp21
 70
     1
102
RTVSPropertyOp22
 70
     1
102
RTVSPropertyOp23
 70
     1
102
RTVSPropertyOp24
 70
     1
102
RTVSPropertyOp25
 70
     1
102
RTVSPropertyOp26
 70
     1
102
RTVSPropertyOp27
 70
     1
102
RTVSPropertyOp28
 70
     1
102
RTVSPropertyOp29
 70
     1
102
RTVSPropertyOp30
 70
     1
102
RTVSPropertyOp31
 70
     1
102
RTVSPropertyOp32
 70
     1
102
RTVSPropertyOp33
 70
     1
102
RTVSPropertyOp34
 70
     1
102
RTVSPropertyOp35
 70
     1
102
RTVSPropertyOp36
 70
     1
102
RTVSPropertyOp37
 70
     1
102
RTVSPropertyOp38
 70
     1
102
RTVSPropertyOp39
 70
     1
102
RTVSPropertyOp40
 70
     1
102
RTVSPropertyOp41
 70
     1
102
RTVSPropertyOp42
 70
     1
102
RTVSPropertyOp43
 70
     1
102
RTVSPropertyOp44
 70
     1
102
RTVSPropertyOp45
 70
     1
102
RTVSPropertyOp46
 70
     1
102
RTVSPropertyOp47
 70
     1
102
RTVSPropertyOp48
 70
     1
102
RTVSPropertyOp49
 70
     1
102
RTVSPropertyOp50
 70
     1
102
RTVSPropertyOp51
 70
     0
102
RTVSPropertyOp52
 70
     0
102
RTVSPropertyOp53
 70
     1
102
RTVSPropertyOp54
 70
     1
102
RTVSPropertyOp55
 70
     1
102
RTVSPropertyOp56
 70
     1
102
RTVSPropertyOp57
 70
     1
102
RTVSPost2010Prop28
280
     0
102
RTVSPost2010PropOp28
 70
     1
102
RTVSPost2010Prop29
280
     1
102
RTVSPost2010PropOp29
 70
     1
102
RTVSPost2010Prop30
280
     1
102
RTVSPost2010PropOp30
 70
     1
102
RTVSPost2010Prop31
280
     0
102
RTVSPost2010PropOp31
 70
     1
102
RTVSPost2010Prop32
280
     0
102
RTVSPost2010PropOp32
 70
     1
102
RTVSPost2010Prop33
280
     0
102
RTVSPost2010PropOp33
 70
     1
102
RTVSPost2010Prop34
280
     0
102
RTVSPost2010PropOp34
 70
     1
102
RTVSPost2010Prop35
280
     0
102
RTVSPost2010PropOp35
 70
     1
102
RTVSPost2010Prop36
280
     0
102
RTVSPost2010PropOp36
 70
     1
102
RTVSPost2010Prop37
 90
       50
102
RTVSPost2010PropOp37
 70
     1
102
RTVSPost2010Prop38
140
0.0
102
RTVSPost2010PropOp38
 70
     1
102
RTVSPost2010Prop39
140
1.0
102
RTVSPost2010PropOp39
 70
     1
102
RTVSPost2010Prop40
 90
        0
102
RTVSPost2010PropOp40
 70
     1
102
RTVSPost2010Prop41ColorIndex
 90
       18
102
RTVSPost2010Prop41ColorRGB
 90
        0
102
RTVSPost2010PropOp41
 70
     1
102
RTVSPost2010Prop42
 90
       50
102
RTVSPost2010PropOp42
 70
     1
102
RTVSPost2010Prop43
 90
        3
102
RTVSPost2010PropOp43
 70
     1
102
RTVSPost2010Prop44ColorIndex
 90
        5
102
RTVSPost2010Prop44ColorRGB
 90
      255
102
RTVSPost2010PropOp44
 70
     1
102
RTVSPost2010Prop45
280
     0
102
RTVSPost2010PropOp45
 70
     1
102
RTVSPost2010Prop46
 90
       50
102
RTVSPost2010PropOp46
 70
     1
102
RTVSPost2010Prop47
 90
       50
102
RTVSPost2010PropOp47
 70
     1
102
RTVSPost2010Prop48
 90
       50
102
RTVSPost2010PropOp48
 70
     1
102
RTVSPost2010Prop49
280
     0
102
RTVSPost2010PropOp49
 70
     1
102
RTVSPost2010Prop50
 90
       50
102
RTVSPost2010PropOp50
 70
     1
102
RTVSPost2010Prop51ColorIndex
 90
      256
102
RTVSPost2010Prop51ColorRGB
 90
-16777216
102
RTVSPost2010PropOp51
 70
     0
102
RTVSPost2010Prop52
140
1.0
102
RTVSPost2010PropOp52
 70
     0
102
RTVSPost2010Prop53
 90
        2
102
RTVSPost2010PropOp53
 70
     1
102
RTVSPost2010Prop54
  1
strokes_ogs.tif
102
RTVSPost2010PropOp54
 70
     1
102
RTVSPost2010Prop55
280
     0
102
RTVSPost2010PropOp55
 70
     1
102
RTVSPost2010Prop56
140
1.0
102
RTVSPost2010PropOp56
 70
     1
102
RTVSPost2010Prop57
140
1.0
102
RTVSPost2010PropOp57
 70
     1
  0
XRECORD
  5
B4
102
{ACAD_REACTORS
330
B3
102
}
330
B3
100
AcDbXrecord
280
     1
102
RTVSPropertyOp0
 70
     0
102
RTVSPropertyOp1
 70
     0
102
RTVSPropertyOp2
 70
     0
102
RTVSPropertyOp3
 70
     0
102
RTVSPropertyOp4
 70
     0
102
RTVSPropertyOp5
 70
     0
102
RTVSPropertyOp6
 70
     0
102
RTVSPropertyOp7
 70
     0
102
RTVSPropertyOp8
 70
     0
102
RTVSPropertyOp9
 70
     0
102
RTVSPropertyOp10
 70
     0
102
RTVSPropertyOp11
 70
     0
102
RTVSPropertyOp12
 70
     0
102
RTVSPropertyOp13
 70
     0
102
RTVSPropertyOp14
 70
     2
102
RTVSPropertyOp15
 70
     0
102
RTVSPropertyOp16
 70
     0
102
RTVSPropertyOp17
 70
     0
102
RTVSPropertyOp18
 70
     0
102
RTVSPropertyOp19
 70
     0
102
RTVSPropertyOp20
 70
     0
102
RTVSPropertyOp21
 70
     0
102
RTVSPropertyOp22
 70
     0
102
RTVSPropertyOp23
 70
     0
102
RTVSPropertyOp24
 70
     0
102
RTVSPropertyOp25
 70
     0
102
RTVSPropertyOp26
 70
     0
102
RTVSPropertyOp27
 70
     0
102
RTVSPropertyOp28
 70
     0
102
RTVSPropertyOp29
 70
     0
102
RTVSPropertyOp30
 70
     0
102
RTVSPropertyOp31
 70
     0
102
RTVSPropertyOp32
 70
     0
102
RTVSPropertyOp33
 70
     0
102
RTVSPropertyOp34
 70
     0
102
RTVSPropertyOp35
 70
     0
102
RTVSPropertyOp36
 70
     0
102
RTVSPropertyOp37
 70
     0
102
RTVSPropertyOp38
 70
     0
102
RTVSPropertyOp39
 70
     0
102
RTVSPropertyOp40
 70
     0
102
RTVSPropertyOp41
 70
     0
102
RTVSPropertyOp42
 70
     0
102
RTVSPropertyOp43
 70
     0
102
RTVSPropertyOp44
 70
     0
102
RTVSPropertyOp45
 70
     0
102
RTVSPropertyOp46
 70
     0
102
RTVSPropertyOp47
 70
     0
102
RTVSPropertyOp48
 70
     0
102
RTVSPropertyOp49
 70
     0
102
RTVSPropertyOp50
 70
     0
102
RTVSPropertyOp51
 70
     0
102
RTVSPropertyOp52
 70
     0
102
RTVSPropertyOp53
 70
     0
102
RTVSPropertyOp54
 70
     0
102
RTVSPropertyOp55
 70
     0
102
RTVSPropertyOp56
 70
     0
102
RTVSPropertyOp57
 70
     0
102
RTVSPost2010Prop28
280
     0
102
RTVSPost2010PropOp28
 70
     0
102
RTVSPost2010Prop29
280
     1
102
RTVSPost2010PropOp29
 70
     0
102
RTVSPost2010Prop30
280
     1
102
RTVSPost2010PropOp30
 70
     0
102
RTVSPost2010Prop31
280
     0
102
RTVSPost2010PropOp31
 70
     0
102
RTVSPost2010Prop32
280
     0
102
RTVSPost2010PropOp32
 70
     0
102
RTVSPost2010Prop33
280
     0
102
RTVSPost2010PropOp33
 70
     0
102
RTVSPost2010Prop34
280
     0
102
RTVSPost2010PropOp34
 70
     0
102
RTVSPost2010Prop35
280
     0
102
RTVSPost2010PropOp35
 70
     0
102
RTVSPost2010Prop36
280
     0
102
RTVSPost2010PropOp36
 70
     0
102
RTVSPost2010Prop37
 90
       50
102
RTVSPost2010PropOp37
 70
     0
102
RTVSPost2010Prop38
140
0.0
102
RTVSPost2010PropOp38
 70
     0
102
RTVSPost2010Prop39
140
1.0
102
RTVSPost2010PropOp39
 70
     0
102
RTVSPost2010Prop40
 90
        0
102
RTVSPost2010PropOp40
 70
     0
102
RTVSPost2010Prop41ColorIndex
 90
       18
102
RTVSPost2010Prop41ColorRGB
 90
        0
102
RTVSPost2010PropOp41
 70
     0
102
RTVSPost2010Prop42
 90
       50
102
RTVSPost2010PropOp42
 70
     0
102
RTVSPost2010Prop43
 90
        3
102
RTVSPost2010PropOp43
 70
     0
102
RTVSPost2010Prop44ColorIndex
 90
        5
102
RTVSPost2010Prop44ColorRGB
 90
      255
102
RTVSPost2010PropOp44
 70
     0
102
RTVSPost2010Prop45
280
     0
102
RTVSPost2010PropOp45
 70
     0
102
RTVSPost2010Prop46
 90
       50
102
RTVSPost2010PropOp46
 70
     0
102
RTVSPost2010Prop47
 90
       50
102
RTVSPost2010PropOp47
 70
     0
102
RTVSPost2010Prop48
 90
       50
102
RTVSPost2010PropOp48
 70
     0
102
RTVSPost2010Prop49
280
     0
102
RTVSPost2010PropOp49
 70
     0
102
RTVSPost2010Prop50
 90
       50
102
RTVSPost2010PropOp50
 70
     0
102
RTVSPost2010Prop51ColorIndex
 90
      256
102
RTVSPost2010Prop51ColorRGB
 90
-16777216
102
RTVSPost2010PropOp51
 70
     0
102
RTVSPost2010Prop52
140
1.0
102
RTVSPost2010PropOp52
 70
     0
102
RTVSPost2010Prop53
 90
        2
102
RTVSPost2010PropOp53
 70
     0
102
RTVSPost2010Prop54
  1
strokes_ogs.tif
102
RTVSPost2010PropOp54
 70
     0
102
RTVSPost2010Prop55
280
     0
102
RTVSPost2010PropOp55
 70
     0
102
RTVSPost2010Prop56
140
1.0
102
RTVSPost2010PropOp56
 70
     0
102
RTVSPost2010Prop57
140
1.0
102
RTVSPost2010PropOp57
 70
     0
  0
XRECORD
  5
AE
102
{ACAD_REACTORS
330
AD
102
}
330
AD
100
AcDbXrecord
280
     1
102
RTVSPropertyOp0
 70
     1
102
RTVSPropertyOp1
 70
     1
102
RTVSPropertyOp2
 70
     1
102
RTVSPropertyOp3
 70
     1
102
RTVSPropertyOp4
 70
     1
102
RTVSPropertyOp5
 70
     1
102
RTVSPropertyOp6
 70
     1
102
RTVSPropertyOp7
 70
     1
102
RTVSPropertyOp8
 70
     1
102
RTVSPropertyOp9
 70
     1
102
RTVSPropertyOp10
 70
     1
102
RTVSPropertyOp11
 70
     1
102
RTVSPropertyOp12
 70
     1
102
RTVSPropertyOp13
 70
     1
102
RTVSPropertyOp14
 70
     1
102
RTVSPropertyOp15
 70
     1
102
RTVSPropertyOp16
 70
     1
102
RTVSPropertyOp17
 70
     1
102
RTVSPropertyOp18
 70
     1
102
RTVSPropertyOp19
 70
     1
102
RTVSPropertyOp20
 70
     1
102
RTVSPropertyOp21
 70
     1
102
RTVSPropertyOp22
 70
     1
102
RTVSPropertyOp23
 70
     1
102
RTVSPropertyOp24
 70
     1
102
RTVSPropertyOp25
 70
     1
102
RTVSPropertyOp26
 70
     1
102
RTVSPropertyOp27
 70
     1
102
RTVSPropertyOp28
 70
     1
102
RTVSPropertyOp29
 70
     1
102
RTVSPropertyOp30
 70
     1
102
RTVSPropertyOp31
 70
     1
102
RTVSPropertyOp32
 70
     1
102
RTVSPropertyOp33
 70
     1
102
RTVSPropertyOp34
 70
     1
102
RTVSPropertyOp35
 70
     1
102
RTVSPropertyOp36
 70
     1
102
RTVSPropertyOp37
 70
     1
102
RTVSPropertyOp38
 70
     1
102
RTVSPropertyOp39
 70
     1
102
RTVSPropertyOp40
 70
     1
102
RTVSPropertyOp41
 70
     1
102
RTVSPropertyOp42
 70
     1
102
RTVSPropertyOp43
 70
     1
102
RTVSPropertyOp44
 70
     1
102
RTVSPropertyOp45
 70
     1
102
RTVSPropertyOp46
 70
     1
102
RTVSPropertyOp47
 70
     1
102
RTVSPropertyOp48
 70
     1
102
RTVSPropertyOp49
 70
     1
102
RTVSPropertyOp50
 70
     1
102
RTVSPropertyOp51
 70
     0
102
RTVSPropertyOp52
 70
     0
102
RTVSPropertyOp53
 70
     1
102
RTVSPropertyOp54
 70
     1
102
RTVSPropertyOp55
 70
     1
102
RTVSPropertyOp56
 70
     1
102
RTVSPropertyOp57
 70
     1
102
RTVSPost2010Prop28
280
     0
102
RTVSPost2010PropOp28
 70
     1
102
RTVSPost2010Prop29
280
     1
102
RTVSPost2010PropOp29
 70
     1
102
RTVSPost2010Prop30
280
     1
102
RTVSPost2010PropOp30
 70
     1
102
RTVSPost2010Prop31
280
     0
102
RTVSPost2010PropOp31
 70
     1
102
RTVSPost2010Prop32
280
     0
102
RTVSPost2010PropOp32
 70
     1
102
RTVSPost2010Prop33
280
     0
102
RTVSPost2010PropOp33
 70
     1
102
RTVSPost2010Prop34
280
     0
102
RTVSPost2010PropOp34
 70
     1
102
RTVSPost2010Prop35
280
     0
102
RTVSPost2010PropOp35
 70
     1
102
RTVSPost2010Prop36
280
     0
102
RTVSPost2010PropOp36
 70
     1
102
RTVSPost2010Prop37
 90
       50
102
RTVSPost2010PropOp37
 70
     1
102
RTVSPost2010Prop38
140
0.0
102
RTVSPost2010PropOp38
 70
     1
102
RTVSPost2010Prop39
140
1.0
102
RTVSPost2010PropOp39
 70
     1
102
RTVSPost2010Prop40
 90
        0
102
RTVSPost2010PropOp40
 70
     1
102
RTVSPost2010Prop41ColorIndex
 90
       18
102
RTVSPost2010Prop41ColorRGB
 90
        0
102
RTVSPost2010PropOp41
 70
     1
102
RTVSPost2010Prop42
 90
       50
102
RTVSPost2010PropOp42
 70
     1
102
RTVSPost2010Prop43
 90
        3
102
RTVSPost2010PropOp43
 70
     1
102
RTVSPost2010Prop44ColorIndex
 90
        5
102
RTVSPost2010Prop44ColorRGB
 90
      255
102
RTVSPost2010PropOp44
 70
     1
102
RTVSPost2010Prop45
280
     0
102
RTVSPost2010PropOp45
 70
     1
102
RTVSPost2010Prop46
 90
       50
102
RTVSPost2010PropOp46
 70
     1
102
RTVSPost2010Prop47
 90
       50
102
RTVSPost2010PropOp47
 70
     1
102
RTVSPost2010Prop48
 90
       50
102
RTVSPost2010PropOp48
 70
     1
102
RTVSPost2010Prop49
280
     0
102
RTVSPost2010PropOp49
 70
     1
102
RTVSPost2010Prop50
 90
       50
102
RTVSPost2010PropOp50
 70
     1
102
RTVSPost2010Prop51ColorIndex
 90
      256
102
RTVSPost2010Prop51ColorRGB
 90
-16777216
102
RTVSPost2010PropOp51
 70
     0
102
RTVSPost2010Prop52
140
1.0
102
RTVSPost2010PropOp52
 70
     0
102
RTVSPost2010Prop53
 90
        2
102
RTVSPost2010PropOp53
 70
     1
102
RTVSPost2010Prop54
  1
strokes_ogs.tif
102
RTVSPost2010PropOp54
 70
     1
102
RTVSPost2010Prop55
280
     0
102
RTVSPost2010PropOp55
 70
     1
102
RTVSPost2010Prop56
140
1.0
102
RTVSPost2010PropOp56
 70
     1
102
RTVSPost2010Prop57
140
1.0
102
RTVSPost2010PropOp57
 70
     1
  0
XRECORD
  5
B6
102
{ACAD_REACTORS
330
B5
102
}
330
B5
100
AcDbXrecord
280
     1
102
RTVSPropertyOp0
 70
     0
102
RTVSPropertyOp1
 70
     0
102
RTVSPropertyOp2
 70
     0
102
RTVSPropertyOp3
 70
     0
102
RTVSPropertyOp4
 70
     0
102
RTVSPropertyOp5
 70
     0
102
RTVSPropertyOp6
 70
     0
102
RTVSPropertyOp7
 70
     0
102
RTVSPropertyOp8
 70
     0
102
RTVSPropertyOp9
 70
     0
102
RTVSPropertyOp10
 70
     0
102
RTVSPropertyOp11
 70
     0
102
RTVSPropertyOp12
 70
     0
102
RTVSPropertyOp13
 70
     0
102
RTVSPropertyOp14
 70
     2
102
RTVSPropertyOp15
 70
     0
102
RTVSPropertyOp16
 70
     0
102
RTVSPropertyOp17
 70
     0
102
RTVSPropertyOp18
 70
     0
102
RTVSPropertyOp19
 70
     0
102
RTVSPropertyOp20
 70
     0
102
RTVSPropertyOp21
 70
     0
102
RTVSPropertyOp22
 70
     0
102
RTVSPropertyOp23
 70
     0
102
RTVSPropertyOp24
 70
     0
102
RTVSPropertyOp25
 70
     0
102
RTVSPropertyOp26
 70
     0
102
RTVSPropertyOp27
 70
     0
102
RTVSPropertyOp28
 70
     0
102
RTVSPropertyOp29
 70
     0
102
RTVSPropertyOp30
 70
     0
102
RTVSPropertyOp31
 70
     0
102
RTVSPropertyOp32
 70
     0
102
RTVSPropertyOp33
 70
     0
102
RTVSPropertyOp34
 70
     0
102
RTVSPropertyOp35
 70
     0
102
RTVSPropertyOp36
 70
     0
102
RTVSPropertyOp37
 70
     0
102
RTVSPropertyOp38
 70
     0
102
RTVSPropertyOp39
 70
     0
102
RTVSPropertyOp40
 70
     0
102
RTVSPropertyOp41
 70
     0
102
RTVSPropertyOp42
 70
     0
102
RTVSPropertyOp43
 70
     0
102
RTVSPropertyOp44
 70
     0
102
RTVSPropertyOp45
 70
     0
102
RTVSPropertyOp46
 70
     0
102
RTVSPropertyOp47
 70
     0
102
RTVSPropertyOp48
 70
     0
102
RTVSPropertyOp49
 70
     0
102
RTVSPropertyOp50
 70
     0
102
RTVSPropertyOp51
 70
     0
102
RTVSPropertyOp52
 70
     0
102
RTVSPropertyOp53
 70
     0
102
RTVSPropertyOp54
 70
     0
102
RTVSPropertyOp55
 70
     0
102
RTVSPropertyOp56
 70
     0
102
RTVSPropertyOp57
 70
     0
102
RTVSPost2010Prop28
280
     0
102
RTVSPost2010PropOp28
 70
     0
102
RTVSPost2010Prop29
280
     1
102
RTVSPost2010PropOp29
 70
     0
102
RTVSPost2010Prop30
280
     1
102
RTVSPost2010PropOp30
 70
     0
102
RTVSPost2010Prop31
280
     0
102
RTVSPost2010PropOp31
 70
     0
102
RTVSPost2010Prop32
280
     0
102
RTVSPost2010PropOp32
 70
     0
102
RTVSPost2010Prop33
280
     0
102
RTVSPost2010PropOp33
 70
     0
102
RTVSPost2010Prop34
280
     0
102
RTVSPost2010PropOp34
 70
     0
102
RTVSPost2010Prop35
280
     0
102
RTVSPost2010PropOp35
 70
     0
102
RTVSPost2010Prop36
280
     0
102
RTVSPost2010PropOp36
 70
     0
102
RTVSPost2010Prop37
 90
       50
102
RTVSPost2010PropOp37
 70
     0
102
RTVSPost2010Prop38
140
0.0
102
RTVSPost2010PropOp38
 70
     0
102
RTVSPost2010Prop39
140
1.0
102
RTVSPost2010PropOp39
 70
     0
102
RTVSPost2010Prop40
 90
        0
102
RTVSPost2010PropOp40
 70
     0
102
RTVSPost2010Prop41ColorIndex
 90
       18
102
RTVSPost2010Prop41ColorRGB
 90
        0
102
RTVSPost2010PropOp41
 70
     0
102
RTVSPost2010Prop42
 90
       50
102
RTVSPost2010PropOp42
 70
     0
102
RTVSPost2010Prop43
 90
        3
102
RTVSPost2010PropOp43
 70
     0
102
RTVSPost2010Prop44ColorIndex
 90
        5
102
RTVSPost2010Prop44ColorRGB
 90
      255
102
RTVSPost2010PropOp44
 70
     0
102
RTVSPost2010Prop45
280
     0
102
RTVSPost2010PropOp45
 70
     0
102
RTVSPost2010Prop46
 90
       50
102
RTVSPost2010PropOp46
 70
     0
102
RTVSPost2010Prop47
 90
       50
102
RTVSPost2010PropOp47
 70
     0
102
RTVSPost2010Prop48
 90
       50
102
RTVSPost2010PropOp48
 70
     0
102
RTVSPost2010Prop49
280
     0
102
RTVSPost2010PropOp49
 70
     0
102
RTVSPost2010Prop50
 90
       50
102
RTVSPost2010PropOp50
 70
     0
102
RTVSPost2010Prop51ColorIndex
 90
      256
102
RTVSPost2010Prop51ColorRGB
 90
-16777216
102
RTVSPost2010PropOp51
 70
     0
102
RTVSPost2010Prop52
140
1.0
102
RTVSPost2010PropOp52
 70
     0
102
RTVSPost2010Prop53
 90
        2
102
RTVSPost2010PropOp53
 70
     0
102
RTVSPost2010Prop54
  1
strokes_ogs.tif
102
RTVSPost2010PropOp54
 70
     0
102
RTVSPost2010Prop55
280
     0
102
RTVSPost2010PropOp55
 70
     0
102
RTVSPost2010Prop56
140
1.0
102
RTVSPost2010PropOp56
 70
     0
102
RTVSPost2010Prop57
140
1.0
102
RTVSPost2010PropOp57
 70
     0
  0
XRECORD
  5
A4
102
{ACAD_REACTORS
330
A3
102
}
330
A3
100
AcDbXrecord
280
     1
102
RTVSPropertyOp0
 70
     1
102
RTVSPropertyOp1
 70
     1
102
RTVSPropertyOp2
 70
     1
102
RTVSPropertyOp3
 70
     1
102
RTVSPropertyOp4
 70
     1
102
RTVSPropertyOp5
 70
     1
102
RTVSPropertyOp6
 70
     1
102
RTVSPropertyOp7
 70
     1
102
RTVSPropertyOp8
 70
     1
102
RTVSPropertyOp9
 70
     1
102
RTVSPropertyOp10
 70
     1
102
RTVSPropertyOp11
 70
     1
102
RTVSPropertyOp12
 70
     1
102
RTVSPropertyOp13
 70
     1
102
RTVSPropertyOp14
 70
     1
102
RTVSPropertyOp15
 70
     1
102
RTVSPropertyOp16
 70
     1
102
RTVSPropertyOp17
 70
     1
102
RTVSPropertyOp18
 70
     1
102
RTVSPropertyOp19
 70
     1
102
RTVSPropertyOp20
 70
     1
102
RTVSPropertyOp21
 70
     1
102
RTVSPropertyOp22
 70
     1
102
RTVSPropertyOp23
 70
     1
102
RTVSPropertyOp24
 70
     1
102
RTVSPropertyOp25
 70
     1
102
RTVSPropertyOp26
 70
     1
102
RTVSPropertyOp27
 70
     1
102
RTVSPropertyOp28
 70
     1
102
RTVSPropertyOp29
 70
     1
102
RTVSPropertyOp30
 70
     1
102
RTVSPropertyOp31
 70
     1
102
RTVSPropertyOp32
 70
     1
102
RTVSPropertyOp33
 70
     1
102
RTVSPropertyOp34
 70
     1
102
RTVSPropertyOp35
 70
     1
102
RTVSPropertyOp36
 70
     1
102
RTVSPropertyOp37
 70
     1
102
RTVSPropertyOp38
 70
     1
102
RTVSPropertyOp39
 70
     1
102
RTVSPropertyOp40
 70
     1
102
RTVSPropertyOp41
 70
     1
102
RTVSPropertyOp42
 70
     1
102
RTVSPropertyOp43
 70
     1
102
RTVSPropertyOp44
 70
     1
102
RTVSPropertyOp45
 70
     1
102
RTVSPropertyOp46
 70
     1
102
RTVSPropertyOp47
 70
     1
102
RTVSPropertyOp48
 70
     1
102
RTVSPropertyOp49
 70
     1
102
RTVSPropertyOp50
 70
     1
102
RTVSPropertyOp51
 70
     0
102
RTVSPropertyOp52
 70
     0
102
RTVSPropertyOp53
 70
     1
102
RTVSPropertyOp54
 70
     1
102
RTVSPropertyOp55
 70
     1
102
RTVSPropertyOp56
 70
     1
102
RTVSPropertyOp57
 70
     1
102
RTVSPost2010Prop28
280
     0
102
RTVSPost2010PropOp28
 70
     1
102
RTVSPost2010Prop29
280
     1
102
RTVSPost2010PropOp29
 70
     1
102
RTVSPost2010Prop30
280
     1
102
RTVSPost2010PropOp30
 70
     1
102
RTVSPost2010Prop31
280
     0
102
RTVSPost2010PropOp31
 70
     1
102
RTVSPost2010Prop32
280
     0
102
RTVSPost2010PropOp32
 70
     1
102
RTVSPost2010Prop33
280
     0
102
RTVSPost2010PropOp33
 70
     1
102
RTVSPost2010Prop34
280
     0
102
RTVSPost2010PropOp34
 70
     1
102
RTVSPost2010Prop35
280
     0
102
RTVSPost2010PropOp35
 70
     1
102
RTVSPost2010Prop36
280
     0
102
RTVSPost2010PropOp36
 70
     1
102
RTVSPost2010Prop37
 90
       50
102
RTVSPost2010PropOp37
 70
     1
102
RTVSPost2010Prop38
140
0.0
102
RTVSPost2010PropOp38
 70
     1
102
RTVSPost2010Prop39
140
1.0
102
RTVSPost2010PropOp39
 70
     1
102
RTVSPost2010Prop40
 90
        0
102
RTVSPost2010PropOp40
 70
     1
102
RTVSPost2010Prop41ColorIndex
 90
       18
102
RTVSPost2010Prop41ColorRGB
 90
        0
102
RTVSPost2010PropOp41
 70
     1
102
RTVSPost2010Prop42
 90
       50
102
RTVSPost2010PropOp42
 70
     1
102
RTVSPost2010Prop43
 90
        3
102
RTVSPost2010PropOp43
 70
     1
102
RTVSPost2010Prop44ColorIndex
 90
        5
102
RTVSPost2010Prop44ColorRGB
 90
      255
102
RTVSPost2010PropOp44
 70
     1
102
RTVSPost2010Prop45
280
     0
102
RTVSPost2010PropOp45
 70
     1
102
RTVSPost2010Prop46
 90
       50
102
RTVSPost2010PropOp46
 70
     1
102
RTVSPost2010Prop47
 90
       50
102
RTVSPost2010PropOp47
 70
     1
102
RTVSPost2010Prop48
 90
       50
102
RTVSPost2010PropOp48
 70
     1
102
RTVSPost2010Prop49
280
     0
102
RTVSPost2010PropOp49
 70
     1
102
RTVSPost2010Prop50
 90
       50
102
RTVSPost2010PropOp50
 70
     1
102
RTVSPost2010Prop51ColorIndex
 90
      256
102
RTVSPost2010Prop51ColorRGB
 90
-16777216
102
RTVSPost2010PropOp51
 70
     0
102
RTVSPost2010Prop52
140
1.0
102
RTVSPost2010PropOp52
 70
     0
102
RTVSPost2010Prop53
 90
        2
102
RTVSPost2010PropOp53
 70
     1
102
RTVSPost2010Prop54
  1
strokes_ogs.tif
102
RTVSPost2010PropOp54
 70
     1
102
RTVSPost2010Prop55
280
     0
102
RTVSPost2010PropOp55
 70
     1
102
RTVSPost2010Prop56
140
1.0
102
RTVSPost2010PropOp56
 70
     1
102
RTVSPost2010Prop57
140
1.0
102
RTVSPost2010PropOp57
 70
     1
  0
XRECORD
  5
C2
102
{ACAD_REACTORS
330
C1
102
}
330
C1
100
AcDbXrecord
280
     1
102
RTVSPropertyOp0
 70
     1
102
RTVSPropertyOp1
 70
     1
102
RTVSPropertyOp2
 70
     1
102
RTVSPropertyOp3
 70
     1
102
RTVSPropertyOp4
 70
     1
102
RTVSPropertyOp5
 70
     1
102
RTVSPropertyOp6
 70
     1
102
RTVSPropertyOp7
 70
     1
102
RTVSPropertyOp8
 70
     1
102
RTVSPropertyOp9
 70
     1
102
RTVSPropertyOp10
 70
     1
102
RTVSPropertyOp11
 70
     1
102
RTVSPropertyOp12
 70
     1
102
RTVSPropertyOp13
 70
     1
102
RTVSPropertyOp14
 70
     1
102
RTVSPropertyOp15
 70
     1
102
RTVSPropertyOp16
 70
     1
102
RTVSPropertyOp17
 70
     1
102
RTVSPropertyOp18
 70
     1
102
RTVSPropertyOp19
 70
     1
102
RTVSPropertyOp20
 70
     1
102
RTVSPropertyOp21
 70
     1
102
RTVSPropertyOp22
 70
     1
102
RTVSPropertyOp23
 70
     1
102
RTVSPropertyOp24
 70
     1
102
RTVSPropertyOp25
 70
     1
102
RTVSPropertyOp26
 70
     1
102
RTVSPropertyOp27
 70
     1
102
RTVSPropertyOp28
 70
     1
102
RTVSPropertyOp29
 70
     1
102
RTVSPropertyOp30
 70
     1
102
RTVSPropertyOp31
 70
     1
102
RTVSPropertyOp32
 70
     1
102
RTVSPropertyOp33
 70
     1
102
RTVSPropertyOp34
 70
     1
102
RTVSPropertyOp35
 70
     1
102
RTVSPropertyOp36
 70
     1
102
RTVSPropertyOp37
 70
     1
102
RTVSPropertyOp38
 70
     1
102
RTVSPropertyOp39
 70
     1
102
RTVSPropertyOp40
 70
     1
102
RTVSPropertyOp41
 70
     1
102
RTVSPropertyOp42
 70
     1
102
RTVSPropertyOp43
 70
     1
102
RTVSPropertyOp44
 70
     1
102
RTVSPropertyOp45
 70
     1
102
RTVSPropertyOp46
 70
     1
102
RTVSPropertyOp47
 70
     1
102
RTVSPropertyOp48
 70
     1
102
RTVSPropertyOp49
 70
     1
102
RTVSPropertyOp50
 70
     1
102
RTVSPropertyOp51
 70
     0
102
RTVSPropertyOp52
 70
     0
102
RTVSPropertyOp53
 70
     1
102
RTVSPropertyOp54
 70
     1
102
RTVSPropertyOp55
 70
     1
102
RTVSPropertyOp56
 70
     1
102
RTVSPropertyOp57
 70
     1
102
RTVSPost2010Prop28
280
     0
102
RTVSPost2010PropOp28
 70
     1
102
RTVSPost2010Prop29
280
     1
102
RTVSPost2010PropOp29
 70
     1
102
RTVSPost2010Prop30
280
     1
102
RTVSPost2010PropOp30
 70
     1
102
RTVSPost2010Prop31
280
     0
102
RTVSPost2010PropOp31
 70
     1
102
RTVSPost2010Prop32
280
     0
102
RTVSPost2010PropOp32
 70
     1
102
RTVSPost2010Prop33
280
     0
102
RTVSPost2010PropOp33
 70
     1
102
RTVSPost2010Prop34
280
     0
102
RTVSPost2010PropOp34
 70
     1
102
RTVSPost2010Prop35
280
     0
102
RTVSPost2010PropOp35
 70
     1
102
RTVSPost2010Prop36
280
     0
102
RTVSPost2010PropOp36
 70
     1
102
RTVSPost2010Prop37
 90
       50
102
RTVSPost2010PropOp37
 70
     1
102
RTVSPost2010Prop38
140
0.0
102
RTVSPost2010PropOp38
 70
     1
102
RTVSPost2010Prop39
140
1.0
102
RTVSPost2010PropOp39
 70
     1
102
RTVSPost2010Prop40
 90
        0
102
RTVSPost2010PropOp40
 70
     1
102
RTVSPost2010Prop41ColorIndex
 90
       18
102
RTVSPost2010Prop41ColorRGB
 90
        0
102
RTVSPost2010PropOp41
 70
     1
102
RTVSPost2010Prop42
 90
       50
102
RTVSPost2010PropOp42
 70
     1
102
RTVSPost2010Prop43
 90
        3
102
RTVSPost2010PropOp43
 70
     1
102
RTVSPost2010Prop44ColorIndex
 90
        5
102
RTVSPost2010Prop44ColorRGB
 90
      255
102
RTVSPost2010PropOp44
 70
     1
102
RTVSPost2010Prop45
280
     0
102
RTVSPost2010PropOp45
 70
     1
102
RTVSPost2010Prop46
 90
       50
102
RTVSPost2010PropOp46
 70
     1
102
RTVSPost2010Prop47
 90
       50
102
RTVSPost2010PropOp47
 70
     1
102
RTVSPost2010Prop48
 90
       50
102
RTVSPost2010PropOp48
 70
     1
102
RTVSPost2010Prop49
280
     0
102
RTVSPost2010PropOp49
 70
     1
102
RTVSPost2010Prop50
 90
       50
102
RTVSPost2010PropOp50
 70
     1
102
RTVSPost2010Prop51ColorIndex
 90
      256
102
RTVSPost2010Prop51ColorRGB
 90
-16777216
102
RTVSPost2010PropOp51
 70
     0
102
RTVSPost2010Prop52
140
1.0
102
RTVSPost2010PropOp52
 70
     0
102
RTVSPost2010Prop53
 90
        2
102
RTVSPost2010PropOp53
 70
     1
102
RTVSPost2010Prop54
  1
strokes_ogs.tif
102
RTVSPost2010PropOp54
 70
     1
102
RTVSPost2010Prop55
280
     0
102
RTVSPost2010PropOp55
 70
     1
102
RTVSPost2010Prop56
140
1.0
102
RTVSPost2010PropOp56
 70
     1
102
RTVSPost2010Prop57
140
1.0
102
RTVSPost2010PropOp57
 70
     1
  0
XRECORD
  5
C0
102
{ACAD_REACTORS
330
BF
102
}
330
BF
100
AcDbXrecord
280
     1
102
RTVSPropertyOp0
 70
     1
102
RTVSPropertyOp1
 70
     1
102
RTVSPropertyOp2
 70
     1
102
RTVSPropertyOp3
 70
     1
102
RTVSPropertyOp4
 70
     1
102
RTVSPropertyOp5
 70
     1
102
RTVSPropertyOp6
 70
     1
102
RTVSPropertyOp7
 70
     1
102
RTVSPropertyOp8
 70
     1
102
RTVSPropertyOp9
 70
     1
102
RTVSPropertyOp10
 70
     1
102
RTVSPropertyOp11
 70
     1
102
RTVSPropertyOp12
 70
     1
102
RTVSPropertyOp13
 70
     1
102
RTVSPropertyOp14
 70
     1
102
RTVSPropertyOp15
 70
     1
102
RTVSPropertyOp16
 70
     1
102
RTVSPropertyOp17
 70
     1
102
RTVSPropertyOp18
 70
     1
102
RTVSPropertyOp19
 70
     1
102
RTVSPropertyOp20
 70
     1
102
RTVSPropertyOp21
 70
     1
102
RTVSPropertyOp22
 70
     1
102
RTVSPropertyOp23
 70
     1
102
RTVSPropertyOp24
 70
     1
102
RTVSPropertyOp25
 70
     1
102
RTVSPropertyOp26
 70
     1
102
RTVSPropertyOp27
 70
     1
102
RTVSPropertyOp28
 70
     1
102
RTVSPropertyOp29
 70
     1
102
RTVSPropertyOp30
 70
     1
102
RTVSPropertyOp31
 70
     1
102
RTVSPropertyOp32
 70
     1
102
RTVSPropertyOp33
 70
     1
102
RTVSPropertyOp34
 70
     1
102
RTVSPropertyOp35
 70
     1
102
RTVSPropertyOp36
 70
     1
102
RTVSPropertyOp37
 70
     1
102
RTVSPropertyOp38
 70
     1
102
RTVSPropertyOp39
 70
     1
102
RTVSPropertyOp40
 70
     1
102
RTVSPropertyOp41
 70
     1
102
RTVSPropertyOp42
 70
     1
102
RTVSPropertyOp43
 70
     1
102
RTVSPropertyOp44
 70
     1
102
RTVSPropertyOp45
 70
     1
102
RTVSPropertyOp46
 70
     1
102
RTVSPropertyOp47
 70
     1
102
RTVSPropertyOp48
 70
     1
102
RTVSPropertyOp49
 70
     1
102
RTVSPropertyOp50
 70
     1
102
RTVSPropertyOp51
 70
     0
102
RTVSPropertyOp52
 70
     0
102
RTVSPropertyOp53
 70
     1
102
RTVSPropertyOp54
 70
     1
102
RTVSPropertyOp55
 70
     1
102
RTVSPropertyOp56
 70
     1
102
RTVSPropertyOp57
 70
     1
102
RTVSPost2010Prop28
280
     0
102
RTVSPost2010PropOp28
 70
     1
102
RTVSPost2010Prop29
280
     1
102
RTVSPost2010PropOp29
 70
     1
102
RTVSPost2010Prop30
280
     1
102
RTVSPost2010PropOp30
 70
     1
102
RTVSPost2010Prop31
280
     0
102
RTVSPost2010PropOp31
 70
     1
102
RTVSPost2010Prop32
280
     0
102
RTVSPost2010PropOp32
 70
     1
102
RTVSPost2010Prop33
280
     0
102
RTVSPost2010PropOp33
 70
     1
102
RTVSPost2010Prop34
280
     0
102
RTVSPost2010PropOp34
 70
     1
102
RTVSPost2010Prop35
280
     0
102
RTVSPost2010PropOp35
 70
     1
102
RTVSPost2010Prop36
280
     0
102
RTVSPost2010PropOp36
 70
     1
102
RTVSPost2010Prop37
 90
       50
102
RTVSPost2010PropOp37
 70
     1
102
RTVSPost2010Prop38
140
0.0
102
RTVSPost2010PropOp38
 70
     1
102
RTVSPost2010Prop39
140
1.0
102
RTVSPost2010PropOp39
 70
     1
102
RTVSPost2010Prop40
 90
        0
102
RTVSPost2010PropOp40
 70
     1
102
RTVSPost2010Prop41ColorIndex
 90
       18
102
RTVSPost2010Prop41ColorRGB
 90
        0
102
RTVSPost2010PropOp41
 70
     1
102
RTVSPost2010Prop42
 90
       50
102
RTVSPost2010PropOp42
 70
     1
102
RTVSPost2010Prop43
 90
        3
102
RTVSPost2010PropOp43
 70
     1
102
RTVSPost2010Prop44ColorIndex
 90
        5
102
RTVSPost2010Prop44ColorRGB
 90
      255
102
RTVSPost2010PropOp44
 70
     1
102
RTVSPost2010Prop45
280
     0
102
RTVSPost2010PropOp45
 70
     1
102
RTVSPost2010Prop46
 90
       50
102
RTVSPost2010PropOp46
 70
     1
102
RTVSPost2010Prop47
 90
       50
102
RTVSPost2010PropOp47
 70
     1
102
RTVSPost2010Prop48
 90
       50
102
RTVSPost2010PropOp48
 70
     1
102
RTVSPost2010Prop49
280
     0
102
RTVSPost2010PropOp49
 70
     1
102
RTVSPost2010Prop50
 90
       50
102
RTVSPost2010PropOp50
 70
     1
102
RTVSPost2010Prop51ColorIndex
 90
      256
102
RTVSPost2010Prop51ColorRGB
 90
-16777216
102
RTVSPost2010PropOp51
 70
     0
102
RTVSPost2010Prop52
140
1.0
102
RTVSPost2010PropOp52
 70
     0
102
RTVSPost2010Prop53
 90
        2
102
RTVSPost2010PropOp53
 70
     1
102
RTVSPost2010Prop54
  1
strokes_ogs.tif
102
RTVSPost2010PropOp54
 70
     1
102
RTVSPost2010Prop55
280
     0
102
RTVSPost2010PropOp55
 70
     1
102
RTVSPost2010Prop56
140
1.0
102
RTVSPost2010PropOp56
 70
     1
102
RTVSPost2010Prop57
140
1.0
102
RTVSPost2010PropOp57
 70
     1
  0
XRECORD
  5
BA
102
{ACAD_REACTORS
330
B9
102
}
330
B9
100
AcDbXrecord
280
     1
102
RTVSPropertyOp0
 70
     1
102
RTVSPropertyOp1
 70
     1
102
RTVSPropertyOp2
 70
     1
102
RTVSPropertyOp3
 70
     1
102
RTVSPropertyOp4
 70
     1
102
RTVSPropertyOp5
 70
     1
102
RTVSPropertyOp6
 70
     1
102
RTVSPropertyOp7
 70
     1
102
RTVSPropertyOp8
 70
     1
102
RTVSPropertyOp9
 70
     1
102
RTVSPropertyOp10
 70
     1
102
RTVSPropertyOp11
 70
     1
102
RTVSPropertyOp12
 70
     1
102
RTVSPropertyOp13
 70
     1
102
RTVSPropertyOp14
 70
     1
102
RTVSPropertyOp15
 70
     1
102
RTVSPropertyOp16
 70
     1
102
RTVSPropertyOp17
 70
     1
102
RTVSPropertyOp18
 70
     1
102
RTVSPropertyOp19
 70
     1
102
RTVSPropertyOp20
 70
     1
102
RTVSPropertyOp21
 70
     1
102
RTVSPropertyOp22
 70
     1
102
RTVSPropertyOp23
 70
     1
102
RTVSPropertyOp24
 70
     1
102
RTVSPropertyOp25
 70
     1
102
RTVSPropertyOp26
 70
     1
102
RTVSPropertyOp27
 70
     1
102
RTVSPropertyOp28
 70
     1
102
RTVSPropertyOp29
 70
     1
102
RTVSPropertyOp30
 70
     1
102
RTVSPropertyOp31
 70
     1
102
RTVSPropertyOp32
 70
     1
102
RTVSPropertyOp33
 70
     1
102
RTVSPropertyOp34
 70
     1
102
RTVSPropertyOp35
 70
     1
102
RTVSPropertyOp36
 70
     1
102
RTVSPropertyOp37
 70
     1
102
RTVSPropertyOp38
 70
     1
102
RTVSPropertyOp39
 70
     1
102
RTVSPropertyOp40
 70
     1
102
RTVSPropertyOp41
 70
     1
102
RTVSPropertyOp42
 70
     1
102
RTVSPropertyOp43
 70
     1
102
RTVSPropertyOp44
 70
     1
102
RTVSPropertyOp45
 70
     1
102
RTVSPropertyOp46
 70
     1
102
RTVSPropertyOp47
 70
     1
102
RTVSPropertyOp48
 70
     1
102
RTVSPropertyOp49
 70
     1
102
RTVSPropertyOp50
 70
     1
102
RTVSPropertyOp51
 70
     0
102
RTVSPropertyOp52
 70
     0
102
RTVSPropertyOp53
 70
     1
102
RTVSPropertyOp54
 70
     1
102
RTVSPropertyOp55
 70
     1
102
RTVSPropertyOp56
 70
     1
102
RTVSPropertyOp57
 70
     1
102
RTVSPost2010Prop28
280
     0
102
RTVSPost2010PropOp28
 70
     1
102
RTVSPost2010Prop29
280
     1
102
RTVSPost2010PropOp29
 70
     1
102
RTVSPost2010Prop30
280
     1
102
RTVSPost2010PropOp30
 70
     1
102
RTVSPost2010Prop31
280
     0
102
RTVSPost2010PropOp31
 70
     1
102
RTVSPost2010Prop32
280
     0
102
RTVSPost2010PropOp32
 70
     1
102
RTVSPost2010Prop33
280
     0
102
RTVSPost2010PropOp33
 70
     1
102
RTVSPost2010Prop34
280
     0
102
RTVSPost2010PropOp34
 70
     1
102
RTVSPost2010Prop35
280
     0
102
RTVSPost2010PropOp35
 70
     1
102
RTVSPost2010Prop36
280
     0
102
RTVSPost2010PropOp36
 70
     1
102
RTVSPost2010Prop37
 90
       50
102
RTVSPost2010PropOp37
 70
     1
102
RTVSPost2010Prop38
140
0.0
102
RTVSPost2010PropOp38
 70
     1
102
RTVSPost2010Prop39
140
1.0
102
RTVSPost2010PropOp39
 70
     1
102
RTVSPost2010Prop40
 90
        0
102
RTVSPost2010PropOp40
 70
     1
102
RTVSPost2010Prop41ColorIndex
 90
       18
102
RTVSPost2010Prop41ColorRGB
 90
        0
102
RTVSPost2010PropOp41
 70
     1
102
RTVSPost2010Prop42
 90
       50
102
RTVSPost2010PropOp42
 70
     1
102
RTVSPost2010Prop43
 90
        3
102
RTVSPost2010PropOp43
 70
     1
102
RTVSPost2010Prop44ColorIndex
 90
        5
102
RTVSPost2010Prop44ColorRGB
 90
      255
102
RTVSPost2010PropOp44
 70
     1
102
RTVSPost2010Prop45
280
     0
102
RTVSPost2010PropOp45
 70
     1
102
RTVSPost2010Prop46
 90
       50
102
RTVSPost2010PropOp46
 70
     1
102
RTVSPost2010Prop47
 90
       50
102
RTVSPost2010PropOp47
 70
     1
102
RTVSPost2010Prop48
 90
       50
102
RTVSPost2010PropOp48
 70
     1
102
RTVSPost2010Prop49
280
     0
102
RTVSPost2010PropOp49
 70
     1
102
RTVSPost2010Prop50
 90
       50
102
RTVSPost2010PropOp50
 70
     1
102
RTVSPost2010Prop51ColorIndex
 90
      256
102
RTVSPost2010Prop51ColorRGB
 90
-16777216
102
RTVSPost2010PropOp51
 70
     0
102
RTVSPost2010Prop52
140
1.0
102
RTVSPost2010PropOp52
 70
     0
102
RTVSPost2010Prop53
 90
        2
102
RTVSPost2010PropOp53
 70
     1
102
RTVSPost2010Prop54
  1
strokes_ogs.tif
102
RTVSPost2010PropOp54
 70
     1
102
RTVSPost2010Prop55
280
     0
102
RTVSPost2010PropOp55
 70
     1
102
RTVSPost2010Prop56
140
1.0
102
RTVSPost2010PropOp56
 70
     1
102
RTVSPost2010Prop57
140
1.0
102
RTVSPost2010PropOp57
 70
     1
  0
XRECORD
  5
BC
102
{ACAD_REACTORS
330
BB
102
}
330
BB
100
AcDbXrecord
280
     1
102
RTVSPropertyOp0
 70
     1
102
RTVSPropertyOp1
 70
     1
102
RTVSPropertyOp2
 70
     1
102
RTVSPropertyOp3
 70
     1
102
RTVSPropertyOp4
 70
     1
102
RTVSPropertyOp5
 70
     1
102
RTVSPropertyOp6
 70
     1
102
RTVSPropertyOp7
 70
     1
102
RTVSPropertyOp8
 70
     1
102
RTVSPropertyOp9
 70
     1
102
RTVSPropertyOp10
 70
     1
102
RTVSPropertyOp11
 70
     1
102
RTVSPropertyOp12
 70
     1
102
RTVSPropertyOp13
 70
     1
102
RTVSPropertyOp14
 70
     1
102
RTVSPropertyOp15
 70
     1
102
RTVSPropertyOp16
 70
     1
102
RTVSPropertyOp17
 70
     1
102
RTVSPropertyOp18
 70
     1
102
RTVSPropertyOp19
 70
     1
102
RTVSPropertyOp20
 70
     1
102
RTVSPropertyOp21
 70
     1
102
RTVSPropertyOp22
 70
     1
102
RTVSPropertyOp23
 70
     1
102
RTVSPropertyOp24
 70
     1
102
RTVSPropertyOp25
 70
     1
102
RTVSPropertyOp26
 70
     1
102
RTVSPropertyOp27
 70
     1
102
RTVSPropertyOp28
 70
     1
102
RTVSPropertyOp29
 70
     1
102
RTVSPropertyOp30
 70
     1
102
RTVSPropertyOp31
 70
     1
102
RTVSPropertyOp32
 70
     1
102
RTVSPropertyOp33
 70
     1
102
RTVSPropertyOp34
 70
     1
102
RTVSPropertyOp35
 70
     1
102
RTVSPropertyOp36
 70
     1
102
RTVSPropertyOp37
 70
     1
102
RTVSPropertyOp38
 70
     1
102
RTVSPropertyOp39
 70
     1
102
RTVSPropertyOp40
 70
     1
102
RTVSPropertyOp41
 70
     1
102
RTVSPropertyOp42
 70
     1
102
RTVSPropertyOp43
 70
     1
102
RTVSPropertyOp44
 70
     1
102
RTVSPropertyOp45
 70
     1
102
RTVSPropertyOp46
 70
     1
102
RTVSPropertyOp47
 70
     1
102
RTVSPropertyOp48
 70
     1
102
RTVSPropertyOp49
 70
     1
102
RTVSPropertyOp50
 70
     1
102
RTVSPropertyOp51
 70
     0
102
RTVSPropertyOp52
 70
     0
102
RTVSPropertyOp53
 70
     1
102
RTVSPropertyOp54
 70
     1
102
RTVSPropertyOp55
 70
     1
102
RTVSPropertyOp56
 70
     1
102
RTVSPropertyOp57
 70
     1
102
RTVSPost2010Prop28
280
     0
102
RTVSPost2010PropOp28
 70
     1
102
RTVSPost2010Prop29
280
     1
102
RTVSPost2010PropOp29
 70
     1
102
RTVSPost2010Prop30
280
     1
102
RTVSPost2010PropOp30
 70
     1
102
RTVSPost2010Prop31
280
     0
102
RTVSPost2010PropOp31
 70
     1
102
RTVSPost2010Prop32
280
     0
102
RTVSPost2010PropOp32
 70
     1
102
RTVSPost2010Prop33
280
     0
102
RTVSPost2010PropOp33
 70
     1
102
RTVSPost2010Prop34
280
     0
102
RTVSPost2010PropOp34
 70
     1
102
RTVSPost2010Prop35
280
     0
102
RTVSPost2010PropOp35
 70
     1
102
RTVSPost2010Prop36
280
     0
102
RTVSPost2010PropOp36
 70
     1
102
RTVSPost2010Prop37
 90
       50
102
RTVSPost2010PropOp37
 70
     1
102
RTVSPost2010Prop38
140
0.0
102
RTVSPost2010PropOp38
 70
     1
102
RTVSPost2010Prop39
140
1.0
102
RTVSPost2010PropOp39
 70
     1
102
RTVSPost2010Prop40
 90
        0
102
RTVSPost2010PropOp40
 70
     1
102
RTVSPost2010Prop41ColorIndex
 90
       18
102
RTVSPost2010Prop41ColorRGB
 90
        0
102
RTVSPost2010PropOp41
 70
     1
102
RTVSPost2010Prop42
 90
       50
102
RTVSPost2010PropOp42
 70
     1
102
RTVSPost2010Prop43
 90
        3
102
RTVSPost2010PropOp43
 70
     1
102
RTVSPost2010Prop44ColorIndex
 90
        5
102
RTVSPost2010Prop44ColorRGB
 90
      255
102
RTVSPost2010PropOp44
 70
     1
102
RTVSPost2010Prop45
280
     0
102
RTVSPost2010PropOp45
 70
     1
102
RTVSPost2010Prop46
 90
       50
102
RTVSPost2010PropOp46
 70
     1
102
RTVSPost2010Prop47
 90
       50
102
RTVSPost2010PropOp47
 70
     1
102
RTVSPost2010Prop48
 90
       50
102
RTVSPost2010PropOp48
 70
     1
102
RTVSPost2010Prop49
280
     0
102
RTVSPost2010PropOp49
 70
     1
102
RTVSPost2010Prop50
 90
       50
102
RTVSPost2010PropOp50
 70
     1
102
RTVSPost2010Prop51ColorIndex
 90
      256
102
RTVSPost2010Prop51ColorRGB
 90
-16777216
102
RTVSPost2010PropOp51
 70
     0
102
RTVSPost2010Prop52
140
1.0
102
RTVSPost2010PropOp52
 70
     0
102
RTVSPost2010Prop53
 90
        2
102
RTVSPost2010PropOp53
 70
     1
102
RTVSPost2010Prop54
  1
strokes_ogs.tif
102
RTVSPost2010PropOp54
 70
     1
102
RTVSPost2010Prop55
280
     0
102
RTVSPost2010PropOp55
 70
     1
102
RTVSPost2010Prop56
140
1.0
102
RTVSPost2010PropOp56
 70
     1
102
RTVSPost2010Prop57
140
1.0
102
RTVSPost2010PropOp57
 70
     1
  0
XRECORD
  5
AC
102
{ACAD_REACTORS
330
AB
102
}
330
AB
100
AcDbXrecord
280
     1
102
RTVSPropertyOp0
 70
     1
102
RTVSPropertyOp1
 70
     1
102
RTVSPropertyOp2
 70
     1
102
RTVSPropertyOp3
 70
     1
102
RTVSPropertyOp4
 70
     1
102
RTVSPropertyOp5
 70
     1
102
RTVSPropertyOp6
 70
     1
102
RTVSPropertyOp7
 70
     1
102
RTVSPropertyOp8
 70
     1
102
RTVSPropertyOp9
 70
     1
102
RTVSPropertyOp10
 70
     1
102
RTVSPropertyOp11
 70
     1
102
RTVSPropertyOp12
 70
     1
102
RTVSPropertyOp13
 70
     1
102
RTVSPropertyOp14
 70
     1
102
RTVSPropertyOp15
 70
     1
102
RTVSPropertyOp16
 70
     1
102
RTVSPropertyOp17
 70
     1
102
RTVSPropertyOp18
 70
     1
102
RTVSPropertyOp19
 70
     1
102
RTVSPropertyOp20
 70
     1
102
RTVSPropertyOp21
 70
     1
102
RTVSPropertyOp22
 70
     1
102
RTVSPropertyOp23
 70
     1
102
RTVSPropertyOp24
 70
     1
102
RTVSPropertyOp25
 70
     1
102
RTVSPropertyOp26
 70
     1
102
RTVSPropertyOp27
 70
     1
102
RTVSPropertyOp28
 70
     1
102
RTVSPropertyOp29
 70
     1
102
RTVSPropertyOp30
 70
     1
102
RTVSPropertyOp31
 70
     1
102
RTVSPropertyOp32
 70
     1
102
RTVSPropertyOp33
 70
     1
102
RTVSPropertyOp34
 70
     1
102
RTVSPropertyOp35
 70
     1
102
RTVSPropertyOp36
 70
     1
102
RTVSPropertyOp37
 70
     1
102
RTVSPropertyOp38
 70
     1
102
RTVSPropertyOp39
 70
     1
102
RTVSPropertyOp40
 70
     1
102
RTVSPropertyOp41
 70
     1
102
RTVSPropertyOp42
 70
     1
102
RTVSPropertyOp43
 70
     1
102
RTVSPropertyOp44
 70
     1
102
RTVSPropertyOp45
 70
     1
102
RTVSPropertyOp46
 70
     1
102
RTVSPropertyOp47
 70
     1
102
RTVSPropertyOp48
 70
     1
102
RTVSPropertyOp49
 70
     1
102
RTVSPropertyOp50
 70
     1
102
RTVSPropertyOp51
 70
     0
102
RTVSPropertyOp52
 70
     0
102
RTVSPropertyOp53
 70
     1
102
RTVSPropertyOp54
 70
     1
102
RTVSPropertyOp55
 70
     1
102
RTVSPropertyOp56
 70
     1
102
RTVSPropertyOp57
 70
     1
102
RTVSPost2010Prop28
280
     0
102
RTVSPost2010PropOp28
 70
     1
102
RTVSPost2010Prop29
280
     1
102
RTVSPost2010PropOp29
 70
     1
102
RTVSPost2010Prop30
280
     1
102
RTVSPost2010PropOp30
 70
     1
102
RTVSPost2010Prop31
280
     0
102
RTVSPost2010PropOp31
 70
     1
102
RTVSPost2010Prop32
280
     0
102
RTVSPost2010PropOp32
 70
     1
102
RTVSPost2010Prop33
280
     0
102
RTVSPost2010PropOp33
 70
     1
102
RTVSPost2010Prop34
280
     0
102
RTVSPost2010PropOp34
 70
     1
102
RTVSPost2010Prop35
280
     0
102
RTVSPost2010PropOp35
 70
     1
102
RTVSPost2010Prop36
280
     0
102
RTVSPost2010PropOp36
 70
     1
102
RTVSPost2010Prop37
 90
       50
102
RTVSPost2010PropOp37
 70
     1
102
RTVSPost2010Prop38
140
0.0
102
RTVSPost2010PropOp38
 70
     1
102
RTVSPost2010Prop39
140
1.0
102
RTVSPost2010PropOp39
 70
     1
102
RTVSPost2010Prop40
 90
        0
102
RTVSPost2010PropOp40
 70
     1
102
RTVSPost2010Prop41ColorIndex
 90
       18
102
RTVSPost2010Prop41ColorRGB
 90
        0
102
RTVSPost2010PropOp41
 70
     1
102
RTVSPost2010Prop42
 90
       50
102
RTVSPost2010PropOp42
 70
     1
102
RTVSPost2010Prop43
 90
        3
102
RTVSPost2010PropOp43
 70
     1
102
RTVSPost2010Prop44ColorIndex
 90
        5
102
RTVSPost2010Prop44ColorRGB
 90
      255
102
RTVSPost2010PropOp44
 70
     1
102
RTVSPost2010Prop45
280
     0
102
RTVSPost2010PropOp45
 70
     1
102
RTVSPost2010Prop46
 90
       50
102
RTVSPost2010PropOp46
 70
     1
102
RTVSPost2010Prop47
 90
       50
102
RTVSPost2010PropOp47
 70
     1
102
RTVSPost2010Prop48
 90
       50
102
RTVSPost2010PropOp48
 70
     1
102
RTVSPost2010Prop49
280
     0
102
RTVSPost2010PropOp49
 70
     1
102
RTVSPost2010Prop50
 90
       50
102
RTVSPost2010PropOp50
 70
     1
102
RTVSPost2010Prop51ColorIndex
 90
      256
102
RTVSPost2010Prop51ColorRGB
 90
-16777216
102
RTVSPost2010PropOp51
 70
     0
102
RTVSPost2010Prop52
140
1.0
102
RTVSPost2010PropOp52
 70
     0
102
RTVSPost2010Prop53
 90
        2
102
RTVSPost2010PropOp53
 70
     1
102
RTVSPost2010Prop54
  1
strokes_ogs.tif
102
RTVSPost2010PropOp54
 70
     1
102
RTVSPost2010Prop55
280
     0
102
RTVSPost2010PropOp55
 70
     1
102
RTVSPost2010Prop56
140
1.0
102
RTVSPost2010PropOp56
 70
     1
102
RTVSPost2010Prop57
140
1.0
102
RTVSPost2010PropOp57
 70
     1
  0
XRECORD
  5
9E
102
{ACAD_REACTORS
330
9D
102
}
330
9D
100
AcDbXrecord
280
     1
102
RTVSPropertyOp0
 70
     1
102
RTVSPropertyOp1
 70
     1
102
RTVSPropertyOp2
 70
     1
102
RTVSPropertyOp3
 70
     1
102
RTVSPropertyOp4
 70
     1
102
RTVSPropertyOp5
 70
     1
102
RTVSPropertyOp6
 70
     1
102
RTVSPropertyOp7
 70
     1
102
RTVSPropertyOp8
 70
     1
102
RTVSPropertyOp9
 70
     1
102
RTVSPropertyOp10
 70
     1
102
RTVSPropertyOp11
 70
     1
102
RTVSPropertyOp12
 70
     1
102
RTVSPropertyOp13
 70
     1
102
RTVSPropertyOp14
 70
     1
102
RTVSPropertyOp15
 70
     1
102
RTVSPropertyOp16
 70
     1
102
RTVSPropertyOp17
 70
     1
102
RTVSPropertyOp18
 70
     1
102
RTVSPropertyOp19
 70
     1
102
RTVSPropertyOp20
 70
     1
102
RTVSPropertyOp21
 70
     1
102
RTVSPropertyOp22
 70
     1
102
RTVSPropertyOp23
 70
     1
102
RTVSPropertyOp24
 70
     1
102
RTVSPropertyOp25
 70
     1
102
RTVSPropertyOp26
 70
     1
102
RTVSPropertyOp27
 70
     1
102
RTVSPropertyOp28
 70
     1
102
RTVSPropertyOp29
 70
     1
102
RTVSPropertyOp30
 70
     1
102
RTVSPropertyOp31
 70
     1
102
RTVSPropertyOp32
 70
     1
102
RTVSPropertyOp33
 70
     1
102
RTVSPropertyOp34
 70
     1
102
RTVSPropertyOp35
 70
     1
102
RTVSPropertyOp36
 70
     1
102
RTVSPropertyOp37
 70
     1
102
RTVSPropertyOp38
 70
     1
102
RTVSPropertyOp39
 70
     1
102
RTVSPropertyOp40
 70
     1
102
RTVSPropertyOp41
 70
     1
102
RTVSPropertyOp42
 70
     1
102
RTVSPropertyOp43
 70
     1
102
RTVSPropertyOp44
 70
     1
102
RTVSPropertyOp45
 70
     1
102
RTVSPropertyOp46
 70
     1
102
RTVSPropertyOp47
 70
     1
102
RTVSPropertyOp48
 70
     1
102
RTVSPropertyOp49
 70
     1
102
RTVSPropertyOp50
 70
     1
102
RTVSPropertyOp51
 70
     0
102
RTVSPropertyOp52
 70
     0
102
RTVSPropertyOp53
 70
     1
102
RTVSPropertyOp54
 70
     1
102
RTVSPropertyOp55
 70
     1
102
RTVSPropertyOp56
 70
     1
102
RTVSPropertyOp57
 70
     1
102
RTVSPost2010Prop28
280
     0
102
RTVSPost2010PropOp28
 70
     1
102
RTVSPost2010Prop29
280
     1
102
RTVSPost2010PropOp29
 70
     1
102
RTVSPost2010Prop30
280
     1
102
RTVSPost2010PropOp30
 70
     1
102
RTVSPost2010Prop31
280
     0
102
RTVSPost2010PropOp31
 70
     1
102
RTVSPost2010Prop32
280
     0
102
RTVSPost2010PropOp32
 70
     1
102
RTVSPost2010Prop33
280
     0
102
RTVSPost2010PropOp33
 70
     1
102
RTVSPost2010Prop34
280
     0
102
RTVSPost2010PropOp34
 70
     1
102
RTVSPost2010Prop35
280
     0
102
RTVSPost2010PropOp35
 70
     1
102
RTVSPost2010Prop36
280
     0
102
RTVSPost2010PropOp36
 70
     1
102
RTVSPost2010Prop37
 90
       50
102
RTVSPost2010PropOp37
 70
     1
102
RTVSPost2010Prop38
140
0.0
102
RTVSPost2010PropOp38
 70
     1
102
RTVSPost2010Prop39
140
1.0
102
RTVSPost2010PropOp39
 70
     1
102
RTVSPost2010Prop40
 90
        0
102
RTVSPost2010PropOp40
 70
     1
102
RTVSPost2010Prop41ColorIndex
 90
       18
102
RTVSPost2010Prop41ColorRGB
 90
        0
102
RTVSPost2010PropOp41
 70
     1
102
RTVSPost2010Prop42
 90
       50
102
RTVSPost2010PropOp42
 70
     1
102
RTVSPost2010Prop43
 90
        3
102
RTVSPost2010PropOp43
 70
     1
102
RTVSPost2010Prop44ColorIndex
 90
        5
102
RTVSPost2010Prop44ColorRGB
 90
      255
102
RTVSPost2010PropOp44
 70
     1
102
RTVSPost2010Prop45
280
     0
102
RTVSPost2010PropOp45
 70
     1
102
RTVSPost2010Prop46
 90
       50
102
RTVSPost2010PropOp46
 70
     1
102
RTVSPost2010Prop47
 90
       50
102
RTVSPost2010PropOp47
 70
     1
102
RTVSPost2010Prop48
 90
       50
102
RTVSPost2010PropOp48
 70
     1
102
RTVSPost2010Prop49
280
     0
102
RTVSPost2010PropOp49
 70
     1
102
RTVSPost2010Prop50
 90
       50
102
RTVSPost2010PropOp50
 70
     1
102
RTVSPost2010Prop51ColorIndex
 90
      256
102
RTVSPost2010Prop51ColorRGB
 90
-16777216
102
RTVSPost2010PropOp51
 70
     0
102
RTVSPost2010Prop52
140
1.0
102
RTVSPost2010PropOp52
 70
     0
102
RTVSPost2010Prop53
 90
        2
102
RTVSPost2010PropOp53
 70
     1
102
RTVSPost2010Prop54
  1
strokes_ogs.tif
102
RTVSPost2010PropOp54
 70
     1
102
RTVSPost2010Prop55
280
     0
102
RTVSPost2010PropOp55
 70
     1
102
RTVSPost2010Prop56
140
1.0
102
RTVSPost2010PropOp56
 70
     1
102
RTVSPost2010Prop57
140
1.0
102
RTVSPost2010PropOp57
 70
     1
  0
XRECORD
  5
BE
102
{ACAD_REACTORS
330
BD
102
}
330
BD
100
AcDbXrecord
280
     1
102
RTVSPropertyOp0
 70
     1
102
RTVSPropertyOp1
 70
     1
102
RTVSPropertyOp2
 70
     1
102
RTVSPropertyOp3
 70
     1
102
RTVSPropertyOp4
 70
     1
102
RTVSPropertyOp5
 70
     1
102
RTVSPropertyOp6
 70
     1
102
RTVSPropertyOp7
 70
     1
102
RTVSPropertyOp8
 70
     1
102
RTVSPropertyOp9
 70
     1
102
RTVSPropertyOp10
 70
     1
102
RTVSPropertyOp11
 70
     1
102
RTVSPropertyOp12
 70
     1
102
RTVSPropertyOp13
 70
     1
102
RTVSPropertyOp14
 70
     1
102
RTVSPropertyOp15
 70
     1
102
RTVSPropertyOp16
 70
     1
102
RTVSPropertyOp17
 70
     1
102
RTVSPropertyOp18
 70
     1
102
RTVSPropertyOp19
 70
     1
102
RTVSPropertyOp20
 70
     1
102
RTVSPropertyOp21
 70
     1
102
RTVSPropertyOp22
 70
     1
102
RTVSPropertyOp23
 70
     1
102
RTVSPropertyOp24
 70
     1
102
RTVSPropertyOp25
 70
     1
102
RTVSPropertyOp26
 70
     1
102
RTVSPropertyOp27
 70
     1
102
RTVSPropertyOp28
 70
     1
102
RTVSPropertyOp29
 70
     1
102
RTVSPropertyOp30
 70
     1
102
RTVSPropertyOp31
 70
     1
102
RTVSPropertyOp32
 70
     1
102
RTVSPropertyOp33
 70
     1
102
RTVSPropertyOp34
 70
     1
102
RTVSPropertyOp35
 70
     1
102
RTVSPropertyOp36
 70
     1
102
RTVSPropertyOp37
 70
     1
102
RTVSPropertyOp38
 70
     1
102
RTVSPropertyOp39
 70
     1
102
RTVSPropertyOp40
 70
     1
102
RTVSPropertyOp41
 70
     1
102
RTVSPropertyOp42
 70
     1
102
RTVSPropertyOp43
 70
     1
102
RTVSPropertyOp44
 70
     1
102
RTVSPropertyOp45
 70
     1
102
RTVSPropertyOp46
 70
     1
102
RTVSPropertyOp47
 70
     1
102
RTVSPropertyOp48
 70
     1
102
RTVSPropertyOp49
 70
     1
102
RTVSPropertyOp50
 70
     1
102
RTVSPropertyOp51
 70
     0
102
RTVSPropertyOp52
 70
     0
102
RTVSPropertyOp53
 70
     1
102
RTVSPropertyOp54
 70
     1
102
RTVSPropertyOp55
 70
     1
102
RTVSPropertyOp56
 70
     1
102
RTVSPropertyOp57
 70
     1
102
RTVSPost2010Prop28
280
     0
102
RTVSPost2010PropOp28
 70
     1
102
RTVSPost2010Prop29
280
     1
102
RTVSPost2010PropOp29
 70
     1
102
RTVSPost2010Prop30
280
     1
102
RTVSPost2010PropOp30
 70
     1
102
RTVSPost2010Prop31
280
     0
102
RTVSPost2010PropOp31
 70
     1
102
RTVSPost2010Prop32
280
     0
102
RTVSPost2010PropOp32
 70
     1
102
RTVSPost2010Prop33
280
     0
102
RTVSPost2010PropOp33
 70
     1
102
RTVSPost2010Prop34
280
     0
102
RTVSPost2010PropOp34
 70
     1
102
RTVSPost2010Prop35
280
     0
102
RTVSPost2010PropOp35
 70
     1
102
RTVSPost2010Prop36
280
     0
102
RTVSPost2010PropOp36
 70
     1
102
RTVSPost2010Prop37
 90
       50
102
RTVSPost2010PropOp37
 70
     1
102
RTVSPost2010Prop38
140
0.0
102
RTVSPost2010PropOp38
 70
     1
102
RTVSPost2010Prop39
140
1.0
102
RTVSPost2010PropOp39
 70
     1
102
RTVSPost2010Prop40
 90
        0
102
RTVSPost2010PropOp40
 70
     1
102
RTVSPost2010Prop41ColorIndex
 90
       18
102
RTVSPost2010Prop41ColorRGB
 90
        0
102
RTVSPost2010PropOp41
 70
     1
102
RTVSPost2010Prop42
 90
       50
102
RTVSPost2010PropOp42
 70
     1
102
RTVSPost2010Prop43
 90
        3
102
RTVSPost2010PropOp43
 70
     1
102
RTVSPost2010Prop44ColorIndex
 90
        5
102
RTVSPost2010Prop44ColorRGB
 90
      255
102
RTVSPost2010PropOp44
 70
     1
102
RTVSPost2010Prop45
280
     0
102
RTVSPost2010PropOp45
 70
     1
102
RTVSPost2010Prop46
 90
       50
102
RTVSPost2010PropOp46
 70
     1
102
RTVSPost2010Prop47
 90
       50
102
RTVSPost2010PropOp47
 70
     1
102
RTVSPost2010Prop48
 90
       50
102
RTVSPost2010PropOp48
 70
     1
102
RTVSPost2010Prop49
280
     0
102
RTVSPost2010PropOp49
 70
     1
102
RTVSPost2010Prop50
 90
       50
102
RTVSPost2010PropOp50
 70
     1
102
RTVSPost2010Prop51ColorIndex
 90
      256
102
RTVSPost2010Prop51ColorRGB
 90
-16777216
102
RTVSPost2010PropOp51
 70
     0
102
RTVSPost2010Prop52
140
1.0
102
RTVSPost2010PropOp52
 70
     0
102
RTVSPost2010Prop53
 90
        2
102
RTVSPost2010PropOp53
 70
     1
102
RTVSPost2010Prop54
  1
strokes_ogs.tif
102
RTVSPost2010PropOp54
 70
     1
102
RTVSPost2010Prop55
280
     0
102
RTVSPost2010PropOp55
 70
     1
102
RTVSPost2010Prop56
140
1.0
102
RTVSPost2010PropOp56
 70
     1
102
RTVSPost2010Prop57
140
1.0
102
RTVSPost2010PropOp57
 70
     1
  0
ENDSEC
  0
EOF
