  0
SECTION
  2
HEADER
  9
$ACADVER
  1
AC1015
  9
$ACADMAINTVER
 70
     6
  9
$DWGCODEPAGE
  3
DOS850
  9
$INSBASE
 10
0.0
 20
0.0
 30
0.0
  9
$EXTMIN
 10
-10.89928
 20
-30.98973
 30
1.000000E+20
  9
$EXTMAX
 10
60.10834
 20
14.01789
 30
-1.000000E+20
  9
$LIMMIN
 10
0.0
 20
0.0
  9
$LIMMAX
 10
0.0
 20
0.0
  9
$ORTHOMODE
 70
     0
  9
$REGENMODE
 70
     1
  9
$FILLMODE
 70
     1
  9
$QTEXTMODE
 70
     0
  9
$MIRRTEXT
 70
     1
  9
$LTSCALE
 40
1.0
  9
$ATTMODE
 70
     1
  9
$TEXTSIZE
 40
0.2
  9
$TRACEWID
 40
0.05
  9
$TEXTSTYLE
  7
Standard
  9
$CLAYER
  8
0
  9
$CELTYPE
  6
Continuous
  9
$CECOLOR
 62
   256
  9
$CELTSCALE
 40
1.0
  9
$DISPSILH
 70
     0
  9
$DIMSCALE
 40
1.0
  9
$DIMASZ
 40
0.18
  9
$DIMEXO
 40
0.0625
  9
$DIMDLI
 40
0.38
  9
$DIMRND
 40
0.0
  9
$DIMDLE
 40
0.0
  9
$DIMEXE
 40
0.18
  9
$DIMTP
 40
0.0
  9
$DIMTM
 40
0.0
  9
$DIMTXT
 40
0.18
  9
$DIMCEN
 40
0.09
  9
$DIMTSZ
 40
0.0
  9
$DIMTOL
 70
     0
  9
$DIMLIM
 70
     0
  9
$DIMTIH
 70
     1
  9
$DIMTOH
 70
     1
  9
$DIMSE1
 70
     0
  9
$DIMSE2
 70
     0
  9
$DIMTAD
 70
     0
  9
$DIMZIN
 70
     0
  9
$DIMBLK
  1

  9
$DIMASO
 70
     1
  9
$DIMSHO
 70
     1
  9
$DIMPOST
  1

  9
$DIMAPOST
  1

  9
$DIMALT
 70
     0
  9
$DIMALTD
 70
     2
  9
$DIMALTF
 40
25.4
  9
$DIMLFAC
 40
1.0
  9
$DIMTOFL
 70
     0
  9
$DIMTVP
 40
0.0
  9
$DIMTIX
 70
     0
  9
$DIMSOXD
 70
     0
  9
$DIMSAH
 70
     0
  9
$DIMBLK1
  1

  9
$DIMBLK2
  1

  9
$DIMSTYLE
  2
Standard
  9
$DIMCLRD
 70
     0
  9
$DIMCLRE
 70
     0
  9
$DIMCLRT
 70
     0
  9
$DIMTFAC
 40
1.0
  9
$DIMGAP
 40
0.09
  9
$DIMJUST
 70
     0
  9
$DIMSD1
 70
     0
  9
$DIMSD2
 70
     0
  9
$DIMTOLJ
 70
     1
  9
$DIMTZIN
 70
     0
  9
$DIMALTZ
 70
     0
  9
$DIMALTTZ
 70
     0
  9
$DIMUPT
 70
     0
  9
$DIMDEC
 70
     4
  9
$DIMTDEC
 70
     4
  9
$DIMALTU
 70
     2
  9
$DIMALTTD
 70
     2
  9
$DIMTXSTY
  7
Standard
  9
$DIMAUNIT
 70
     0
  9
$DIMADEC
 70
     0
  9
$DIMALTRND
 40
0.0
  9
$DIMAZIN
 70
     0
  9
$DIMDSEP
 70
     0
  9
$DIMATFIT
 70
     3
  9
$DIMFRAC
 70
     0
  9
$DIMLDRBLK
  1

  9
$DIMLUNIT
 70
     2
  9
$DIMLWD
 70
     0
  9
$DIMLWE
 70
     0
  9
$DIMTMOVE
 70
     0
  9
$LUNITS
 70
     2
  9
$LUPREC
 70
     4
  9
$SKETCHINC
 40
0.1
  9
$FILLETRAD
 40
0.0
  9
$AUNITS
 70
     0
  9
$AUPREC
 70
     0
  9
$MENU
  1
acad
  9
$ELEVATION
 40
0.0
  9
$PELEVATION
 40
0.0
  9
$THICKNESS
 40
0.0
  9
$LIMCHECK
 70
     0
  9
$CHAMFERA
 40
0.0
  9
$CHAMFERB
 40
0.0
  9
$CHAMFERC
 40
0.0
  9
$CHAMFERD
 40
0.0
  9
$SKPOLY
 70
     0
  9
$TDCREATE
 40
0.000000000
  9
$TDUCREATE
 40
0.000000000
  9
$TDUPDATE
 40
0.000000000
  9
$TDUUPDATE
 40
0.000000000
  9
$TDINDWG
 40
0.0000000000
  9
$TDUSRTIMER
 40
0.0000000000
  9
$USRTIMER
 70
     1
  9
$ANGBASE
 50
0.0
  9
$ANGDIR
 70
     0
  9
$PDMODE
 70
     0
  9
$PDSIZE
 40
0.0
  9
$PLINEWID
 40
0.0
  9
$SPLFRAME
 70
     0
  9
$SPLINETYPE
 70
     6
  9
$SPLINESEGS
 70
     8
  9
$HANDSEED
  5
57
  9
$SURFTAB1
 70
     6
  9
$SURFTAB2
 70
     6
  9
$SURFTYPE
 70
     6
  9
$SURFU
 70
     6
  9
$SURFV
 70
     6
  9
$UCSBASE
  2

  9
$UCSNAME
  2

  9
$UCSORG
 10
0.0
 20
0.0
 30
0.0
  9
$UCSXDIR
 10
1.0
 20
0.0
 30
0.0
  9
$UCSYDIR
 10
0.0
 20
1.0
 30
0.0
  9
$UCSORTHOREF
  2

  9
$UCSORTHOVIEW
 70
     0
  9
$UCSORGTOP
 10
0.0
 20
0.0
 30
0.0
  9
$UCSORGBOTTOM
 10
0.0
 20
0.0
 30
0.0
  9
$UCSORGLEFT
 10
0.0
 20
0.0
 30
0.0
  9
$UCSORGRIGHT
 10
0.0
 20
0.0
 30
0.0
  9
$UCSORGFRONT
 10
0.0
 20
0.0
 30
0.0
  9
$UCSORGBACK
 10
0.0
 20
0.0
 30
0.0
  9
$PUCSBASE
  2

  9
$PUCSNAME
  2

  9
$PUCSORG
 10
0.0
 20
0.0
 30
0.0
  9
$PUCSXDIR
 10
1.0
 20
0.0
 30
0.0
  9
$PUCSYDIR
 10
0.0
 20
1.0
 30
0.0
  9
$PUCSORTHOREF
  2

  9
$PUCSORTHOVIEW
 70
     0
  9
$PUCSORGTOP
 10
0.0
 20
0.0
 30
0.0
  9
$PUCSORGBOTTOM
 10
0.0
 20
0.0
 30
0.0
  9
$PUCSORGLEFT
 10
0.0
 20
0.0
 30
0.0
  9
$PUCSORGRIGHT
 10
0.0
 20
0.0
 30
0.0
  9
$PUCSORGFRONT
 10
0.0
 20
0.0
 30
0.0
  9
$PUCSORGBACK
 10
0.0
 20
0.0
 30
0.0
  9
$USERI1
 70
     0
  9
$USERI2
 70
     0
  9
$USERI3
 70
     0
  9
$USERI4
 70
     0
  9
$USERI5
 70
     0
  9
$USERR1
 40
0.0
  9
$USERR2
 40
0.0
  9
$USERR3
 40
0.0
  9
$USERR4
 40
0.0
  9
$USERR5
 40
0.0
  9
$WORLDVIEW
 70
     1
  9
$SHADEDGE
 70
     3
  9
$SHADEDIF
 70
    70
  9
$TILEMODE
 70
     1
  9
$MAXACTVP
 70
    16
  9
$PINSBASE
 10
0.0
 20
0.0
 30
0.0
  9
$PLIMCHECK
 70
     0
  9
$PEXTMIN
 10
1.000000E+20
 20
1.000000E+20
 30
1.000000E+20
  9
$PEXTMAX
 10
-1.000000E+20
 20
-1.000000E+20
 30
-1.000000E+20
  9
$PLIMMIN
 10
0.0
 20
0.0
  9
$PLIMMAX
 10
12.0
 20
9.0
  9
$UNITMODE
 70
     0
  9
$VISRETAIN
 70
     0
  9
$PLINEGEN
 70
     1
  9
$PSLTSCALE
 70
     0
  9
$TREEDEPTH
 70
  3020
  9
$CMLSTYLE
  2
Standard
  9
$CMLJUST
 70
     0
  9
$CMLSCALE
 40
1.0
  9
$PROXYGRAPHICS
 70
     0
  9
$MEASUREMENT
 70
     0
  9
$CELWEIGHT
370
     0
  9
$ENDCAPS
280
     0
  9
$JOINSTYLE
280
     0
  9
$LWDISPLAY
290
     0
  9
$INSUNITS
 70
     5
  9
$HYPERLINKBASE
  1

  9
$XEDIT
290
     1
  9
$CEPSNTYPE
380
     0
  9
$PSTYLEMODE
290
     1
  9
$FINGERPRINTGUID
  2

  9
$VERSIONGUID
  2

  9
$EXTNAMES
290
     1
  9
$PSVPSCALE
 40
0.0
  0
ENDSEC
  0
SECTION
  2
CLASSES
  0
CLASS
  1
LWPOLYLINE
  2
AcDbPolyline
  3
AutoCAD 2000
 90
    32768
280
     0
281
     1
  0
CLASS
  1
IMAGE
  2
AcDbRasterImage
  3
ISM
 90
    32895
280
     0
281
     1
  0
CLASS
  1
OLE2FRAME
  2
AcDbOle2Frame
  3
AutoCAD 2000
 90
    32768
280
     0
281
     1
  0
CLASS
  1
HATCH
  2
AcDbHatch
  3
AutoCAD 2000
 90
    32768
280
     0
281
     1
  0
CLASS
  1
DICTIONARYVAR
  2
AcDbDictionaryVar
  3
AutoCAD 2000
 90
    32768
280
     0
281
     0
  0
CLASS
  1
RASTERVARIABLES
  2
AcDbRasterVariables
  3
ISM
 90
    32768
280
     0
281
     0
  0
CLASS
  1
IMAGEDEF
  2
AcDbRasterImageDef
  3
ISM
 90
    32768
280
     0
281
     0
  0
CLASS
  1
IMAGEDEF_REACTOR
  2
AcDbRasterImageDefReactor
  3
ISM
 90
    32769
280
     0
281
     0
  0
CLASS
  1
IDBUFFER
  2
AcDbIdBuffer
  3
AutoCAD 2000
 90
    32768
280
     0
281
     0
  0
CLASS
  1
SPATIAL_FILTER
  2
AcDbSpatialFilter
  3
AutoCAD 2000
 90
    32768
280
     0
281
     0
  0
CLASS
  1
XRECORD
  2
AcDbXrecord
  3
AutoCAD 2000
 90
    32768
280
     0
281
     0
  0
CLASS
  1
SORTENTSTABLE
  2
AcDbSortentsTable
  3
AutoCAD 2000
 90
    32768
280
     0
281
     0
  0
CLASS
  1
LAYER_INDEX
  2
AcDbLayerIndex
  3
AutoCAD 2000
 90
    32768
280
     0
281
     0
  0
CLASS
  1
SPATIAL_INDEX
  2
AcDbSpatialIndex
  3
AutoCAD 2000
 90
    32768
280
     0
281
     0
  0
CLASS
  1
OBJECT_PTR
  2
CAseDLPNTableRecord
  3
\"ASE-LPNTableRecord\"
 90
    32769
280
     0
281
     0
  0
CLASS
  1
LAYOUT
  2
AcDbLayout
  3
AutoCAD 2000
 90
        0
280
     0
281
     0
  0
CLASS
  1
PLOTSETTINGS
  2
AcDbPlotSettings
  3
AutoCAD 2000
 90
    32768
280
     0
281
     0
  0
CLASS
  1
ACDBDICTIONARYWDFLT
  2
AcDbDictionaryWithDefault
  3
AutoCAD 2000
 90
        0
280
     0
281
     0
  0
CLASS
  1
ACDBPLACEHOLDER
  2
AcDbPlaceHolder
  3
AutoCAD 2000
 90
        0
280
     0
281
     0
  0
CLASS
  1
VBA_PROJECT
  2
AcDbVbaProject
  3
acadvba
 90
    32768
280
     0
281
     0
  0
CLASS
  1
WIPEOUT
  2
AcDbWipeout
  3
WipeOut|AutoCAD Express Tool|expresstools@autodesk.com
 90
    32895
280
     0
281
     1
  0
CLASS
  1
WIPEOUTVARIABLES
  2
AcDbWipeoutVariables
  3
WipeOut|AutoCAD Express Tool|expresstools@autodesk.com
 90
        0
280
     0
281
     0
  0
CLASS
  1
RTEXT
  2
RText
  3
RText|AutoCAD Express Tool|expresstools@autodesk.com
 90
    32768
280
     0
281
     1
  0
CLASS
  1
ARCALIGNEDTEXT
  2
AcDbArcAlignedText
  3
ATEXT|AutoCAD Express Tool|expresstools@autodesk.com
 90
    32768
280
     0
281
     1
  0
ENDSEC
  0
SECTION
  2
TABLES
  0
TABLE
  2
VPORT
  5
7
100
AcDbSymbolTable
 70
     1
  0
VPORT
  5
15
100
AcDbSymbolTableRecord
100
AcDbViewportTableRecord
  2
*ACTIVE
 70
     0
 10
0.0
 20
0.0
 11
1.0
 21
1.0
 12
6.591288
 22
4.579184
 13
0.0
 23
0.0
 14
1.0
 24
1.0
 15
0.0
 25
0.0
 16
0.0
 26
0.0
 36
1.0
 17
0.0
 27
0.0
 37
0.0
 40
9.158369
 41
0.688564
 42
50.0
 43
0.0
 44
0.0
 50
0.0
 51
0.0
 71
     0
 72
   100
 73
     1
 74
     1
 75
     0
 76
     0
 77
     0
 78
     0
281
     0
 65
     0
110
0.0
120
0.0
130
0.0
111
1.0
121
0.0
131
0.0
112
0.0
122
1.0
132
0.0
345
0
346
0
 79
     0
146
0.0
  0
ENDTAB
  0
TABLE
  2
LTYPE
  5
4
100
AcDbSymbolTable
 70
     3
  0
LTYPE
  5
11
100
AcDbSymbolTableRecord
100
AcDbLinetypeTableRecord
  2
ByBlock
 70
    64
  3

 72
    65
 73
     0
 40
0.0
  0
LTYPE
  5
12
100
AcDbSymbolTableRecord
100
AcDbLinetypeTableRecord
  2
ByLayer
 70
    64
  3

 72
    65
 73
     0
 40
0.0
  0
LTYPE
  5
13
100
AcDbSymbolTableRecord
100
AcDbLinetypeTableRecord
  2
Continuous
 70
    64
  3
Solid line
 72
    65
 73
     0
 40
0.0
  0
ENDTAB
  0
TABLE
  2
LAYER
  5
2
100
AcDbSymbolTable
 70
     2
  0
LAYER
  5
14
100
AcDbSymbolTableRecord
100
AcDbLayerTableRecord
  2
0
 70
     0
 62
     7
  6
Continuous
290
     1
370
    -3
390
1D
  0
LAYER
  5
24
100
AcDbSymbolTableRecord
100
AcDbLayerTableRecord
  2
Layer 1
 70
     0
 62
     7
  6
Continuous
290
     1
370
    -3
390
1F
  0
ENDTAB
  0
TABLE
  2
STYLE
  5
3
100
AcDbSymbolTable
 70
     1
  0
STYLE
  5
17
100
AcDbSymbolTableRecord
100
AcDbTextStyleTableRecord
  2
Standard
 70
     0
 40
0.0
 41
1.0
 50
0.0
 71
     0
 42
0.0
  3
txt
  4

  0
ENDTAB
  0
TABLE
  2
VIEW
  5
5
100
AcDbSymbolTable
 70
     0
  0
ENDTAB
  0
TABLE
  2
UCS
  5
6
100
AcDbSymbolTable
 70
     0
  0
ENDTAB
  0
TABLE
  2
APPID
  5
8
100
AcDbSymbolTable
 70
     1
  0
APPID
  5
16
100
AcDbSymbolTableRecord
100
AcDbRegAppTableRecord
  2
ACAD
 70
     0
  0
ENDTAB
  0
TABLE
  2
DIMSTYLE
  5
9
100
AcDbSymbolTable
 70
     1
100
AcDbDimStyleTable
 71
     0
  0
DIMSTYLE
105
18
100
AcDbSymbolTableRecord
100
AcDbDimStyleTableRecord
  2
Standard
 70
     0
  3

  4

 40
1.0
 41
0.18
 42
0.0625
 43
0.38
 44
0.18
 45
0.0
 46
0.0
 47
0.0
 48
0.0
 71
     0
 72
     0
 73
     1
 74
     1
 75
     0
 76
     0
 77
     0
 78
     0
 79
     0
140
0.18
141
0.09
142
0.0
143
25.4
144
1.0
145
0.0
146
1.0
147
0.09
148
0.0
170
     0
171
     2
172
     0
173
     0
174
     0
175
     0
176
     0
177
     0
178
     0
179
     0
271
     4
272
     4
273
     2
274
     2
275
     0
276
     0
277
     2
278
    46
279
     0
280
     0
281
     0
282
     0
283
     1
284
     0
285
     0
286
     0
288
     0
340
17
341
0
342
0
343
0
344
0
371
    -2
372
    -2
  0
ENDTAB
  0
TABLE
  2
BLOCK_RECORD
  5
1
100
AcDbSymbolTable
 70
     0
  0
BLOCK_RECORD
  5
A
100
AcDbSymbolTableRecord
100
AcDbBlockTableRecord
  2
*MODEL_SPACE
340
20
  0
BLOCK_RECORD
  5
B
100
AcDbSymbolTableRecord
100
AcDbBlockTableRecord
  2
*PAPER_SPACE
340
21
  0
ENDTAB
  0
ENDSEC
  0
SECTION
  2
BLOCKS
  0
BLOCK
  5
D
100
AcDbEntity
  8
0
100
AcDbBlockBegin
  2
*MODEL_SPACE
 70
     0
 10
0.0
 20
0.0
 30
0.0
  3
*MODEL_SPACE
  1

  0
ENDBLK
  5
E
100
AcDbEntity
  8
0
100
AcDbBlockEnd
  0
BLOCK
  5
F
100
AcDbEntity
 67
     1
  8
0
100
AcDbBlockBegin
  2
*PAPER_SPACE
 70
     0
 10
0.0
 20
0.0
 30
0.0
  3
*PAPER_SPACE
  1

  0
ENDBLK
  5
10
100
AcDbEntity
 67
     1
  8
0
100
AcDbBlockEnd
  0
ENDSEC
  0
SECTION
  2
ENTITIES
  0
SPLINE
  5
25
100
AcDbEntity
  8
Layer 1
100
AcDbSpline
210
0.0
220
0.0
230
1.0
 70
     1
 71
     3
 72
    20
 73
    16
 74
     0
 42
0.0000000001
 43
0.0000000001
 40
0.0
 40
0.0
 40
0.0
 40
0.0
 40
0.25
 40
0.25
 40
0.25
 40
0.25
 40
0.5
 40
0.5
 40
0.5
 40
0.5
 40
0.75
 40
0.75
 40
0.75
 40
0.75
 40
1.0
 40
1.0
 40
1.0
 40
1.0
 10
60.104529999999997
 20
14.01408
 30
0.0
 10
60.104529999999997
 20
14.01408
 30
0.0
 10
-10.89547
 20
14.01408
 30
0.0
 10
-10.89547
 20
14.01408
 30
0.0
 10
-10.89547
 20
14.01408
 30
0.0
 10
-10.89547
 20
14.01408
 30
0.0
 10
-10.89547
 20
-30.98592
 30
0.0
 10
-10.89547
 20
-30.98592
 30
0.0
 10
-10.89547
 20
-30.98592
 30
0.0
 10
-10.89547
 20
-30.98592
 30
0.0
 10
60.104529999999997
 20
-30.98592
 30
0.0
 10
60.104529999999997
 20
-30.98592
 30
0.0
 10
60.104529999999997
 20
-30.98592
 30
0.0
 10
60.104529999999997
 20
-30.98592
 30
0.0
 10
60.104529999999997
 20
14.01408
 30
0.0
 10
60.104529999999997
 20
14.01408
 30
0.0
  0
SPLINE
  5
26
100
AcDbEntity
  8
Layer 1
100
AcDbSpline
210
0.0
220
0.0
230
1.0
 70
     1
 71
     3
 72
    20
 73
    16
 74
     0
 42
0.0000000001
 43
0.0000000001
 40
0.0
 40
0.0
 40
0.0
 40
0.0
 40
0.25
 40
0.25
 40
0.25
 40
0.25
 40
0.5
 40
0.5
 40
0.5
 40
0.5
 40
0.75
 40
0.75
 40
0.75
 40
0.75
 40
1.0
 40
1.0
 40
1.0
 40
1.0
 10
0.26125
 20
-9.32104
 30
0.0
 10
0.78578
 20
-8.1573399999999996
 30
0.0
 10
1.2864500000000001
 20
-6.8655099999999996
 30
0.0
 10
1.458
 20
-6.0791199999999996
 30
0.0
 10
1.458
 20
-6.0791199999999996
 30
0.0
 10
1.6468799999999999
 20
-5.1738600000000003
 30
0.0
 10
1.4044399999999999
 20
-3.6282899999999998
 30
0.0
 10
1.0011000000000001
 20
-3.5732599999999999
 30
0.0
 10
1.0011000000000001
 20
-3.5732599999999999
 30
0.0
 10
0.61359
 20
-4.3815499999999998
 30
0.0
 10
0.33597
 20
-5.2144000000000004
 30
0.0
 10
0.23446
 20
-6.1041100000000004
 30
0.0
 10
0.23446
 20
-6.1041100000000004
 30
0.0
 10
0.13426
 20
-7.0818399999999997
 30
0.0
 10
0.09284
 20
-8.1429299999999998
 30
0.0
 10
0.26125
 20
-9.32104
 30
0.0
  0
SPLINE
  5
27
100
AcDbEntity
  8
Layer 1
100
AcDbSpline
210
0.0
220
0.0
230
1.0
 70
     1
 71
     3
 72
    16
 73
    12
 74
     0
 42
0.0000000001
 43
0.0000000001
 40
0.0
 40
0.0
 40
0.0
 40
0.0
 40
0.3333333333333333
 40
0.3333333333333333
 40
0.3333333333333333
 40
0.3333333333333333
 40
0.6666666666666666
 40
0.6666666666666666
 40
0.6666666666666666
 40
0.6666666666666666
 40
1.0
 40
1.0
 40
1.0
 40
1.0
 10
2.8477399999999999
 20
-4.9157000000000002
 30
0.0
 10
2.8618600000000001
 20
-4.0415700000000001
 30
0.0
 10
2.6877300000000002
 20
-3.3885399999999999
 30
0.0
 10
2.4299499999999998
 20
-2.8221500000000002
 30
0.0
 10
2.4299499999999998
 20
-2.8221500000000002
 30
0.0
 10
2.0514299999999999
 20
-2.5972200000000001
 30
0.0
 10
1.6555599999999999
 20
-2.4912299999999998
 30
0.0
 10
1.25603
 20
-2.5072700000000001
 30
0.0
 10
1.25603
 20
-2.5072700000000001
 30
0.0
 10
1.8547199999999999
 20
-3.16737
 30
0.0
 10
2.41351
 20
-3.9063400000000001
 30
0.0
 10
2.8477399999999999
 20
-4.9157000000000002
 30
0.0
  0
SPLINE
  5
28
100
AcDbEntity
  8
Layer 1
100
AcDbSpline
210
0.0
220
0.0
230
1.0
 70
     1
 71
     3
 72
    16
 73
    12
 74
     0
 42
0.0000000001
 43
0.0000000001
 40
0.0
 40
0.0
 40
0.0
 40
0.0
 40
0.3333333333333333
 40
0.3333333333333333
 40
0.3333333333333333
 40
0.3333333333333333
 40
0.6666666666666666
 40
0.6666666666666666
 40
0.6666666666666666
 40
0.6666666666666666
 40
1.0
 40
1.0
 40
1.0
 40
1.0
 10
4.0600399999999999
 20
-2.3440500000000002
 30
0.0
 10
3.9923500000000001
 20
-2.0306600000000001
 30
0.0
 10
3.9083999999999999
 20
-1.73115
 30
0.0
 10
3.6172499999999999
 20
-1.4906699999999999
 30
0.0
 10
3.6172499999999999
 20
-1.4906699999999999
 30
0.0
 10
3.3824100000000001
 20
-1.3504799999999999
 30
0.0
 10
3.1103399999999999
 20
-1.46515
 30
0.0
 10
2.8222399999999999
 20
-1.7868200000000001
 30
0.0
 10
2.8222399999999999
 20
-1.7868200000000001
 30
0.0
 10
3.29176
 20
-1.87415
 30
0.0
 10
3.6890000000000001
 20
-2.0681600000000002
 30
0.0
 10
4.0600399999999999
 20
-2.3440500000000002
 30
0.0
  0
SPLINE
  5
29
100
AcDbEntity
  8
Layer 1
100
AcDbSpline
210
0.0
220
0.0
230
1.0
 70
     1
 71
     3
 72
    16
 73
    12
 74
     0
 42
0.0000000001
 43
0.0000000001
 40
0.0
 40
0.0
 40
0.0
 40
0.0
 40
0.3333333333333333
 40
0.3333333333333333
 40
0.3333333333333333
 40
0.3333333333333333
 40
0.6666666666666666
 40
0.6666666666666666
 40
0.6666666666666666
 40
0.6666666666666666
 40
1.0
 40
1.0
 40
1.0
 40
1.0
 10
4.78322
 20
-0.01405
 30
0.0
 10
4.4089200000000002
 20
1.01705
 30
0.0
 10
1.6394
 20
0.02149
 30
0.0
 10
1.3121700000000001
 20
-1.1512100000000001
 30
0.0
 10
1.3121700000000001
 20
-1.1512100000000001
 30
0.0
 10
1.3634999999999999
 20
-1.28549
 30
0.0
 10
1.40985
 20
-1.4537500000000001
 30
0.0
 10
1.4773700000000001
 20
-1.57413
 30
0.0
 10
1.4773700000000001
 20
-1.57413
 30
0.0
 10
2.6387499999999999
 20
-0.5176
 30
0.0
 10
3.7682099999999998
 20
-0.06805
 30
0.0
 10
4.78322
 20
-0.01405
 30
0.0
  0
SPLINE
  5
2A
100
AcDbEntity
  8
Layer 1
100
AcDbSpline
210
0.0
220
0.0
230
1.0
 70
     1
 71
     3
 72
    16
 73
    12
 74
     0
 42
0.0000000001
 43
0.0000000001
 40
0.0
 40
0.0
 40
0.0
 40
0.0
 40
0.3333333333333333
 40
0.3333333333333333
 40
0.3333333333333333
 40
0.3333333333333333
 40
0.6666666666666666
 40
0.6666666666666666
 40
0.6666666666666666
 40
0.6666666666666666
 40
1.0
 40
1.0
 40
1.0
 40
1.0
 10
1.01932
 20
-0.43658
 30
0.0
 10
1.48048
 20
0.39034
 30
0.0
 10
2.19156
 20
0.98598
 30
0.0
 10
3.2048800000000002
 20
1.51413
 30
0.0
 10
3.2048800000000002
 20
1.51413
 30
0.0
 10
2.78877
 20
1.8702300000000001
 30
0.0
 10
2.3356300000000001
 20
1.7784599999999999
 30
0.0
 10
1.80921
 20
1.2819499999999999
 30
0.0
 10
1.80921
 20
1.2819499999999999
 30
0.0
 10
1.4535800000000001
 20
1.08064
 30
0.0
 10
0.81939
 20
-0.25155
 30
0.0
 10
1.01932
 20
-0.43658
 30
0.0
  0
SPLINE
  5
2B
100
AcDbEntity
  8
Layer 1
100
AcDbSpline
210
0.0
220
0.0
230
1.0
 70
     1
 71
     3
 72
    16
 73
    12
 74
     0
 42
0.0000000001
 43
0.0000000001
 40
0.0
 40
0.0
 40
0.0
 40
0.0
 40
0.3333333333333333
 40
0.3333333333333333
 40
0.3333333333333333
 40
0.3333333333333333
 40
0.6666666666666666
 40
0.6666666666666666
 40
0.6666666666666666
 40
0.6666666666666666
 40
1.0
 40
1.0
 40
1.0
 40
1.0
 10
0.23937
 20
-0.82383
 30
0.0
 10
0.41799
 20
0.3996
 30
0.0
 10
0.39968
 20
1.2458899999999999
 30
0.0
 10
0.17076
 20
1.7181200000000001
 30
0.0
 10
0.17076
 20
1.7181200000000001
 30
0.0
 10
-0.37491
 20
1.76986
 30
0.0
 10
-0.89655
 20
1.5003599999999999
 30
0.0
 10
-1.38781
 20
0.8556200000000001
 30
0.0
 10
-1.38781
 20
0.8556200000000001
 30
0.0
 10
-0.72963
 20
0.60333
 30
0.0
 10
-0.14982
 20
0.10531
 30
0.0
 10
0.23937
 20
-0.82383
 30
0.0
  0
SPLINE
  5
2C
100
AcDbEntity
  8
Layer 1
100
AcDbSpline
210
0.0
220
0.0
230
1.0
 70
     1
 71
     3
 72
    16
 73
    12
 74
     0
 42
0.0000000001
 43
0.0000000001
 40
0.0
 40
0.0
 40
0.0
 40
0.0
 40
0.3333333333333333
 40
0.3333333333333333
 40
0.3333333333333333
 40
0.3333333333333333
 40
0.6666666666666666
 40
0.6666666666666666
 40
0.6666666666666666
 40
0.6666666666666666
 40
1.0
 40
1.0
 40
1.0
 40
1.0
 10
-1.7538
 20
-0.29085
 30
0.0
 10
-2.2120600000000001
 20
-0.22356
 30
0.0
 10
-2.7002899999999999
 20
-0.16712
 30
0.0
 10
-3.1059299999999999
 20
-0.32217
 30
0.0
 10
-3.1059299999999999
 20
-0.32217
 30
0.0
 10
-3.5290900000000001
 20
-0.40312
 30
0.0
 10
-3.8748
 20
-0.53645
 30
0.0
 10
-4.1505200000000002
 20
-0.7731400000000001
 30
0.0
 10
-4.1505200000000002
 20
-0.7731400000000001
 30
0.0
 10
-3.49112
 20
-0.92043
 30
0.0
 10
-2.6623399999999999
 20
-0.68449
 30
0.0
 10
-1.7538
 20
-0.29085
 30
0.0
  0
SPLINE
  5
2D
100
AcDbEntity
  8
Layer 1
100
AcDbSpline
210
0.0
220
0.0
230
1.0
 70
     1
 71
     3
 72
    16
 73
    12
 74
     0
 42
0.0000000001
 43
0.0000000001
 40
0.0
 40
0.0
 40
0.0
 40
0.0
 40
0.3333333333333333
 40
0.3333333333333333
 40
0.3333333333333333
 40
0.3333333333333333
 40
0.6666666666666666
 40
0.6666666666666666
 40
0.6666666666666666
 40
0.6666666666666666
 40
1.0
 40
1.0
 40
1.0
 40
1.0
 10
3.1108099999999999
 20
-5.8342299999999998
 30
0.0
 10
3.1608000000000001
 20
-4.6171899999999999
 30
0.0
 10
3.07233
 20
-3.4744600000000001
 30
0.0
 10
2.59327
 20
-2.5778699999999999
 30
0.0
 10
2.59327
 20
-2.5778699999999999
 30
0.0
 10
1.9736
 20
-2.1587299999999998
 30
0.0
 10
1.3630599999999999
 20
-2.1627000000000001
 30
0.0
 10
0.75884
 20
-2.2207300000000001
 30
0.0
 10
0.75884
 20
-2.2207300000000001
 30
0.0
 10
0.91109
 20
-2.1494800000000001
 30
0.0
 10
3.2281200000000001
 20
-5.8078200000000004
 30
0.0
 10
3.1108099999999999
 20
-5.8342299999999998
 30
0.0
  0
SPLINE
  5
2E
100
AcDbEntity
  8
Layer 1
100
AcDbSpline
210
0.0
220
0.0
230
1.0
 70
     1
 71
     3
 72
    52
 73
    48
 74
     0
 42
0.0000000001
 43
0.0000000001
 40
0.0
 40
0.0
 40
0.0
 40
0.0
 40
0.0833333333333333
 40
0.0833333333333333
 40
0.0833333333333333
 40
0.0833333333333333
 40
0.1666666666666667
 40
0.1666666666666667
 40
0.1666666666666667
 40
0.1666666666666667
 40
0.25
 40
0.25
 40
0.25
 40
0.25
 40
0.3333333333333333
 40
0.3333333333333333
 40
0.3333333333333333
 40
0.3333333333333333
 40
0.4166666666666666
 40
0.4166666666666666
 40
0.4166666666666666
 40
0.4166666666666666
 40
0.4999999999999999
 40
0.4999999999999999
 40
0.4999999999999999
 40
0.4999999999999999
 40
0.5833333333333333
 40
0.5833333333333333
 40
0.5833333333333333
 40
0.5833333333333333
 40
0.6666666666666666
 40
0.6666666666666666
 40
0.6666666666666666
 40
0.6666666666666666
 40
0.75
 40
0.75
 40
0.75
 40
0.75
 40
0.8333333333333334
 40
0.8333333333333334
 40
0.8333333333333334
 40
0.8333333333333334
 40
0.9166666666666667
 40
0.9166666666666667
 40
0.9166666666666667
 40
0.9166666666666667
 40
1.0
 40
1.0
 40
1.0
 40
1.0
 10
4.7314299999999996
 20
-3.28363
 30
0.0
 10
4.5145299999999997
 20
-2.3403100000000001
 30
0.0
 10
4.1755000000000004
 20
-1.6504700000000001
 30
0.0
 10
3.75427
 20
-1.1352500000000001
 30
0.0
 10
3.75427
 20
-1.1352500000000001
 30
0.0
 10
3.2946599999999999
 20
-0.9799600000000001
 30
0.0
 10
2.78294
 20
-1.18144
 30
0.0
 10
2.24261
 20
-1.4818499999999999
 30
0.0
 10
2.24261
 20
-1.4818499999999999
 30
0.0
 10
3.10961
 20
-0.69297
 30
0.0
 10
4.0841700000000003
 20
-0.13864
 30
0.0
 10
5.4927700000000002
 20
-0.40066
 30
0.0
 10
5.4927700000000002
 20
-0.40066
 30
0.0
 10
5.30999
 20
0.09636
 30
0.0
 10
5.06236
 20
0.53769
 30
0.0
 10
4.58155
 20
0.64511
 30
0.0
 10
4.58155
 20
0.64511
 30
0.0
 10
3.4763099999999998
 20
0.94463
 30
0.0
 10
2.3430499999999999
 20
0.56615
 30
0.0
 10
1.0559400000000001
 20
-0.86587
 30
0.0
 10
1.0559400000000001
 20
-0.86587
 30
0.0
 10
1.6691499999999999
 20
0.22539
 30
0.0
 10
2.57735
 20
1.0051000000000001
 30
0.0
 10
3.7680699999999998
 20
1.3883000000000001
 30
0.0
 10
3.7680699999999998
 20
1.3883000000000001
 30
0.0
 10
3.48285
 20
1.9608399999999999
 30
0.0
 10
3.0768599999999999
 20
2.1919200000000001
 30
0.0
 10
2.48637
 20
2.1308400000000001
 30
0.0
 10
2.48637
 20
2.1308400000000001
 30
0.0
 10
1.9321200000000001
 20
2.02651
 30
0.0
 10
1.0563800000000001
 20
1.2746599999999999
 30
0.0
 10
0.84133
 20
0.28748
 30
0.0
 10
0.84133
 20
0.28748
 30
0.0
 10
0.71312
 20
-0.10498
 30
0.0
 10
0.67111
 20
-0.5869
 30
0.0
 10
0.73161
 20
-1.1443399999999999
 30
0.0
 10
0.73161
 20
-1.1443399999999999
 30
0.0
 10
0.8165
 20
-1.14575
 30
0.0
 10
0.91761
 20
-1.13324
 30
0.0
 10
1.0025299999999999
 20
-1.1346700000000001
 30
0.0
 10
1.0025299999999999
 20
-1.1346700000000001
 30
0.0
 10
1.0179499999999999
 20
-1.61185
 30
0.0
 10
1.24421
 20
-1.90805
 30
0.0
 10
1.6238999999999999
 20
-2.0279600000000002
 30
0.0
 10
1.6238999999999999
 20
-2.0279600000000002
 30
0.0
 10
2.7499400000000001
 20
-1.8934899999999999
 30
0.0
 10
3.7542300000000002
 20
-2.3985599999999998
 30
0.0
 10
4.7314299999999996
 20
-3.28363
 30
0.0
  0
SPLINE
  5
2F
100
AcDbEntity
  8
Layer 1
100
AcDbSpline
210
0.0
220
0.0
230
1.0
 70
     1
 71
     3
 72
    16
 73
    12
 74
     0
 42
0.0000000001
 43
0.0000000001
 40
0.0
 40
0.0
 40
0.0
 40
0.0
 40
0.3333333333333333
 40
0.3333333333333333
 40
0.3333333333333333
 40
0.3333333333333333
 40
0.6666666666666666
 40
0.6666666666666666
 40
0.6666666666666666
 40
0.6666666666666666
 40
1.0
 40
1.0
 40
1.0
 40
1.0
 10
0.32503
 20
-1.59745
 30
0.0
 10
0.6822
 20
-0.41391
 30
0.0
 10
0.78716
 20
0.79086
 30
0.0
 10
0.40141
 20
2.0350799999999998
 30
0.0
 10
0.40141
 20
2.0350799999999998
 30
0.0
 10
-0.39532
 20
2.21305
 30
0.0
 10
-1.0453300000000001
 20
1.74413
 30
0.0
 10
-1.77478
 20
0.73149
 30
0.0
 10
-1.77478
 20
0.73149
 30
0.0
 10
-1.1016600000000001
 20
0.58114
 30
0.0
 10
0.13541
 20
-0.46723
 30
0.0
 10
0.32503
 20
-1.59745
 30
0.0
  0
SPLINE
  5
30
100
AcDbEntity
  8
Layer 1
100
AcDbSpline
210
0.0
220
0.0
230
1.0
 70
     1
 71
     3
 72
    20
 73
    16
 74
     0
 42
0.0000000001
 43
0.0000000001
 40
0.0
 40
0.0
 40
0.0
 40
0.0
 40
0.25
 40
0.25
 40
0.25
 40
0.25
 40
0.5
 40
0.5
 40
0.5
 40
0.5
 40
0.75
 40
0.75
 40
0.75
 40
0.75
 40
1.0
 40
1.0
 40
1.0
 40
1.0
 10
-0.43338
 20
-1.0595600000000001
 30
0.0
 10
-0.8975300000000001
 20
-0.06103
 30
0.0
 10
-1.6917800000000001
 20
0.13394
 30
0.0
 10
-2.59327
 20
0.1774
 30
0.0
 10
-2.59327
 20
0.1774
 30
0.0
 10
-3.50962
 20
0.11891
 30
0.0
 10
-4.3206699999999998
 20
-0.38421
 30
0.0
 10
-5.0842200000000002
 20
-0.95061
 30
0.0
 10
-5.0842200000000002
 20
-0.95061
 30
0.0
 10
-4.5757899999999996
 20
-1.2571699999999999
 30
0.0
 10
-3.93398
 20
-1.33036
 30
0.0
 10
-3.2187000000000001
 20
-1.1918500000000001
 30
0.0
 10
-3.2187000000000001
 20
-1.1918500000000001
 30
0.0
 10
-1.7959499999999999
 20
-0.57972
 30
0.0
 10
-0.96833
 20
-0.44878
 30
0.0
 10
-0.43338
 20
-1.0595600000000001
 30
0.0
  0
SPLINE
  5
31
100
AcDbEntity
  8
Layer 1
100
AcDbSpline
210
0.0
220
0.0
230
1.0
 70
     1
 71
     3
 72
    20
 73
    16
 74
     0
 42
0.0000000001
 43
0.0000000001
 40
0.0
 40
0.0
 40
0.0
 40
0.0
 40
0.25
 40
0.25
 40
0.25
 40
0.25
 40
0.5
 40
0.5
 40
0.5
 40
0.5
 40
0.75
 40
0.75
 40
0.75
 40
0.75
 40
1.0
 40
1.0
 40
1.0
 40
1.0
 10
-1.35792
 20
-1.66015
 30
0.0
 10
-2.0548799999999998
 20
-1.38164
 30
0.0
 10
-3.3891
 20
-1.87317
 30
0.0
 10
-4.2020600000000004
 20
-2.9724300000000001
 30
0.0
 10
-4.2020600000000004
 20
-2.9724300000000001
 30
0.0
 10
-4.8414200000000003
 20
-4.1455599999999997
 30
0.0
 10
-5.1631099999999996
 20
-4.6001000000000003
 30
0.0
 10
-5.9218900000000003
 20
-4.9394400000000003
 30
0.0
 10
-5.9218900000000003
 20
-4.9394400000000003
 30
0.0
 10
-4.51464
 20
-5.11341
 30
0.0
 10
-4.1912200000000004
 20
-3.86972
 30
0.0
 10
-3.3517299999999999
 20
-3.0746600000000002
 30
0.0
 10
-3.3517299999999999
 20
-3.0746600000000002
 30
0.0
 10
-2.8131200000000001
 20
-2.3001399999999999
 30
0.0
 10
-2.1293099999999998
 20
-1.8914
 30
0.0
 10
-1.35792
 20
-1.66015
 30
0.0
  0
SPLINE
  5
32
100
AcDbEntity
  8
Layer 1
100
AcDbSpline
210
0.0
220
0.0
230
1.0
 70
     1
 71
     3
 72
    16
 73
    12
 74
     0
 42
0.0000000001
 43
0.0000000001
 40
0.0
 40
0.0
 40
0.0
 40
0.0
 40
0.3333333333333333
 40
0.3333333333333333
 40
0.3333333333333333
 40
0.3333333333333333
 40
0.6666666666666666
 40
0.6666666666666666
 40
0.6666666666666666
 40
0.6666666666666666
 40
1.0
 40
1.0
 40
1.0
 40
1.0
 10
-0.40823
 20
-2.5390299999999999
 30
0.0
 10
-0.95368
 20
-2.6804000000000001
 30
0.0
 10
-1.4363900000000001
 20
-3.16913
 30
0.0
 10
-1.8952500000000001
 20
-3.7860200000000002
 30
0.0
 10
-1.8952500000000001
 20
-3.7860200000000002
 30
0.0
 10
-1.4381299999999999
 20
-3.9583200000000001
 30
0.0
 10
-1.02583
 20
-4.2434399999999997
 30
0.0
 10
-0.66721
 20
-4.6042899999999998
 30
0.0
 10
-0.66721
 20
-4.6042899999999998
 30
0.0
 10
-0.46437
 20
-3.8950999999999998
 30
0.0
 10
-0.38763
 20
-3.1753200000000001
 30
0.0
 10
-0.40823
 20
-2.5390299999999999
 30
0.0
  0
SPLINE
  5
33
100
AcDbEntity
  8
Layer 1
100
AcDbSpline
210
0.0
220
0.0
230
1.0
 70
     1
 71
     3
 72
    16
 73
    12
 74
     0
 42
0.0000000001
 43
0.0000000001
 40
0.0
 40
0.0
 40
0.0
 40
0.0
 40
0.3333333333333333
 40
0.3333333333333333
 40
0.3333333333333333
 40
0.3333333333333333
 40
0.6666666666666666
 40
0.6666666666666666
 40
0.6666666666666666
 40
0.6666666666666666
 40
1.0
 40
1.0
 40
1.0
 40
1.0
 10
-3.0520999999999998
 20
-6.9490999999999996
 30
0.0
 10
-2.5421200000000002
 20
-6.2734199999999998
 30
0.0
 10
-1.9657100000000001
 20
-5.8231900000000003
 30
0.0
 10
-1.29298
 20
-5.58744
 30
0.0
 10
-1.29298
 20
-5.58744
 30
0.0
 10
-1.9801899999999999
 20
-5.0479099999999999
 30
0.0
 10
-2.7391800000000002
 20
-5.19421
 30
0.0
 10
-3.54373
 20
-5.94442
 30
0.0
 10
-3.54373
 20
-5.94442
 30
0.0
 10
-3.24268
 20
-6.1169599999999997
 30
0.0
 10
-3.0950099999999998
 20
-6.4657499999999999
 30
0.0
 10
-3.0520999999999998
 20
-6.9490999999999996
 30
0.0
  0
SPLINE
  5
34
100
AcDbEntity
  8
Layer 1
100
AcDbSpline
210
0.0
220
0.0
230
1.0
 70
     1
 71
     3
 72
    16
 73
    12
 74
     0
 42
0.0000000001
 43
0.0000000001
 40
0.0
 40
0.0
 40
0.0
 40
0.0
 40
0.3333333333333333
 40
0.3333333333333333
 40
0.3333333333333333
 40
0.3333333333333333
 40
0.6666666666666666
 40
0.6666666666666666
 40
0.6666666666666666
 40
0.6666666666666666
 40
1.0
 40
1.0
 40
1.0
 40
1.0
 10
-3.8797600000000001
 20
-7.0800400000000003
 30
0.0
 10
-4.01004
 20
-6.6122800000000002
 30
0.0
 10
-4.2126700000000001
 20
-6.2511900000000002
 30
0.0
 10
-4.4612400000000001
 20
-6.10792
 30
0.0
 10
-4.4612400000000001
 20
-6.10792
 30
0.0
 10
-4.9158799999999996
 20
-5.9186399999999999
 30
0.0
 10
-5.2454200000000002
 20
-6.03803
 30
0.0
 10
-5.4134700000000002
 20
-6.5093100000000002
 30
0.0
 10
-5.4134700000000002
 20
-6.5093100000000002
 30
0.0
 10
-5.1040200000000002
 20
-6.3328100000000003
 30
0.0
 10
-4.3233300000000003
 20
-6.7177600000000002
 30
0.0
 10
-3.8797600000000001
 20
-7.0800400000000003
 30
0.0
  0
SPLINE
  5
35
100
AcDbEntity
  8
Layer 1
100
AcDbSpline
210
0.0
220
0.0
230
1.0
 70
     1
 71
     3
 72
    16
 73
    12
 74
     0
 42
0.0000000001
 43
0.0000000001
 40
0.0
 40
0.0
 40
0.0
 40
0.0
 40
0.3333333333333333
 40
0.3333333333333333
 40
0.3333333333333333
 40
0.3333333333333333
 40
0.6666666666666666
 40
0.6666666666666666
 40
0.6666666666666666
 40
0.6666666666666666
 40
1.0
 40
1.0
 40
1.0
 40
1.0
 10
-3.6889699999999999
 20
-8.1052400000000002
 30
0.0
 10
-3.5191499999999998
 20
-6.8447699999999996
 30
0.0
 10
-3.6794099999999998
 20
-6.3878700000000004
 30
0.0
 10
-4.2854999999999999
 20
-5.7787300000000004
 30
0.0
 10
-4.2854999999999999
 20
-5.7787300000000004
 30
0.0
 10
-5.1086
 20
-5.4895699999999996
 30
0.0
 10
-5.6576700000000004
 20
-5.7529399999999997
 30
0.0
 10
-5.8925700000000001
 20
-6.8760500000000002
 30
0.0
 10
-5.8925700000000001
 20
-6.8760500000000002
 30
0.0
 10
-5.0000499999999999
 20
-6.6894200000000001
 30
0.0
 10
-4.2492999999999999
 20
-7.08521
 30
0.0
 10
-3.6889699999999999
 20
-8.1052400000000002
 30
0.0
  0
SPLINE
  5
36
100
AcDbEntity
  8
Layer 1
100
AcDbSpline
210
0.0
220
0.0
230
1.0
 70
     1
 71
     3
 72
    16
 73
    12
 74
     0
 42
0.0000000001
 43
0.0000000001
 40
0.0
 40
0.0
 40
0.0
 40
0.0
 40
0.3333333333333333
 40
0.3333333333333333
 40
0.3333333333333333
 40
0.3333333333333333
 40
0.6666666666666666
 40
0.6666666666666666
 40
0.6666666666666666
 40
0.6666666666666666
 40
1.0
 40
1.0
 40
1.0
 40
1.0
 10
-5.7279299999999997
 20
-7.9831500000000002
 30
0.0
 10
-6.0326500000000003
 20
-7.9326400000000001
 30
0.0
 10
-6.3722399999999997
 20
-7.9269499999999997
 30
0.0
 10
-6.9799199999999999
 20
-8.3000399999999992
 30
0.0
 10
-6.9799199999999999
 20
-8.3000399999999992
 30
0.0
 10
-7.2544700000000004
 20
-8.4317200000000003
 30
0.0
 10
-7.4515399999999996
 20
-8.6157800000000009
 30
0.0
 10
-7.6085799999999999
 20
-8.9140800000000002
 30
0.0
 10
-7.6085799999999999
 20
-8.9140800000000002
 30
0.0
 10
-7.5685099999999998
 20
-9.0282900000000001
 30
0.0
 10
-5.6941800000000002
 20
-8.0433199999999996
 30
0.0
 10
-5.7279299999999997
 20
-7.9831500000000002
 30
0.0
  0
SPLINE
  5
37
100
AcDbEntity
  8
Layer 1
100
AcDbSpline
210
0.0
220
0.0
230
1.0
 70
     1
 71
     3
 72
    16
 73
    12
 74
     0
 42
0.0000000001
 43
0.0000000001
 40
0.0
 40
0.0
 40
0.0
 40
0.0
 40
0.3333333333333333
 40
0.3333333333333333
 40
0.3333333333333333
 40
0.3333333333333333
 40
0.6666666666666666
 40
0.6666666666666666
 40
0.6666666666666666
 40
0.6666666666666666
 40
1.0
 40
1.0
 40
1.0
 40
1.0
 10
-4.7705599999999997
 20
-7.7408099999999997
 30
0.0
 10
-5.4749600000000003
 20
-7.51328
 30
0.0
 10
-6.1717300000000002
 20
-7.4278000000000004
 30
0.0
 10
-6.8755499999999996
 20
-7.77942
 30
0.0
 10
-6.8755499999999996
 20
-7.77942
 30
0.0
 10
-7.5868099999999998
 20
-8.1820199999999996
 30
0.0
 10
-8.0954800000000002
 20
-8.9457000000000004
 30
0.0
 10
-8.5028199999999998
 20
-9.88992
 30
0.0
 10
-8.5028199999999998
 20
-9.88992
 30
0.0
 10
-8.4765200000000007
 20
-10.00109
 30
0.0
 10
-4.7579799999999999
 20
-7.8489000000000004
 30
0.0
 10
-4.7705599999999997
 20
-7.7408099999999997
 30
0.0
  0
SPLINE
  5
38
100
AcDbEntity
  8
Layer 1
100
AcDbSpline
210
0.0
220
0.0
230
1.0
 70
     1
 71
     3
 72
    16
 73
    12
 74
     0
 42
0.0000000001
 43
0.0000000001
 40
0.0
 40
0.0
 40
0.0
 40
0.0
 40
0.3333333333333333
 40
0.3333333333333333
 40
0.3333333333333333
 40
0.3333333333333333
 40
0.6666666666666666
 40
0.6666666666666666
 40
0.6666666666666666
 40
0.6666666666666666
 40
1.0
 40
1.0
 40
1.0
 40
1.0
 10
-1.54105
 20
-7.2866299999999997
 30
0.0
 10
-1.95678
 20
-7.3165899999999997
 30
0.0
 10
-2.3324699999999998
 20
-7.46075
 30
0.0
 10
-2.7117599999999999
 20
-7.7269800000000002
 30
0.0
 10
-2.7117599999999999
 20
-7.7269800000000002
 30
0.0
 10
-2.5367899999999999
 20
-7.8888699999999998
 30
0.0
 10
-2.3395299999999999
 20
-7.8978299999999999
 30
0.0
 10
-2.1548500000000002
 20
-7.7987500000000001
 30
0.0
 10
-2.1548500000000002
 20
-7.7987500000000001
 30
0.0
 10
-1.81904
 20
-7.7333800000000004
 30
0.0
 10
-1.6607000000000001
 20
-7.5230800000000002
 30
0.0
 10
-1.54105
 20
-7.2866299999999997
 30
0.0
  0
SPLINE
  5
39
100
AcDbEntity
  8
Layer 1
100
AcDbSpline
210
0.0
220
0.0
230
1.0
 70
     1
 71
     3
 72
    16
 73
    12
 74
     0
 42
0.0000000001
 43
0.0000000001
 40
0.0
 40
0.0
 40
0.0
 40
0.0
 40
0.3333333333333333
 40
0.3333333333333333
 40
0.3333333333333333
 40
0.3333333333333333
 40
0.6666666666666666
 40
0.6666666666666666
 40
0.6666666666666666
 40
0.6666666666666666
 40
1.0
 40
1.0
 40
1.0
 40
1.0
 10
-1.95706
 20
-10.91347
 30
0.0
 10
-1.7118899999999999
 20
-10.108470000000001
 30
0.0
 10
-1.8561000000000001
 20
-9.4446200000000005
 30
0.0
 10
-2.1550600000000002
 20
-8.8689800000000005
 30
0.0
 10
-2.1550600000000002
 20
-8.8689800000000005
 30
0.0
 10
-2.5812499999999998
 20
-8.3877500000000005
 30
0.0
 10
-2.9897200000000002
 20
-8.1737199999999994
 30
0.0
 10
-3.32403
 20
-8.52013
 30
0.0
 10
-3.32403
 20
-8.52013
 30
0.0
 10
-3.0920100000000001
 20
-8.2912400000000002
 30
0.0
 10
-1.7563500000000001
 20
-10.607390000000001
 30
0.0
 10
-1.95706
 20
-10.91347
 30
0.0
  0
SPLINE
  5
3A
100
AcDbEntity
  8
Layer 1
100
AcDbSpline
210
0.0
220
0.0
230
1.0
 70
     1
 71
     3
 72
    20
 73
    16
 74
     0
 42
0.0000000001
 43
0.0000000001
 40
0.0
 40
0.0
 40
0.0
 40
0.0
 40
0.25
 40
0.25
 40
0.25
 40
0.25
 40
0.5
 40
0.5
 40
0.5
 40
0.5
 40
0.75
 40
0.75
 40
0.75
 40
0.75
 40
1.0
 40
1.0
 40
1.0
 40
1.0
 10
-2.8429500000000001
 20
-12.803559999999999
 30
0.0
 10
-2.78057
 20
-12.76487
 30
0.0
 10
-2.70445
 20
-12.729229999999999
 30
0.0
 10
-2.6307900000000002
 20
-12.71059
 30
0.0
 10
-2.6307900000000002
 20
-12.71059
 30
0.0
 10
-2.40699
 20
-11.760479999999999
 30
0.0
 10
-2.62751
 20
-10.939170000000001
 30
0.0
 10
-3.18499
 20
-10.28825
 30
0.0
 10
-3.18499
 20
-10.28825
 30
0.0
 10
-3.2410899999999998
 20
-10.381
 30
0.0
 10
-3.2858999999999998
 20
-10.493819999999999
 30
0.0
 10
-3.34449
 20
-10.603540000000001
 30
0.0
 10
-3.34449
 20
-10.603540000000001
 30
0.0
 10
-2.9056799999999998
 20
-11.19286
 30
0.0
 10
-2.8013499999999998
 20
-11.93557
 30
0.0
 10
-2.8429500000000001
 20
-12.803559999999999
 30
0.0
  0
SPLINE
  5
3B
100
AcDbEntity
  8
Layer 1
100
AcDbSpline
210
0.0
220
0.0
230
1.0
 70
     1
 71
     3
 72
    20
 73
    16
 74
     0
 42
0.0000000001
 43
0.0000000001
 40
0.0
 40
0.0
 40
0.0
 40
0.0
 40
0.25
 40
0.25
 40
0.25
 40
0.25
 40
0.5
 40
0.5
 40
0.5
 40
0.5
 40
0.75
 40
0.75
 40
0.75
 40
0.75
 40
1.0
 40
1.0
 40
1.0
 40
1.0
 10
-4.1561000000000003
 20
-10.527520000000001
 30
0.0
 10
-4.1637300000000002
 20
-10.38547
 30
0.0
 10
-4.1688799999999997
 20
-10.22639
 30
0.0
 10
-4.1927199999999996
 20
-10.09825
 30
0.0
 10
-4.1927199999999996
 20
-10.09825
 30
0.0
 10
-4.9215499999999999
 20
-10.42672
 30
0.0
 10
-5.4038700000000004
 20
-11.30157
 30
0.0
 10
-5.7860800000000001
 20
-12.461959999999999
 30
0.0
 10
-5.7860800000000001
 20
-12.461959999999999
 30
0.0
 10
-5.7223100000000002
 20
-12.51131
 30
0.0
 10
-5.6473399999999998
 20
-12.58067
 30
0.0
 10
-5.5811500000000001
 20
-12.613009999999999
 30
0.0
 10
-5.5811500000000001
 20
-12.613009999999999
 30
0.0
 10
-5.5542400000000001
 20
-12.040010000000001
 30
0.0
 10
-4.4697500000000003
 20
-10.24689
 30
0.0
 10
-4.1561000000000003
 20
-10.527520000000001
 30
0.0
  0
SPLINE
  5
3C
100
AcDbEntity
  8
Layer 1
100
AcDbSpline
210
0.0
220
0.0
230
1.0
 70
     1
 71
     3
 72
   148
 73
   144
 74
     0
 42
0.0000000001
 43
0.0000000001
 40
0.0
 40
0.0
 40
0.0
 40
0.0
 40
0.0277777777777778
 40
0.0277777777777778
 40
0.0277777777777778
 40
0.0277777777777778
 40
0.0555555555555556
 40
0.0555555555555556
 40
0.0555555555555556
 40
0.0555555555555556
 40
0.0833333333333333
 40
0.0833333333333333
 40
0.0833333333333333
 40
0.0833333333333333
 40
0.1111111111111111
 40
0.1111111111111111
 40
0.1111111111111111
 40
0.1111111111111111
 40
0.1388888888888889
 40
0.1388888888888889
 40
0.1388888888888889
 40
0.1388888888888889
 40
0.1666666666666667
 40
0.1666666666666667
 40
0.1666666666666667
 40
0.1666666666666667
 40
0.1944444444444445
 40
0.1944444444444445
 40
0.1944444444444445
 40
0.1944444444444445
 40
0.2222222222222223
 40
0.2222222222222223
 40
0.2222222222222223
 40
0.2222222222222223
 40
0.2500000000000001
 40
0.2500000000000001
 40
0.2500000000000001
 40
0.2500000000000001
 40
0.2777777777777779
 40
0.2777777777777779
 40
0.2777777777777779
 40
0.2777777777777779
 40
0.3055555555555556
 40
0.3055555555555556
 40
0.3055555555555556
 40
0.3055555555555556
 40
0.3333333333333334
 40
0.3333333333333334
 40
0.3333333333333334
 40
0.3333333333333334
 40
0.3611111111111112
 40
0.3611111111111112
 40
0.3611111111111112
 40
0.3611111111111112
 40
0.388888888888889
 40
0.388888888888889
 40
0.388888888888889
 40
0.388888888888889
 40
0.4166666666666668
 40
0.4166666666666668
 40
0.4166666666666668
 40
0.4166666666666668
 40
0.4444444444444446
 40
0.4444444444444446
 40
0.4444444444444446
 40
0.4444444444444446
 40
0.4722222222222224
 40
0.4722222222222224
 40
0.4722222222222224
 40
0.4722222222222224
 40
0.5000000000000001
 40
0.5000000000000001
 40
0.5000000000000001
 40
0.5000000000000001
 40
0.5277777777777779
 40
0.5277777777777779
 40
0.5277777777777779
 40
0.5277777777777779
 40
0.5555555555555557
 40
0.5555555555555557
 40
0.5555555555555557
 40
0.5555555555555557
 40
0.5833333333333335
 40
0.5833333333333335
 40
0.5833333333333335
 40
0.5833333333333335
 40
0.6111111111111113
 40
0.6111111111111113
 40
0.6111111111111113
 40
0.6111111111111113
 40
0.6388888888888891
 40
0.6388888888888891
 40
0.6388888888888891
 40
0.6388888888888891
 40
0.6666666666666669
 40
0.6666666666666669
 40
0.6666666666666669
 40
0.6666666666666669
 40
0.6944444444444446
 40
0.6944444444444446
 40
0.6944444444444446
 40
0.6944444444444446
 40
0.7222222222222224
 40
0.7222222222222224
 40
0.7222222222222224
 40
0.7222222222222224
 40
0.7500000000000002
 40
0.7500000000000002
 40
0.7500000000000002
 40
0.7500000000000002
 40
0.777777777777778
 40
0.777777777777778
 40
0.777777777777778
 40
0.777777777777778
 40
0.8055555555555558
 40
0.8055555555555558
 40
0.8055555555555558
 40
0.8055555555555558
 40
0.8333333333333336
 40
0.8333333333333336
 40
0.8333333333333336
 40
0.8333333333333336
 40
0.8611111111111114
 40
0.8611111111111114
 40
0.8611111111111114
 40
0.8611111111111114
 40
0.8888888888888892
 40
0.8888888888888892
 40
0.8888888888888892
 40
0.8888888888888892
 40
0.916666666666667
 40
0.916666666666667
 40
0.916666666666667
 40
0.916666666666667
 40
0.9444444444444448
 40
0.9444444444444448
 40
0.9444444444444448
 40
0.9444444444444448
 40
0.9722222222222225
 40
0.9722222222222225
 40
0.9722222222222225
 40
0.9722222222222225
 40
1.0
 40
1.0
 40
1.0
 40
1.0
 10
-2.90082
 20
-14.94885
 30
0.0
 10
-2.8612899999999999
 20
-13.22058
 30
0.0
 10
-3.1218699999999999
 20
-12.28506
 30
0.0
 10
-3.67137
 20
-12.162319999999999
 30
0.0
 10
-3.67137
 20
-12.162319999999999
 30
0.0
 10
-4.77806
 20
-18.091329999999999
 30
0.0
 10
-3.5796600000000001
 20
-23.09647
 30
0.0
 10
-2.0792600000000001
 20
-27.976089999999999
 30
0.0
 10
-2.0792600000000001
 20
-27.976089999999999
 30
0.0
 10
-1.96438
 20
-27.966640000000002
 30
0.0
 10
-1.86578
 20
-27.971129999999999
 30
0.0
 10
-1.7646299999999999
 20
-27.958629999999999
 30
0.0
 10
-1.7646299999999999
 20
-27.958629999999999
 30
0.0
 10
-2.81846
 20
-24.003450000000001
 30
0.0
 10
-3.1113499999999998
 20
-18.042560000000002
 30
0.0
 10
-1.87547
 20
-12.68632
 30
0.0
 10
-1.87547
 20
-12.68632
 30
0.0
 10
-1.28528
 20
-9.71251
 30
0.0
 10
-0.67886
 20
-6.7247599999999998
 30
0.0
 10
-0.08867
 20
-3.7509299999999999
 30
0.0
 10
-0.08867
 20
-3.7509299999999999
 30
0.0
 10
0.01799
 20
-3.0202599999999999
 30
0.0
 10
0.0672
 20
-2.2943500000000001
 30
0.0
 10
-0.24527
 20
-1.90872
 30
0.0
 10
-0.24527
 20
-1.90872
 30
0.0
 10
-1.4788600000000001
 20
-0.5453
 30
0.0
 10
-3.5729899999999999
 20
-1.4811700000000001
 30
0.0
 10
-4.41709
 20
-2.6962899999999999
 30
0.0
 10
-4.41709
 20
-2.6962899999999999
 30
0.0
 10
-5.0440300000000002
 20
-3.7844500000000001
 30
0.0
 10
-5.5712099999999998
 20
-4.7721299999999998
 30
0.0
 10
-6.7812099999999997
 20
-4.6070900000000004
 30
0.0
 10
-6.7812099999999997
 20
-4.6070900000000004
 30
0.0
 10
-6.7823500000000001
 20
-4.7121199999999996
 30
0.0
 10
-6.7947499999999996
 20
-4.7970800000000002
 30
0.0
 10
-6.7983799999999999
 20
-4.9190899999999997
 30
0.0
 10
-6.7983799999999999
 20
-4.9190899999999997
 30
0.0
 10
-5.87134
 20
-5.5648400000000002
 30
0.0
 10
-4.8784799999999997
 20
-5.8568100000000003
 30
0.0
 10
-3.27277
 20
-3.4081299999999999
 30
0.0
 10
-3.27277
 20
-3.4081299999999999
 30
0.0
 10
-2.4074800000000001
 20
-2.14507
 30
0.0
 10
-1.4751000000000001
 20
-1.87964
 30
0.0
 10
-0.5297500000000001
 20
-2.1083500000000002
 30
0.0
 10
-0.5297500000000001
 20
-2.1083500000000002
 30
0.0
 10
-1.32972
 20
-2.4384700000000001
 30
0.0
 10
-1.9171800000000001
 20
-3.0617399999999999
 30
0.0
 10
-2.2846700000000002
 20
-3.92713
 30
0.0
 10
-2.2846700000000002
 20
-3.92713
 30
0.0
 10
-1.5827599999999999
 20
-4.1716499999999996
 30
0.0
 10
-0.93696
 20
-4.5089300000000003
 30
0.0
 10
-0.7662
 20
-5.4770200000000004
 30
0.0
 10
-0.7662
 20
-5.4770200000000004
 30
0.0
 10
-1.8496900000000001
 20
-4.4454200000000004
 30
0.0
 10
-2.8433199999999998
 20
-4.6445699999999999
 30
0.0
 10
-3.7883200000000001
 20
-6.0652299999999997
 30
0.0
 10
-3.7883200000000001
 20
-6.0652299999999997
 30
0.0
 10
-3.4184000000000001
 20
-6.4461700000000004
 30
0.0
 10
-3.2755100000000001
 20
-7.0220099999999999
 30
0.0
 10
-3.4096500000000001
 20
-7.7465200000000003
 30
0.0
 10
-3.4096500000000001
 20
-7.7465200000000003
 30
0.0
 10
-2.9836100000000001
 20
-8.0346899999999994
 30
0.0
 10
-2.5427200000000001
 20
-8.2209199999999996
 30
0.0
 10
-2.1094200000000001
 20
-8.2650799999999993
 30
0.0
 10
-2.1094200000000001
 20
-8.2650799999999993
 30
0.0
 10
-1.70269
 20
-8.0050299999999996
 30
0.0
 10
-1.4084700000000001
 20
-7.5443699999999998
 30
0.0
 10
-1.11808
 20
-7.0126600000000003
 30
0.0
 10
-1.11808
 20
-7.0126600000000003
 30
0.0
 10
-1.6538200000000001
 20
-6.8929799999999997
 30
0.0
 10
-2.2380200000000001
 20
-7.0081300000000004
 30
0.0
 10
-2.8370799999999998
 20
-7.2252200000000002
 30
0.0
 10
-2.8370799999999998
 20
-7.2252200000000002
 30
0.0
 10
-2.2685200000000001
 20
-6.4398299999999997
 30
0.0
 10
-1.6698
 20
-5.8366100000000003
 30
0.0
 10
-0.80571
 20
-5.9419199999999996
 30
0.0
 10
-0.80571
 20
-5.9419199999999996
 30
0.0
 10
-1.2220500000000001
 20
-7.9193699999999998
 30
0.0
 10
-1.6359399999999999
 20
-9.8798100000000009
 30
0.0
 10
-2.0248200000000001
 20
-11.863390000000001
 30
0.0
 10
-2.0248200000000001
 20
-11.863390000000001
 30
0.0
 10
-2.20852
 20
-10.401120000000001
 30
0.0
 10
-2.6889099999999999
 20
-9.4164999999999992
 30
0.0
 10
-3.4509099999999999
 20
-9.0006299999999992
 30
0.0
 10
-3.4509099999999999
 20
-9.0006299999999992
 30
0.0
 10
-5.7372899999999998
 20
-7.3669399999999996
 30
0.0
 10
-7.7621900000000004
 20
-10.160640000000001
 30
0.0
 10
-8.67347
 20
-12.904820000000001
 30
0.0
 10
-8.67347
 20
-12.904820000000001
 30
0.0
 10
-8.59849
 20
-12.97419
 30
0.0
 10
-8.53477
 20
-13.023540000000001
 30
0.0
 10
-8.4597899999999999
 20
-13.09291
 30
0.0
 10
-8.4597899999999999
 20
-13.09291
 30
0.0
 10
-7.6010200000000001
 20
-11.58276
 30
0.0
 10
-6.6770100000000001
 20
-10.40305
 30
0.0
 10
-5.6385199999999998
 20
-10.09113
 30
0.0
 10
-5.6385199999999998
 20
-10.09113
 30
0.0
 10
-6.13056
 20
-11.22695
 30
0.0
 10
-6.4053699999999996
 20
-12.42886
 30
0.0
 10
-6.3229699999999998
 20
-13.710610000000001
 30
0.0
 10
-6.3229699999999998
 20
-13.710610000000001
 30
0.0
 10
-5.79087
 20
-13.95232
 30
0.0
 10
-5.1955999999999998
 20
-13.66417
 30
0.0
 10
-4.5684399999999998
 20
-12.76905
 30
0.0
 10
-4.5684399999999998
 20
-12.76905
 30
0.0
 10
-5.1016199999999996
 20
-16.615359999999999
 30
0.0
 10
-4.9473399999999996
 20
-19.93094
 30
0.0
 10
-4.5812900000000001
 20
-22.76745
 30
0.0
 10
-4.5812900000000001
 20
-22.76745
 30
0.0
 10
-4.2771299999999997
 20
-24.59431
 30
0.0
 10
-3.9095200000000001
 20
-26.350750000000001
 30
0.0
 10
-3.3777400000000002
 20
-28.031870000000001
 30
0.0
 10
-3.3777400000000002
 20
-28.031870000000001
 30
0.0
 10
-3.3777400000000002
 20
-28.031870000000001
 30
0.0
 10
-3.1041099999999999
 20
-28.031870000000001
 30
0.0
 10
-3.1041099999999999
 20
-28.031870000000001
 30
0.0
 10
-3.1041099999999999
 20
-28.031870000000001
 30
0.0
 10
-3.6455600000000001
 20
-26.340109999999999
 30
0.0
 10
-4.0016600000000002
 20
-24.531479999999998
 30
0.0
 10
-4.2867300000000004
 20
-22.69286
 30
0.0
 10
-4.2867300000000004
 20
-22.69286
 30
0.0
 10
-4.8757900000000003
 20
-19.052070000000001
 30
0.0
 10
-4.66106
 20
-15.15218
 30
0.0
 10
-4.1492300000000002
 20
-11.16071
 30
0.0
 10
-4.1492300000000002
 20
-11.16071
 30
0.0
 10
-4.45512
 20
-12.478529999999999
 30
0.0
 10
-5.1036400000000004
 20
-13.22852
 30
0.0
 10
-6.0972400000000002
 20
-13.427670000000001
 30
0.0
 10
-6.0972400000000002
 20
-13.427670000000001
 30
0.0
 10
-6.2023400000000004
 20
-11.91277
 30
0.0
 10
-5.6329900000000004
 20
-10.636279999999999
 30
0.0
 10
-4.9674899999999997
 20
-9.38124
 30
0.0
 10
-4.9674899999999997
 20
-9.38124
 30
0.0
 10
-5.9901299999999997
 20
-9.2931600000000003
 30
0.0
 10
-6.9978999999999996
 20
-10.36646
 30
0.0
 10
-8.0228599999999997
 20
-11.751749999999999
 30
0.0
 10
-8.0228599999999997
 20
-11.751749999999999
 30
0.0
 10
-6.9257799999999996
 20
-10.066739999999999
 30
0.0
 10
-5.9925499999999996
 20
-8.0468499999999992
 30
0.0
 10
-3.5680499999999999
 20
-9.2201000000000004
 30
0.0
 10
-3.5680499999999999
 20
-9.2201000000000004
 30
0.0
 10
-1.95248
 20
-10.493399999999999
 30
0.0
 10
-1.93384
 20
-12.989100000000001
 30
0.0
 10
-2.90082
 20
-14.94885
 30
0.0
  0
SPLINE
  5
3D
100
AcDbEntity
  8
Layer 1
100
AcDbSpline
210
0.0
220
0.0
230
1.0
 70
     1
 71
     3
 72
    24
 73
    20
 74
     0
 42
0.0000000001
 43
0.0000000001
 40
0.0
 40
0.0
 40
0.0
 40
0.0
 40
0.2
 40
0.2
 40
0.2
 40
0.2
 40
0.4
 40
0.4
 40
0.4
 40
0.4
 40
0.6000000000000001
 40
0.6000000000000001
 40
0.6000000000000001
 40
0.6000000000000001
 40
0.8
 40
0.8
 40
0.8
 40
0.8
 40
1.0
 40
1.0
 40
1.0
 40
1.0
 10
-2.4825900000000001
 20
-14.901859999999999
 30
0.0
 10
-2.6171000000000002
 20
-15.240270000000001
 30
0.0
 10
-2.82165
 20
-15.47532
 30
0.0
 10
-3.0525000000000002
 20
-15.599220000000001
 30
0.0
 10
-3.0525000000000002
 20
-15.599220000000001
 30
0.0
 10
-3.1000200000000002
 20
-15.53598
 30
0.0
 10
-3.1499999999999999
 20
-15.489739999999999
 30
0.0
 10
-3.1837900000000001
 20
-15.429539999999999
 30
0.0
 10
-3.1837900000000001
 20
-15.429539999999999
 30
0.0
 10
-3.07403
 20
-13.997719999999999
 30
0.0
 10
-3.2159599999999999
 20
-13.123810000000001
 30
0.0
 10
-3.6120199999999998
 20
-12.82479
 30
0.0
 10
-3.6120199999999998
 20
-12.82479
 30
0.0
 10
-4.1347199999999997
 20
-17.182279999999999
 30
0.0
 10
-3.71759
 20
-21.22334
 30
0.0
 10
-2.6238800000000002
 20
-25.099679999999999
 30
0.0
 10
-2.6238800000000002
 20
-25.099679999999999
 30
0.0
 10
-2.93418
 20
-21.784330000000001
 30
0.0
 10
-3.2504400000000002
 20
-18.801020000000001
 30
0.0
 10
-2.4825900000000001
 20
-14.901859999999999
 30
0.0
  0
SPLINE
  5
3E
100
AcDbEntity
  8
Layer 1
100
AcDbSpline
210
0.0
220
0.0
230
1.0
 70
     1
 71
     3
 72
    32
 73
    28
 74
     0
 42
0.0000000001
 43
0.0000000001
 40
0.0
 40
0.0
 40
0.0
 40
0.0
 40
0.1428571428571429
 40
0.1428571428571429
 40
0.1428571428571429
 40
0.1428571428571429
 40
0.2857142857142857
 40
0.2857142857142857
 40
0.2857142857142857
 40
0.2857142857142857
 40
0.4285714285714286
 40
0.4285714285714286
 40
0.4285714285714286
 40
0.4285714285714286
 40
0.5714285714285714
 40
0.5714285714285714
 40
0.5714285714285714
 40
0.5714285714285714
 40
0.7142857142857142
 40
0.7142857142857142
 40
0.7142857142857142
 40
0.7142857142857142
 40
0.857142857142857
 40
0.857142857142857
 40
0.857142857142857
 40
0.857142857142857
 40
1.0
 40
1.0
 40
1.0
 40
1.0
 10
0.6821
 20
-11.976760000000001
 30
0.0
 10
0.02472
 20
-8.70669
 30
0.0
 10
1.4422900000000001
 20
-7.93553
 30
0.0
 10
1.66404
 20
-6.1251600000000002
 30
0.0
 10
1.66404
 20
-6.1251600000000002
 30
0.0
 10
1.9510099999999999
 20
-4.6452200000000001
 30
0.0
 10
1.66544
 20
-3.6865600000000001
 30
0.0
 10
1.1154200000000001
 20
-2.9846900000000001
 30
0.0
 10
1.1154200000000001
 20
-2.9846900000000001
 30
0.0
 10
0.83934
 20
-2.8352900000000001
 30
0.0
 10
0.61347
 20
-2.9252099999999999
 30
0.0
 10
0.42399
 20
-3.2513200000000002
 30
0.0
 10
0.42399
 20
-3.2513200000000002
 30
0.0
 10
-2.1393499999999999
 20
-13.522220000000001
 30
0.0
 10
-1.9132499999999999
 20
-20.13496
 30
0.0
 10
-1.8018099999999999
 20
-26.950189999999999
 30
0.0
 10
-1.8018099999999999
 20
-26.950189999999999
 30
0.0
 10
-1.6919299999999999
 20
-26.974740000000001
 30
0.0
 10
-1.62819
 20
-27.024080000000001
 30
0.0
 10
-1.5320400000000001
 20
-27.045549999999999
 30
0.0
 10
-1.5320400000000001
 20
-27.045549999999999
 30
0.0
 10
-1.78809
 20
-20.443650000000002
 30
0.0
 10
-1.45384
 20
-13.587619999999999
 30
0.0
 10
-0.10096
 20
-6.5555500000000002
 30
0.0
 10
-0.10096
 20
-6.5555500000000002
 30
0.0
 10
-0.00694
 20
-8.24343
 30
0.0
 10
-0.45458
 20
-10.14368
 30
0.0
 10
0.6821
 20
-11.976760000000001
 30
0.0
  0
SPLINE
  5
3F
100
AcDbEntity
  8
Layer 1
100
AcDbSpline
210
0.0
220
0.0
230
1.0
 70
     1
 71
     3
 72
    24
 73
    20
 74
     0
 42
0.0000000001
 43
0.0000000001
 40
0.0
 40
0.0
 40
0.0
 40
0.0
 40
0.2
 40
0.2
 40
0.2
 40
0.2
 40
0.4
 40
0.4
 40
0.4
 40
0.4
 40
0.6000000000000001
 40
0.6000000000000001
 40
0.6000000000000001
 40
0.6000000000000001
 40
0.8
 40
0.8
 40
0.8
 40
0.8
 40
1.0
 40
1.0
 40
1.0
 40
1.0
 10
6.1305899999999998
 20
5.3451399999999998
 30
0.0
 10
5.5206400000000002
 20
6.2857200000000004
 30
0.0
 10
4.7480500000000001
 20
6.4697399999999998
 30
0.0
 10
3.8330700000000002
 20
5.7949700000000002
 30
0.0
 10
3.8330700000000002
 20
5.7949700000000002
 30
0.0
 10
3.4264100000000002
 20
7.6556899999999999
 30
0.0
 10
2.8774600000000001
 20
8.5145
 30
0.0
 10
2.2675100000000001
 20
8.3508999999999993
 30
0.0
 10
2.2675100000000001
 20
8.3508999999999993
 30
0.0
 10
2.9181300000000001
 20
7.8806099999999999
 30
0.0
 10
3.3044199999999999
 20
6.9195799999999998
 30
0.0
 10
3.4060999999999999
 20
5.4678100000000001
 30
0.0
 10
3.4060999999999999
 20
5.4678100000000001
 30
0.0
 10
3.5280999999999998
 20
5.3860200000000003
 30
0.0
 10
3.6907399999999999
 20
5.28376
 30
0.0
 10
3.8127399999999998
 20
5.1815499999999997
 30
0.0
 10
3.8127399999999998
 20
5.1815499999999997
 30
0.0
 10
4.5243700000000002
 20
6.0198900000000002
 30
0.0
 10
5.2969799999999996
 20
6.1016700000000004
 30
0.0
 10
6.1305899999999998
 20
5.3451399999999998
 30
0.0
  0
SPLINE
  5
40
100
AcDbEntity
  8
Layer 1
100
AcDbSpline
210
0.0
220
0.0
230
1.0
 70
     1
 71
     3
 72
    24
 73
    20
 74
     0
 42
0.0000000001
 43
0.0000000001
 40
0.0
 40
0.0
 40
0.0
 40
0.0
 40
0.2
 40
0.2
 40
0.2
 40
0.2
 40
0.4
 40
0.4
 40
0.4
 40
0.4
 40
0.6000000000000001
 40
0.6000000000000001
 40
0.6000000000000001
 40
0.6000000000000001
 40
0.8
 40
0.8
 40
0.8
 40
0.8
 40
1.0
 40
1.0
 40
1.0
 40
1.0
 10
10.693630000000001
 20
6.3512700000000004
 30
0.0
 10
10.305149999999999
 20
7.29453
 30
0.0
 10
9.5759699999999999
 20
7.2607400000000002
 30
0.0
 10
8.3709799999999994
 20
6.6484300000000003
 30
0.0
 10
8.3709799999999994
 20
6.6484300000000003
 30
0.0
 10
8.02393
 20
7.9373800000000001
 30
0.0
 10
7.5245800000000003
 20
8.8384199999999993
 30
0.0
 10
6.6900500000000003
 20
8.6783099999999997
 30
0.0
 10
6.6900500000000003
 20
8.6783099999999997
 30
0.0
 10
7.4398
 20
8.2512699999999999
 30
0.0
 10
7.9372199999999999
 20
7.45444
 30
0.0
 10
7.9752400000000003
 20
6.0553999999999997
 30
0.0
 10
7.9752400000000003
 20
6.0553999999999997
 30
0.0
 10
8.0880500000000008
 20
5.9933399999999999
 30
0.0
 10
8.1880900000000008
 20
5.9751799999999999
 30
0.0
 10
8.3245500000000003
 20
5.9296199999999999
 30
0.0
 10
8.3245500000000003
 20
5.9296199999999999
 30
0.0
 10
9.2071699999999996
 20
6.9329200000000002
 30
0.0
 10
9.9783299999999997
 20
6.8552
 30
0.0
 10
10.693630000000001
 20
6.3512700000000004
 30
0.0
  0
SPLINE
  5
41
100
AcDbEntity
  8
Layer 1
100
AcDbSpline
210
0.0
220
0.0
230
1.0
 70
     1
 71
     3
 72
    24
 73
    20
 74
     0
 42
0.0000000001
 43
0.0000000001
 40
0.0
 40
0.0
 40
0.0
 40
0.0
 40
0.2
 40
0.2
 40
0.2
 40
0.2
 40
0.4
 40
0.4
 40
0.4
 40
0.4
 40
0.6000000000000001
 40
0.6000000000000001
 40
0.6000000000000001
 40
0.6000000000000001
 40
0.8
 40
0.8
 40
0.8
 40
0.8
 40
1.0
 40
1.0
 40
1.0
 40
1.0
 10
8.1734200000000001
 20
2.2260499999999999
 30
0.0
 10
7.7849399999999997
 20
3.1692900000000002
 30
0.0
 10
7.0557600000000003
 20
3.1354899999999999
 30
0.0
 10
5.8507800000000003
 20
2.5232000000000001
 30
0.0
 10
5.8507800000000003
 20
2.5232000000000001
 30
0.0
 10
6.1921999999999997
 20
3.81216
 30
0.0
 10
5.3650099999999998
 20
4.7132100000000001
 30
0.0
 10
4.1698500000000003
 20
4.55307
 30
0.0
 10
4.1698500000000003
 20
4.55307
 30
0.0
 10
4.9196099999999996
 20
4.1260300000000001
 30
0.0
 10
5.4170199999999999
 20
3.3292000000000002
 30
0.0
 10
5.4550599999999996
 20
1.9301600000000001
 30
0.0
 10
5.4550599999999996
 20
1.9301600000000001
 30
0.0
 10
5.5678700000000001
 20
1.8681099999999999
 30
0.0
 10
5.6679199999999996
 20
1.84996
 30
0.0
 10
5.8043399999999998
 20
1.8043899999999999
 30
0.0
 10
5.8043399999999998
 20
1.8043899999999999
 30
0.0
 10
6.6870000000000003
 20
2.80768
 30
0.0
 10
7.4581400000000002
 20
2.7299799999999999
 30
0.0
 10
8.1734200000000001
 20
2.2260499999999999
 30
0.0
  0
SPLINE
  5
42
100
AcDbEntity
  8
Layer 1
100
AcDbSpline
210
0.0
220
0.0
230
1.0
 70
     1
 71
     3
 72
    20
 73
    16
 74
     0
 42
0.0000000001
 43
0.0000000001
 40
0.0
 40
0.0
 40
0.0
 40
0.0
 40
0.25
 40
0.25
 40
0.25
 40
0.25
 40
0.5
 40
0.5
 40
0.5
 40
0.5
 40
0.75
 40
0.75
 40
0.75
 40
0.75
 40
1.0
 40
1.0
 40
1.0
 40
1.0
 10
50.807859999999998
 20
-25.474060000000001
 30
0.0
 10
50.37677
 20
-25.185310000000001
 30
0.0
 10
49.966999999999999
 20
-25.108640000000001
 30
0.0
 10
49.60474
 20
-25.512560000000001
 30
0.0
 10
49.60474
 20
-25.512560000000001
 30
0.0
 10
50.043979999999998
 20
-25.482410000000002
 30
0.0
 10
50.47936
 20
-25.652940000000001
 30
0.0
 10
50.918590000000002
 20
-25.920349999999999
 30
0.0
 10
50.918590000000002
 20
-25.920349999999999
 30
0.0
 10
51.349550000000001
 20
-25.63561
 30
0.0
 10
51.7761
 20
-25.414709999999999
 30
0.0
 10
52.202939999999998
 20
-25.325209999999998
 30
0.0
 10
52.202939999999998
 20
-25.325209999999998
 30
0.0
 10
51.738059999999997
 20
-25.066289999999999
 30
0.0
 10
51.273180000000004
 20
-25.235849999999999
 30
0.0
 10
50.807859999999998
 20
-25.474060000000001
 30
0.0
  0
SPLINE
  5
43
100
AcDbEntity
  8
Layer 1
100
AcDbSpline
210
0.0
220
0.0
230
1.0
 70
     1
 71
     3
 72
    20
 73
    16
 74
     0
 42
0.0000000001
 43
0.0000000001
 40
0.0
 40
0.0
 40
0.0
 40
0.0
 40
0.25
 40
0.25
 40
0.25
 40
0.25
 40
0.5
 40
0.5
 40
0.5
 40
0.5
 40
0.75
 40
0.75
 40
0.75
 40
0.75
 40
1.0
 40
1.0
 40
1.0
 40
1.0
 10
9.7844099999999994
 20
-25.474060000000001
 30
0.0
 10
9.3533299999999997
 20
-25.185310000000001
 30
0.0
 10
8.9435800000000008
 20
-25.108640000000001
 30
0.0
 10
8.5813100000000002
 20
-25.512560000000001
 30
0.0
 10
8.5813100000000002
 20
-25.512560000000001
 30
0.0
 10
9.0205400000000004
 20
-25.482410000000002
 30
0.0
 10
9.4559099999999994
 20
-25.652940000000001
 30
0.0
 10
9.89513
 20
-25.920349999999999
 30
0.0
 10
9.89513
 20
-25.920349999999999
 30
0.0
 10
10.32612
 20
-25.63561
 30
0.0
 10
10.752700000000001
 20
-25.414709999999999
 30
0.0
 10
11.17952
 20
-25.325209999999998
 30
0.0
 10
11.17952
 20
-25.325209999999998
 30
0.0
 10
10.71463
 20
-25.066289999999999
 30
0.0
 10
10.249739999999999
 20
-25.235849999999999
 30
0.0
 10
9.7844099999999994
 20
-25.474060000000001
 30
0.0
  0
SPLINE
  5
44
100
AcDbEntity
  8
Layer 1
100
AcDbSpline
210
0.0
220
0.0
230
1.0
 70
     1
 71
     3
 72
    20
 73
    16
 74
     0
 42
0.0000000001
 43
0.0000000001
 40
0.0
 40
0.0
 40
0.0
 40
0.0
 40
0.25
 40
0.25
 40
0.25
 40
0.25
 40
0.5
 40
0.5
 40
0.5
 40
0.5
 40
0.75
 40
0.75
 40
0.75
 40
0.75
 40
1.0
 40
1.0
 40
1.0
 40
1.0
 10
33.477919999999997
 20
-25.474060000000001
 30
0.0
 10
33.04683
 20
-25.185310000000001
 30
0.0
 10
32.637050000000002
 20
-25.108640000000001
 30
0.0
 10
32.274810000000002
 20
-25.512560000000001
 30
0.0
 10
32.274810000000002
 20
-25.512560000000001
 30
0.0
 10
32.714039999999997
 20
-25.482410000000002
 30
0.0
 10
33.1494
 20
-25.652940000000001
 30
0.0
 10
33.588659999999997
 20
-25.920349999999999
 30
0.0
 10
33.588659999999997
 20
-25.920349999999999
 30
0.0
 10
34.019640000000003
 20
-25.63561
 30
0.0
 10
34.446179999999998
 20
-25.414709999999999
 30
0.0
 10
34.873019999999997
 20
-25.325209999999998
 30
0.0
 10
34.873019999999997
 20
-25.325209999999998
 30
0.0
 10
34.408160000000002
 20
-25.066289999999999
 30
0.0
 10
33.943260000000002
 20
-25.235849999999999
 30
0.0
 10
33.477919999999997
 20
-25.474060000000001
 30
0.0
  0
SPLINE
  5
45
100
AcDbEntity
  8
Layer 1
100
AcDbSpline
210
0.0
220
0.0
230
1.0
 70
     1
 71
     3
 72
    20
 73
    16
 74
     0
 42
0.0000000001
 43
0.0000000001
 40
0.0
 40
0.0
 40
0.0
 40
0.0
 40
0.25
 40
0.25
 40
0.25
 40
0.25
 40
0.5
 40
0.5
 40
0.5
 40
0.5
 40
0.75
 40
0.75
 40
0.75
 40
0.75
 40
1.0
 40
1.0
 40
1.0
 40
1.0
 10
15.817780000000001
 20
-25.474060000000001
 30
0.0
 10
15.38673
 20
-25.185310000000001
 30
0.0
 10
14.97692
 20
-25.108640000000001
 30
0.0
 10
14.614660000000001
 20
-25.512560000000001
 30
0.0
 10
14.614660000000001
 20
-25.512560000000001
 30
0.0
 10
15.053879999999999
 20
-25.482410000000002
 30
0.0
 10
15.489280000000001
 20
-25.652940000000001
 30
0.0
 10
15.9285
 20
-25.920349999999999
 30
0.0
 10
15.9285
 20
-25.920349999999999
 30
0.0
 10
16.35952
 20
-25.63561
 30
0.0
 10
16.786090000000002
 20
-25.414709999999999
 30
0.0
 10
17.212900000000001
 20
-25.325209999999998
 30
0.0
 10
17.212900000000001
 20
-25.325209999999998
 30
0.0
 10
16.748010000000001
 20
-25.066289999999999
 30
0.0
 10
16.28313
 20
-25.235849999999999
 30
0.0
 10
15.817780000000001
 20
-25.474060000000001
 30
0.0
  0
SPLINE
  5
46
100
AcDbEntity
  8
Layer 1
100
AcDbSpline
210
0.0
220
0.0
230
1.0
 70
     1
 71
     3
 72
    20
 73
    16
 74
     0
 42
0.0000000001
 43
0.0000000001
 40
0.0
 40
0.0
 40
0.0
 40
0.0
 40
0.25
 40
0.25
 40
0.25
 40
0.25
 40
0.5
 40
0.5
 40
0.5
 40
0.5
 40
0.75
 40
0.75
 40
0.75
 40
0.75
 40
1.0
 40
1.0
 40
1.0
 40
1.0
 10
42.216430000000003
 20
-25.34459
 30
0.0
 10
41.785310000000003
 20
-25.05583
 30
0.0
 10
41.375540000000001
 20
-24.979150000000001
 30
0.0
 10
41.013280000000002
 20
-25.383099999999999
 30
0.0
 10
41.013280000000002
 20
-25.383099999999999
 30
0.0
 10
41.452509999999997
 20
-25.35294
 30
0.0
 10
41.887889999999999
 20
-25.52346
 30
0.0
 10
42.327150000000003
 20
-25.790870000000002
 30
0.0
 10
42.327150000000003
 20
-25.790870000000002
 30
0.0
 10
42.75808
 20
-25.506129999999999
 30
0.0
 10
43.184690000000003
 20
-25.285240000000002
 30
0.0
 10
43.611490000000003
 20
-25.195740000000001
 30
0.0
 10
43.611490000000003
 20
-25.195740000000001
 30
0.0
 10
43.146630000000002
 20
-24.93684
 30
0.0
 10
42.681730000000002
 20
-25.106390000000001
 30
0.0
 10
42.216430000000003
 20
-25.34459
 30
0.0
  0
SPLINE
  5
47
100
AcDbEntity
  8
Layer 1
100
AcDbSpline
210
0.0
220
0.0
230
1.0
 70
     1
 71
     3
 72
    20
 73
    16
 74
     0
 42
0.0000000001
 43
0.0000000001
 40
0.0
 40
0.0
 40
0.0
 40
0.0
 40
0.25
 40
0.25
 40
0.25
 40
0.25
 40
0.5
 40
0.5
 40
0.5
 40
0.5
 40
0.75
 40
0.75
 40
0.75
 40
0.75
 40
1.0
 40
1.0
 40
1.0
 40
1.0
 10
0.73934
 20
-25.34459
 30
0.0
 10
0.32724
 20
-25.05583
 30
0.0
 10
-0.06448
 20
-24.979150000000001
 30
0.0
 10
-0.4108
 20
-25.383099999999999
 30
0.0
 10
-0.4108
 20
-25.383099999999999
 30
0.0
 10
0.00911
 20
-25.35294
 30
0.0
 10
0.42528
 20
-25.52346
 30
0.0
 10
0.84518
 20
-25.790870000000002
 30
0.0
 10
0.84518
 20
-25.790870000000002
 30
0.0
 10
1.2571399999999999
 20
-25.506129999999999
 30
0.0
 10
1.66493
 20
-25.285240000000002
 30
0.0
 10
2.0729500000000001
 20
-25.195740000000001
 30
0.0
 10
2.0729500000000001
 20
-25.195740000000001
 30
0.0
 10
1.6285400000000001
 20
-24.93684
 30
0.0
 10
1.1841299999999999
 20
-25.106390000000001
 30
0.0
 10
0.73934
 20
-25.34459
 30
0.0
  0
SPLINE
  5
48
100
AcDbEntity
  8
Layer 1
100
AcDbSpline
210
0.0
220
0.0
230
1.0
 70
     1
 71
     3
 72
    20
 73
    16
 74
     0
 42
0.0000000001
 43
0.0000000001
 40
0.0
 40
0.0
 40
0.0
 40
0.0
 40
0.25
 40
0.25
 40
0.25
 40
0.25
 40
0.5
 40
0.5
 40
0.5
 40
0.5
 40
0.75
 40
0.75
 40
0.75
 40
0.75
 40
1.0
 40
1.0
 40
1.0
 40
1.0
 10
24.556290000000001
 20
-25.34459
 30
0.0
 10
24.1252
 20
-25.05583
 30
0.0
 10
23.715430000000001
 20
-24.979150000000001
 30
0.0
 10
23.35314
 20
-25.383099999999999
 30
0.0
 10
23.35314
 20
-25.383099999999999
 30
0.0
 10
23.792380000000001
 20
-25.35294
 30
0.0
 10
24.227779999999999
 20
-25.52346
 30
0.0
 10
24.667010000000001
 20
-25.790870000000002
 30
0.0
 10
24.667010000000001
 20
-25.790870000000002
 30
0.0
 10
25.097950000000001
 20
-25.506129999999999
 30
0.0
 10
25.524560000000001
 20
-25.285240000000002
 30
0.0
 10
25.95138
 20
-25.195740000000001
 30
0.0
 10
25.95138
 20
-25.195740000000001
 30
0.0
 10
25.48649
 20
-24.93684
 30
0.0
 10
25.021609999999999
 20
-25.106390000000001
 30
0.0
 10
24.556290000000001
 20
-25.34459
 30
0.0
  0
SPLINE
  5
49
100
AcDbEntity
  8
Layer 1
100
AcDbSpline
210
0.0
220
0.0
230
1.0
 70
     1
 71
     3
 72
    20
 73
    16
 74
     0
 42
0.0000000001
 43
0.0000000001
 40
0.0
 40
0.0
 40
0.0
 40
0.0
 40
0.25
 40
0.25
 40
0.25
 40
0.25
 40
0.5
 40
0.5
 40
0.5
 40
0.5
 40
0.75
 40
0.75
 40
0.75
 40
0.75
 40
1.0
 40
1.0
 40
1.0
 40
1.0
 10
46.283929999999998
 20
-25.694700000000001
 30
0.0
 10
45.849240000000002
 20
-25.401789999999998
 30
0.0
 10
45.43497
 20
-25.329609999999999
 30
0.0
 10
45.076520000000002
 20
-25.733360000000001
 30
0.0
 10
45.076520000000002
 20
-25.733360000000001
 30
0.0
 10
45.51191
 20
-25.699670000000001
 30
0.0
 10
45.951259999999998
 20
-25.873729999999998
 30
0.0
 10
46.390949999999997
 20
-26.141459999999999
 30
0.0
 10
46.390949999999997
 20
-26.141459999999999
 30
0.0
 10
46.817270000000001
 20
-25.85624
 30
0.0
 10
47.248860000000001
 20
-25.630559999999999
 30
0.0
 10
47.679510000000001
 20
-25.545999999999999
 30
0.0
 10
47.679510000000001
 20
-25.545999999999999
 30
0.0
 10
47.209859999999999
 20
-25.28228
 30
0.0
 10
46.744999999999997
 20
-25.45665
 30
0.0
 10
46.283929999999998
 20
-25.694700000000001
 30
0.0
  0
SPLINE
  5
4A
100
AcDbEntity
  8
Layer 1
100
AcDbSpline
210
0.0
220
0.0
230
1.0
 70
     1
 71
     3
 72
    20
 73
    16
 74
     0
 42
0.0000000001
 43
0.0000000001
 40
0.0
 40
0.0
 40
0.0
 40
0.0
 40
0.25
 40
0.25
 40
0.25
 40
0.25
 40
0.5
 40
0.5
 40
0.5
 40
0.5
 40
0.75
 40
0.75
 40
0.75
 40
0.75
 40
1.0
 40
1.0
 40
1.0
 40
1.0
 10
4.6276099999999998
 20
-25.694700000000001
 30
0.0
 10
4.2121000000000004
 20
-25.401789999999998
 30
0.0
 10
3.8160500000000002
 20
-25.329609999999999
 30
0.0
 10
3.4734099999999999
 20
-25.733360000000001
 30
0.0
 10
3.4734099999999999
 20
-25.733360000000001
 30
0.0
 10
3.8896099999999998
 20
-25.699670000000001
 30
0.0
 10
4.3096300000000003
 20
-25.873729999999998
 30
0.0
 10
4.7299100000000003
 20
-26.141459999999999
 30
0.0
 10
4.7299100000000003
 20
-26.141459999999999
 30
0.0
 10
5.1374700000000004
 20
-25.85624
 30
0.0
 10
5.5500299999999996
 20
-25.630559999999999
 30
0.0
 10
5.9617000000000004
 20
-25.545999999999999
 30
0.0
 10
5.9617000000000004
 20
-25.545999999999999
 30
0.0
 10
5.5127499999999996
 20
-25.28228
 30
0.0
 10
5.0683600000000002
 20
-25.45665
 30
0.0
 10
4.6276099999999998
 20
-25.694700000000001
 30
0.0
  0
SPLINE
  5
4B
100
AcDbEntity
  8
Layer 1
100
AcDbSpline
210
0.0
220
0.0
230
1.0
 70
     1
 71
     3
 72
    20
 73
    16
 74
     0
 42
0.0000000001
 43
0.0000000001
 40
0.0
 40
0.0
 40
0.0
 40
0.0
 40
0.25
 40
0.25
 40
0.25
 40
0.25
 40
0.5
 40
0.5
 40
0.5
 40
0.5
 40
0.75
 40
0.75
 40
0.75
 40
0.75
 40
1.0
 40
1.0
 40
1.0
 40
1.0
 10
28.95402
 20
-25.694700000000001
 30
0.0
 10
28.519310000000001
 20
-25.401789999999998
 30
0.0
 10
28.105049999999999
 20
-25.329609999999999
 30
0.0
 10
27.746590000000001
 20
-25.733360000000001
 30
0.0
 10
27.746590000000001
 20
-25.733360000000001
 30
0.0
 10
28.181940000000001
 20
-25.699670000000001
 30
0.0
 10
28.621320000000001
 20
-25.873729999999998
 30
0.0
 10
29.061019999999999
 20
-26.141459999999999
 30
0.0
 10
29.061019999999999
 20
-26.141459999999999
 30
0.0
 10
29.487359999999999
 20
-25.85624
 30
0.0
 10
29.91892
 20
-25.630559999999999
 30
0.0
 10
30.34957
 20
-25.545999999999999
 30
0.0
 10
30.34957
 20
-25.545999999999999
 30
0.0
 10
29.879919999999998
 20
-25.28228
 30
0.0
 10
29.415040000000001
 20
-25.45665
 30
0.0
 10
28.95402
 20
-25.694700000000001
 30
0.0
  0
SPLINE
  5
4C
100
AcDbEntity
  8
Layer 1
100
AcDbSpline
210
0.0
220
0.0
230
1.0
 70
     1
 71
     3
 72
    20
 73
    16
 74
     0
 42
0.0000000001
 43
0.0000000001
 40
0.0
 40
0.0
 40
0.0
 40
0.0
 40
0.25
 40
0.25
 40
0.25
 40
0.25
 40
0.5
 40
0.5
 40
0.5
 40
0.5
 40
0.75
 40
0.75
 40
0.75
 40
0.75
 40
1.0
 40
1.0
 40
1.0
 40
1.0
 10
53.193629999999999
 20
-24.289680000000001
 30
0.0
 10
52.758960000000002
 20
-23.996770000000001
 30
0.0
 10
52.344659999999998
 20
-23.924569999999999
 30
0.0
 10
51.986229999999999
 20
-24.32835
 30
0.0
 10
51.986229999999999
 20
-24.32835
 30
0.0
 10
52.421619999999997
 20
-24.29466
 30
0.0
 10
52.860970000000002
 20
-24.468710000000002
 30
0.0
 10
53.300649999999997
 20
-24.736460000000001
 30
0.0
 10
53.300649999999997
 20
-24.736460000000001
 30
0.0
 10
53.726990000000001
 20
-24.451219999999999
 30
0.0
 10
54.158560000000001
 20
-24.225519999999999
 30
0.0
 10
54.589199999999998
 20
-24.140989999999999
 30
0.0
 10
54.589199999999998
 20
-24.140989999999999
 30
0.0
 10
54.11956
 20
-23.87725
 30
0.0
 10
53.654719999999998
 20
-24.05161
 30
0.0
 10
53.193629999999999
 20
-24.289680000000001
 30
0.0
  0
SPLINE
  5
4D
100
AcDbEntity
  8
Layer 1
100
AcDbSpline
210
0.0
220
0.0
230
1.0
 70
     1
 71
     3
 72
    20
 73
    16
 74
     0
 42
0.0000000001
 43
0.0000000001
 40
0.0
 40
0.0
 40
0.0
 40
0.0
 40
0.25
 40
0.25
 40
0.25
 40
0.25
 40
0.5
 40
0.5
 40
0.5
 40
0.5
 40
0.75
 40
0.75
 40
0.75
 40
0.75
 40
1.0
 40
1.0
 40
1.0
 40
1.0
 10
12.830590000000001
 20
-24.289680000000001
 30
0.0
 10
12.395910000000001
 20
-23.996770000000001
 30
0.0
 10
11.98161
 20
-23.924569999999999
 30
0.0
 10
11.623189999999999
 20
-24.32835
 30
0.0
 10
11.623189999999999
 20
-24.32835
 30
0.0
 10
12.05857
 20
-24.29466
 30
0.0
 10
12.497909999999999
 20
-24.468710000000002
 30
0.0
 10
12.937580000000001
 20
-24.736460000000001
 30
0.0
 10
12.937580000000001
 20
-24.736460000000001
 30
0.0
 10
13.36393
 20
-24.451219999999999
 30
0.0
 10
13.795489999999999
 20
-24.225519999999999
 30
0.0
 10
14.226139999999999
 20
-24.140989999999999
 30
0.0
 10
14.226139999999999
 20
-24.140989999999999
 30
0.0
 10
13.75653
 20
-23.87725
 30
0.0
 10
13.29166
 20
-24.05161
 30
0.0
 10
12.830590000000001
 20
-24.289680000000001
 30
0.0
  0
SPLINE
  5
4E
100
AcDbEntity
  8
Layer 1
100
AcDbSpline
210
0.0
220
0.0
230
1.0
 70
     1
 71
     3
 72
    20
 73
    16
 74
     0
 42
0.0000000001
 43
0.0000000001
 40
0.0
 40
0.0
 40
0.0
 40
0.0
 40
0.25
 40
0.25
 40
0.25
 40
0.25
 40
0.5
 40
0.5
 40
0.5
 40
0.5
 40
0.75
 40
0.75
 40
0.75
 40
0.75
 40
1.0
 40
1.0
 40
1.0
 40
1.0
 10
37.692500000000003
 20
-25.56523
 30
0.0
 10
37.257809999999999
 20
-25.27234
 30
0.0
 10
36.843539999999997
 20
-25.200140000000001
 30
0.0
 10
36.485080000000004
 20
-25.603909999999999
 30
0.0
 10
36.485080000000004
 20
-25.603909999999999
 30
0.0
 10
36.920479999999998
 20
-25.570209999999999
 30
0.0
 10
37.359780000000001
 20
-25.74427
 30
0.0
 10
37.799509999999998
 20
-26.012
 30
0.0
 10
37.799509999999998
 20
-26.012
 30
0.0
 10
38.225830000000002
 20
-25.726769999999998
 30
0.0
 10
38.657409999999999
 20
-25.501080000000002
 30
0.0
 10
39.088059999999999
 20
-25.416550000000001
 30
0.0
 10
39.088059999999999
 20
-25.416550000000001
 30
0.0
 10
38.61844
 20
-25.15279
 30
0.0
 10
38.153550000000003
 20
-25.327179999999998
 30
0.0
 10
37.692500000000003
 20
-25.56523
 30
0.0
  0
SPLINE
  5
4F
100
AcDbEntity
  8
Layer 1
100
AcDbSpline
210
0.0
220
0.0
230
1.0
 70
     1
 71
     3
 72
    20
 73
    16
 74
     0
 42
0.0000000001
 43
0.0000000001
 40
0.0
 40
0.0
 40
0.0
 40
0.0
 40
0.25
 40
0.25
 40
0.25
 40
0.25
 40
0.5
 40
0.5
 40
0.5
 40
0.5
 40
0.75
 40
0.75
 40
0.75
 40
0.75
 40
1.0
 40
1.0
 40
1.0
 40
1.0
 10
20.03238
 20
-25.56523
 30
0.0
 10
19.59769
 20
-25.27234
 30
0.0
 10
19.18337
 20
-25.200140000000001
 30
0.0
 10
18.824960000000001
 20
-25.603909999999999
 30
0.0
 10
18.824960000000001
 20
-25.603909999999999
 30
0.0
 10
19.26033
 20
-25.570209999999999
 30
0.0
 10
19.699670000000001
 20
-25.74427
 30
0.0
 10
20.139379999999999
 20
-26.012
 30
0.0
 10
20.139379999999999
 20
-26.012
 30
0.0
 10
20.56568
 20
-25.726769999999998
 30
0.0
 10
20.997250000000001
 20
-25.501080000000002
 30
0.0
 10
21.42792
 20
-25.416550000000001
 30
0.0
 10
21.42792
 20
-25.416550000000001
 30
0.0
 10
20.958300000000001
 20
-25.15279
 30
0.0
 10
20.49343
 20
-25.327179999999998
 30
0.0
 10
20.03238
 20
-25.56523
 30
0.0
  0
SPLINE
  5
50
100
AcDbEntity
  8
Layer 1
100
AcDbSpline
210
0.0
220
0.0
230
1.0
 70
     1
 71
     3
 72
    36
 73
    32
 74
     0
 42
0.0000000001
 43
0.0000000001
 40
0.0
 40
0.0
 40
0.0
 40
0.0
 40
0.125
 40
0.125
 40
0.125
 40
0.125
 40
0.25
 40
0.25
 40
0.25
 40
0.25
 40
0.375
 40
0.375
 40
0.375
 40
0.375
 40
0.5
 40
0.5
 40
0.5
 40
0.5
 40
0.625
 40
0.625
 40
0.625
 40
0.625
 40
0.75
 40
0.75
 40
0.75
 40
0.75
 40
0.875
 40
0.875
 40
0.875
 40
0.875
 40
1.0
 40
1.0
 40
1.0
 40
1.0
 10
49.391530000000003
 20
-24.25583
 30
0.0
 10
48.849629999999998
 20
-23.975079999999998
 30
0.0
 10
48.23921
 20
-24.242349999999998
 30
0.0
 10
47.625129999999999
 20
-24.55322
 30
0.0
 10
47.625129999999999
 20
-24.55322
 30
0.0
 10
47.1128
 20
-24.204799999999999
 30
0.0
 10
46.605119999999999
 20
-24.294329999999999
 30
0.0
 10
46.093139999999998
 20
-24.442869999999999
 30
0.0
 10
46.093139999999998
 20
-24.442869999999999
 30
0.0
 10
45.423319999999997
 20
-23.77056
 30
0.0
 10
44.629579999999997
 20
-23.97092
 30
0.0
 10
43.818910000000002
 20
-24.294329999999999
 30
0.0
 10
43.818910000000002
 20
-24.294329999999999
 30
0.0
 10
43.827249999999999
 20
-24.391220000000001
 30
0.0
 10
43.835850000000001
 20
-24.49371
 30
0.0
 10
43.844209999999997
 20
-24.591069999999998
 30
0.0
 10
43.844209999999997
 20
-24.591069999999998
 30
0.0
 10
44.625630000000001
 20
-24.289670000000001
 30
0.0
 10
45.376429999999999
 20
-24.187950000000001
 30
0.0
 10
46.016530000000003
 20
-24.778449999999999
 30
0.0
 10
46.016530000000003
 20
-24.778449999999999
 30
0.0
 10
46.596499999999999
 20
-24.57874
 30
0.0
 10
47.138460000000002
 20
-24.629570000000001
 30
0.0
 10
47.650649999999999
 20
-24.927150000000001
 30
0.0
 10
47.650649999999999
 20
-24.927150000000001
 30
0.0
 10
48.167079999999999
 20
-24.616569999999999
 30
0.0
 10
48.734250000000003
 20
-24.429860000000001
 30
0.0
 10
49.391530000000003
 20
-24.519380000000002
 30
0.0
 10
49.391530000000003
 20
-24.519380000000002
 30
0.0
 10
49.391530000000003
 20
-24.429860000000001
 30
0.0
 10
49.391530000000003
 20
-24.345330000000001
 30
0.0
 10
49.391530000000003
 20
-24.25583
 30
0.0
  0
SPLINE
  5
51
100
AcDbEntity
  8
Layer 1
100
AcDbSpline
210
0.0
220
0.0
230
1.0
 70
     1
 71
     3
 72
    36
 73
    32
 74
     0
 42
0.0000000001
 43
0.0000000001
 40
0.0
 40
0.0
 40
0.0
 40
0.0
 40
0.125
 40
0.125
 40
0.125
 40
0.125
 40
0.25
 40
0.25
 40
0.25
 40
0.25
 40
0.375
 40
0.375
 40
0.375
 40
0.375
 40
0.5
 40
0.5
 40
0.5
 40
0.5
 40
0.625
 40
0.625
 40
0.625
 40
0.625
 40
0.75
 40
0.75
 40
0.75
 40
0.75
 40
0.875
 40
0.875
 40
0.875
 40
0.875
 40
1.0
 40
1.0
 40
1.0
 40
1.0
 10
8.3680699999999995
 20
-24.25583
 30
0.0
 10
7.8261900000000004
 20
-23.975079999999998
 30
0.0
 10
7.2157900000000001
 20
-24.242349999999998
 30
0.0
 10
6.6016700000000004
 20
-24.55322
 30
0.0
 10
6.6016700000000004
 20
-24.55322
 30
0.0
 10
6.0893600000000001
 20
-24.204799999999999
 30
0.0
 10
5.58169
 20
-24.294329999999999
 30
0.0
 10
5.06968
 20
-24.442869999999999
 30
0.0
 10
5.06968
 20
-24.442869999999999
 30
0.0
 10
4.3998400000000002
 20
-23.77056
 30
0.0
 10
3.60615
 20
-23.97092
 30
0.0
 10
2.7954699999999999
 20
-24.294329999999999
 30
0.0
 10
2.7954699999999999
 20
-24.294329999999999
 30
0.0
 10
2.8038099999999999
 20
-24.391220000000001
 30
0.0
 10
2.8124099999999999
 20
-24.49371
 30
0.0
 10
2.8207800000000001
 20
-24.591069999999998
 30
0.0
 10
2.8207800000000001
 20
-24.591069999999998
 30
0.0
 10
3.6022099999999999
 20
-24.289670000000001
 30
0.0
 10
4.35297
 20
-24.187950000000001
 30
0.0
 10
4.9930700000000003
 20
-24.778449999999999
 30
0.0
 10
4.9930700000000003
 20
-24.778449999999999
 30
0.0
 10
5.5730500000000003
 20
-24.57874
 30
0.0
 10
6.1150200000000003
 20
-24.629570000000001
 30
0.0
 10
6.6272099999999998
 20
-24.927150000000001
 30
0.0
 10
6.6272099999999998
 20
-24.927150000000001
 30
0.0
 10
7.1436200000000003
 20
-24.616569999999999
 30
0.0
 10
7.7108100000000004
 20
-24.429860000000001
 30
0.0
 10
8.3680699999999995
 20
-24.519380000000002
 30
0.0
 10
8.3680699999999995
 20
-24.519380000000002
 30
0.0
 10
8.3680699999999995
 20
-24.429860000000001
 30
0.0
 10
8.3680699999999995
 20
-24.345330000000001
 30
0.0
 10
8.3680699999999995
 20
-24.25583
 30
0.0
  0
SPLINE
  5
52
100
AcDbEntity
  8
Layer 1
100
AcDbSpline
210
0.0
220
0.0
230
1.0
 70
     1
 71
     3
 72
    36
 73
    32
 74
     0
 42
0.0000000001
 43
0.0000000001
 40
0.0
 40
0.0
 40
0.0
 40
0.0
 40
0.125
 40
0.125
 40
0.125
 40
0.125
 40
0.25
 40
0.25
 40
0.25
 40
0.25
 40
0.375
 40
0.375
 40
0.375
 40
0.375
 40
0.5
 40
0.5
 40
0.5
 40
0.5
 40
0.625
 40
0.625
 40
0.625
 40
0.625
 40
0.75
 40
0.75
 40
0.75
 40
0.75
 40
0.875
 40
0.875
 40
0.875
 40
0.875
 40
1.0
 40
1.0
 40
1.0
 40
1.0
 10
32.32658
 20
-24.380949999999999
 30
0.0
 10
31.78463
 20
-24.100210000000001
 30
0.0
 10
31.17428
 20
-24.36748
 30
0.0
 10
30.56015
 20
-24.678360000000001
 30
0.0
 10
30.56015
 20
-24.678360000000001
 30
0.0
 10
30.047830000000001
 20
-24.329920000000001
 30
0.0
 10
29.54016
 20
-24.419450000000001
 30
0.0
 10
29.028189999999999
 20
-24.567990000000002
 30
0.0
 10
29.028189999999999
 20
-24.567990000000002
 30
0.0
 10
28.358350000000002
 20
-23.895689999999998
 30
0.0
 10
27.564640000000001
 20
-24.096039999999999
 30
0.0
 10
26.753969999999999
 20
-24.419450000000001
 30
0.0
 10
26.753969999999999
 20
-24.419450000000001
 30
0.0
 10
26.76229
 20
-24.51633
 30
0.0
 10
26.770900000000001
 20
-24.618839999999999
 30
0.0
 10
26.77927
 20
-24.71621
 30
0.0
 10
26.77927
 20
-24.71621
 30
0.0
 10
27.560680000000001
 20
-24.41479
 30
0.0
 10
28.31147
 20
-24.313089999999999
 30
0.0
 10
28.951550000000001
 20
-24.903580000000002
 30
0.0
 10
28.951550000000001
 20
-24.903580000000002
 30
0.0
 10
29.531559999999999
 20
-24.703859999999999
 30
0.0
 10
30.07347
 20
-24.7547
 30
0.0
 10
30.58567
 20
-25.052299999999999
 30
0.0
 10
30.58567
 20
-25.052299999999999
 30
0.0
 10
31.10211
 20
-24.741689999999998
 30
0.0
 10
31.669329999999999
 20
-24.555
 30
0.0
 10
32.32658
 20
-24.64451
 30
0.0
 10
32.32658
 20
-24.64451
 30
0.0
 10
32.32658
 20
-24.555
 30
0.0
 10
32.32658
 20
-24.47045
 30
0.0
 10
32.32658
 20
-24.380949999999999
 30
0.0
  0
SPLINE
  5
53
100
AcDbEntity
  8
Layer 1
100
AcDbSpline
210
0.0
220
0.0
230
1.0
 70
     1
 71
     3
 72
    36
 73
    32
 74
     0
 42
0.0000000001
 43
0.0000000001
 40
0.0
 40
0.0
 40
0.0
 40
0.0
 40
0.125
 40
0.125
 40
0.125
 40
0.125
 40
0.25
 40
0.25
 40
0.25
 40
0.25
 40
0.375
 40
0.375
 40
0.375
 40
0.375
 40
0.5
 40
0.5
 40
0.5
 40
0.5
 40
0.625
 40
0.625
 40
0.625
 40
0.625
 40
0.75
 40
0.75
 40
0.75
 40
0.75
 40
0.875
 40
0.875
 40
0.875
 40
0.875
 40
1.0
 40
1.0
 40
1.0
 40
1.0
 10
40.800089999999997
 20
-24.126359999999998
 30
0.0
 10
40.258159999999997
 20
-23.84563
 30
0.0
 10
39.647779999999997
 20
-24.11289
 30
0.0
 10
39.03369
 20
-24.423749999999998
 30
0.0
 10
39.03369
 20
-24.423749999999998
 30
0.0
 10
38.521360000000001
 20
-24.075330000000001
 30
0.0
 10
38.013660000000002
 20
-24.164860000000001
 30
0.0
 10
37.501690000000004
 20
-24.313389999999998
 30
0.0
 10
37.501690000000004
 20
-24.313389999999998
 30
0.0
 10
36.831850000000003
 20
-23.641089999999998
 30
0.0
 10
36.038110000000003
 20
-23.841439999999999
 30
0.0
 10
35.227449999999997
 20
-24.164860000000001
 30
0.0
 10
35.227449999999997
 20
-24.164860000000001
 30
0.0
 10
35.235810000000001
 20
-24.26174
 30
0.0
 10
35.244399999999999
 20
-24.364239999999999
 30
0.0
 10
35.252769999999998
 20
-24.46161
 30
0.0
 10
35.252769999999998
 20
-24.46161
 30
0.0
 10
36.034179999999999
 20
-24.1602
 30
0.0
 10
36.784979999999997
 20
-24.058499999999999
 30
0.0
 10
37.425080000000001
 20
-24.648980000000002
 30
0.0
 10
37.425080000000001
 20
-24.648980000000002
 30
0.0
 10
38.005070000000003
 20
-24.449249999999999
 30
0.0
 10
38.547020000000003
 20
-24.5001
 30
0.0
 10
39.059199999999997
 20
-24.797689999999999
 30
0.0
 10
39.059199999999997
 20
-24.797689999999999
 30
0.0
 10
39.575589999999998
 20
-24.487110000000001
 30
0.0
 10
40.142809999999997
 20
-24.3004
 30
0.0
 10
40.800089999999997
 20
-24.389900000000001
 30
0.0
 10
40.800089999999997
 20
-24.389900000000001
 30
0.0
 10
40.800089999999997
 20
-24.3004
 30
0.0
 10
40.800089999999997
 20
-24.215859999999999
 30
0.0
 10
40.800089999999997
 20
-24.126359999999998
 30
0.0
  0
SPLINE
  5
54
100
AcDbEntity
  8
Layer 1
100
AcDbSpline
210
0.0
220
0.0
230
1.0
 70
     1
 71
     3
 72
    36
 73
    32
 74
     0
 42
0.0000000001
 43
0.0000000001
 40
0.0
 40
0.0
 40
0.0
 40
0.0
 40
0.125
 40
0.125
 40
0.125
 40
0.125
 40
0.25
 40
0.25
 40
0.25
 40
0.25
 40
0.375
 40
0.375
 40
0.375
 40
0.375
 40
0.5
 40
0.5
 40
0.5
 40
0.5
 40
0.625
 40
0.625
 40
0.625
 40
0.625
 40
0.75
 40
0.75
 40
0.75
 40
0.75
 40
0.875
 40
0.875
 40
0.875
 40
0.875
 40
1.0
 40
1.0
 40
1.0
 40
1.0
 10
23.139949999999999
 20
-24.126359999999998
 30
0.0
 10
22.598040000000001
 20
-23.84563
 30
0.0
 10
21.987670000000001
 20
-24.11289
 30
0.0
 10
21.373560000000001
 20
-24.423749999999998
 30
0.0
 10
21.373560000000001
 20
-24.423749999999998
 30
0.0
 10
20.861219999999999
 20
-24.075330000000001
 30
0.0
 10
20.353529999999999
 20
-24.164860000000001
 30
0.0
 10
19.841550000000002
 20
-24.313389999999998
 30
0.0
 10
19.841550000000002
 20
-24.313389999999998
 30
0.0
 10
19.171710000000001
 20
-23.641089999999998
 30
0.0
 10
18.377980000000001
 20
-23.841439999999999
 30
0.0
 10
17.567319999999999
 20
-24.164860000000001
 30
0.0
 10
17.567319999999999
 20
-24.164860000000001
 30
0.0
 10
17.575669999999999
 20
-24.26174
 30
0.0
 10
17.58426
 20
-24.364239999999999
 30
0.0
 10
17.59262
 20
-24.46161
 30
0.0
 10
17.59262
 20
-24.46161
 30
0.0
 10
18.37405
 20
-24.1602
 30
0.0
 10
19.124880000000001
 20
-24.058499999999999
 30
0.0
 10
19.764980000000001
 20
-24.648980000000002
 30
0.0
 10
19.764980000000001
 20
-24.648980000000002
 30
0.0
 10
20.344940000000001
 20
-24.449249999999999
 30
0.0
 10
20.886869999999998
 20
-24.5001
 30
0.0
 10
21.399069999999998
 20
-24.797689999999999
 30
0.0
 10
21.399069999999998
 20
-24.797689999999999
 30
0.0
 10
21.915459999999999
 20
-24.487110000000001
 30
0.0
 10
22.482679999999998
 20
-24.3004
 30
0.0
 10
23.139949999999999
 20
-24.389900000000001
 30
0.0
 10
23.139949999999999
 20
-24.389900000000001
 30
0.0
 10
23.139949999999999
 20
-24.3004
 30
0.0
 10
23.139949999999999
 20
-24.215859999999999
 30
0.0
 10
23.139949999999999
 20
-24.126359999999998
 30
0.0
  0
SPLINE
  5
55
100
AcDbEntity
  8
Layer 1
100
AcDbSpline
210
0.0
220
0.0
230
1.0
 70
     1
 71
     3
 72
   404
 73
   400
 74
     0
 42
0.0000000001
 43
0.0000000001
 40
0.0
 40
0.0
 40
0.0
 40
0.0
 40
0.01
 40
0.01
 40
0.01
 40
0.01
 40
0.02
 40
0.02
 40
0.02
 40
0.02
 40
0.03
 40
0.03
 40
0.03
 40
0.03
 40
0.04
 40
0.04
 40
0.04
 40
0.04
 40
0.05
 40
0.05
 40
0.05
 40
0.05
 40
0.06
 40
0.06
 40
0.06
 40
0.06
 40
0.07
 40
0.07
 40
0.07
 40
0.07
 40
0.08
 40
0.08
 40
0.08
 40
0.08
 40
0.09
 40
0.09
 40
0.09
 40
0.09
 40
0.1
 40
0.1
 40
0.1
 40
0.1
 40
0.11
 40
0.11
 40
0.11
 40
0.11
 40
0.12
 40
0.12
 40
0.12
 40
0.12
 40
0.13
 40
0.13
 40
0.13
 40
0.13
 40
0.14
 40
0.14
 40
0.14
 40
0.14
 40
0.15
 40
0.15
 40
0.15
 40
0.15
 40
0.16
 40
0.16
 40
0.16
 40
0.16
 40
0.17
 40
0.17
 40
0.17
 40
0.17
 40
0.18
 40
0.18
 40
0.18
 40
0.18
 40
0.19
 40
0.19
 40
0.19
 40
0.19
 40
0.2
 40
0.2
 40
0.2
 40
0.2
 40
0.2100000000000001
 40
0.2100000000000001
 40
0.2100000000000001
 40
0.2100000000000001
 40
0.2200000000000001
 40
0.2200000000000001
 40
0.2200000000000001
 40
0.2200000000000001
 40
0.2300000000000001
 40
0.2300000000000001
 40
0.2300000000000001
 40
0.2300000000000001
 40
0.2400000000000001
 40
0.2400000000000001
 40
0.2400000000000001
 40
0.2400000000000001
 40
0.2500000000000001
 40
0.2500000000000001
 40
0.2500000000000001
 40
0.2500000000000001
 40
0.2600000000000001
 40
0.2600000000000001
 40
0.2600000000000001
 40
0.2600000000000001
 40
0.2700000000000001
 40
0.2700000000000001
 40
0.2700000000000001
 40
0.2700000000000001
 40
0.2800000000000001
 40
0.2800000000000001
 40
0.2800000000000001
 40
0.2800000000000001
 40
0.2900000000000001
 40
0.2900000000000001
 40
0.2900000000000001
 40
0.2900000000000001
 40
0.3000000000000001
 40
0.3000000000000001
 40
0.3000000000000001
 40
0.3000000000000001
 40
0.3100000000000001
 40
0.3100000000000001
 40
0.3100000000000001
 40
0.3100000000000001
 40
0.3200000000000001
 40
0.3200000000000001
 40
0.3200000000000001
 40
0.3200000000000001
 40
0.3300000000000001
 40
0.3300000000000001
 40
0.3300000000000001
 40
0.3300000000000001
 40
0.3400000000000001
 40
0.3400000000000001
 40
0.3400000000000001
 40
0.3400000000000001
 40
0.3500000000000001
 40
0.3500000000000001
 40
0.3500000000000001
 40
0.3500000000000001
 40
0.3600000000000002
 40
0.3600000000000002
 40
0.3600000000000002
 40
0.3600000000000002
 40
0.3700000000000002
 40
0.3700000000000002
 40
0.3700000000000002
 40
0.3700000000000002
 40
0.3800000000000002
 40
0.3800000000000002
 40
0.3800000000000002
 40
0.3800000000000002
 40
0.3900000000000002
 40
0.3900000000000002
 40
0.3900000000000002
 40
0.3900000000000002
 40
0.4000000000000002
 40
0.4000000000000002
 40
0.4000000000000002
 40
0.4000000000000002
 40
0.4100000000000002
 40
0.4100000000000002
 40
0.4100000000000002
 40
0.4100000000000002
 40
0.4200000000000002
 40
0.4200000000000002
 40
0.4200000000000002
 40
0.4200000000000002
 40
0.4300000000000002
 40
0.4300000000000002
 40
0.4300000000000002
 40
0.4300000000000002
 40
0.4400000000000002
 40
0.4400000000000002
 40
0.4400000000000002
 40
0.4400000000000002
 40
0.4500000000000002
 40
0.4500000000000002
 40
0.4500000000000002
 40
0.4500000000000002
 40
0.4600000000000002
 40
0.4600000000000002
 40
0.4600000000000002
 40
0.4600000000000002
 40
0.4700000000000003
 40
0.4700000000000003
 40
0.4700000000000003
 40
0.4700000000000003
 40
0.4800000000000003
 40
0.4800000000000003
 40
0.4800000000000003
 40
0.4800000000000003
 40
0.4900000000000003
 40
0.4900000000000003
 40
0.4900000000000003
 40
0.4900000000000003
 40
0.5000000000000002
 40
0.5000000000000002
 40
0.5000000000000002
 40
0.5000000000000002
 40
0.5100000000000002
 40
0.5100000000000002
 40
0.5100000000000002
 40
0.5100000000000002
 40
0.5200000000000002
 40
0.5200000000000002
 40
0.5200000000000002
 40
0.5200000000000002
 40
0.5300000000000003
 40
0.5300000000000003
 40
0.5300000000000003
 40
0.5300000000000003
 40
0.5400000000000003
 40
0.5400000000000003
 40
0.5400000000000003
 40
0.5400000000000003
 40
0.5500000000000003
 40
0.5500000000000003
 40
0.5500000000000003
 40
0.5500000000000003
 40
0.5600000000000003
 40
0.5600000000000003
 40
0.5600000000000003
 40
0.5600000000000003
 40
0.5700000000000003
 40
0.5700000000000003
 40
0.5700000000000003
 40
0.5700000000000003
 40
0.5800000000000003
 40
0.5800000000000003
 40
0.5800000000000003
 40
0.5800000000000003
 40
0.5900000000000003
 40
0.5900000000000003
 40
0.5900000000000003
 40
0.5900000000000003
 40
0.6000000000000003
 40
0.6000000000000003
 40
0.6000000000000003
 40
0.6000000000000003
 40
0.6100000000000003
 40
0.6100000000000003
 40
0.6100000000000003
 40
0.6100000000000003
 40
0.6200000000000003
 40
0.6200000000000003
 40
0.6200000000000003
 40
0.6200000000000003
 40
0.6300000000000003
 40
0.6300000000000003
 40
0.6300000000000003
 40
0.6300000000000003
 40
0.6400000000000004
 40
0.6400000000000004
 40
0.6400000000000004
 40
0.6400000000000004
 40
0.6500000000000004
 40
0.6500000000000004
 40
0.6500000000000004
 40
0.6500000000000004
 40
0.6600000000000004
 40
0.6600000000000004
 40
0.6600000000000004
 40
0.6600000000000004
 40
0.6700000000000004
 40
0.6700000000000004
 40
0.6700000000000004
 40
0.6700000000000004
 40
0.6800000000000004
 40
0.6800000000000004
 40
0.6800000000000004
 40
0.6800000000000004
 40
0.6900000000000004
 40
0.6900000000000004
 40
0.6900000000000004
 40
0.6900000000000004
 40
0.7000000000000004
 40
0.7000000000000004
 40
0.7000000000000004
 40
0.7000000000000004
 40
0.7100000000000004
 40
0.7100000000000004
 40
0.7100000000000004
 40
0.7100000000000004
 40
0.7200000000000004
 40
0.7200000000000004
 40
0.7200000000000004
 40
0.7200000000000004
 40
0.7300000000000004
 40
0.7300000000000004
 40
0.7300000000000004
 40
0.7300000000000004
 40
0.7400000000000004
 40
0.7400000000000004
 40
0.7400000000000004
 40
0.7400000000000004
 40
0.7500000000000004
 40
0.7500000000000004
 40
0.7500000000000004
 40
0.7500000000000004
 40
0.7600000000000005
 40
0.7600000000000005
 40
0.7600000000000005
 40
0.7600000000000005
 40
0.7700000000000005
 40
0.7700000000000005
 40
0.7700000000000005
 40
0.7700000000000005
 40
0.7800000000000005
 40
0.7800000000000005
 40
0.7800000000000005
 40
0.7800000000000005
 40
0.7900000000000005
 40
0.7900000000000005
 40
0.7900000000000005
 40
0.7900000000000005
 40
0.8000000000000005
 40
0.8000000000000005
 40
0.8000000000000005
 40
0.8000000000000005
 40
0.8100000000000005
 40
0.8100000000000005
 40
0.8100000000000005
 40
0.8100000000000005
 40
0.8200000000000005
 40
0.8200000000000005
 40
0.8200000000000005
 40
0.8200000000000005
 40
0.8300000000000005
 40
0.8300000000000005
 40
0.8300000000000005
 40
0.8300000000000005
 40
0.8400000000000005
 40
0.8400000000000005
 40
0.8400000000000005
 40
0.8400000000000005
 40
0.8500000000000005
 40
0.8500000000000005
 40
0.8500000000000005
 40
0.8500000000000005
 40
0.8600000000000005
 40
0.8600000000000005
 40
0.8600000000000005
 40
0.8600000000000005
 40
0.8700000000000006
 40
0.8700000000000006
 40
0.8700000000000006
 40
0.8700000000000006
 40
0.8800000000000006
 40
0.8800000000000006
 40
0.8800000000000006
 40
0.8800000000000006
 40
0.8900000000000006
 40
0.8900000000000006
 40
0.8900000000000006
 40
0.8900000000000006
 40
0.9000000000000006
 40
0.9000000000000006
 40
0.9000000000000006
 40
0.9000000000000006
 40
0.9100000000000006
 40
0.9100000000000006
 40
0.9100000000000006
 40
0.9100000000000006
 40
0.9200000000000006
 40
0.9200000000000006
 40
0.9200000000000006
 40
0.9200000000000006
 40
0.9300000000000006
 40
0.9300000000000006
 40
0.9300000000000006
 40
0.9300000000000006
 40
0.9400000000000006
 40
0.9400000000000006
 40
0.9400000000000006
 40
0.9400000000000006
 40
0.9500000000000006
 40
0.9500000000000006
 40
0.9500000000000006
 40
0.9500000000000006
 40
0.9600000000000006
 40
0.9600000000000006
 40
0.9600000000000006
 40
0.9600000000000006
 40
0.9700000000000006
 40
0.9700000000000006
 40
0.9700000000000006
 40
0.9700000000000006
 40
0.9800000000000007
 40
0.9800000000000007
 40
0.9800000000000007
 40
0.9800000000000007
 40
0.9900000000000007
 40
0.9900000000000007
 40
0.9900000000000007
 40
0.9900000000000007
 40
1.0
 40
1.0
 40
1.0
 40
1.0
 10
54.71743
 20
7.1087800000000003
 30
0.0
 10
54.71743
 20
7.1087800000000003
 30
0.0
 10
54.915190000000003
 20
7.1285400000000001
 30
0.0
 10
54.915190000000003
 20
7.1285400000000001
 30
0.0
 10
54.915190000000003
 20
7.1285400000000001
 30
0.0
 10
54.915190000000003
 20
7.1285400000000001
 30
0.0
 10
55.19556
 20
7.1591800000000001
 30
0.0
 10
55.19556
 20
7.1591800000000001
 30
0.0
 10
55.19556
 20
7.1591800000000001
 30
0.0
 10
55.19556
 20
7.1591800000000001
 30
0.0
 10
55.476889999999997
 20
7.2058499999999999
 30
0.0
 10
55.476889999999997
 20
7.2058499999999999
 30
0.0
 10
55.476889999999997
 20
7.2058499999999999
 30
0.0
 10
55.476889999999997
 20
7.2058499999999999
 30
0.0
 10
55.591119999999997
 20
7.1987100000000002
 30
0.0
 10
55.591119999999997
 20
7.1987100000000002
 30
0.0
 10
55.591119999999997
 20
7.1987100000000002
 30
0.0
 10
55.591119999999997
 20
7.1987100000000002
 30
0.0
 10
55.60716
 20
7.45479
 30
0.0
 10
55.60716
 20
7.45479
 30
0.0
 10
55.60716
 20
7.45479
 30
0.0
 10
55.60716
 20
7.45479
 30
0.0
 10
55.423659999999998
 20
7.4020000000000001
 30
0.0
 10
55.423659999999998
 20
7.4020000000000001
 30
0.0
 10
55.423659999999998
 20
7.4020000000000001
 30
0.0
 10
55.423659999999998
 20
7.4020000000000001
 30
0.0
 10
55.142310000000002
 20
7.3553300000000004
 30
0.0
 10
55.142310000000002
 20
7.3553300000000004
 30
0.0
 10
55.142310000000002
 20
7.3553300000000004
 30
0.0
 10
55.142310000000002
 20
7.3553300000000004
 30
0.0
 10
54.861969999999999
 20
7.3246799999999999
 30
0.0
 10
54.861969999999999
 20
7.3246799999999999
 30
0.0
 10
54.861969999999999
 20
7.3246799999999999
 30
0.0
 10
54.861969999999999
 20
7.3246799999999999
 30
0.0
 10
54.597920000000002
 20
7.2929899999999996
 30
0.0
 10
54.597920000000002
 20
7.2929899999999996
 30
0.0
 10
54.597920000000002
 20
7.2929899999999996
 30
0.0
 10
54.597920000000002
 20
7.2929899999999996
 30
0.0
 10
54.351199999999999
 20
7.2762799999999999
 30
0.0
 10
54.351199999999999
 20
7.2762799999999999
 30
0.0
 10
54.351199999999999
 20
7.2762799999999999
 30
0.0
 10
54.351199999999999
 20
7.2762799999999999
 30
0.0
 10
54.120759999999997
 20
7.2585800000000003
 30
0.0
 10
54.120759999999997
 20
7.2585800000000003
 30
0.0
 10
54.120759999999997
 20
7.2585800000000003
 30
0.0
 10
54.120759999999997
 20
7.2585800000000003
 30
0.0
 10
53.891359999999999
 20
7.25685
 30
0.0
 10
53.891359999999999
 20
7.25685
 30
0.0
 10
53.891359999999999
 20
7.25685
 30
0.0
 10
53.891359999999999
 20
7.25685
 30
0.0
 10
53.679290000000002
 20
7.2701200000000004
 30
0.0
 10
53.679290000000002
 20
7.2701200000000004
 30
0.0
 10
53.679290000000002
 20
7.2701200000000004
 30
0.0
 10
53.679290000000002
 20
7.2701200000000004
 30
0.0
 10
53.48451
 20
7.2983599999999997
 30
0.0
 10
53.48451
 20
7.2983599999999997
 30
0.0
 10
53.48451
 20
7.2983599999999997
 30
0.0
 10
53.48451
 20
7.2983599999999997
 30
0.0
 10
53.305070000000001
 20
7.3096100000000002
 30
0.0
 10
53.305070000000001
 20
7.3096100000000002
 30
0.0
 10
53.305070000000001
 20
7.3096100000000002
 30
0.0
 10
53.305070000000001
 20
7.3096100000000002
 30
0.0
 10
53.127600000000001
 20
7.3528399999999996
 30
0.0
 10
53.127600000000001
 20
7.3528399999999996
 30
0.0
 10
53.127600000000001
 20
7.3528399999999996
 30
0.0
 10
53.127600000000001
 20
7.3528399999999996
 30
0.0
 10
52.966439999999999
 20
7.39506
 30
0.0
 10
52.966439999999999
 20
7.39506
 30
0.0
 10
52.966439999999999
 20
7.39506
 30
0.0
 10
52.966439999999999
 20
7.39506
 30
0.0
 10
52.821620000000003
 20
7.4363099999999998
 30
0.0
 10
52.821620000000003
 20
7.4363099999999998
 30
0.0
 10
52.821620000000003
 20
7.4363099999999998
 30
0.0
 10
52.821620000000003
 20
7.4363099999999998
 30
0.0
 10
52.69408
 20
7.4924499999999998
 30
0.0
 10
52.69408
 20
7.4924499999999998
 30
0.0
 10
52.69408
 20
7.4924499999999998
 30
0.0
 10
52.69408
 20
7.4924499999999998
 30
0.0
 10
52.566580000000002
 20
7.5486199999999997
 30
0.0
 10
52.566580000000002
 20
7.5486199999999997
 30
0.0
 10
52.566580000000002
 20
7.5486199999999997
 30
0.0
 10
52.566580000000002
 20
7.5486199999999997
 30
0.0
 10
52.440100000000001
 20
7.6208
 30
0.0
 10
52.440100000000001
 20
7.6208
 30
0.0
 10
52.440100000000001
 20
7.6208
 30
0.0
 10
52.440100000000001
 20
7.6208
 30
0.0
 10
52.346179999999997
 20
7.6909400000000003
 30
0.0
 10
52.346179999999997
 20
7.6909400000000003
 30
0.0
 10
52.346179999999997
 20
7.6909400000000003
 30
0.0
 10
52.346179999999997
 20
7.6909400000000003
 30
0.0
 10
52.236989999999999
 20
7.7781200000000004
 30
0.0
 10
52.236989999999999
 20
7.7781200000000004
 30
0.0
 10
52.236989999999999
 20
7.7781200000000004
 30
0.0
 10
52.236989999999999
 20
7.7781200000000004
 30
0.0
 10
52.161409999999997
 20
7.8792499999999999
 30
0.0
 10
52.161409999999997
 20
7.8792499999999999
 30
0.0
 10
52.161409999999997
 20
7.8792499999999999
 30
0.0
 10
52.161409999999997
 20
7.8792499999999999
 30
0.0
 10
52.068550000000002
 20
7.9653999999999998
 30
0.0
 10
52.068550000000002
 20
7.9653999999999998
 30
0.0
 10
52.068550000000002
 20
7.9653999999999998
 30
0.0
 10
52.068550000000002
 20
7.9653999999999998
 30
0.0
 10
52.009300000000003
 20
8.0655099999999997
 30
0.0
 10
52.009300000000003
 20
8.0655099999999997
 30
0.0
 10
52.009300000000003
 20
8.0655099999999997
 30
0.0
 10
52.009300000000003
 20
8.0655099999999997
 30
0.0
 10
51.934739999999998
 20
8.1826299999999996
 30
0.0
 10
51.934739999999998
 20
8.1826299999999996
 30
0.0
 10
51.934739999999998
 20
8.1826299999999996
 30
0.0
 10
51.934739999999998
 20
8.1826299999999996
 30
0.0
 10
51.892800000000001
 20
8.2977299999999996
 30
0.0
 10
51.892800000000001
 20
8.2977299999999996
 30
0.0
 10
51.892800000000001
 20
8.2977299999999996
 30
0.0
 10
51.892800000000001
 20
8.2977299999999996
 30
0.0
 10
51.835549999999998
 20
8.4298300000000008
 30
0.0
 10
51.835549999999998
 20
8.4298300000000008
 30
0.0
 10
51.835549999999998
 20
8.4298300000000008
 30
0.0
 10
51.835549999999998
 20
8.4298300000000008
 30
0.0
 10
51.794620000000002
 20
8.5609300000000008
 30
0.0
 10
51.794620000000002
 20
8.5609300000000008
 30
0.0
 10
51.794620000000002
 20
8.5609300000000008
 30
0.0
 10
51.794620000000002
 20
8.5609300000000008
 30
0.0
 10
51.769970000000001
 20
8.6910399999999992
 30
0.0
 10
51.769970000000001
 20
8.6910399999999992
 30
0.0
 10
51.769970000000001
 20
8.6910399999999992
 30
0.0
 10
51.769970000000001
 20
8.6910399999999992
 30
0.0
 10
51.746389999999998
 20
8.8370899999999999
 30
0.0
 10
51.746389999999998
 20
8.8370899999999999
 30
0.0
 10
51.746389999999998
 20
8.8370899999999999
 30
0.0
 10
51.746389999999998
 20
8.8370899999999999
 30
0.0
 10
51.72278
 20
8.9831800000000008
 30
0.0
 10
51.72278
 20
8.9831800000000008
 30
0.0
 10
51.72278
 20
8.9831800000000008
 30
0.0
 10
51.72278
 20
8.9831800000000008
 30
0.0
 10
51.726759999999999
 20
9.0472000000000001
 30
0.0
 10
51.726759999999999
 20
9.0472000000000001
 30
0.0
 10
51.726759999999999
 20
9.0472000000000001
 30
0.0
 10
51.726759999999999
 20
9.0472000000000001
 30
0.0
 10
51.726759999999999
 20
9.0472000000000001
 30
0.0
 10
51.726759999999999
 20
9.0472000000000001
 30
0.0
 10
51.726759999999999
 20
9.0472000000000001
 30
0.0
 10
51.726759999999999
 20
9.0472000000000001
 30
0.0
 10
51.742809999999999
 20
9.3032800000000009
 30
0.0
 10
51.742809999999999
 20
9.3032800000000009
 30
0.0
 10
51.742809999999999
 20
9.3032800000000009
 30
0.0
 10
51.742809999999999
 20
9.3032800000000009
 30
0.0
 10
51.710160000000002
 20
9.3053399999999993
 30
0.0
 10
51.710160000000002
 20
9.3053399999999993
 30
0.0
 10
51.710160000000002
 20
9.3053399999999993
 30
0.0
 10
51.710160000000002
 20
9.3053399999999993
 30
0.0
 10
51.710160000000002
 20
9.3053399999999993
 30
0.0
 10
51.710160000000002
 20
9.3053399999999993
 30
0.0
 10
51.710160000000002
 20
9.3053399999999993
 30
0.0
 10
51.710160000000002
 20
9.3053399999999993
 30
0.0
 10
51.72016
 20
9.4653399999999994
 30
0.0
 10
51.72016
 20
9.4653399999999994
 30
0.0
 10
51.72016
 20
9.4653399999999994
 30
0.0
 10
51.72016
 20
9.4653399999999994
 30
0.0
 10
51.731180000000002
 20
9.6414000000000009
 30
0.0
 10
51.731180000000002
 20
9.6414000000000009
 30
0.0
 10
51.731180000000002
 20
9.6414000000000009
 30
0.0
 10
51.731180000000002
 20
9.6414000000000009
 30
0.0
 10
51.741190000000003
 20
9.8014600000000005
 30
0.0
 10
51.741190000000003
 20
9.8014600000000005
 30
0.0
 10
51.741190000000003
 20
9.8014600000000005
 30
0.0
 10
51.741190000000003
 20
9.8014600000000005
 30
0.0
 10
51.797170000000001
 20
9.9104200000000002
 30
0.0
 10
51.797170000000001
 20
9.9104200000000002
 30
0.0
 10
51.797170000000001
 20
9.9104200000000002
 30
0.0
 10
51.797170000000001
 20
9.9104200000000002
 30
0.0
 10
51.454549999999998
 20
9.93187
 30
0.0
 10
51.454549999999998
 20
9.93187
 30
0.0
 10
51.454549999999998
 20
9.93187
 30
0.0
 10
51.454549999999998
 20
9.93187
 30
0.0
 10
51.480150000000002
 20
9.8178000000000001
 30
0.0
 10
51.480150000000002
 20
9.8178000000000001
 30
0.0
 10
51.480150000000002
 20
9.8178000000000001
 30
0.0
 10
51.480150000000002
 20
9.8178000000000001
 30
0.0
 10
51.470109999999998
 20
9.6577199999999994
 30
0.0
 10
51.470109999999998
 20
9.6577199999999994
 30
0.0
 10
51.470109999999998
 20
9.6577199999999994
 30
0.0
 10
51.470109999999998
 20
9.6577199999999994
 30
0.0
 10
51.459130000000002
 20
9.4816800000000008
 30
0.0
 10
51.459130000000002
 20
9.4816800000000008
 30
0.0
 10
51.459130000000002
 20
9.4816800000000008
 30
0.0
 10
51.459130000000002
 20
9.4816800000000008
 30
0.0
 10
51.448099999999997
 20
9.3056400000000004
 30
0.0
 10
51.448099999999997
 20
9.3056400000000004
 30
0.0
 10
51.448099999999997
 20
9.3056400000000004
 30
0.0
 10
51.448099999999997
 20
9.3056400000000004
 30
0.0
 10
51.447110000000002
 20
9.2896300000000007
 30
0.0
 10
51.447110000000002
 20
9.2896300000000007
 30
0.0
 10
51.447110000000002
 20
9.2896300000000007
 30
0.0
 10
51.447110000000002
 20
9.2896300000000007
 30
0.0
 10
47.467300000000002
 20
9.5546900000000008
 30
0.0
 10
47.467300000000002
 20
9.5546900000000008
 30
0.0
 10
47.467300000000002
 20
9.5546900000000008
 30
0.0
 10
47.467300000000002
 20
9.5546900000000008
 30
0.0
 10
47.306159999999998
 20
9.5969200000000008
 30
0.0
 10
47.306159999999998
 20
9.5969200000000008
 30
0.0
 10
47.306159999999998
 20
9.5969200000000008
 30
0.0
 10
47.306159999999998
 20
9.5969200000000008
 30
0.0
 10
47.290140000000001
 20
9.34084
 30
0.0
 10
47.290140000000001
 20
9.34084
 30
0.0
 10
47.290140000000001
 20
9.34084
 30
0.0
 10
47.290140000000001
 20
9.34084
 30
0.0
 10
47.438989999999997
 20
9.3636700000000008
 30
0.0
 10
47.438989999999997
 20
9.3636700000000008
 30
0.0
 10
47.438989999999997
 20
9.3636700000000008
 30
0.0
 10
47.438989999999997
 20
9.3636700000000008
 30
0.0
 10
51.4514
 20
9.0965399999999992
 30
0.0
 10
51.4514
 20
9.0965399999999992
 30
0.0
 10
51.4514
 20
9.0965399999999992
 30
0.0
 10
51.4514
 20
9.0965399999999992
 30
0.0
 10
51.460709999999999
 20
8.9834999999999994
 30
0.0
 10
51.460709999999999
 20
8.9834999999999994
 30
0.0
 10
51.460709999999999
 20
8.9834999999999994
 30
0.0
 10
51.460709999999999
 20
8.9834999999999994
 30
0.0
 10
51.483339999999998
 20
8.8214199999999998
 30
0.0
 10
51.483339999999998
 20
8.8214199999999998
 30
0.0
 10
51.483339999999998
 20
8.8214199999999998
 30
0.0
 10
51.483339999999998
 20
8.8214199999999998
 30
0.0
 10
51.506970000000003
 20
8.6753499999999999
 30
0.0
 10
51.506970000000003
 20
8.6753499999999999
 30
0.0
 10
51.506970000000003
 20
8.6753499999999999
 30
0.0
 10
51.506970000000003
 20
8.6753499999999999
 30
0.0
 10
51.546880000000002
 20
8.5282499999999999
 30
0.0
 10
51.546880000000002
 20
8.5282499999999999
 30
0.0
 10
51.546880000000002
 20
8.5282499999999999
 30
0.0
 10
51.546880000000002
 20
8.5282499999999999
 30
0.0
 10
51.544879999999999
 20
8.4962400000000002
 30
0.0
 10
51.544879999999999
 20
8.4962400000000002
 30
0.0
 10
51.544879999999999
 20
8.4962400000000002
 30
0.0
 10
51.544879999999999
 20
8.4962400000000002
 30
0.0
 10
45.87912
 20
7.4689399999999999
 30
0.0
 10
45.87912
 20
7.4689399999999999
 30
0.0
 10
45.87912
 20
7.4689399999999999
 30
0.0
 10
45.87912
 20
7.4689399999999999
 30
0.0
 10
45.780239999999999
 20
7.4590500000000004
 30
0.0
 10
45.780239999999999
 20
7.4590500000000004
 30
0.0
 10
45.780239999999999
 20
7.4590500000000004
 30
0.0
 10
45.780239999999999
 20
7.4590500000000004
 30
0.0
 10
45.765210000000003
 20
7.2189800000000002
 30
0.0
 10
45.765210000000003
 20
7.2189800000000002
 30
0.0
 10
45.765210000000003
 20
7.2189800000000002
 30
0.0
 10
45.765210000000003
 20
7.2189800000000002
 30
0.0
 10
45.948709999999998
 20
7.2717799999999997
 30
0.0
 10
45.948709999999998
 20
7.2717799999999997
 30
0.0
 10
45.948709999999998
 20
7.2717799999999997
 30
0.0
 10
45.948709999999998
 20
7.2717799999999997
 30
0.0
 10
51.614440000000002
 20
8.2990700000000004
 30
0.0
 10
51.614440000000002
 20
8.2990700000000004
 30
0.0
 10
51.614440000000002
 20
8.2990700000000004
 30
0.0
 10
51.614440000000002
 20
8.2990700000000004
 30
0.0
 10
51.627769999999998
 20
8.2500400000000003
 30
0.0
 10
51.627769999999998
 20
8.2500400000000003
 30
0.0
 10
51.627769999999998
 20
8.2500400000000003
 30
0.0
 10
51.627769999999998
 20
8.2500400000000003
 30
0.0
 10
51.701320000000003
 20
8.1168800000000001
 30
0.0
 10
51.701320000000003
 20
8.1168800000000001
 30
0.0
 10
51.701320000000003
 20
8.1168800000000001
 30
0.0
 10
51.701320000000003
 20
8.1168800000000001
 30
0.0
 10
51.75956
 20
8.0007800000000007
 30
0.0
 10
51.75956
 20
8.0007800000000007
 30
0.0
 10
51.75956
 20
8.0007800000000007
 30
0.0
 10
51.75956
 20
8.0007800000000007
 30
0.0
 10
51.850450000000002
 20
7.8826099999999997
 30
0.0
 10
51.850450000000002
 20
7.8826099999999997
 30
0.0
 10
51.850450000000002
 20
7.8826099999999997
 30
0.0
 10
51.850450000000002
 20
7.8826099999999997
 30
0.0
 10
51.895389999999999
 20
7.8155299999999999
 30
0.0
 10
51.895389999999999
 20
7.8155299999999999
 30
0.0
 10
51.895389999999999
 20
7.8155299999999999
 30
0.0
 10
51.895389999999999
 20
7.8155299999999999
 30
0.0
 10
49.32011
 20
6.7073600000000004
 30
0.0
 10
49.32011
 20
6.7073600000000004
 30
0.0
 10
49.32011
 20
6.7073600000000004
 30
0.0
 10
49.32011
 20
6.7073600000000004
 30
0.0
 10
49.169280000000001
 20
6.6525400000000001
 30
0.0
 10
49.169280000000001
 20
6.6525400000000001
 30
0.0
 10
49.169280000000001
 20
6.6525400000000001
 30
0.0
 10
49.169280000000001
 20
6.6525400000000001
 30
0.0
 10
49.37133
 20
6.4792100000000001
 30
0.0
 10
49.37133
 20
6.4792100000000001
 30
0.0
 10
49.37133
 20
6.4792100000000001
 30
0.0
 10
49.37133
 20
6.4792100000000001
 30
0.0
 10
49.473239999999997
 20
6.5371100000000002
 30
0.0
 10
49.473239999999997
 20
6.5371100000000002
 30
0.0
 10
49.473239999999997
 20
6.5371100000000002
 30
0.0
 10
49.473239999999997
 20
6.5371100000000002
 30
0.0
 10
52.049529999999997
 20
7.6612900000000002
 30
0.0
 10
52.049529999999997
 20
7.6612900000000002
 30
0.0
 10
52.049529999999997
 20
7.6612900000000002
 30
0.0
 10
52.049529999999997
 20
7.6612900000000002
 30
0.0
 10
52.158700000000003
 20
7.5741300000000003
 30
0.0
 10
52.158700000000003
 20
7.5741300000000003
 30
0.0
 10
52.158700000000003
 20
7.5741300000000003
 30
0.0
 10
52.158700000000003
 20
7.5741300000000003
 30
0.0
 10
52.284219999999998
 20
7.4859400000000003
 30
0.0
 10
52.284219999999998
 20
7.4859400000000003
 30
0.0
 10
52.284219999999998
 20
7.4859400000000003
 30
0.0
 10
52.284219999999998
 20
7.4859400000000003
 30
0.0
 10
52.409730000000003
 20
7.3977500000000003
 30
0.0
 10
52.409730000000003
 20
7.3977500000000003
 30
0.0
 10
52.409730000000003
 20
7.3977500000000003
 30
0.0
 10
52.409730000000003
 20
7.3977500000000003
 30
0.0
 10
52.55256
 20
7.3245500000000003
 30
0.0
 10
52.55256
 20
7.3245500000000003
 30
0.0
 10
52.55256
 20
7.3245500000000003
 30
0.0
 10
52.55256
 20
7.3245500000000003
 30
0.0
 10
52.64846
 20
7.2864100000000001
 30
0.0
 10
52.64846
 20
7.2864100000000001
 30
0.0
 10
52.64846
 20
7.2864100000000001
 30
0.0
 10
52.64846
 20
7.2864100000000001
 30
0.0
 10
48.715400000000002
 20
4.1101999999999999
 30
0.0
 10
48.715400000000002
 20
4.1101999999999999
 30
0.0
 10
48.715400000000002
 20
4.1101999999999999
 30
0.0
 10
48.715400000000002
 20
4.1101999999999999
 30
0.0
 10
48.629809999999999
 20
4.0512800000000002
 30
0.0
 10
48.629809999999999
 20
4.0512800000000002
 30
0.0
 10
48.629809999999999
 20
4.0512800000000002
 30
0.0
 10
48.629809999999999
 20
4.0512800000000002
 30
0.0
 10
48.831890000000001
 20
3.8779599999999999
 30
0.0
 10
48.831890000000001
 20
3.8779599999999999
 30
0.0
 10
48.831890000000001
 20
3.8779599999999999
 30
0.0
 10
48.831890000000001
 20
3.8779599999999999
 30
0.0
 10
48.91948
 20
3.9689000000000001
 30
0.0
 10
48.91948
 20
3.9689000000000001
 30
0.0
 10
48.91948
 20
3.9689000000000001
 30
0.0
 10
48.91948
 20
3.9689000000000001
 30
0.0
 10
52.905470000000001
 20
7.2060399999999998
 30
0.0
 10
52.905470000000001
 20
7.2060399999999998
 30
0.0
 10
52.905470000000001
 20
7.2060399999999998
 30
0.0
 10
52.905470000000001
 20
7.2060399999999998
 30
0.0
 10
53.066630000000004
 20
7.1638599999999997
 30
0.0
 10
53.066630000000004
 20
7.1638599999999997
 30
0.0
 10
53.066630000000004
 20
7.1638599999999997
 30
0.0
 10
53.066630000000004
 20
7.1638599999999997
 30
0.0
 10
53.260399999999997
 20
7.1196000000000002
 30
0.0
 10
53.260399999999997
 20
7.1196000000000002
 30
0.0
 10
53.260399999999997
 20
7.1196000000000002
 30
0.0
 10
53.260399999999997
 20
7.1196000000000002
 30
0.0
 10
53.456159999999997
 20
7.1073300000000001
 30
0.0
 10
53.456159999999997
 20
7.1073300000000001
 30
0.0
 10
53.456159999999997
 20
7.1073300000000001
 30
0.0
 10
53.456159999999997
 20
7.1073300000000001
 30
0.0
 10
53.634630000000001
 20
7.0801100000000003
 30
0.0
 10
53.634630000000001
 20
7.0801100000000003
 30
0.0
 10
53.634630000000001
 20
7.0801100000000003
 30
0.0
 10
53.634630000000001
 20
7.0801100000000003
 30
0.0
 10
52.566789999999997
 20
4.67258
 30
0.0
 10
52.566789999999997
 20
4.67258
 30
0.0
 10
52.566789999999997
 20
4.67258
 30
0.0
 10
52.566789999999997
 20
4.67258
 30
0.0
 10
52.477240000000002
 20
4.5496400000000001
 30
0.0
 10
52.477240000000002
 20
4.5496400000000001
 30
0.0
 10
52.477240000000002
 20
4.5496400000000001
 30
0.0
 10
52.477240000000002
 20
4.5496400000000001
 30
0.0
 10
52.819830000000003
 20
4.5282
 30
0.0
 10
52.819830000000003
 20
4.5282
 30
0.0
 10
52.819830000000003
 20
4.5282
 30
0.0
 10
52.819830000000003
 20
4.5282
 30
0.0
 10
52.824829999999999
 20
4.60825
 30
0.0
 10
52.824829999999999
 20
4.60825
 30
0.0
 10
52.824829999999999
 20
4.60825
 30
0.0
 10
52.824829999999999
 20
4.60825
 30
0.0
 10
53.896680000000003
 20
7.07979
 30
0.0
 10
53.896680000000003
 20
7.07979
 30
0.0
 10
53.896680000000003
 20
7.07979
 30
0.0
 10
53.896680000000003
 20
7.07979
 30
0.0
 10
54.125079999999997
 20
7.0654899999999996
 30
0.0
 10
54.125079999999997
 20
7.0654899999999996
 30
0.0
 10
54.125079999999997
 20
7.0654899999999996
 30
0.0
 10
54.125079999999997
 20
7.0654899999999996
 30
0.0
 10
54.38814
 20
7.0811900000000003
 30
0.0
 10
54.38814
 20
7.0811900000000003
 30
0.0
 10
54.38814
 20
7.0811900000000003
 30
0.0
 10
54.38814
 20
7.0811900000000003
 30
0.0
 10
54.454369999999997
 20
7.0930999999999997
 30
0.0
 10
54.454369999999997
 20
7.0930999999999997
 30
0.0
 10
54.454369999999997
 20
7.0930999999999997
 30
0.0
 10
54.454369999999997
 20
7.0930999999999997
 30
0.0
 10
54.153680000000001
 20
2.5488599999999999
 30
0.0
 10
54.153680000000001
 20
2.5488599999999999
 30
0.0
 10
54.153680000000001
 20
2.5488599999999999
 30
0.0
 10
54.153680000000001
 20
2.5488599999999999
 30
0.0
 10
54.097740000000002
 20
2.43988
 30
0.0
 10
54.097740000000002
 20
2.43988
 30
0.0
 10
54.097740000000002
 20
2.43988
 30
0.0
 10
54.097740000000002
 20
2.43988
 30
0.0
 10
54.440370000000001
 20
2.4184299999999999
 30
0.0
 10
54.440370000000001
 20
2.4184299999999999
 30
0.0
 10
54.440370000000001
 20
2.4184299999999999
 30
0.0
 10
54.440370000000001
 20
2.4184299999999999
 30
0.0
 10
54.414720000000003
 20
2.5325299999999999
 30
0.0
 10
54.414720000000003
 20
2.5325299999999999
 30
0.0
 10
54.414720000000003
 20
2.5325299999999999
 30
0.0
 10
54.414720000000003
 20
2.5325299999999999
 30
0.0
 10
54.71743
 20
7.1087800000000003
 30
0.0
 10
54.71743
 20
7.1087800000000003
 30
0.0
  0
SPLINE
  5
56
100
AcDbEntity
  8
Layer 1
100
AcDbSpline
210
0.0
220
0.0
230
1.0
 70
     1
 71
     3
 72
    84
 73
    80
 74
     0
 42
0.0000000001
 43
0.0000000001
 40
0.0
 40
0.0
 40
0.0
 40
0.0
 40
0.05
 40
0.05
 40
0.05
 40
0.05
 40
0.1
 40
0.1
 40
0.1
 40
0.1
 40
0.15
 40
0.15
 40
0.15
 40
0.15
 40
0.2
 40
0.2
 40
0.2
 40
0.2
 40
0.25
 40
0.25
 40
0.25
 40
0.25
 40
0.3
 40
0.3
 40
0.3
 40
0.3
 40
0.35
 40
0.35
 40
0.35
 40
0.35
 40
0.4
 40
0.4
 40
0.4
 40
0.4
 40
0.45
 40
0.45
 40
0.45
 40
0.45
 40
0.4999999999999999
 40
0.4999999999999999
 40
0.4999999999999999
 40
0.4999999999999999
 40
0.5499999999999999
 40
0.5499999999999999
 40
0.5499999999999999
 40
0.5499999999999999
 40
0.6
 40
0.6
 40
0.6
 40
0.6
 40
0.65
 40
0.65
 40
0.65
 40
0.65
 40
0.7000000000000001
 40
0.7000000000000001
 40
0.7000000000000001
 40
0.7000000000000001
 40
0.7500000000000001
 40
0.7500000000000001
 40
0.7500000000000001
 40
0.7500000000000001
 40
0.8000000000000002
 40
0.8000000000000002
 40
0.8000000000000002
 40
0.8000000000000002
 40
0.8500000000000002
 40
0.8500000000000002
 40
0.8500000000000002
 40
0.8500000000000002
 40
0.9000000000000002
 40
0.9000000000000002
 40
0.9000000000000002
 40
0.9000000000000002
 40
0.9500000000000003
 40
0.9500000000000003
 40
0.9500000000000003
 40
0.9500000000000003
 40
1.0
 40
1.0
 40
1.0
 40
1.0
 10
-2.05009
 20
11.01408
 30
0.0
 10
-2.05009
 20
11.01408
 30
0.0
 10
51.259149999999998
 20
11.01408
 30
0.0
 10
51.259149999999998
 20
11.01408
 30
0.0
 10
51.259149999999998
 20
11.01408
 30
0.0
 10
54.474110000000003
 20
11.01408
 30
0.0
 10
57.104529999999997
 20
8.3836600000000008
 30
0.0
 10
57.104529999999997
 20
5.1687000000000003
 30
0.0
 10
57.104529999999997
 20
5.1687000000000003
 30
0.0
 10
57.104529999999997
 20
5.1687000000000003
 30
0.0
 10
57.104529999999997
 20
-22.140529999999998
 30
0.0
 10
57.104529999999997
 20
-22.140529999999998
 30
0.0
 10
57.104529999999997
 20
-22.140529999999998
 30
0.0
 10
57.104529999999997
 20
-25.35549
 30
0.0
 10
54.474110000000003
 20
-27.985910000000001
 30
0.0
 10
51.259149999999998
 20
-27.985910000000001
 30
0.0
 10
51.259149999999998
 20
-27.985910000000001
 30
0.0
 10
51.259149999999998
 20
-27.985910000000001
 30
0.0
 10
-2.05009
 20
-27.985910000000001
 30
0.0
 10
-2.05009
 20
-27.985910000000001
 30
0.0
 10
-2.05009
 20
-27.985910000000001
 30
0.0
 10
-5.2649999999999997
 20
-27.985910000000001
 30
0.0
 10
-7.8954700000000004
 20
-25.35549
 30
0.0
 10
-7.8954700000000004
 20
-22.140529999999998
 30
0.0
 10
-7.8954700000000004
 20
-22.140529999999998
 30
0.0
 10
-7.8954700000000004
 20
-22.140529999999998
 30
0.0
 10
-7.8954700000000004
 20
-13.41563
 30
0.0
 10
-7.8954700000000004
 20
-13.41563
 30
0.0
 10
-7.8954700000000004
 20
-13.41563
 30
0.0
 10
-7.6750600000000002
 20
-13.559469999999999
 30
0.0
 10
-7.4400700000000004
 20
-13.652229999999999
 30
0.0
 10
-7.1954700000000003
 20
-13.68519
 30
0.0
 10
-7.1954700000000003
 20
-13.68519
 30
0.0
 10
-7.1954700000000003
 20
-13.68519
 30
0.0
 10
-7.1954700000000003
 20
-22.140529999999998
 30
0.0
 10
-7.1954700000000003
 20
-22.140529999999998
 30
0.0
 10
-7.1954700000000003
 20
-22.140529999999998
 30
0.0
 10
-7.1954700000000003
 20
-24.97044
 30
0.0
 10
-4.8800499999999998
 20
-27.285910000000001
 30
0.0
 10
-2.05009
 20
-27.285910000000001
 30
0.0
 10
-2.05009
 20
-27.285910000000001
 30
0.0
 10
-2.05009
 20
-27.285910000000001
 30
0.0
 10
51.259149999999998
 20
-27.285910000000001
 30
0.0
 10
51.259149999999998
 20
-27.285910000000001
 30
0.0
 10
51.259149999999998
 20
-27.285910000000001
 30
0.0
 10
54.089109999999998
 20
-27.285910000000001
 30
0.0
 10
56.404530000000001
 20
-24.970490000000002
 30
0.0
 10
56.404530000000001
 20
-22.140529999999998
 30
0.0
 10
56.404530000000001
 20
-22.140529999999998
 30
0.0
 10
56.404530000000001
 20
-22.140529999999998
 30
0.0
 10
56.404530000000001
 20
5.1687000000000003
 30
0.0
 10
56.404530000000001
 20
5.1687000000000003
 30
0.0
 10
56.404530000000001
 20
5.1687000000000003
 30
0.0
 10
56.404530000000001
 20
7.9986600000000001
 30
0.0
 10
54.089109999999998
 20
10.314080000000001
 30
0.0
 10
51.259149999999998
 20
10.314080000000001
 30
0.0
 10
51.259149999999998
 20
10.314080000000001
 30
0.0
 10
51.259149999999998
 20
10.314080000000001
 30
0.0
 10
-2.05009
 20
10.314080000000001
 30
0.0
 10
-2.05009
 20
10.314080000000001
 30
0.0
 10
-2.05009
 20
10.314080000000001
 30
0.0
 10
-4.8800400000000002
 20
10.314080000000001
 30
0.0
 10
-7.1954700000000003
 20
7.9986499999999996
 30
0.0
 10
-7.1954700000000003
 20
5.1687000000000003
 30
0.0
 10
-7.1954700000000003
 20
5.1687000000000003
 30
0.0
 10
-7.1954700000000003
 20
5.1687000000000003
 30
0.0
 10
-7.1954700000000003
 20
-7.1102999999999996
 30
0.0
 10
-7.1954700000000003
 20
-7.1102999999999996
 30
0.0
 10
-7.1954700000000003
 20
-7.1102999999999996
 30
0.0
 10
-7.4400700000000004
 20
-7.1432500000000001
 30
0.0
 10
-7.6750600000000002
 20
-7.2359999999999998
 30
0.0
 10
-7.8954700000000004
 20
-7.3798399999999997
 30
0.0
 10
-7.8954700000000004
 20
-7.3798399999999997
 30
0.0
 10
-7.8954700000000004
 20
-7.3798399999999997
 30
0.0
 10
-7.8954700000000004
 20
5.1687000000000003
 30
0.0
 10
-7.8954700000000004
 20
5.1687000000000003
 30
0.0
 10
-7.8954700000000004
 20
5.1687000000000003
 30
0.0
 10
-7.8954700000000004
 20
8.3836600000000008
 30
0.0
 10
-5.2650499999999996
 20
11.01408
 30
0.0
 10
-2.05009
 20
11.01408
 30
0.0
  0
ENDSEC
  0
SECTION
  2
OBJECTS
  0
DICTIONARY
  5
19
100
AcDbDictionary
280
     0
281
     1
  3
ACAD_GROUP
350
1A
  3
ACAD_MLINESTYLE
350
1B
  3
ACAD_LAYOUT
350
1E
  3
ACAD_PLOTSETTINGS
350
22
  3
ACAD_PLOTSTYLENAME
350
1F
  3
ACAD_WIPEOUT_VARS
350
23
  0
DICTIONARY
  5
1A
102
{ACAD_REACTORS
330
19
102
}
100
AcDbDictionary
280
     0
281
     1
  0
DICTIONARY
  5
1B
102
{ACAD_REACTORS
330
19
102
}
100
AcDbDictionary
280
     0
281
     1
  3
Standard
350
1C
  0
MLINESTYLE
  5
1C
102
{ACAD_REACTORS
330
1B
102
}
100
AcDbMlineStyle
  2
Standard
 70
     0
  3

 62
     0
 51
90.0
 52
90.0
 71
     2
 49
0.5
 62
   256
  6
BYLAYER
 49
-0.5
 62
   256
  6
BYLAYER
  0
ACDBDICTIONARYWDFLT
  5
1F
102
{ACAD_REACTORS
330
19
102
}
100
AcDbDictionary
281
     1
  3
Normal
350
1D
100
AcDbDictionaryWithDefault
340
1D
  0
ACDBPLACEHOLDER
  5
1D
102
{ACAD_REACTORS
330
1F
102
}
  0
LAYOUT
  5
20
102
{ACAD_REACTORS
330
1E
102
}
100
AcDbPlotSettings
  1

  2

  4

  6

 40
0.0
 41
0.0
 42
0.0
 43
0.0
 44
0.0
 45
0.0
 46
0.0
 47
0.0
 48
0.0
 49
0.0
140
0.0
141
0.0
142
1.0
143
1.0
 70
  1024
 72
     0
 73
     0
 74
     0
  7

 75
     0
147
1.0
148
0.0
149
0.0
100
AcDbLayout
  1
Model
 70
     0
 71
     0
 10
0.0
 20
0.0
 11
0.0
 21
0.0
 12
0.0
 22
0.0
 32
0.0
 14
0.0
 24
0.0
 34
0.0
 15
0.0
 25
0.0
 35
0.0
146
0.0
 13
0.0
 23
0.0
 33
0.0
 16
0.0
 26
0.0
 36
0.0
 17
0.0
 27
0.0
 37
0.0
 76
     0
330
A
331
0
345
0
346
0
  0
LAYOUT
  5
21
102
{ACAD_REACTORS
330
1E
102
}
100
AcDbPlotSettings
  1

  2

  4

  6

 40
0.0
 41
0.0
 42
0.0
 43
0.0
 44
0.0
 45
0.0
 46
0.0
 47
0.0
 48
0.0
 49
0.0
140
0.0
141
0.0
142
1.0
143
1.0
 70
     0
 72
     0
 73
     0
 74
     0
  7

 75
     0
147
1.0
148
0.0
149
0.0
100
AcDbLayout
  1
Layout1
 70
     0
 71
     0
 10
0.0
 20
0.0
 11
0.0
 21
0.0
 12
0.0
 22
0.0
 32
0.0
 14
0.0
 24
0.0
 34
0.0
 15
0.0
 25
0.0
 35
0.0
146
0.0
 13
0.0
 23
0.0
 33
0.0
 16
0.0
 26
0.0
 36
0.0
 17
0.0
 27
0.0
 37
0.0
 76
     0
330
B
331
0
345
0
346
0
  0
DICTIONARY
  5
1E
102
{ACAD_REACTORS
330
19
102
}
100
AcDbDictionary
280
     0
281
     1
  3
Layout1
350
21
  3
Model
350
20
  0
DICTIONARY
  5
22
102
{ACAD_REACTORS
330
19
102
}
100
AcDbDictionary
280
     0
281
     1
  0
WIPEOUTVARIABLES
  5
23
100
AcDbWipeoutVariables
 70
     1
  0
ENDSEC
  0
EOF
