0
SECTION
2
HEADER
9
$EXTMIN
10
0.4436618989
20
1.3769234436
30
0
9
$EXTMAX
10
3.9331716174
20
4.32857142857134
30
0.4
0
ENDSEC
0
SECTION
2
TABLES
0
TABLE
2
VPORT
0
VPORT
2
*ACTIVE
41
  1.000000
0
ENDTAB
0
TABLE
2
LAYER
0
LAYER
2
2
62
0
0
LAYER
2
1
62
0
0
LAYER
2
0
62
0
0
ENDTAB
0
TABLE
2
LTYPE
70
   25
0
LTYPE
2
CONTINUOUS
70
   64
3
Solid line
72
   64
73
    0
40
0.000000
0
LTYPE
2
DOT
70
   64
3
. . . . . . . . . . . . . . . . . . . . . . . .
72
   65
73
    2
40
0.250000
49
0.000000
49
-.250000
0
ENDTAB
0
ENDSEC
0
SECTION
2
BLOCKS
0
ENDSEC
0
SECTION
2
ENTITIES
0
LINE
8
0
62
5
6
CONTINUOUS
10
1.012236
20
2.758408
30
0.400000
11
1.011022
21
2.723266
31
0.400000
0
LINE
8
0
62
5
6
CONTINUOUS
10
1.011022
20
2.723266
30
0.400000
11
0.525002
21
2.569886
31
0.400000
0
LINE
8
0
62
5
6
CONTINUOUS
10
0.525002
20
2.569886
30
0.400000
11
0.565673
21
2.538629
31
0.400000
0
LINE
8
0
62
5
6
CONTINUOUS
10
0.565673
20
2.538629
30
0.400000
11
0.679550
21
2.476116
31
0.400000
0
LINE
8
0
62
5
6
CONTINUOUS
10
0.679550
20
2.476116
30
0.400000
11
0.736488
21
2.450069
31
0.400000
0
LINE
8
0
62
5
6
CONTINUOUS
10
0.736488
20
2.450069
30
0.400000
11
1.026251
21
2.696068
31
0.400000
0
LINE
8
0
62
5
6
CONTINUOUS
10
1.026251
20
2.696068
30
0.400000
11
1.053830
21
2.674193
31
0.400000
0
LINE
8
0
62
5
6
CONTINUOUS
10
1.053830
20
2.674193
30
0.400000
11
0.476198
21
1.376923
31
0.400000
0
LINE
8
0
62
5
6
CONTINUOUS
10
0.476198
20
1.376923
30
0.400000
11
0.695818
21
1.376923
31
0.400000
0
LINE
8
0
62
5
6
CONTINUOUS
10
0.695818
20
1.376923
30
0.400000
11
1.037448
21
2.293785
31
0.400000
0
LINE
8
0
62
5
6
CONTINUOUS
10
1.037448
20
2.293785
30
0.400000
11
1.037448
21
1.376923
31
0.400000
0
LINE
8
0
62
5
6
CONTINUOUS
10
1.037448
20
1.376923
30
0.400000
11
1.183861
21
1.376923
31
0.400000
0
LINE
8
0
62
5
6
CONTINUOUS
10
1.183861
20
1.376923
30
0.400000
11
1.183861
21
2.038523
31
0.400000
0
LINE
8
0
62
5
6
CONTINUOUS
10
1.183861
20
2.038523
30
0.400000
11
1.427883
21
1.376923
31
0.400000
0
LINE
8
0
62
5
6
CONTINUOUS
10
1.427883
20
1.376923
30
0.400000
11
1.606832
21
1.376923
31
0.400000
0
LINE
8
0
62
5
6
CONTINUOUS
10
1.606832
20
1.376923
30
0.400000
11
1.113064
21
2.676443
31
0.400000
0
LINE
8
0
62
5
6
CONTINUOUS
10
1.113064
20
2.676443
30
0.400000
11
1.140619
21
2.692426
31
0.400000
0
LINE
8
0
62
5
6
CONTINUOUS
10
1.140619
20
2.692426
30
0.400000
11
1.387212
21
2.444859
31
0.400000
0
LINE
8
0
62
5
6
CONTINUOUS
10
1.387212
20
2.444859
30
0.400000
11
1.452285
21
2.470906
31
0.400000
0
LINE
8
0
62
5
6
CONTINUOUS
10
1.452285
20
2.470906
30
0.400000
11
1.517357
21
2.502163
31
0.400000
0
LINE
8
0
62
5
6
CONTINUOUS
10
1.517357
20
2.502163
30
0.400000
11
1.566162
21
2.533420
31
0.400000
0
LINE
8
0
62
5
6
CONTINUOUS
10
1.566162
20
2.533420
30
0.400000
11
1.614966
21
2.569886
31
0.400000
0
LINE
8
0
62
5
6
CONTINUOUS
10
1.614966
20
2.569886
30
0.400000
11
1.157940
21
2.722991
31
0.400000
0
LINE
8
0
62
5
6
CONTINUOUS
10
1.157940
20
2.722991
30
0.400000
11
1.159416
21
2.740721
31
0.400000
0
LINE
8
0
62
5
6
CONTINUOUS
10
1.159416
20
2.740721
30
0.400000
11
1.753245
21
2.689703
31
0.400000
0
LINE
8
0
62
5
6
CONTINUOUS
10
1.753245
20
2.689703
30
0.400000
11
1.915926
21
2.580305
31
0.400000
0
LINE
8
0
62
5
6
CONTINUOUS
10
1.915926
20
2.580305
30
0.400000
11
1.915926
21
2.955385
31
0.400000
0
LINE
8
0
62
5
6
CONTINUOUS
10
1.915926
20
2.955385
30
0.400000
11
1.753245
21
2.819939
31
0.400000
0
LINE
8
0
62
5
6
CONTINUOUS
10
1.753245
20
2.819939
30
0.400000
11
1.156286
21
2.754665
31
0.400000
0
LINE
8
0
62
5
6
CONTINUOUS
10
1.156286
20
2.754665
30
0.400000
11
1.151385
21
2.774612
31
0.400000
0
LINE
8
0
62
5
6
CONTINUOUS
10
1.151385
20
2.774612
30
0.400000
11
1.639368
21
2.981432
31
0.400000
0
LINE
8
0
62
5
6
CONTINUOUS
10
1.639368
20
2.981432
30
0.400000
11
1.606832
21
3.012688
31
0.400000
0
LINE
8
0
62
5
6
CONTINUOUS
10
1.606832
20
3.012688
30
0.400000
11
1.566162
21
3.043945
31
0.400000
0
LINE
8
0
62
5
6
CONTINUOUS
10
1.566162
20
3.043945
30
0.400000
11
1.468553
21
3.096040
31
0.400000
0
LINE
8
0
62
5
6
CONTINUOUS
10
1.468553
20
3.096040
30
0.400000
11
1.136214
21
2.792621
31
0.400000
0
LINE
8
0
62
5
6
CONTINUOUS
10
1.136214
20
2.792621
30
0.400000
11
1.107375
21
2.805895
31
0.400000
0
LINE
8
0
62
5
6
CONTINUOUS
10
1.107375
20
2.805895
30
0.400000
11
1.224531
21
3.132506
31
0.400000
0
LINE
8
0
62
5
6
CONTINUOUS
10
1.224531
20
3.132506
30
0.400000
11
1.191995
21
3.137715
31
0.400000
0
LINE
8
0
62
5
6
CONTINUOUS
10
1.191995
20
3.137715
30
0.400000
11
1.167593
21
3.137715
31
0.400000
0
LINE
8
0
62
5
6
CONTINUOUS
10
1.167593
20
3.137715
30
0.400000
11
1.135057
21
3.142924
31
0.400000
0
LINE
8
0
62
5
6
CONTINUOUS
10
1.135057
20
3.142924
30
0.400000
11
1.013046
21
3.142924
31
0.400000
0
LINE
8
0
62
5
6
CONTINUOUS
10
1.013046
20
3.142924
30
0.400000
11
0.996778
21
3.137715
31
0.400000
0
LINE
8
0
62
5
6
CONTINUOUS
10
0.996778
20
3.137715
30
0.400000
11
0.931705
21
3.132506
31
0.400000
0
LINE
8
0
62
5
6
CONTINUOUS
10
0.931705
20
3.132506
30
0.400000
11
1.060545
21
2.811131
31
0.400000
0
LINE
8
0
62
5
6
CONTINUOUS
10
1.060545
20
2.811131
30
0.400000
11
1.020407
21
2.786269
31
0.400000
0
LINE
8
0
62
5
6
CONTINUOUS
10
1.020407
20
2.786269
30
0.400000
11
0.614477
21
3.028317
31
0.400000
0
LINE
8
0
62
5
6
CONTINUOUS
10
0.614477
20
3.028317
30
0.400000
11
0.541271
21
2.986641
31
0.400000
0
LINE
8
0
62
5
6
CONTINUOUS
10
0.541271
20
2.986641
30
0.400000
11
0.500600
21
2.950175
31
0.400000
0
LINE
8
0
62
5
6
CONTINUOUS
10
0.500600
20
2.950175
30
0.400000
11
0.468064
21
2.903290
31
0.400000
0
LINE
8
0
62
5
6
CONTINUOUS
10
0.468064
20
2.903290
30
0.400000
11
0.443662
21
2.845986
31
0.400000
0
LINE
8
0
62
5
6
CONTINUOUS
10
0.443662
20
2.845986
30
0.400000
11
1.012236
21
2.758408
31
0.400000
0
LINE
8
0
62
5
6
CONTINUOUS
10
1.712575
20
1.376923
30
0.400000
11
1.704440
21
1.449856
31
0.400000
0
LINE
8
0
62
5
6
CONTINUOUS
10
1.704440
20
1.449856
30
0.400000
11
1.680038
21
1.626977
31
0.400000
0
LINE
8
0
62
5
6
CONTINUOUS
10
1.680038
20
1.626977
30
0.400000
11
1.680038
21
1.835354
31
0.400000
0
LINE
8
0
62
5
6
CONTINUOUS
10
1.680038
20
1.835354
30
0.400000
11
1.712575
21
2.002057
31
0.400000
0
LINE
8
0
62
5
6
CONTINUOUS
10
1.712575
20
2.002057
30
0.400000
11
1.549893
21
2.002057
31
0.400000
0
LINE
8
0
62
5
6
CONTINUOUS
10
1.549893
20
2.002057
30
0.400000
11
1.492955
21
2.012475
31
0.400000
0
LINE
8
0
62
5
6
CONTINUOUS
10
1.492955
20
2.012475
30
0.400000
11
1.541759
21
2.106245
31
0.400000
0
LINE
8
0
62
5
6
CONTINUOUS
10
1.541759
20
2.106245
30
0.400000
11
1.647502
21
2.220853
31
0.400000
0
LINE
8
0
62
5
6
CONTINUOUS
10
1.647502
20
2.220853
30
0.400000
11
1.785781
21
2.351089
31
0.400000
0
LINE
8
0
62
5
6
CONTINUOUS
10
1.785781
20
2.351089
30
0.400000
11
1.940328
21
2.486535
31
0.400000
0
LINE
8
0
62
5
6
CONTINUOUS
10
1.940328
20
2.486535
30
0.400000
11
2.086741
21
2.611561
31
0.400000
0
LINE
8
0
62
5
6
CONTINUOUS
10
2.086741
20
2.611561
30
0.400000
11
2.216886
21
2.715750
31
0.400000
0
LINE
8
0
62
5
6
CONTINUOUS
10
2.216886
20
2.715750
30
0.400000
11
2.306361
21
2.788682
31
0.400000
0
LINE
8
0
62
5
6
CONTINUOUS
10
2.306361
20
2.788682
30
0.400000
11
2.338897
21
2.814730
31
0.400000
0
LINE
8
0
62
5
6
CONTINUOUS
10
2.338897
20
2.814730
30
0.400000
11
3.599675
21
2.403184
31
0.400000
0
LINE
8
0
62
5
6
CONTINUOUS
10
3.599675
20
2.403184
30
0.400000
11
3.656614
21
2.330251
31
0.400000
0
LINE
8
0
62
5
6
CONTINUOUS
10
3.656614
20
2.330251
30
0.400000
11
3.713552
21
2.252110
31
0.400000
0
LINE
8
0
62
5
6
CONTINUOUS
10
3.713552
20
2.252110
30
0.400000
11
3.778625
21
2.158340
31
0.400000
0
LINE
8
0
62
5
6
CONTINUOUS
10
3.778625
20
2.158340
30
0.400000
11
3.835563
21
2.059360
31
0.400000
0
LINE
8
0
62
5
6
CONTINUOUS
10
3.835563
20
2.059360
30
0.400000
11
3.892501
21
1.965590
31
0.400000
0
LINE
8
0
62
5
6
CONTINUOUS
10
3.892501
20
1.965590
30
0.400000
11
3.925038
21
1.882239
31
0.400000
0
LINE
8
0
62
5
6
CONTINUOUS
10
3.925038
20
1.882239
30
0.400000
11
3.933172
21
1.824936
31
0.400000
0
LINE
8
0
62
5
6
CONTINUOUS
10
3.933172
20
1.824936
30
0.400000
11
3.900635
21
1.819726
31
0.400000
0
LINE
8
0
62
5
6
CONTINUOUS
10
3.900635
20
1.819726
30
0.400000
11
3.859965
21
1.819726
31
0.400000
0
LINE
8
0
62
5
6
CONTINUOUS
10
3.859965
20
1.819726
30
0.400000
11
3.827429
21
1.824936
31
0.400000
0
LINE
8
0
62
5
6
CONTINUOUS
10
3.827429
20
1.824936
30
0.400000
11
3.786759
21
1.824936
31
0.400000
0
LINE
8
0
62
5
6
CONTINUOUS
10
3.786759
20
1.824936
30
0.400000
11
3.811161
21
1.689490
31
0.400000
0
LINE
8
0
62
5
6
CONTINUOUS
10
3.811161
20
1.689490
30
0.400000
11
3.794893
21
1.543626
31
0.400000
0
LINE
8
0
62
5
6
CONTINUOUS
10
3.794893
20
1.543626
30
0.400000
11
3.754222
21
1.423808
31
0.400000
0
LINE
8
0
62
5
6
CONTINUOUS
10
3.754222
20
1.423808
30
0.400000
11
3.737954
21
1.376923
31
0.400000
0
LINE
8
0
62
5
6
CONTINUOUS
10
3.737954
20
1.376923
30
0.400000
11
2.217001
21
1.376923
31
0.400000
0
LINE
8
0
62
5
6
CONTINUOUS
10
2.217001
20
1.376923
30
0.400000
11
1.712575
21
1.376923
31
0.400000
0
ARC
8
0
62
5
6
CONTINUOUS
10
2.100000
20
4.287500
30
0.400000
40
0.030000
50
0.000000
51
0.000000
0
ARC
8
0
62
5
6
CONTINUOUS
10
2.100000
20
2.100000
30
0.400000
40
2.000000
50
103.361300
51
76.638740
0
ARC
8
0
62
5
6
CONTINUOUS
10
2.648839
20
4.410714
30
0.400000
40
0.375000
50
192.653100
51
256.638700
0
ARC
8
0
62
5
6
CONTINUOUS
10
2.100000
20
4.287500
30
0.400000
40
0.187500
50
12.653100
51
167.346900
0
ARC
8
0
62
5
6
CONTINUOUS
10
1.551161
20
4.410714
30
0.400000
40
0.375000
50
283.361300
51
347.346900
0
ENDSEC
0
EOF
