  0
SECTION
  2
HEADER
  9
$ACADVER
  1
AC1006
  0
ENDSEC
  0
SECTION
  2
TABLES
  0
TABLE
  2
LTYPE
 70
    25
  0
LTYPE
  2
CONTINUOUS
 70
    64
  3
Solid line
 72
    64
 73
     0
 40
0.000000
  0
LTYPE
  2
DASHDOT
 70
    64
  3
__ . __ . __ . __ . __ . __ . __ . __ . __ . __
 72
    65
 73
     4
 40
1.000000
 49
0.500000
 49
-0.250000
 49
0.000000
 49
-0.250000
  0
LTYPE
  2
DASHED
 70
    64
  3
__ __ __ __ __ __ __ __ __ __ __ __ __ __ __ __
 72
    65
 73
     2
 40
0.750000
 49
0.500000
 49
-0.250000
  0
LTYPE
  2
DIVIDE
 70
    64
  3
____ . . ____ . . ____ . . ____ . . ____ . . __
 72
    65
 73
     6
 40
1.250000
 49
0.500000
 49
-0.250000
 49
0.000000
 49
-0.250000
 49
0.000000
 49
-0.250000
  0
LTYPE
  2
DOT
 70
    64
  3
. . . . . . . . . . . . . . . . . . . . . . . . 
 72
    65
 73
     2
 40
0.250000
 49
0.000000
 49
-0.250000
  0
ENDTAB
  0
ENDSEC
  0
SECTION
  2
ENTITIES
  0
ARC
  8
LEFT_SIDE_STI0
 62
     5
  6
CONTINUOUS
 10
0.000000
 20
0.063750
 30
0.000000
 40
0.159375
 50
54.549457
 51
125.450543
  0
LINE
  8
LEFT_SIDE_STI0
 62
     5
  6
CONTINUOUS
 10
-0.092437
 20
0.077319
 30
0.000000
 11
-0.092437
 21
0.193579
 31
0.000000
  0
ARC
  8
LEFT_SIDE_STI
 62
     5
  6
CONTINUOUS
 10
-0.084232
 20
0.046295
 30
0.000000
 40
0.023014
 50
67.041261
 51
127.935756
  0
ARC
  8
LEFT_SIDE_STI
 62
     5
  6
CONTINUOUS
 10
-0.085925
 20
-0.002708
 30
0.000000
 40
0.080292
 50
83.258905
 51
116.742877
  0
LINE
  8
LEFT_SIDE_STI
 62
     5
  6
CONTINUOUS
 10
-0.132623
 20
0.064843
 30
0.000000
 11
-0.122055
 21
0.068995
 31
0.000000
  0
ARC
  8
LEFT_SIDE_STI
 62
     5
  6
CONTINUOUS
 10
-0.146513
 20
0.114355
 30
0.000000
 40
0.051423
 50
252.840661
 51
285.671220
  0
LINE
  8
LEFT_SIDE_STI
 62
     5
  6
CONTINUOUS
 10
-0.162062
 20
0.046727
 30
0.000000
 11
-0.161685
 21
0.065221
 31
0.000000
  0
ARC
  8
LEFT_SIDE_STI
 62
     5
  6
CONTINUOUS
 10
-0.124401
 20
0.054706
 30
0.000000
 40
0.038497
 50
191.962712
 51
254.193376
  0
ARC
  8
LEFT_SIDE_STI
 62
     5
  6
CONTINUOUS
 10
-0.127905
 20
0.039665
 30
0.000000
 40
0.023081
 50
252.392472
 51
343.969657
  0
ARC
  8
LEFT_SIDE_STI
 62
     5
  6
CONTINUOUS
 10
-0.193847
 20
0.070502
 30
0.000000
 40
0.095659
 50
337.108293
 51
356.369988
  0
LINE
  8
LEFT_SIDE_STI0
 62
     5
  6
CONTINUOUS
 10
-0.114750
 20
0.239295
 30
0.000000
 11
-0.114750
 21
0.072231
 31
0.000000
  0
LINE
  8
LEFT_SIDE_STI0
 62
     5
  6
CONTINUOUS
 10
-0.137063
 20
0.255000
 30
0.000000
 11
-0.114750
 21
0.239063
 31
0.000000
  0
LINE
  8
LEFT_SIDE_STI0
 62
     5
  6
CONTINUOUS
 10
-0.159375
 20
0.286875
 30
0.000000
 11
-0.137011
 21
0.270811
 31
0.000000
  0
LINE
  8
LEFT_SIDE_STI0
 62
     5
  6
CONTINUOUS
 10
-0.159375
 20
0.286875
 30
0.000000
 11
-0.159375
 21
0.063750
 31
0.000000
  0
LINE
  8
LEFT_SIDE_STI0
 62
     5
  6
CONTINUOUS
 10
-0.159375
 20
0.063750
 30
0.000000
 11
-0.155651
 21
0.063750
 31
0.000000
  0
LINE
  8
0
 62
     7
  6
CONTINUOUS
 10
-0.172318
 20
0.063248
 30
0.000000
 11
-0.165297
 21
0.075644
 31
0.000000
  0
LINE
  8
0
 62
     7
  6
CONTINUOUS
 10
-0.176568
 20
0.057530
 30
0.000000
 11
-0.172318
 21
0.063248
 31
0.000000
  0
LINE
  8
0
 62
     7
  6
CONTINUOUS
 10
-0.181695
 20
0.052589
 30
0.000000
 11
-0.176568
 21
0.057530
 31
0.000000
  0
LINE
  8
0
 62
     7
  6
CONTINUOUS
 10
-0.187532
 20
0.048511
 30
0.000000
 11
-0.181695
 21
0.052589
 31
0.000000
  0
LINE
  8
0
 62
     7
  6
CONTINUOUS
 10
-0.190695
 20
0.046873
 30
0.000000
 11
-0.187532
 21
0.048511
 31
0.000000
  0
LINE
  8
0
 62
     7
  6
CONTINUOUS
 10
-0.194012
 20
0.045572
 30
0.000000
 11
-0.190695
 21
0.046873
 31
0.000000
  0
LINE
  8
0
 62
     7
  6
CONTINUOUS
 10
-0.197463
 20
0.044689
 30
0.000000
 11
-0.194012
 21
0.045572
 31
0.000000
  0
LINE
  8
0
 62
     7
  6
CONTINUOUS
 10
-0.201005
 20
0.044313
 30
0.000000
 11
-0.197463
 21
0.044689
 31
0.000000
  0
LINE
  8
0
 62
     7
  6
CONTINUOUS
 10
-0.202787
 20
0.044348
 30
0.000000
 11
-0.201005
 21
0.044313
 31
0.000000
  0
LINE
  8
0
 62
     7
  6
CONTINUOUS
 10
-0.204558
 20
0.044545
 30
0.000000
 11
-0.202787
 21
0.044348
 31
0.000000
  0
LINE
  8
0
 62
     7
  6
CONTINUOUS
 10
-0.206301
 20
0.044912
 30
0.000000
 11
-0.204558
 21
0.044545
 31
0.000000
  0
LINE
  8
0
 62
     7
  6
CONTINUOUS
 10
-0.208001
 20
0.045449
 30
0.000000
 11
-0.206301
 21
0.044912
 31
0.000000
  0
LINE
  8
0
 62
     7
  6
CONTINUOUS
 10
-0.209637
 20
0.046155
 30
0.000000
 11
-0.208001
 21
0.045449
 31
0.000000
  0
LINE
  8
0
 62
     7
  6
CONTINUOUS
 10
-0.211188
 20
0.047033
 30
0.000000
 11
-0.209637
 21
0.046155
 31
0.000000
  0
LINE
  8
0
 62
     7
  6
CONTINUOUS
 10
-0.212637
 20
0.048071
 30
0.000000
 11
-0.211188
 21
0.047033
 31
0.000000
  0
LINE
  8
0
 62
     7
  6
CONTINUOUS
 10
-0.213974
 20
0.049249
 30
0.000000
 11
-0.212637
 21
0.048071
 31
0.000000
  0
LINE
  8
0
 62
     7
  6
CONTINUOUS
 10
-0.215192
 20
0.050550
 30
0.000000
 11
-0.213974
 21
0.049249
 31
0.000000
  0
LINE
  8
0
 62
     7
  6
CONTINUOUS
 10
-0.216285
 20
0.051957
 30
0.000000
 11
-0.215192
 21
0.050550
 31
0.000000
  0
LINE
  8
0
 62
     7
  6
CONTINUOUS
 10
-0.218114
 20
0.055013
 30
0.000000
 11
-0.216285
 21
0.051957
 31
0.000000
  0
LINE
  8
0
 62
     7
  6
CONTINUOUS
 10
-0.219476
 20
0.058304
 30
0.000000
 11
-0.218114
 21
0.055013
 31
0.000000
  0
LINE
  8
0
 62
     7
  6
CONTINUOUS
 10
-0.220385
 20
0.061748
 30
0.000000
 11
-0.219476
 21
0.058304
 31
0.000000
  0
LINE
  8
0
 62
     7
  6
CONTINUOUS
 10
-0.220848
 20
0.065281
 30
0.000000
 11
-0.220385
 21
0.061748
 31
0.000000
  0
LINE
  8
0
 62
     7
  6
CONTINUOUS
 10
-0.220828
 20
0.068842
 30
0.000000
 11
-0.220848
 21
0.065281
 31
0.000000
  0
LINE
  8
0
 62
     7
  6
CONTINUOUS
 10
-0.220256
 20
0.072356
 30
0.000000
 11
-0.220828
 21
0.068842
 31
0.000000
  0
LINE
  8
0
 62
     7
  6
CONTINUOUS
 10
-0.217125
 20
0.064781
 30
0.000000
 11
-0.215618
 21
0.065945
 31
0.000000
  0
LINE
  8
0
 62
     7
  6
CONTINUOUS
 10
-0.220379
 20
0.062806
 30
0.000000
 11
-0.217125
 21
0.064781
 31
0.000000
  0
LINE
  8
0
 62
     7
  6
CONTINUOUS
 10
-0.223873
 20
0.061296
 30
0.000000
 11
-0.220379
 21
0.062806
 31
0.000000
  0
LINE
  8
0
 62
     7
  6
CONTINUOUS
 10
-0.227531
 20
0.060241
 30
0.000000
 11
-0.223873
 21
0.061296
 31
0.000000
  0
LINE
  8
0
 62
     7
  6
CONTINUOUS
 10
-0.231290
 20
0.059639
 30
0.000000
 11
-0.227531
 21
0.060241
 31
0.000000
  0
LINE
  8
0
 62
     7
  6
CONTINUOUS
 10
-0.235094
 20
0.059502
 30
0.000000
 11
-0.231290
 21
0.059639
 31
0.000000
  0
LINE
  8
0
 62
     7
  6
CONTINUOUS
 10
-0.238885
 20
0.059852
 30
0.000000
 11
-0.235094
 21
0.059502
 31
0.000000
  0
LINE
  8
0
 62
     7
  6
CONTINUOUS
 10
-0.242589
 20
0.060726
 30
0.000000
 11
-0.238885
 21
0.059852
 31
0.000000
  0
LINE
  8
0
 62
     7
  6
CONTINUOUS
 10
-0.246115
 20
0.062158
 30
0.000000
 11
-0.242589
 21
0.060726
 31
0.000000
  0
LINE
  8
0
 62
     7
  6
CONTINUOUS
 10
-0.247766
 20
0.063108
 30
0.000000
 11
-0.246115
 21
0.062158
 31
0.000000
  0
LINE
  8
0
 62
     7
  6
CONTINUOUS
 10
-0.249299
 20
0.064238
 30
0.000000
 11
-0.247766
 21
0.063108
 31
0.000000
  0
LINE
  8
0
 62
     7
  6
CONTINUOUS
 10
-0.250693
 20
0.065535
 30
0.000000
 11
-0.249299
 21
0.064238
 31
0.000000
  0
LINE
  8
0
 62
     7
  6
CONTINUOUS
 10
-0.251940
 20
0.066974
 30
0.000000
 11
-0.250693
 21
0.065535
 31
0.000000
  0
LINE
  8
0
 62
     7
  6
CONTINUOUS
 10
-0.253037
 20
0.068531
 30
0.000000
 11
-0.251940
 21
0.066974
 31
0.000000
  0
LINE
  8
0
 62
     7
  6
CONTINUOUS
 10
-0.253986
 20
0.070182
 30
0.000000
 11
-0.253037
 21
0.068531
 31
0.000000
  0
LINE
  8
0
 62
     7
  6
CONTINUOUS
 10
-0.255465
 20
0.073689
 30
0.000000
 11
-0.253986
 21
0.070182
 31
0.000000
  0
LINE
  8
0
 62
     7
  6
CONTINUOUS
 10
-0.256425
 20
0.077373
 30
0.000000
 11
-0.255465
 21
0.073689
 31
0.000000
  0
LINE
  8
0
 62
     7
  6
CONTINUOUS
 10
-0.256913
 20
0.081148
 30
0.000000
 11
-0.256425
 21
0.077373
 31
0.000000
  0
LINE
  8
0
 62
     7
  6
CONTINUOUS
 10
-0.256953
 20
0.084955
 30
0.000000
 11
-0.256913
 21
0.081148
 31
0.000000
  0
LINE
  8
0
 62
     7
  6
CONTINUOUS
 10
-0.256539
 20
0.088739
 30
0.000000
 11
-0.256953
 21
0.084955
 31
0.000000
  0
LINE
  8
0
 62
     7
  6
CONTINUOUS
 10
-0.255638
 20
0.092438
 30
0.000000
 11
-0.256539
 21
0.088739
 31
0.000000
  0
LINE
  8
0
 62
     7
  6
CONTINUOUS
 10
-0.250687
 20
0.086259
 30
0.000000
 11
-0.237883
 21
0.093089
 31
0.000000
  0
LINE
  8
0
 62
     7
  6
CONTINUOUS
 10
-0.237883
 20
0.093089
 30
0.000000
 11
-0.231977
 21
0.097316
 31
0.000000
  0
LINE
  8
0
 62
     7
  6
CONTINUOUS
 10
-0.231977
 20
0.097316
 30
0.000000
 11
-0.226473
 21
0.102054
 31
0.000000
  0
LINE
  8
0
 62
     7
  6
CONTINUOUS
 10
-0.226473
 20
0.102054
 30
0.000000
 11
-0.221415
 21
0.107264
 31
0.000000
  0
LINE
  8
0
 62
     7
  6
CONTINUOUS
 10
-0.221415
 20
0.107264
 30
0.000000
 11
-0.216837
 21
0.112903
 31
0.000000
  0
LINE
  8
0
 62
     7
  6
CONTINUOUS
 10
-0.216837
 20
0.112903
 30
0.000000
 11
-0.212785
 21
0.118928
 31
0.000000
  0
LINE
  8
0
 62
     7
  6
CONTINUOUS
 10
-0.212785
 20
0.118928
 30
0.000000
 11
-0.207810
 21
0.128612
 31
0.000000
  0
LINE
  8
0
 62
     7
  6
CONTINUOUS
 10
-0.207810
 20
0.128612
 30
0.000000
 11
-0.206869
 21
0.131006
 31
0.000000
  0
LINE
  8
0
 62
     7
  6
CONTINUOUS
 10
-0.221021
 20
0.123717
 30
0.000000
 11
-0.216308
 21
0.115054
 31
0.000000
  0
LINE
  8
0
 62
     7
  6
CONTINUOUS
 10
-0.216308
 20
0.115054
 30
0.000000
 11
-0.213376
 21
0.111085
 31
0.000000
  0
LINE
  8
0
 62
     7
  6
CONTINUOUS
 10
-0.213376
 20
0.111085
 30
0.000000
 11
-0.209956
 21
0.107531
 31
0.000000
  0
LINE
  8
0
 62
     7
  6
CONTINUOUS
 10
-0.209956
 20
0.107531
 30
0.000000
 11
-0.202184
 21
0.101452
 31
0.000000
  0
LINE
  8
0
 62
     7
  6
CONTINUOUS
 10
-0.202184
 20
0.101452
 30
0.000000
 11
-0.185398
 21
0.091089
 31
0.000000
  0
LINE
  8
0
 62
     7
  6
CONTINUOUS
 10
-0.185398
 20
0.091089
 30
0.000000
 11
-0.176491
 21
0.086841
 31
0.000000
  0
LINE
  8
0
 62
     7
  6
CONTINUOUS
 10
-0.176491
 20
0.086841
 30
0.000000
 11
-0.167241
 21
0.083404
 31
0.000000
  0
LINE
  8
0
 62
     7
  6
CONTINUOUS
 10
-0.167241
 20
0.083404
 30
0.000000
 11
-0.158410
 21
0.081255
 31
0.000000
  0
ARC
  8
LEFT_SIDE_STI0
 62
     5
  6
CONTINUOUS
 10
0.000000
 20
0.063750
 30
0.000000
 40
0.159375
 50
173.670755
 51
173.694198
  0
LINE
  8
0
 62
     7
  6
CONTINUOUS
 10
-0.158403
 20
0.081320
 30
0.000000
 11
-0.166122
 21
0.083062
 31
0.000000
  0
LINE
  8
0
 62
     7
  6
CONTINUOUS
 10
-0.166122
 20
0.083062
 30
0.000000
 11
-0.175434
 21
0.086396
 31
0.000000
  0
LINE
  8
0
 62
     7
  6
CONTINUOUS
 10
-0.175434
 20
0.086396
 30
0.000000
 11
-0.184402
 21
0.090571
 31
0.000000
  0
LINE
  8
0
 62
     7
  6
CONTINUOUS
 10
-0.184402
 20
0.090571
 30
0.000000
 11
-0.201307
 21
0.100830
 31
0.000000
  0
LINE
  8
0
 62
     7
  6
CONTINUOUS
 10
-0.201307
 20
0.100830
 30
0.000000
 11
-0.209166
 21
0.106837
 31
0.000000
  0
LINE
  8
0
 62
     7
  6
CONTINUOUS
 10
-0.209166
 20
0.106837
 30
0.000000
 11
-0.212701
 21
0.110295
 31
0.000000
  0
LINE
  8
0
 62
     7
  6
CONTINUOUS
 10
-0.212701
 20
0.110295
 30
0.000000
 11
-0.215734
 21
0.114202
 31
0.000000
  0
LINE
  8
0
 62
     7
  6
CONTINUOUS
 10
-0.215734
 20
0.114202
 30
0.000000
 11
-0.220598
 21
0.122808
 31
0.000000
  0
LINE
  8
0
 62
     7
  6
CONTINUOUS
 10
-0.220598
 20
0.122808
 30
0.000000
 11
-0.224396
 21
0.131941
 31
0.000000
  0
LINE
  8
0
 62
     7
  6
CONTINUOUS
 10
-0.224396
 20
0.131941
 30
0.000000
 11
-0.230660
 21
0.150711
 31
0.000000
  0
LINE
  8
0
 62
     7
  6
CONTINUOUS
 10
-0.230660
 20
0.150711
 30
0.000000
 11
-0.237133
 21
0.169405
 31
0.000000
  0
LINE
  8
0
 62
     7
  6
CONTINUOUS
 10
-0.237133
 20
0.169405
 30
0.000000
 11
-0.241519
 21
0.178271
 31
0.000000
  0
LINE
  8
0
 62
     7
  6
CONTINUOUS
 10
-0.241519
 20
0.178271
 30
0.000000
 11
-0.246839
 21
0.186609
 31
0.000000
  0
LINE
  8
0
 62
     7
  6
CONTINUOUS
 10
-0.246839
 20
0.186609
 30
0.000000
 11
-0.259675
 21
0.201641
 31
0.000000
  0
LINE
  8
0
 62
     7
  6
CONTINUOUS
 10
-0.259675
 20
0.201641
 30
0.000000
 11
-0.274206
 21
0.215070
 31
0.000000
  0
LINE
  8
0
 62
     7
  6
CONTINUOUS
 10
-0.274206
 20
0.215070
 30
0.000000
 11
-0.278269
 21
0.217888
 31
0.000000
  0
LINE
  8
0
 62
     7
  6
CONTINUOUS
 10
-0.278269
 20
0.217888
 30
0.000000
 11
-0.282633
 21
0.220215
 31
0.000000
  0
LINE
  8
0
 62
     7
  6
CONTINUOUS
 10
-0.282633
 20
0.220215
 30
0.000000
 11
-0.291855
 21
0.223782
 31
0.000000
  0
LINE
  8
0
 62
     7
  6
CONTINUOUS
 10
-0.291855
 20
0.223782
 30
0.000000
 11
-0.301429
 21
0.226264
 31
0.000000
  0
LINE
  8
0
 62
     7
  6
CONTINUOUS
 10
-0.301429
 20
0.226264
 30
0.000000
 11
-0.311192
 21
0.227860
 31
0.000000
  0
LINE
  8
0
 62
     7
  6
CONTINUOUS
 10
-0.311192
 20
0.227860
 30
0.000000
 11
-0.321059
 21
0.228537
 31
0.000000
  0
LINE
  8
0
 62
     7
  6
CONTINUOUS
 10
-0.321059
 20
0.228537
 30
0.000000
 11
-0.340838
 21
0.227957
 31
0.000000
  0
LINE
  8
0
 62
     7
  6
CONTINUOUS
 10
-0.340838
 20
0.227957
 30
0.000000
 11
-0.380381
 21
0.226286
 31
0.000000
  0
LINE
  8
0
 62
     7
  6
CONTINUOUS
 10
-0.380381
 20
0.226286
 30
0.000000
 11
-0.459476
 21
0.223191
 31
0.000000
  0
LINE
  8
0
 62
     7
  6
CONTINUOUS
 10
-0.459476
 20
0.223191
 30
0.000000
 11
-0.479214
 21
0.224201
 31
0.000000
  0
LINE
  8
0
 62
     7
  6
CONTINUOUS
 10
-0.479214
 20
0.224201
 30
0.000000
 11
-0.498603
 21
0.228105
 31
0.000000
  0
LINE
  8
0
 62
     7
  6
CONTINUOUS
 10
-0.498603
 20
0.228105
 30
0.000000
 11
-0.517372
 21
0.234335
 31
0.000000
  0
LINE
  8
0
 62
     7
  6
CONTINUOUS
 10
-0.517372
 20
0.234335
 30
0.000000
 11
-0.526351
 21
0.238487
 31
0.000000
  0
LINE
  8
0
 62
     7
  6
CONTINUOUS
 10
-0.526351
 20
0.238487
 30
0.000000
 11
-0.534790
 21
0.243638
 31
0.000000
  0
LINE
  8
0
 62
     7
  6
CONTINUOUS
 10
-0.534790
 20
0.243638
 30
0.000000
 11
-0.538621
 21
0.246767
 31
0.000000
  0
LINE
  8
0
 62
     7
  6
CONTINUOUS
 10
-0.538621
 20
0.246767
 30
0.000000
 11
-0.541955
 21
0.250420
 31
0.000000
  0
LINE
  8
0
 62
     7
  6
CONTINUOUS
 10
-0.541955
 20
0.250420
 30
0.000000
 11
-0.544787
 21
0.254474
 31
0.000000
  0
LINE
  8
0
 62
     7
  6
CONTINUOUS
 10
-0.544787
 20
0.254474
 30
0.000000
 11
-0.547151
 21
0.258819
 31
0.000000
  0
LINE
  8
0
 62
     7
  6
CONTINUOUS
 10
-0.547151
 20
0.258819
 30
0.000000
 11
-0.550662
 21
0.268060
 31
0.000000
  0
LINE
  8
0
 62
     7
  6
CONTINUOUS
 10
-0.550668
 20
0.268083
 30
0.000000
 11
-0.547172
 21
0.258862
 31
0.000000
  0
LINE
  8
0
 62
     7
  6
CONTINUOUS
 10
-0.547172
 20
0.258862
 30
0.000000
 11
-0.544818
 21
0.254525
 31
0.000000
  0
LINE
  8
0
 62
     7
  6
CONTINUOUS
 10
-0.544818
 20
0.254525
 30
0.000000
 11
-0.541999
 21
0.250476
 31
0.000000
  0
LINE
  8
0
 62
     7
  6
CONTINUOUS
 10
-0.541999
 20
0.250476
 30
0.000000
 11
-0.538682
 21
0.246824
 31
0.000000
  0
LINE
  8
0
 62
     7
  6
CONTINUOUS
 10
-0.538682
 20
0.246824
 30
0.000000
 11
-0.534867
 21
0.243695
 31
0.000000
  0
LINE
  8
0
 62
     7
  6
CONTINUOUS
 10
-0.534867
 20
0.243695
 30
0.000000
 11
-0.526456
 21
0.238543
 31
0.000000
  0
LINE
  8
0
 62
     7
  6
CONTINUOUS
 10
-0.526456
 20
0.238543
 30
0.000000
 11
-0.517505
 21
0.234390
 31
0.000000
  0
LINE
  8
0
 62
     7
  6
CONTINUOUS
 10
-0.517505
 20
0.234390
 30
0.000000
 11
-0.498788
 21
0.228154
 31
0.000000
  0
LINE
  8
0
 62
     7
  6
CONTINUOUS
 10
-0.498788
 20
0.228154
 30
0.000000
 11
-0.479451
 21
0.224234
 31
0.000000
  0
LINE
  8
0
 62
     7
  6
CONTINUOUS
 10
-0.479451
 20
0.224234
 30
0.000000
 11
-0.459762
 21
0.223186
 31
0.000000
  0
LINE
  8
0
 62
     7
  6
CONTINUOUS
 10
-0.459762
 20
0.223186
 30
0.000000
 11
-0.380858
 21
0.226265
 31
0.000000
  0
LINE
  8
0
 62
     7
  6
CONTINUOUS
 10
-0.380858
 20
0.226265
 30
0.000000
 11
-0.341411
 21
0.227934
 31
0.000000
  0
LINE
  8
0
 62
     7
  6
CONTINUOUS
 10
-0.341411
 20
0.227934
 30
0.000000
 11
-0.321680
 21
0.228543
 31
0.000000
  0
LINE
  8
0
 62
     7
  6
CONTINUOUS
 10
-0.321680
 20
0.228543
 30
0.000000
 11
-0.311832
 21
0.227933
 31
0.000000
  0
LINE
  8
0
 62
     7
  6
CONTINUOUS
 10
-0.311832
 20
0.227933
 30
0.000000
 11
-0.302084
 21
0.226399
 31
0.000000
  0
LINE
  8
0
 62
     7
  6
CONTINUOUS
 10
-0.302084
 20
0.226399
 30
0.000000
 11
-0.292516
 21
0.223988
 31
0.000000
  0
LINE
  8
0
 62
     7
  6
CONTINUOUS
 10
-0.283282
 20
0.220518
 30
0.000000
 11
-0.278896
 21
0.218258
 31
0.000000
  0
LINE
  8
0
 62
     7
  6
CONTINUOUS
 10
-0.278896
 20
0.218258
 30
0.000000
 11
-0.274787
 21
0.215529
 31
0.000000
  0
LINE
  8
0
 62
     7
  6
CONTINUOUS
 10
-0.274787
 20
0.215529
 30
0.000000
 11
-0.260233
 21
0.202199
 31
0.000000
  0
LINE
  8
0
 62
     7
  6
CONTINUOUS
 10
-0.260233
 20
0.202199
 30
0.000000
 11
-0.247326
 21
0.187288
 31
0.000000
  0
LINE
  8
0
 62
     7
  6
CONTINUOUS
 10
-0.247326
 20
0.187288
 30
0.000000
 11
-0.241946
 21
0.179016
 31
0.000000
  0
LINE
  8
0
 62
     7
  6
CONTINUOUS
 10
-0.241946
 20
0.179016
 30
0.000000
 11
-0.237484
 21
0.170216
 31
0.000000
  0
LINE
  8
0
 62
     7
  6
CONTINUOUS
 10
-0.237484
 20
0.170216
 30
0.000000
 11
-0.234013
 21
0.160980
 31
0.000000
  0
LINE
  8
0
 62
     7
  6
CONTINUOUS
 10
-0.234013
 20
0.160980
 30
0.000000
 11
-0.221021
 21
0.123717
 31
0.000000
  0
LINE
  8
0
 62
     7
  6
CONTINUOUS
 10
-0.207810
 20
0.128612
 30
0.004463
 11
-0.206869
 21
0.131006
 31
0.004463
  0
LINE
  8
0
 62
     7
  6
CONTINUOUS
 10
-0.222412
 20
0.142013
 30
0.000000
 11
-0.217514
 21
0.143627
 31
0.000000
  0
LINE
  8
0
 62
     7
  6
CONTINUOUS
 10
-0.227459
 20
0.140946
 30
0.000000
 11
-0.222412
 21
0.142013
 31
0.000000
  0
LINE
  8
0
 62
     7
  6
CONTINUOUS
 10
-0.237731
 20
0.140015
 30
0.000000
 11
-0.227459
 21
0.140946
 31
0.000000
  0
LINE
  8
0
 62
     7
  6
CONTINUOUS
 10
-0.248031
 20
0.140499
 30
0.000000
 11
-0.237731
 21
0.140015
 31
0.000000
  0
LINE
  8
0
 62
     7
  6
CONTINUOUS
 10
-0.253108
 20
0.141413
 30
0.000000
 11
-0.248031
 21
0.140499
 31
0.000000
  0
LINE
  8
0
 62
     7
  6
CONTINUOUS
 10
-0.255583
 20
0.142142
 30
0.000000
 11
-0.253108
 21
0.141413
 31
0.000000
  0
LINE
  8
0
 62
     7
  6
CONTINUOUS
 10
-0.257939
 20
0.143193
 30
0.000000
 11
-0.255583
 21
0.142142
 31
0.000000
  0
LINE
  8
0
 62
     7
  6
CONTINUOUS
 10
-0.260166
 20
0.144493
 30
0.000000
 11
-0.257939
 21
0.143193
 31
0.000000
  0
LINE
  8
0
 62
     7
  6
CONTINUOUS
 10
-0.262205
 20
0.146072
 30
0.000000
 11
-0.260166
 21
0.144493
 31
0.000000
  0
LINE
  8
0
 62
     7
  6
CONTINUOUS
 10
-0.263983
 20
0.147939
 30
0.000000
 11
-0.262205
 21
0.146072
 31
0.000000
  0
LINE
  8
0
 62
     7
  6
CONTINUOUS
 10
-0.265433
 20
0.150071
 30
0.000000
 11
-0.263983
 21
0.147939
 31
0.000000
  0
LINE
  8
0
 62
     7
  6
CONTINUOUS
 10
-0.266515
 20
0.152411
 30
0.000000
 11
-0.265433
 21
0.150071
 31
0.000000
  0
LINE
  8
0
 62
     7
  6
CONTINUOUS
 10
-0.267235
 20
0.154887
 30
0.000000
 11
-0.266515
 21
0.152411
 31
0.000000
  0
LINE
  8
0
 62
     7
  6
CONTINUOUS
 10
-0.267630
 20
0.157436
 30
0.000000
 11
-0.267235
 21
0.154887
 31
0.000000
  0
LINE
  8
0
 62
     7
  6
CONTINUOUS
 10
-0.267750
 20
0.160012
 30
0.000000
 11
-0.267630
 21
0.157436
 31
0.000000
  0
LINE
  8
0
 62
     7
  6
CONTINUOUS
 10
-0.271102
 20
0.156376
 30
0.000000
 11
-0.268509
 21
0.155725
 31
0.000000
  0
LINE
  8
0
 62
     7
  6
CONTINUOUS
 10
-0.273598
 20
0.157332
 30
0.000000
 11
-0.271102
 21
0.156376
 31
0.000000
  0
LINE
  8
0
 62
     7
  6
CONTINUOUS
 10
-0.274769
 20
0.157980
 30
0.000000
 11
-0.273598
 21
0.157332
 31
0.000000
  0
LINE
  8
0
 62
     7
  6
CONTINUOUS
 10
-0.275847
 20
0.158771
 30
0.000000
 11
-0.274769
 21
0.157980
 31
0.000000
  0
LINE
  8
0
 62
     7
  6
CONTINUOUS
 10
-0.276806
 20
0.159704
 30
0.000000
 11
-0.275847
 21
0.158771
 31
0.000000
  0
LINE
  8
0
 62
     7
  6
CONTINUOUS
 10
-0.277634
 20
0.160755
 30
0.000000
 11
-0.276806
 21
0.159704
 31
0.000000
  0
LINE
  8
0
 62
     7
  6
CONTINUOUS
 10
-0.278327
 20
0.161898
 30
0.000000
 11
-0.277634
 21
0.160755
 31
0.000000
  0
LINE
  8
0
 62
     7
  6
CONTINUOUS
 10
-0.278885
 20
0.163114
 30
0.000000
 11
-0.278327
 21
0.161898
 31
0.000000
  0
LINE
  8
0
 62
     7
  6
CONTINUOUS
 10
-0.279315
 20
0.164381
 30
0.000000
 11
-0.278885
 21
0.163114
 31
0.000000
  0
LINE
  8
0
 62
     7
  6
CONTINUOUS
 10
-0.279828
 20
0.167003
 30
0.000000
 11
-0.279315
 21
0.164381
 31
0.000000
  0
LINE
  8
0
 62
     7
  6
CONTINUOUS
 10
-0.279931
 20
0.169674
 30
0.000000
 11
-0.279828
 21
0.167003
 31
0.000000
  0
LINE
  8
0
 62
     7
  6
CONTINUOUS
 10
-0.279674
 20
0.172335
 30
0.000000
 11
-0.279931
 21
0.169674
 31
0.000000
  0
LINE
  8
0
 62
     7
  6
CONTINUOUS
 10
-0.279088
 20
0.174944
 30
0.000000
 11
-0.279674
 21
0.172335
 31
0.000000
  0
LINE
  8
0
 62
     7
  6
CONTINUOUS
 10
-0.278186
 20
0.177461
 30
0.000000
 11
-0.279088
 21
0.174944
 31
0.000000
  0
LINE
  8
0
 62
     7
  6
CONTINUOUS
 10
-0.276964
 20
0.179839
 30
0.000000
 11
-0.278186
 21
0.177461
 31
0.000000
  0
LINE
  8
0
 62
     7
  6
CONTINUOUS
 10
-0.275400
 20
0.182006
 30
0.000000
 11
-0.276964
 21
0.179839
 31
0.000000
  0
LINE
  8
0
 62
     7
  6
CONTINUOUS
 10
-0.273169
 20
0.170903
 30
0.000000
 11
-0.259710
 21
0.174258
 31
0.000000
  0
LINE
  8
0
 62
     7
  6
CONTINUOUS
 10
-0.259710
 20
0.174258
 30
0.000000
 11
-0.235048
 21
0.182453
 31
0.000000
  0
LINE
  8
0
 62
     7
  6
CONTINUOUS
 10
-0.235048
 20
0.182453
 30
0.000000
 11
-0.233325
 21
0.183281
 31
0.000000
  0
LINE
  8
0
 62
     7
  6
CONTINUOUS
 10
-0.220403
 20
0.170762
 30
0.000000
 11
-0.220256
 21
0.170850
 31
0.000000
  0
LINE
  8
0
 62
     7
  6
CONTINUOUS
 10
-0.239785
 20
0.158887
 30
0.000000
 11
-0.220403
 21
0.170762
 31
0.000000
  0
LINE
  8
0
 62
     7
  6
CONTINUOUS
 10
-0.242134
 20
0.157613
 30
0.000000
 11
-0.239785
 21
0.158887
 31
0.000000
  0
LINE
  8
0
 62
     7
  6
CONTINUOUS
 10
-0.244653
 20
0.156716
 30
0.000000
 11
-0.242134
 21
0.157613
 31
0.000000
  0
LINE
  8
0
 62
     7
  6
CONTINUOUS
 10
-0.247245
 20
0.156055
 30
0.000000
 11
-0.244653
 21
0.156716
 31
0.000000
  0
LINE
  8
0
 62
     7
  6
CONTINUOUS
 10
-0.252525
 20
0.155217
 30
0.000000
 11
-0.247245
 21
0.156055
 31
0.000000
  0
LINE
  8
0
 62
     7
  6
CONTINUOUS
 10
-0.257863
 20
0.154884
 30
0.000000
 11
-0.252525
 21
0.155217
 31
0.000000
  0
LINE
  8
0
 62
     7
  6
CONTINUOUS
 10
-0.263208
 20
0.155022
 30
0.000000
 11
-0.257863
 21
0.154884
 31
0.000000
  0
LINE
  8
0
 62
     7
  6
CONTINUOUS
 10
-0.268509
 20
0.155725
 30
0.000000
 11
-0.263208
 21
0.155022
 31
0.000000
  0
LINE
  8
0
 62
     7
  6
CONTINUOUS
 10
-0.272183
 20
0.142764
 30
0.000000
 11
-0.256863
 21
0.153583
 31
0.000000
  0
LINE
  8
0
 62
     7
  6
CONTINUOUS
 10
-0.285224
 20
0.135346
 30
0.000000
 11
-0.272183
 21
0.142764
 31
0.000000
  0
LINE
  8
0
 62
     7
  6
CONTINUOUS
 10
-0.299044
 20
0.129522
 30
0.000000
 11
-0.285224
 21
0.135346
 31
0.000000
  0
LINE
  8
0
 62
     7
  6
CONTINUOUS
 10
-0.306251
 20
0.127432
 30
0.000000
 11
-0.299044
 21
0.129522
 31
0.000000
  0
LINE
  8
0
 62
     7
  6
CONTINUOUS
 10
-0.313628
 20
0.126067
 30
0.000000
 11
-0.306251
 21
0.127432
 31
0.000000
  0
LINE
  8
0
 62
     7
  6
CONTINUOUS
 10
-0.321114
 20
0.125587
 30
0.000000
 11
-0.313628
 21
0.126067
 31
0.000000
  0
LINE
  8
0
 62
     7
  6
CONTINUOUS
 10
-0.328601
 20
0.126050
 30
0.000000
 11
-0.321114
 21
0.125587
 31
0.000000
  0
LINE
  8
0
 62
     7
  6
CONTINUOUS
 10
-0.332295
 20
0.126706
 30
0.000000
 11
-0.328601
 21
0.126050
 31
0.000000
  0
LINE
  8
0
 62
     7
  6
CONTINUOUS
 10
-0.335899
 20
0.127747
 30
0.000000
 11
-0.332295
 21
0.126706
 31
0.000000
  0
LINE
  8
0
 62
     7
  6
CONTINUOUS
 10
-0.339328
 20
0.129268
 30
0.000000
 11
-0.335899
 21
0.127747
 31
0.000000
  0
LINE
  8
0
 62
     7
  6
CONTINUOUS
 10
-0.340937
 20
0.130236
 30
0.000000
 11
-0.339328
 21
0.129268
 31
0.000000
  0
LINE
  8
0
 62
     7
  6
CONTINUOUS
 10
-0.342446
 20
0.131352
 30
0.000000
 11
-0.340937
 21
0.130236
 31
0.000000
  0
LINE
  8
0
 62
     7
  6
CONTINUOUS
 10
-0.343834
 20
0.132615
 30
0.000000
 11
-0.342446
 21
0.131352
 31
0.000000
  0
LINE
  8
0
 62
     7
  6
CONTINUOUS
 10
-0.345080
 20
0.134019
 30
0.000000
 11
-0.343834
 21
0.132615
 31
0.000000
  0
LINE
  8
0
 62
     7
  6
CONTINUOUS
 10
-0.346170
 20
0.135547
 30
0.000000
 11
-0.345080
 21
0.134019
 31
0.000000
  0
LINE
  8
0
 62
     7
  6
CONTINUOUS
 10
-0.347098
 20
0.137179
 30
0.000000
 11
-0.346170
 21
0.135547
 31
0.000000
  0
LINE
  8
0
 62
     7
  6
CONTINUOUS
 10
-0.348481
 20
0.140663
 30
0.000000
 11
-0.347098
 21
0.137179
 31
0.000000
  0
LINE
  8
0
 62
     7
  6
CONTINUOUS
 10
-0.349316
 20
0.144320
 30
0.000000
 11
-0.348481
 21
0.140663
 31
0.000000
  0
LINE
  8
0
 62
     7
  6
CONTINUOUS
 10
-0.349720
 20
0.148050
 30
0.000000
 11
-0.349316
 21
0.144320
 31
0.000000
  0
LINE
  8
0
 62
     7
  6
CONTINUOUS
 10
-0.349669
 20
0.155550
 30
0.000000
 11
-0.349720
 21
0.148050
 31
0.000000
  0
LINE
  8
0
 62
     7
  6
CONTINUOUS
 10
-0.349073
 20
0.147136
 30
0.000000
 11
-0.333914
 21
0.149988
 31
0.000000
  0
LINE
  8
0
 62
     7
  6
CONTINUOUS
 10
-0.333914
 20
0.149988
 30
0.000000
 11
-0.319017
 21
0.154005
 31
0.000000
  0
LINE
  8
0
 62
     7
  6
CONTINUOUS
 10
-0.319017
 20
0.154005
 30
0.000000
 11
-0.304366
 21
0.158847
 31
0.000000
  0
LINE
  8
0
 62
     7
  6
CONTINUOUS
 10
-0.304366
 20
0.158847
 30
0.000000
 11
-0.283123
 21
0.167991
 31
0.000000
  0
LINE
  8
0
 62
     7
  6
CONTINUOUS
 10
-0.283123
 20
0.167991
 30
0.000000
 11
-0.279863
 21
0.169894
 31
0.000000
  0
LINE
  8
0
 62
     7
  6
CONTINUOUS
 10
-0.283123
 20
0.167991
 30
0.004463
 11
-0.279863
 21
0.169894
 31
0.004463
  0
LINE
  8
0
 62
     7
  6
CONTINUOUS
 10
-0.286974
 20
0.169632
 30
0.000000
 11
-0.273169
 21
0.170903
 31
0.000000
  0
LINE
  8
0
 62
     7
  6
CONTINUOUS
 10
-0.300824
 20
0.170241
 30
0.000000
 11
-0.286974
 21
0.169632
 31
0.000000
  0
LINE
  8
0
 62
     7
  6
CONTINUOUS
 10
-0.307643
 20
0.171495
 30
0.000000
 11
-0.300824
 21
0.170241
 31
0.000000
  0
LINE
  8
0
 62
     7
  6
CONTINUOUS
 10
-0.310938
 20
0.172573
 30
0.000000
 11
-0.307643
 21
0.171495
 31
0.000000
  0
LINE
  8
0
 62
     7
  6
CONTINUOUS
 10
-0.312505
 20
0.173317
 30
0.000000
 11
-0.310938
 21
0.172573
 31
0.000000
  0
LINE
  8
0
 62
     7
  6
CONTINUOUS
 10
-0.313969
 20
0.174247
 30
0.000000
 11
-0.312505
 21
0.173317
 31
0.000000
  0
LINE
  8
0
 62
     7
  6
CONTINUOUS
 10
-0.315306
 20
0.175353
 30
0.000000
 11
-0.313969
 21
0.174247
 31
0.000000
  0
LINE
  8
0
 62
     7
  6
CONTINUOUS
 10
-0.316506
 20
0.176605
 30
0.000000
 11
-0.315306
 21
0.175353
 31
0.000000
  0
LINE
  8
0
 62
     7
  6
CONTINUOUS
 10
-0.317565
 20
0.177979
 30
0.000000
 11
-0.316506
 21
0.176605
 31
0.000000
  0
LINE
  8
0
 62
     7
  6
CONTINUOUS
 10
-0.318482
 20
0.179451
 30
0.000000
 11
-0.317565
 21
0.177979
 31
0.000000
  0
LINE
  8
0
 62
     7
  6
CONTINUOUS
 10
-0.319257
 20
0.181002
 30
0.000000
 11
-0.318482
 21
0.179451
 31
0.000000
  0
LINE
  8
0
 62
     7
  6
CONTINUOUS
 10
-0.319894
 20
0.182616
 30
0.000000
 11
-0.319257
 21
0.181002
 31
0.000000
  0
LINE
  8
0
 62
     7
  6
CONTINUOUS
 10
-0.320753
 20
0.185974
 30
0.000000
 11
-0.319894
 21
0.182616
 31
0.000000
  0
LINE
  8
0
 62
     7
  6
CONTINUOUS
 10
-0.321055
 20
0.189427
 30
0.000000
 11
-0.320753
 21
0.185974
 31
0.000000
  0
LINE
  8
0
 62
     7
  6
CONTINUOUS
 10
-0.320787
 20
0.192883
 30
0.000000
 11
-0.321055
 21
0.189427
 31
0.000000
  0
LINE
  8
0
 62
     7
  6
CONTINUOUS
 10
-0.320430
 20
0.194580
 30
0.000000
 11
-0.320787
 21
0.192883
 31
0.000000
  0
LINE
  8
0
 62
     7
  6
CONTINUOUS
 10
-0.319920
 20
0.196238
 30
0.000000
 11
-0.320430
 21
0.194580
 31
0.000000
  0
LINE
  8
0
 62
     7
  6
CONTINUOUS
 10
-0.319260
 20
0.197843
 30
0.000000
 11
-0.319920
 21
0.196238
 31
0.000000
  0
LINE
  8
0
 62
     7
  6
CONTINUOUS
 10
-0.317475
 20
0.200813
 30
0.000000
 11
-0.319260
 21
0.197843
 31
0.000000
  0
LINE
  8
0
 62
     7
  6
CONTINUOUS
 10
-0.321670
 20
0.191630
 30
0.000000
 11
-0.312636
 21
0.190814
 31
0.000000
  0
LINE
  8
0
 62
     7
  6
CONTINUOUS
 10
-0.312636
 20
0.190814
 30
0.000000
 11
-0.303572
 21
0.191195
 31
0.000000
  0
LINE
  8
0
 62
     7
  6
CONTINUOUS
 10
-0.303572
 20
0.191195
 30
0.000000
 11
-0.285720
 21
0.194450
 31
0.000000
  0
LINE
  8
0
 62
     7
  6
CONTINUOUS
 10
-0.285720
 20
0.194450
 30
0.000000
 11
-0.268204
 21
0.199190
 31
0.000000
  0
LINE
  8
0
 62
     7
  6
CONTINUOUS
 10
-0.268204
 20
0.199190
 30
0.000000
 11
-0.246225
 21
0.208323
 31
0.000000
  0
LINE
  8
0
 62
     7
  6
CONTINUOUS
 10
-0.246225
 20
0.208323
 30
0.000000
 11
-0.243525
 21
0.209738
 31
0.000000
  0
LINE
  8
0
 62
     7
  6
CONTINUOUS
 10
-0.235048
 20
0.182453
 30
0.004463
 11
-0.233325
 21
0.183281
 31
0.004463
  0
LINE
  8
0
 62
     7
  6
CONTINUOUS
 10
-0.220403
 20
0.170762
 30
0.004463
 11
-0.220256
 21
0.170850
 31
0.004463
  0
LINE
  8
0
 62
     7
  6
CONTINUOUS
 10
-0.199280
 20
0.153277
 30
0.004463
 11
-0.199219
 21
0.153319
 31
0.004463
  0
LINE
  8
0
 62
     7
  6
CONTINUOUS
 10
-0.199280
 20
0.153277
 30
0.000000
 11
-0.199219
 21
0.153319
 31
0.000000
  0
LINE
  8
0
 62
     7
  6
CONTINUOUS
 10
-0.208262
 20
0.148196
 30
0.000000
 11
-0.199280
 21
0.153277
 31
0.000000
  0
LINE
  8
0
 62
     7
  6
CONTINUOUS
 10
-0.217514
 20
0.143627
 30
0.000000
 11
-0.208262
 21
0.148196
 31
0.000000
  0
LINE
  8
0
 62
     7
  6
CONTINUOUS
 10
-0.233523
 20
0.139750
 30
0.000000
 11
-0.231094
 21
0.143438
 31
0.000000
  0
LINE
  8
0
 62
     7
  6
CONTINUOUS
 10
-0.237962
 20
0.134017
 30
0.000000
 11
-0.233523
 21
0.139750
 31
0.000000
  0
LINE
  8
0
 62
     7
  6
CONTINUOUS
 10
-0.242930
 20
0.128735
 30
0.000000
 11
-0.237962
 21
0.134017
 31
0.000000
  0
LINE
  8
0
 62
     7
  6
CONTINUOUS
 10
-0.248368
 20
0.123940
 30
0.000000
 11
-0.242930
 21
0.128735
 31
0.000000
  0
LINE
  8
0
 62
     7
  6
CONTINUOUS
 10
-0.254226
 20
0.119668
 30
0.000000
 11
-0.248368
 21
0.123940
 31
0.000000
  0
LINE
  8
0
 62
     7
  6
CONTINUOUS
 10
-0.260441
 20
0.115933
 30
0.000000
 11
-0.254226
 21
0.119668
 31
0.000000
  0
LINE
  8
0
 62
     7
  6
CONTINUOUS
 10
-0.273706
 20
0.110103
 30
0.000000
 11
-0.260441
 21
0.115933
 31
0.000000
  0
LINE
  8
0
 62
     7
  6
CONTINUOUS
 10
-0.287715
 20
0.106393
 30
0.000000
 11
-0.273706
 21
0.110103
 31
0.000000
  0
LINE
  8
0
 62
     7
  6
CONTINUOUS
 10
-0.294893
 20
0.105368
 30
0.000000
 11
-0.287715
 21
0.106393
 31
0.000000
  0
LINE
  8
0
 62
     7
  6
CONTINUOUS
 10
-0.298520
 20
0.105344
 30
0.000000
 11
-0.294893
 21
0.105368
 31
0.000000
  0
LINE
  8
0
 62
     7
  6
CONTINUOUS
 10
-0.302112
 20
0.105846
 30
0.000000
 11
-0.298520
 21
0.105344
 31
0.000000
  0
LINE
  8
0
 62
     7
  6
CONTINUOUS
 10
-0.303860
 20
0.106332
 30
0.000000
 11
-0.302112
 21
0.105846
 31
0.000000
  0
LINE
  8
0
 62
     7
  6
CONTINUOUS
 10
-0.305549
 20
0.106997
 30
0.000000
 11
-0.303860
 21
0.106332
 31
0.000000
  0
LINE
  8
0
 62
     7
  6
CONTINUOUS
 10
-0.307151
 20
0.107850
 30
0.000000
 11
-0.305549
 21
0.106997
 31
0.000000
  0
LINE
  8
0
 62
     7
  6
CONTINUOUS
 10
-0.308635
 20
0.108894
 30
0.000000
 11
-0.307151
 21
0.107850
 31
0.000000
  0
LINE
  8
0
 62
     7
  6
CONTINUOUS
 10
-0.309974
 20
0.110119
 30
0.000000
 11
-0.308635
 21
0.108894
 31
0.000000
  0
LINE
  8
0
 62
     7
  6
CONTINUOUS
 10
-0.311145
 20
0.111505
 30
0.000000
 11
-0.309974
 21
0.110119
 31
0.000000
  0
LINE
  8
0
 62
     7
  6
CONTINUOUS
 10
-0.312136
 20
0.113025
 30
0.000000
 11
-0.311145
 21
0.111505
 31
0.000000
  0
LINE
  8
0
 62
     7
  6
CONTINUOUS
 10
-0.312944
 20
0.114649
 30
0.000000
 11
-0.312136
 21
0.113025
 31
0.000000
  0
LINE
  8
0
 62
     7
  6
CONTINUOUS
 10
-0.313574
 20
0.116351
 30
0.000000
 11
-0.312944
 21
0.114649
 31
0.000000
  0
LINE
  8
0
 62
     7
  6
CONTINUOUS
 10
-0.314032
 20
0.118105
 30
0.000000
 11
-0.313574
 21
0.116351
 31
0.000000
  0
LINE
  8
0
 62
     7
  6
CONTINUOUS
 10
-0.314486
 20
0.121701
 30
0.000000
 11
-0.314032
 21
0.118105
 31
0.000000
  0
LINE
  8
0
 62
     7
  6
CONTINUOUS
 10
-0.314377
 20
0.125324
 30
0.000000
 11
-0.314486
 21
0.121701
 31
0.000000
  0
LINE
  8
0
 62
     7
  6
CONTINUOUS
 10
-0.313744
 20
0.128894
 30
0.000000
 11
-0.314377
 21
0.125324
 31
0.000000
  0
LINE
  8
0
 62
     7
  6
CONTINUOUS
 10
-0.312581
 20
0.132327
 30
0.000000
 11
-0.313744
 21
0.128894
 31
0.000000
  0
LINE
  8
0
 62
     7
  6
CONTINUOUS
 10
-0.311763
 20
0.133944
 30
0.000000
 11
-0.312581
 21
0.132327
 31
0.000000
  0
LINE
  8
0
 62
     7
  6
CONTINUOUS
 10
-0.310781
 20
0.135469
 30
0.000000
 11
-0.311763
 21
0.133944
 31
0.000000
  0
LINE
  8
0
 62
     7
  6
CONTINUOUS
 10
-0.305264
 20
0.132186
 30
0.000000
 11
-0.299944
 21
0.135469
 31
0.000000
  0
LINE
  8
0
 62
     7
  6
CONTINUOUS
 10
-0.376029
 20
0.094316
 30
0.000000
 11
-0.305264
 21
0.132186
 31
0.000000
  0
LINE
  8
0
 62
     7
  6
CONTINUOUS
 10
-0.409576
 20
0.079435
 30
0.000000
 11
-0.376029
 21
0.094316
 31
0.000000
  0
LINE
  8
0
 62
     7
  6
CONTINUOUS
 10
-0.444153
 20
0.067162
 30
0.000000
 11
-0.409576
 21
0.079435
 31
0.000000
  0
LINE
  8
0
 62
     7
  6
CONTINUOUS
 10
-0.461975
 20
0.062806
 30
0.000000
 11
-0.444153
 21
0.067162
 31
0.000000
  0
LINE
  8
0
 62
     7
  6
CONTINUOUS
 10
-0.480182
 20
0.060570
 30
0.000000
 11
-0.461975
 21
0.062806
 31
0.000000
  0
LINE
  8
0
 62
     7
  6
CONTINUOUS
 10
-0.498525
 20
0.060551
 30
0.000000
 11
-0.480182
 21
0.060570
 31
0.000000
  0
LINE
  8
0
 62
     7
  6
CONTINUOUS
 10
-0.516692
 20
0.063044
 30
0.000000
 11
-0.498525
 21
0.060551
 31
0.000000
  0
LINE
  8
0
 62
     7
  6
CONTINUOUS
 10
-0.525565
 20
0.065384
 30
0.000000
 11
-0.516692
 21
0.063044
 31
0.000000
  0
LINE
  8
0
 62
     7
  6
CONTINUOUS
 10
-0.534166
 20
0.068573
 30
0.000000
 11
-0.525565
 21
0.065384
 31
0.000000
  0
LINE
  8
0
 62
     7
  6
CONTINUOUS
 10
-0.542344
 20
0.072729
 30
0.000000
 11
-0.534166
 21
0.068573
 31
0.000000
  0
LINE
  8
0
 62
     7
  6
CONTINUOUS
 10
-0.549846
 20
0.078004
 30
0.000000
 11
-0.542344
 21
0.072729
 31
0.000000
  0
LINE
  8
0
 62
     7
  6
CONTINUOUS
 10
-0.553224
 20
0.081109
 30
0.000000
 11
-0.549846
 21
0.078004
 31
0.000000
  0
LINE
  8
0
 62
     7
  6
CONTINUOUS
 10
-0.556263
 20
0.084548
 30
0.000000
 11
-0.553224
 21
0.081109
 31
0.000000
  0
LINE
  8
0
 62
     7
  6
CONTINUOUS
 10
-0.558873
 20
0.088324
 30
0.000000
 11
-0.556263
 21
0.084548
 31
0.000000
  0
LINE
  8
0
 62
     7
  6
CONTINUOUS
 10
-0.560948
 20
0.092415
 30
0.000000
 11
-0.558873
 21
0.088324
 31
0.000000
  0
LINE
  8
0
 62
     7
  6
CONTINUOUS
 10
-0.562411
 20
0.096770
 30
0.000000
 11
-0.560948
 21
0.092415
 31
0.000000
  0
LINE
  8
0
 62
     7
  6
CONTINUOUS
 10
-0.562851
 20
0.099020
 30
0.000000
 11
-0.562411
 21
0.096770
 31
0.000000
  0
LINE
  8
0
 62
     7
  6
CONTINUOUS
 10
-0.563231
 20
0.103594
 30
0.000000
 11
-0.562851
 21
0.099020
 31
0.000000
  0
LINE
  8
0
 62
     7
  6
CONTINUOUS
 10
-0.563709
 20
0.100035
 30
0.000000
 11
-0.544280
 21
0.097694
 31
0.000000
  0
LINE
  8
0
 62
     7
  6
CONTINUOUS
 10
-0.544280
 20
0.097694
 30
0.000000
 11
-0.524699
 21
0.098161
 31
0.000000
  0
LINE
  8
0
 62
     7
  6
CONTINUOUS
 10
-0.524699
 20
0.098161
 30
0.000000
 11
-0.485859
 21
0.103183
 31
0.000000
  0
LINE
  8
0
 62
     7
  6
CONTINUOUS
 10
-0.485859
 20
0.103183
 30
0.000000
 11
-0.447542
 21
0.111337
 31
0.000000
  0
LINE
  8
0
 62
     7
  6
CONTINUOUS
 10
-0.447542
 20
0.111337
 30
0.000000
 11
-0.409759
 21
0.121691
 31
0.000000
  0
LINE
  8
0
 62
     7
  6
CONTINUOUS
 10
-0.409759
 20
0.121691
 30
0.000000
 11
-0.338583
 21
0.147931
 31
0.000000
  0
LINE
  8
0
 62
     7
  6
CONTINUOUS
 10
-0.338583
 20
0.147931
 30
0.000000
 11
-0.327356
 21
0.153319
 31
0.000000
  0
LINE
  8
0
 62
     7
  6
CONTINUOUS
 10
-0.338583
 20
0.147931
 30
0.004463
 11
-0.327356
 21
0.153319
 31
0.004463
  0
LINE
  8
0
 62
     7
  6
CONTINUOUS
 10
-0.356766
 20
0.146578
 30
0.000000
 11
-0.349073
 21
0.147136
 31
0.000000
  0
LINE
  8
0
 62
     7
  6
CONTINUOUS
 10
-0.360617
 20
0.146798
 30
0.000000
 11
-0.356766
 21
0.146578
 31
0.000000
  0
LINE
  8
0
 62
     7
  6
CONTINUOUS
 10
-0.364410
 20
0.147493
 30
0.000000
 11
-0.360617
 21
0.146798
 31
0.000000
  0
LINE
  8
0
 62
     7
  6
CONTINUOUS
 10
-0.368078
 20
0.148684
 30
0.000000
 11
-0.364410
 21
0.147493
 31
0.000000
  0
LINE
  8
0
 62
     7
  6
CONTINUOUS
 10
-0.371543
 20
0.150377
 30
0.000000
 11
-0.368078
 21
0.148684
 31
0.000000
  0
LINE
  8
0
 62
     7
  6
CONTINUOUS
 10
-0.374724
 20
0.152556
 30
0.000000
 11
-0.371543
 21
0.150377
 31
0.000000
  0
LINE
  8
0
 62
     7
  6
CONTINUOUS
 10
-0.377548
 20
0.155183
 30
0.000000
 11
-0.374724
 21
0.152556
 31
0.000000
  0
LINE
  8
0
 62
     7
  6
CONTINUOUS
 10
-0.379947
 20
0.158201
 30
0.000000
 11
-0.377548
 21
0.155183
 31
0.000000
  0
LINE
  8
0
 62
     7
  6
CONTINUOUS
 10
-0.381869
 20
0.161544
 30
0.000000
 11
-0.379947
 21
0.158201
 31
0.000000
  0
LINE
  8
0
 62
     7
  6
CONTINUOUS
 10
-0.383271
 20
0.165136
 30
0.000000
 11
-0.381869
 21
0.161544
 31
0.000000
  0
LINE
  8
0
 62
     7
  6
CONTINUOUS
 10
-0.384119
 20
0.168897
 30
0.000000
 11
-0.383271
 21
0.165136
 31
0.000000
  0
LINE
  8
0
 62
     7
  6
CONTINUOUS
 10
-0.384400
 20
0.172744
 30
0.000000
 11
-0.384119
 21
0.168897
 31
0.000000
  0
LINE
  8
0
 62
     7
  6
CONTINUOUS
 10
-0.384094
 20
0.176588
 30
0.000000
 11
-0.384400
 21
0.172744
 31
0.000000
  0
LINE
  8
0
 62
     7
  6
CONTINUOUS
 10
-0.375669
 20
0.171470
 30
0.000000
 11
-0.353826
 21
0.174043
 31
0.000000
  0
LINE
  8
0
 62
     7
  6
CONTINUOUS
 10
-0.353826
 20
0.174043
 30
0.000000
 11
-0.335213
 21
0.178941
 31
0.000000
  0
LINE
  8
0
 62
     7
  6
CONTINUOUS
 10
-0.335213
 20
0.178941
 30
0.000000
 11
-0.317533
 21
0.186530
 31
0.000000
  0
LINE
  8
0
 62
     7
  6
CONTINUOUS
 10
-0.317533
 20
0.186530
 30
0.000000
 11
-0.312056
 21
0.189656
 31
0.000000
  0
LINE
  8
0
 62
     7
  6
CONTINUOUS
 10
-0.317533
 20
0.186530
 30
0.004463
 11
-0.312056
 21
0.189656
 31
0.004463
  0
LINE
  8
0
 62
     7
  6
CONTINUOUS
 10
-0.330493
 20
0.193730
 30
0.000000
 11
-0.321670
 21
0.191630
 31
0.000000
  0
LINE
  8
0
 62
     7
  6
CONTINUOUS
 10
-0.334747
 20
0.195308
 30
0.000000
 11
-0.330493
 21
0.193730
 31
0.000000
  0
LINE
  8
0
 62
     7
  6
CONTINUOUS
 10
-0.338827
 20
0.197291
 30
0.000000
 11
-0.334747
 21
0.195308
 31
0.000000
  0
LINE
  8
0
 62
     7
  6
CONTINUOUS
 10
-0.342636
 20
0.199755
 30
0.000000
 11
-0.338827
 21
0.197291
 31
0.000000
  0
LINE
  8
0
 62
     7
  6
CONTINUOUS
 10
-0.344376
 20
0.201212
 30
0.000000
 11
-0.342636
 21
0.199755
 31
0.000000
  0
LINE
  8
0
 62
     7
  6
CONTINUOUS
 10
-0.345936
 20
0.202859
 30
0.000000
 11
-0.344376
 21
0.201212
 31
0.000000
  0
LINE
  8
0
 62
     7
  6
CONTINUOUS
 10
-0.346614
 20
0.203770
 30
0.000000
 11
-0.345936
 21
0.202859
 31
0.000000
  0
LINE
  8
0
 62
     7
  6
CONTINUOUS
 10
-0.347189
 20
0.204749
 30
0.000000
 11
-0.346614
 21
0.203770
 31
0.000000
  0
LINE
  8
0
 62
     7
  6
CONTINUOUS
 10
-0.347644
 20
0.205788
 30
0.000000
 11
-0.347189
 21
0.204749
 31
0.000000
  0
LINE
  8
0
 62
     7
  6
CONTINUOUS
 10
-0.347999
 20
0.206866
 30
0.000000
 11
-0.347644
 21
0.205788
 31
0.000000
  0
LINE
  8
0
 62
     7
  6
CONTINUOUS
 10
-0.348901
 20
0.211310
 30
0.000000
 11
-0.347999
 21
0.206866
 31
0.000000
  0
LINE
  8
0
 62
     7
  6
CONTINUOUS
 10
-0.349149
 20
0.215839
 30
0.000000
 11
-0.348901
 21
0.211310
 31
0.000000
  0
LINE
  8
0
 62
     7
  6
CONTINUOUS
 10
-0.348803
 20
0.220361
 30
0.000000
 11
-0.349149
 21
0.215839
 31
0.000000
  0
LINE
  8
0
 62
     7
  6
CONTINUOUS
 10
-0.347796
 20
0.224783
 30
0.000000
 11
-0.348803
 21
0.220361
 31
0.000000
  0
LINE
  8
0
 62
     7
  6
CONTINUOUS
 10
-0.347004
 20
0.226909
 30
0.000000
 11
-0.347796
 21
0.224783
 31
0.000000
  0
LINE
  8
0
 62
     7
  6
CONTINUOUS
 10
-0.345988
 20
0.228938
 30
0.000000
 11
-0.347004
 21
0.226909
 31
0.000000
  0
LINE
  8
0
 62
     7
  6
CONTINUOUS
 10
-0.344731
 20
0.230827
 30
0.000000
 11
-0.345988
 21
0.228938
 31
0.000000
  0
LINE
  8
0
 62
     7
  6
CONTINUOUS
 10
-0.343219
 20
0.232519
 30
0.000000
 11
-0.344731
 21
0.230827
 31
0.000000
  0
LINE
  8
0
 62
     7
  6
CONTINUOUS
 10
-0.341463
 20
0.233957
 30
0.000000
 11
-0.343219
 21
0.232519
 31
0.000000
  0
LINE
  8
0
 62
     7
  6
CONTINUOUS
 10
-0.339501
 20
0.235100
 30
0.000000
 11
-0.341463
 21
0.233957
 31
0.000000
  0
LINE
  8
0
 62
     7
  6
CONTINUOUS
 10
-0.338454
 20
0.235536
 30
0.000000
 11
-0.339501
 21
0.235100
 31
0.000000
  0
LINE
  8
0
 62
     7
  6
CONTINUOUS
 10
-0.336281
 20
0.236194
 30
0.000000
 11
-0.338454
 21
0.235536
 31
0.000000
  0
LINE
  8
0
 62
     7
  6
CONTINUOUS
 10
-0.332802
 20
0.279339
 30
0.000000
 11
-0.253814
 21
0.274555
 31
0.000000
  0
LINE
  8
0
 62
     7
  6
CONTINUOUS
 10
-0.253814
 20
0.274555
 30
0.000000
 11
-0.234265
 21
0.271505
 31
0.000000
  0
LINE
  8
0
 62
     7
  6
CONTINUOUS
 10
-0.234265
 20
0.271505
 30
0.000000
 11
-0.224683
 21
0.269042
 31
0.000000
  0
LINE
  8
0
 62
     7
  6
CONTINUOUS
 10
-0.224683
 20
0.269042
 30
0.000000
 11
-0.215383
 21
0.265667
 31
0.000000
  0
LINE
  8
0
 62
     7
  6
CONTINUOUS
 10
-0.215383
 20
0.265667
 30
0.000000
 11
-0.206438
 21
0.261438
 31
0.000000
  0
LINE
  8
0
 62
     7
  6
CONTINUOUS
 10
-0.206438
 20
0.261438
 30
0.000000
 11
-0.197914
 21
0.256416
 31
0.000000
  0
LINE
  8
0
 62
     7
  6
CONTINUOUS
 10
-0.189861
 20
0.250669
 30
0.000000
 11
-0.197914
 21
0.256416
 31
0.000000
  0
LINE
  8
0
 62
     7
  6
CONTINUOUS
 10
-0.189861
 20
0.250669
 30
0.000000
 11
-0.175346
 21
0.237247
 31
0.000000
  0
LINE
  8
0
 62
     7
  6
CONTINUOUS
 10
-0.175346
 20
0.237247
 30
0.000000
 11
-0.168994
 21
0.229663
 31
0.000000
  0
LINE
  8
0
 62
     7
  6
CONTINUOUS
 10
-0.168994
 20
0.229663
 30
0.000000
 11
-0.163373
 21
0.221522
 31
0.000000
  0
LINE
  8
0
 62
     7
  6
CONTINUOUS
 10
-0.163373
 20
0.221522
 30
0.000000
 11
-0.159375
 21
0.214009
 31
0.000000
  0
LINE
  8
0
 62
     7
  6
CONTINUOUS
 10
-0.159375
 20
0.213951
 30
0.000000
 11
-0.163090
 21
0.221059
 31
0.000000
  0
LINE
  8
0
 62
     7
  6
CONTINUOUS
 10
-0.163090
 20
0.221059
 30
0.000000
 11
-0.168651
 21
0.229211
 31
0.000000
  0
LINE
  8
0
 62
     7
  6
CONTINUOUS
 10
-0.168651
 20
0.229211
 30
0.000000
 11
-0.174948
 21
0.236810
 31
0.000000
  0
LINE
  8
0
 62
     7
  6
CONTINUOUS
 10
-0.174948
 20
0.236810
 30
0.000000
 11
-0.189358
 21
0.250275
 31
0.000000
  0
LINE
  8
0
 62
     7
  6
CONTINUOUS
 10
-0.189358
 20
0.250275
 30
0.000000
 11
-0.205832
 21
0.261114
 31
0.000000
  0
LINE
  8
0
 62
     7
  6
CONTINUOUS
 10
-0.205832
 20
0.261114
 30
0.000000
 11
-0.214727
 21
0.265391
 31
0.000000
  0
LINE
  8
0
 62
     7
  6
CONTINUOUS
 10
-0.214727
 20
0.265391
 30
0.000000
 11
-0.223982
 21
0.268822
 31
0.000000
  0
LINE
  8
0
 62
     7
  6
CONTINUOUS
 10
-0.223982
 20
0.268822
 30
0.000000
 11
-0.233524
 21
0.271345
 31
0.000000
  0
LINE
  8
0
 62
     7
  6
CONTINUOUS
 10
-0.233524
 20
0.271345
 30
0.000000
 11
-0.253013
 21
0.274460
 31
0.000000
  0
LINE
  8
0
 62
     7
  6
CONTINUOUS
 10
-0.253013
 20
0.274460
 30
0.000000
 11
-0.331805
 21
0.279312
 31
0.000000
  0
LINE
  8
0
 62
     7
  6
CONTINUOUS
 10
-0.331805
 20
0.279312
 30
0.000000
 11
-0.489717
 21
0.279342
 31
0.000000
  0
LINE
  8
0
 62
     7
  6
CONTINUOUS
 10
-0.489717
 20
0.279342
 30
0.000000
 11
-0.529172
 21
0.280879
 31
0.000000
  0
LINE
  8
0
 62
     7
  6
CONTINUOUS
 10
-0.529172
 20
0.280879
 30
0.000000
 11
-0.539021
 21
0.281509
 31
0.000000
  0
LINE
  8
0
 62
     7
  6
CONTINUOUS
 10
-0.539021
 20
0.281509
 30
0.000000
 11
-0.548798
 21
0.282227
 31
0.000000
  0
LINE
  8
0
 62
     7
  6
CONTINUOUS
 10
-0.548798
 20
0.282227
 30
0.000000
 11
-0.552004
 21
0.283244
 31
0.000000
  0
LINE
  8
0
 62
     7
  6
CONTINUOUS
 10
-0.552004
 20
0.283244
 30
0.000000
 11
-0.552340
 21
0.283306
 31
0.000000
  0
LINE
  8
0
 62
     7
  6
CONTINUOUS
 10
-0.549157
 20
0.282332
 30
0.000000
 11
-0.552323
 21
0.283303
 31
0.000000
  0
LINE
  8
0
 62
     7
  6
CONTINUOUS
 10
-0.549157
 20
0.282332
 30
0.000000
 11
-0.547704
 21
0.281989
 31
0.000000
  0
LINE
  8
0
 62
     7
  6
CONTINUOUS
 10
-0.546461
 20
0.281871
 30
0.000000
 11
-0.547704
 21
0.281989
 31
0.000000
  0
LINE
  8
0
 62
     7
  6
CONTINUOUS
 10
-0.545330
 20
0.281874
 30
0.000000
 11
-0.546461
 21
0.281871
 31
0.000000
  0
LINE
  8
0
 62
     7
  6
CONTINUOUS
 10
-0.545330
 20
0.281874
 30
0.000000
 11
-0.540557
 21
0.281660
 31
0.000000
  0
LINE
  8
0
 62
     7
  6
CONTINUOUS
 10
-0.540557
 20
0.281660
 30
0.000000
 11
-0.530647
 21
0.280968
 31
0.000000
  0
LINE
  8
0
 62
     7
  6
CONTINUOUS
 10
-0.530647
 20
0.280968
 30
0.000000
 11
-0.491096
 21
0.279370
 31
0.000000
  0
LINE
  8
0
 62
     7
  6
CONTINUOUS
 10
-0.491096
 20
0.279370
 30
0.000000
 11
-0.332802
 21
0.279339
 31
0.000000
  0
LINE
  8
0
 62
     7
  6
CONTINUOUS
 10
-0.544785
 20
0.189210
 30
0.000000
 11
-0.415013
 21
0.199856
 31
0.000000
  0
LINE
  8
0
 62
     7
  6
CONTINUOUS
 10
-0.652901
 20
0.192949
 30
0.000000
 11
-0.544785
 21
0.189210
 31
0.000000
  0
LINE
  8
0
 62
     7
  6
CONTINUOUS
 10
-0.706154
 20
0.202471
 30
0.000000
 11
-0.652901
 21
0.192949
 31
0.000000
  0
LINE
  8
DEFAULT
 62
     7
  6
CONTINUOUS
 10
-0.706154
 20
0.202471
 30
0.000000
 11
-0.723061
 21
0.207349
 31
0.000000
  0
LINE
  8
0
 62
     7
  6
CONTINUOUS
 10
-0.772149
 20
0.227648
 30
0.000000
 11
-0.723061
 21
0.207349
 31
0.000000
  0
LINE
  8
0
 62
     7
  6
CONTINUOUS
 10
-0.795105
 20
0.241042
 30
0.000000
 11
-0.772149
 21
0.227648
 31
0.000000
  0
LINE
  8
0
 62
     7
  6
CONTINUOUS
 10
-0.816161
 20
0.257252
 30
0.000000
 11
-0.795105
 21
0.241042
 31
0.000000
  0
LINE
  8
0
 62
     7
  6
CONTINUOUS
 10
-0.835512
 20
0.275477
 30
0.000000
 11
-0.816161
 21
0.257252
 31
0.000000
  0
LINE
  8
0
 62
     7
  6
CONTINUOUS
 10
-0.844568
 20
0.285206
 30
0.000000
 11
-0.835512
 21
0.275477
 31
0.000000
  0
LINE
  8
0
 62
     7
  6
CONTINUOUS
 10
-0.845472
 20
0.286584
 30
0.000000
 11
-0.844568
 21
0.285206
 31
0.000000
  0
LINE
  8
0
 62
     7
  6
CONTINUOUS
 10
-0.846181
 20
0.288088
 30
0.000000
 11
-0.845472
 21
0.286584
 31
0.000000
  0
LINE
  8
0
 62
     7
  6
CONTINUOUS
 10
-0.848338
 20
0.294456
 30
0.000000
 11
-0.846181
 21
0.288088
 31
0.000000
  0
LINE
  8
0
 62
     7
  6
CONTINUOUS
 10
-0.849174
 20
0.297657
 30
0.000000
 11
-0.848338
 21
0.294456
 31
0.000000
  0
LINE
  8
0
 62
     7
  6
CONTINUOUS
 10
-0.849408
 20
0.299304
 30
0.000000
 11
-0.849174
 21
0.297657
 31
0.000000
  0
LINE
  8
0
 62
     7
  6
CONTINUOUS
 10
-0.849477
 20
0.300971
 30
0.000000
 11
-0.849408
 21
0.299304
 31
0.000000
  0
LINE
  8
0
 62
     7
  6
CONTINUOUS
 10
-0.849346
 20
0.302638
 30
0.000000
 11
-0.849477
 21
0.300971
 31
0.000000
  0
LINE
  8
0
 62
     7
  6
CONTINUOUS
 10
-0.849185
 20
0.303457
 30
0.000000
 11
-0.849346
 21
0.302638
 31
0.000000
  0
LINE
  8
0
 62
     7
  6
CONTINUOUS
 10
-0.848949
 20
0.304255
 30
0.000000
 11
-0.849185
 21
0.303457
 31
0.000000
  0
LINE
  8
0
 62
     7
  6
CONTINUOUS
 10
-0.848625
 20
0.305025
 30
0.000000
 11
-0.848949
 21
0.304255
 31
0.000000
  0
LINE
  8
0
 62
     7
  6
CONTINUOUS
 10
-0.848216
 20
0.305755
 30
0.000000
 11
-0.848625
 21
0.305025
 31
0.000000
  0
LINE
  8
0
 62
     7
  6
CONTINUOUS
 10
-0.847725
 20
0.306432
 30
0.000000
 11
-0.848216
 21
0.305755
 31
0.000000
  0
LINE
  8
0
 62
     7
  6
CONTINUOUS
 10
-0.847155
 20
0.307041
 30
0.000000
 11
-0.847725
 21
0.306432
 31
0.000000
  0
LINE
  8
0
 62
     7
  6
CONTINUOUS
 10
-0.846514
 20
0.307575
 30
0.000000
 11
-0.847155
 21
0.307041
 31
0.000000
  0
LINE
  8
0
 62
     7
  6
CONTINUOUS
 10
-0.845817
 20
0.308036
 30
0.000000
 11
-0.846514
 21
0.307575
 31
0.000000
  0
LINE
  8
0
 62
     7
  6
CONTINUOUS
 10
-0.845078
 20
0.308424
 30
0.000000
 11
-0.845817
 21
0.308036
 31
0.000000
  0
LINE
  8
0
 62
     7
  6
CONTINUOUS
 10
-0.843516
 20
0.309001
 30
0.000000
 11
-0.845078
 21
0.308424
 31
0.000000
  0
LINE
  8
0
 62
     7
  6
CONTINUOUS
 10
-0.841890
 20
0.309356
 30
0.000000
 11
-0.843516
 21
0.309001
 31
0.000000
  0
LINE
  8
0
 62
     7
  6
CONTINUOUS
 10
-0.840236
 20
0.309540
 30
0.000000
 11
-0.841890
 21
0.309356
 31
0.000000
  0
LINE
  8
0
 62
     7
  6
CONTINUOUS
 10
-0.836913
 20
0.309530
 30
0.000000
 11
-0.840236
 21
0.309540
 31
0.000000
  0
LINE
  8
0
 62
     7
  6
CONTINUOUS
 10
-0.833608
 20
0.309168
 30
0.000000
 11
-0.836913
 21
0.309530
 31
0.000000
  0
LINE
  8
0
 62
     7
  6
CONTINUOUS
 10
-0.827111
 20
0.307776
 30
0.000000
 11
-0.833608
 21
0.309168
 31
0.000000
  0
LINE
  8
0
 62
     7
  6
CONTINUOUS
 10
-0.820775
 20
0.305771
 30
0.000000
 11
-0.827111
 21
0.307776
 31
0.000000
  0
LINE
  8
0
 62
     7
  6
CONTINUOUS
 10
-0.808622
 20
0.300405
 30
0.000000
 11
-0.820775
 21
0.305771
 31
0.000000
  0
LINE
  8
0
 62
     7
  6
CONTINUOUS
 10
-0.783406
 20
0.291991
 30
0.000000
 11
-0.808622
 21
0.300405
 31
0.000000
  0
LINE
  8
0
 62
     7
  6
CONTINUOUS
 10
-0.731912
 20
0.278745
 30
0.000000
 11
-0.783406
 21
0.291991
 31
0.000000
  0
LINE
  8
0
 62
     7
  6
CONTINUOUS
 10
-0.679593
 20
0.269346
 30
0.000000
 11
-0.731912
 21
0.278745
 31
0.000000
  0
LINE
  8
0
 62
     7
  6
CONTINUOUS
 10
-0.573299
 20
0.267009
 30
0.000000
 11
-0.679593
 21
0.269346
 31
0.000000
  0
LINE
  8
0
 62
     7
  6
CONTINUOUS
 10
-0.466969
 20
0.269344
 30
0.000000
 11
-0.573299
 21
0.267009
 31
0.000000
  0
LINE
  8
0
 62
     7
  6
CONTINUOUS
 10
-0.466969
 20
0.269344
 30
0.000000
 11
-0.575209
 21
0.266994
 31
0.000000
  0
LINE
  8
0
 62
     7
  6
CONTINUOUS
 10
-0.553348
 20
0.282635
 30
0.000000
 11
-0.552790
 21
0.277716
 31
0.000000
  0
LINE
  8
0
 62
     7
  6
CONTINUOUS
 10
-0.553348
 20
0.282780
 30
0.000000
 11
-0.553348
 21
0.282635
 31
0.000000
  0
LINE
  8
0
 62
     7
  6
CONTINUOUS
 10
-0.553330
 20
0.282906
 30
0.000000
 11
-0.553348
 21
0.282780
 31
0.000000
  0
LINE
  8
0
 62
     7
  6
CONTINUOUS
 10
-0.553315
 20
0.282962
 30
0.000000
 11
-0.553330
 21
0.282906
 31
0.000000
  0
LINE
  8
0
 62
     7
  6
CONTINUOUS
 10
-0.553295
 20
0.283014
 30
0.000000
 11
-0.553315
 21
0.282962
 31
0.000000
  0
LINE
  8
0
 62
     7
  6
CONTINUOUS
 10
-0.553271
 20
0.283061
 30
0.000000
 11
-0.553295
 21
0.283014
 31
0.000000
  0
LINE
  8
0
 62
     7
  6
CONTINUOUS
 10
-0.553243
 20
0.283104
 30
0.000000
 11
-0.553271
 21
0.283061
 31
0.000000
  0
LINE
  8
0
 62
     7
  6
CONTINUOUS
 10
-0.553211
 20
0.283143
 30
0.000000
 11
-0.553243
 21
0.283104
 31
0.000000
  0
LINE
  8
0
 62
     7
  6
CONTINUOUS
 10
-0.553175
 20
0.283178
 30
0.000000
 11
-0.553211
 21
0.283143
 31
0.000000
  0
LINE
  8
0
 62
     7
  6
CONTINUOUS
 10
-0.553135
 20
0.283209
 30
0.000000
 11
-0.553175
 21
0.283178
 31
0.000000
  0
LINE
  8
0
 62
     7
  6
CONTINUOUS
 10
-0.553092
 20
0.283236
 30
0.000000
 11
-0.553135
 21
0.283209
 31
0.000000
  0
LINE
  8
0
 62
     7
  6
CONTINUOUS
 10
-0.553045
 20
0.283259
 30
0.000000
 11
-0.553092
 21
0.283236
 31
0.000000
  0
LINE
  8
0
 62
     7
  6
CONTINUOUS
 10
-0.552994
 20
0.283279
 30
0.000000
 11
-0.553045
 21
0.283259
 31
0.000000
  0
LINE
  8
0
 62
     7
  6
CONTINUOUS
 10
-0.552883
 20
0.283308
 30
0.000000
 11
-0.552994
 21
0.283279
 31
0.000000
  0
LINE
  8
0
 62
     7
  6
CONTINUOUS
 10
-0.552895
 20
0.283306
 30
0.000000
 11
-0.552773
 21
0.283323
 31
0.000000
  0
LINE
  8
0
 62
     7
  6
CONTINUOUS
 10
-0.552773
 20
0.283323
 30
0.000000
 11
-0.552639
 21
0.283329
 31
0.000000
  0
LINE
  8
0
 62
     7
  6
CONTINUOUS
 10
-0.552340
 20
0.283306
 30
0.000000
 11
-0.552639
 21
0.283329
 31
0.000000
  0
LINE
  8
0
 62
     7
  6
CONTINUOUS
 10
-0.552790
 20
0.277716
 30
0.000000
 11
-0.550662
 21
0.268060
 31
0.000000
  0
LINE
  8
0
 62
     7
  6
CONTINUOUS
 10
-0.455813
 20
0.229500
 30
0.000000
 11
-0.457160
 21
0.224162
 31
0.000000
  0
LINE
  8
0
 62
     7
  6
CONTINUOUS
 10
-0.457160
 20
0.224162
 30
0.000000
 11
-0.457566
 21
0.221442
 31
0.000000
  0
LINE
  8
0
 62
     7
  6
CONTINUOUS
 10
-0.457566
 20
0.221442
 30
0.000000
 11
-0.457728
 21
0.218691
 31
0.000000
  0
LINE
  8
0
 62
     7
  6
CONTINUOUS
 10
-0.457728
 20
0.218691
 30
0.000000
 11
-0.457344
 21
0.213200
 31
0.000000
  0
LINE
  8
0
 62
     7
  6
CONTINUOUS
 10
-0.457344
 20
0.213200
 30
0.000000
 11
-0.456789
 21
0.210503
 31
0.000000
  0
LINE
  8
0
 62
     7
  6
CONTINUOUS
 10
-0.456789
 20
0.210503
 30
0.000000
 11
-0.455993
 21
0.207866
 31
0.000000
  0
LINE
  8
0
 62
     7
  6
CONTINUOUS
 10
-0.455993
 20
0.207866
 30
0.000000
 11
-0.453733
 21
0.202850
 31
0.000000
  0
LINE
  8
0
 62
     7
  6
CONTINUOUS
 10
-0.453733
 20
0.202850
 30
0.000000
 11
-0.450713
 21
0.198250
 31
0.000000
  0
LINE
  8
0
 62
     7
  6
CONTINUOUS
 10
-0.450713
 20
0.198250
 30
0.000000
 11
-0.447098
 21
0.194102
 31
0.000000
  0
LINE
  8
0
 62
     7
  6
CONTINUOUS
 10
-0.447098
 20
0.194102
 30
0.000000
 11
-0.443035
 21
0.190391
 31
0.000000
  0
LINE
  8
0
 62
     7
  6
CONTINUOUS
 10
-0.443035
 20
0.190391
 30
0.000000
 11
-0.438637
 21
0.187083
 31
0.000000
  0
LINE
  8
0
 62
     7
  6
CONTINUOUS
 10
-0.438637
 20
0.187083
 30
0.000000
 11
-0.429141
 21
0.181533
 31
0.000000
  0
LINE
  8
0
 62
     7
  6
CONTINUOUS
 10
-0.429141
 20
0.181533
 30
0.000000
 11
-0.419021
 21
0.177219
 31
0.000000
  0
LINE
  8
0
 62
     7
  6
CONTINUOUS
 10
-0.419021
 20
0.177219
 30
0.000000
 11
-0.408484
 21
0.174055
 31
0.000000
  0
LINE
  8
0
 62
     7
  6
CONTINUOUS
 10
-0.408484
 20
0.174055
 30
0.000000
 11
-0.397646
 21
0.172180
 31
0.000000
  0
LINE
  8
0
 62
     7
  6
CONTINUOUS
 10
-0.397646
 20
0.172180
 30
0.000000
 11
-0.375669
 21
0.171470
 31
0.000000
  0
LINE
  8
0
 62
     7
  6
CONTINUOUS
 10
-0.462826
 20
0.149280
 30
0.000000
 11
-0.375173
 21
0.171959
 31
0.000000
  0
LINE
  8
0
 62
     7
  6
CONTINUOUS
 10
-0.510332
 20
0.140522
 30
0.000000
 11
-0.462826
 21
0.149280
 31
0.000000
  0
LINE
  8
0
 62
     7
  6
CONTINUOUS
 10
-0.558266
 20
0.134584
 30
0.000000
 11
-0.510332
 21
0.140522
 31
0.000000
  0
LINE
  8
0
 62
     7
  6
CONTINUOUS
 10
-0.606528
 20
0.133140
 30
0.000000
 11
-0.558266
 21
0.134584
 31
0.000000
  0
LINE
  8
0
 62
     7
  6
CONTINUOUS
 10
-0.630572
 20
0.135377
 30
0.000000
 11
-0.606528
 21
0.133140
 31
0.000000
  0
LINE
  8
0
 62
     7
  6
CONTINUOUS
 10
-0.654180
 20
0.140435
 30
0.000000
 11
-0.630572
 21
0.135377
 31
0.000000
  0
LINE
  8
0
 62
     7
  6
CONTINUOUS
 10
-0.665630
 20
0.144278
 30
0.000000
 11
-0.654180
 21
0.140435
 31
0.000000
  0
LINE
  8
0
 62
     7
  6
CONTINUOUS
 10
-0.676650
 20
0.149215
 30
0.000000
 11
-0.665630
 21
0.144278
 31
0.000000
  0
LINE
  8
0
 62
     7
  6
CONTINUOUS
 10
-0.687005
 20
0.155424
 30
0.000000
 11
-0.676650
 21
0.149215
 31
0.000000
  0
LINE
  8
0
 62
     7
  6
CONTINUOUS
 10
-0.696357
 20
0.163057
 30
0.000000
 11
-0.687005
 21
0.155424
 31
0.000000
  0
LINE
  8
0
 62
     7
  6
CONTINUOUS
 10
-0.700528
 20
0.167426
 30
0.000000
 11
-0.696357
 21
0.163057
 31
0.000000
  0
LINE
  8
0
 62
     7
  6
CONTINUOUS
 10
-0.704285
 20
0.172154
 30
0.000000
 11
-0.700528
 21
0.167426
 31
0.000000
  0
LINE
  8
0
 62
     7
  6
CONTINUOUS
 10
-0.707578
 20
0.177217
 30
0.000000
 11
-0.704285
 21
0.172154
 31
0.000000
  0
LINE
  8
0
 62
     7
  6
CONTINUOUS
 10
-0.710362
 20
0.182576
 30
0.000000
 11
-0.707578
 21
0.177217
 31
0.000000
  0
LINE
  8
0
 62
     7
  6
CONTINUOUS
 10
-0.712605
 20
0.188183
 30
0.000000
 11
-0.710362
 21
0.182576
 31
0.000000
  0
LINE
  8
0
 62
     7
  6
CONTINUOUS
 10
-0.714288
 20
0.193983
 30
0.000000
 11
-0.712605
 21
0.188183
 31
0.000000
  0
LINE
  8
0
 62
     7
  6
CONTINUOUS
 10
-0.715400
 20
0.199917
 30
0.000000
 11
-0.714288
 21
0.193983
 31
0.000000
  0
LINE
  8
0
 62
     7
  6
CONTINUOUS
 10
-0.715913
 20
0.211969
 30
0.000000
 11
-0.715400
 21
0.199917
 31
0.000000
  0
LINE
  8
0
 62
     7
  6
CONTINUOUS
 10
-0.781316
 20
0.232608
 30
0.000000
 11
-0.757159
 21
0.220419
 31
0.000000
  0
LINE
  8
0
 62
     7
  6
CONTINUOUS
 10
-0.803979
 20
0.247371
 30
0.000000
 11
-0.781316
 21
0.232608
 31
0.000000
  0
LINE
  8
0
 62
     7
  6
CONTINUOUS
 10
-0.824630
 20
0.264851
 30
0.000000
 11
-0.803979
 21
0.247371
 31
0.000000
  0
LINE
  8
0
 62
     7
  6
CONTINUOUS
 10
-0.843625
 20
0.284122
 30
0.000000
 11
-0.824630
 21
0.264851
 31
0.000000
  0
LINE
  8
0
 62
     7
  6
CONTINUOUS
 10
-0.844722
 20
0.285406
 30
0.000000
 11
-0.843625
 21
0.284122
 31
0.000000
  0
LINE
  8
0
 62
     7
  6
CONTINUOUS
 10
-0.845605
 20
0.286832
 30
0.000000
 11
-0.844722
 21
0.285406
 31
0.000000
  0
LINE
  8
0
 62
     7
  6
CONTINUOUS
 10
-0.846297
 20
0.288382
 30
0.000000
 11
-0.845605
 21
0.286832
 31
0.000000
  0
LINE
  8
0
 62
     7
  6
CONTINUOUS
 10
-0.848467
 20
0.294867
 30
0.000000
 11
-0.846297
 21
0.288382
 31
0.000000
  0
LINE
  8
0
 62
     7
  6
CONTINUOUS
 10
-0.849259
 20
0.298142
 30
0.000000
 11
-0.848467
 21
0.294867
 31
0.000000
  0
LINE
  8
0
 62
     7
  6
CONTINUOUS
 10
-0.849449
 20
0.299827
 30
0.000000
 11
-0.849259
 21
0.298142
 31
0.000000
  0
LINE
  8
0
 62
     7
  6
CONTINUOUS
 10
-0.849458
 20
0.301527
 30
0.000000
 11
-0.849449
 21
0.299827
 31
0.000000
  0
LINE
  8
0
 62
     7
  6
CONTINUOUS
 10
-0.849241
 20
0.303213
 30
0.000000
 11
-0.849458
 21
0.301527
 31
0.000000
  0
LINE
  8
0
 62
     7
  6
CONTINUOUS
 10
-0.849023
 20
0.304033
 30
0.000000
 11
-0.849241
 21
0.303213
 31
0.000000
  0
LINE
  8
0
 62
     7
  6
CONTINUOUS
 10
-0.848719
 20
0.304825
 30
0.000000
 11
-0.849023
 21
0.304033
 31
0.000000
  0
LINE
  8
0
 62
     7
  6
CONTINUOUS
 10
-0.848325
 20
0.305580
 30
0.000000
 11
-0.848719
 21
0.304825
 31
0.000000
  0
LINE
  8
0
 62
     7
  6
CONTINUOUS
 10
-0.847844
 20
0.306282
 30
0.000000
 11
-0.848325
 21
0.305580
 31
0.000000
  0
LINE
  8
0
 62
     7
  6
CONTINUOUS
 10
-0.847280
 20
0.306919
 30
0.000000
 11
-0.847844
 21
0.306282
 31
0.000000
  0
LINE
  8
0
 62
     7
  6
CONTINUOUS
 10
-0.846642
 20
0.307478
 30
0.000000
 11
-0.847280
 21
0.306919
 31
0.000000
  0
LINE
  8
0
 62
     7
  6
CONTINUOUS
 10
-0.845942
 20
0.307961
 30
0.000000
 11
-0.846642
 21
0.307478
 31
0.000000
  0
LINE
  8
0
 62
     7
  6
CONTINUOUS
 10
-0.845196
 20
0.308368
 30
0.000000
 11
-0.845942
 21
0.307961
 31
0.000000
  0
LINE
  8
0
 62
     7
  6
CONTINUOUS
 10
-0.843612
 20
0.308973
 30
0.000000
 11
-0.845196
 21
0.308368
 31
0.000000
  0
LINE
  8
0
 62
     7
  6
CONTINUOUS
 10
-0.841958
 20
0.309344
 30
0.000000
 11
-0.843612
 21
0.308973
 31
0.000000
  0
LINE
  8
0
 62
     7
  6
CONTINUOUS
 10
-0.840277
 20
0.309537
 30
0.000000
 11
-0.841958
 21
0.309344
 31
0.000000
  0
LINE
  8
0
 62
     7
  6
CONTINUOUS
 10
-0.836893
 20
0.309529
 30
0.000000
 11
-0.840277
 21
0.309537
 31
0.000000
  0
LINE
  8
0
 62
     7
  6
CONTINUOUS
 10
-0.833530
 20
0.309157
 30
0.000000
 11
-0.836893
 21
0.309529
 31
0.000000
  0
LINE
  8
0
 62
     7
  6
CONTINUOUS
 10
-0.826919
 20
0.307724
 30
0.000000
 11
-0.833530
 21
0.309157
 31
0.000000
  0
LINE
  8
0
 62
     7
  6
CONTINUOUS
 10
-0.820477
 20
0.305661
 30
0.000000
 11
-0.826919
 21
0.307724
 31
0.000000
  0
LINE
  8
0
 62
     7
  6
CONTINUOUS
 10
-0.814357
 20
0.302788
 30
0.000000
 11
-0.820477
 21
0.305661
 31
0.000000
  0
LINE
  8
0
 62
     7
  6
CONTINUOUS
 10
-0.788891
 20
0.293654
 30
0.000000
 11
-0.814357
 21
0.302788
 31
0.000000
  0
LINE
  8
0
 62
     7
  6
CONTINUOUS
 10
-0.736571
 20
0.279800
 30
0.000000
 11
-0.788891
 21
0.293654
 31
0.000000
  0
LINE
  8
0
 62
     7
  6
CONTINUOUS
 10
-0.683388
 20
0.269795
 30
0.000000
 11
-0.736571
 21
0.279800
 31
0.000000
  0
LINE
  8
0
 62
     7
  6
CONTINUOUS
 10
-0.627300
 20
0.143438
 30
0.000000
 11
-0.626862
 21
0.141023
 31
0.000000
  0
LINE
  8
0
 62
     7
  6
CONTINUOUS
 10
-0.626862
 20
0.141023
 30
0.000000
 11
-0.626198
 21
0.138672
 31
0.000000
  0
LINE
  8
0
 62
     7
  6
CONTINUOUS
 10
-0.626198
 20
0.138672
 30
0.000000
 11
-0.625227
 21
0.136419
 31
0.000000
  0
LINE
  8
0
 62
     7
  6
CONTINUOUS
 10
-0.625227
 20
0.136419
 30
0.000000
 11
-0.622721
 21
0.132210
 31
0.000000
  0
LINE
  8
0
 62
     7
  6
CONTINUOUS
 10
-0.622721
 20
0.132210
 30
0.000000
 11
-0.619670
 21
0.128380
 31
0.000000
  0
LINE
  8
0
 62
     7
  6
CONTINUOUS
 10
-0.619670
 20
0.128380
 30
0.000000
 11
-0.616239
 21
0.124884
 31
0.000000
  0
LINE
  8
0
 62
     7
  6
CONTINUOUS
 10
-0.616239
 20
0.124884
 30
0.000000
 11
-0.608623
 21
0.118733
 31
0.000000
  0
LINE
  8
0
 62
     7
  6
CONTINUOUS
 10
-0.608623
 20
0.118733
 30
0.000000
 11
-0.600339
 21
0.113511
 31
0.000000
  0
LINE
  8
0
 62
     7
  6
CONTINUOUS
 10
-0.600339
 20
0.113511
 30
0.000000
 11
-0.582544
 21
0.105366
 31
0.000000
  0
LINE
  8
0
 62
     7
  6
CONTINUOUS
 10
-0.582544
 20
0.105366
 30
0.000000
 11
-0.563709
 21
0.100035
 31
0.000000
  0
LINE
  8
0
 62
     7
  6
CONTINUOUS
 10
-0.500119
 20
0.064706
 30
0.000000
 11
-0.497431
 21
0.056658
 31
0.000000
  0
LINE
  8
0
 62
     7
  6
CONTINUOUS
 10
-0.497431
 20
0.056658
 30
0.000000
 11
-0.495487
 21
0.052877
 31
0.000000
  0
LINE
  8
0
 62
     7
  6
CONTINUOUS
 10
-0.495487
 20
0.052877
 30
0.000000
 11
-0.493185
 21
0.049308
 31
0.000000
  0
LINE
  8
0
 62
     7
  6
CONTINUOUS
 10
-0.493185
 20
0.049308
 30
0.000000
 11
-0.490547
 21
0.045980
 31
0.000000
  0
LINE
  8
0
 62
     7
  6
CONTINUOUS
 10
-0.490547
 20
0.045980
 30
0.000000
 11
-0.487603
 21
0.042917
 31
0.000000
  0
LINE
  8
0
 62
     7
  6
CONTINUOUS
 10
-0.487603
 20
0.042917
 30
0.000000
 11
-0.480966
 21
0.037627
 31
0.000000
  0
LINE
  8
0
 62
     7
  6
CONTINUOUS
 10
-0.480966
 20
0.037627
 30
0.000000
 11
-0.473584
 21
0.033436
 31
0.000000
  0
LINE
  8
0
 62
     7
  6
CONTINUOUS
 10
-0.473584
 20
0.033436
 30
0.000000
 11
-0.465707
 21
0.030269
 31
0.000000
  0
LINE
  8
0
 62
     7
  6
CONTINUOUS
 10
-0.465707
 20
0.030269
 30
0.000000
 11
-0.457515
 21
0.028035
 31
0.000000
  0
LINE
  8
0
 62
     7
  6
CONTINUOUS
 10
-0.457515
 20
0.028035
 30
0.000000
 11
-0.449141
 21
0.026626
 31
0.000000
  0
LINE
  8
0
 62
     7
  6
CONTINUOUS
 10
-0.449141
 20
0.026626
 30
0.000000
 11
-0.432184
 21
0.025972
 31
0.000000
  0
LINE
  8
0
 62
     7
  6
CONTINUOUS
 10
-0.432184
 20
0.025972
 30
0.000000
 11
-0.415306
 21
0.027785
 31
0.000000
  0
LINE
  8
0
 62
     7
  6
CONTINUOUS
 10
-0.415306
 20
0.027785
 30
0.000000
 11
-0.398798
 21
0.031742
 31
0.000000
  0
LINE
  8
0
 62
     7
  6
CONTINUOUS
 10
-0.398798
 20
0.031742
 30
0.000000
 11
-0.382904
 21
0.037717
 31
0.000000
  0
LINE
  8
0
 62
     7
  6
CONTINUOUS
 10
-0.382904
 20
0.037717
 30
0.000000
 11
-0.352805
 21
0.053419
 31
0.000000
  0
LINE
  8
0
 62
     7
  6
CONTINUOUS
 10
-0.352805
 20
0.053419
 30
0.000000
 11
-0.324412
 21
0.072052
 31
0.000000
  0
LINE
  8
0
 62
     7
  6
CONTINUOUS
 10
-0.324412
 20
0.072052
 30
0.000000
 11
-0.271438
 21
0.114529
 31
0.000000
  0
LINE
  8
0
 62
     7
  6
CONTINUOUS
 10
-0.271438
 20
0.114529
 30
0.000000
 11
-0.267750
 21
0.117938
 31
0.000000
  0
LINE
  8
0
 62
     7
  6
CONTINUOUS
 10
-0.271438
 20
0.114529
 30
0.004463
 11
-0.267750
 21
0.117938
 31
0.004463
  0
LINE
  8
0
 62
     7
  6
CONTINUOUS
 10
-0.277631
 20
0.114431
 30
0.000000
 11
-0.278466
 21
0.112817
 31
0.000000
  0
LINE
  8
0
 62
     7
  6
CONTINUOUS
 10
-0.278466
 20
0.112817
 30
0.000000
 11
-0.279140
 21
0.111133
 31
0.000000
  0
LINE
  8
0
 62
     7
  6
CONTINUOUS
 10
-0.279140
 20
0.111133
 30
0.000000
 11
-0.279623
 21
0.109380
 31
0.000000
  0
LINE
  8
0
 62
     7
  6
CONTINUOUS
 10
-0.279623
 20
0.109380
 30
0.000000
 11
-0.280180
 21
0.105792
 31
0.000000
  0
LINE
  8
0
 62
     7
  6
CONTINUOUS
 10
-0.280180
 20
0.105792
 30
0.000000
 11
-0.280239
 21
0.102161
 31
0.000000
  0
LINE
  8
0
 62
     7
  6
CONTINUOUS
 10
-0.280239
 20
0.102161
 30
0.000000
 11
-0.279833
 21
0.098553
 31
0.000000
  0
LINE
  8
0
 62
     7
  6
CONTINUOUS
 10
-0.279833
 20
0.098553
 30
0.000000
 11
-0.278955
 21
0.095030
 31
0.000000
  0
LINE
  8
0
 62
     7
  6
CONTINUOUS
 10
-0.278955
 20
0.095030
 30
0.000000
 11
-0.277568
 21
0.091674
 31
0.000000
  0
LINE
  8
0
 62
     7
  6
CONTINUOUS
 10
-0.277568
 20
0.091674
 30
0.000000
 11
-0.276665
 21
0.090097
 31
0.000000
  0
LINE
  8
0
 62
     7
  6
CONTINUOUS
 10
-0.276665
 20
0.090097
 30
0.000000
 11
-0.275615
 21
0.088614
 31
0.000000
  0
LINE
  8
0
 62
     7
  6
CONTINUOUS
 10
-0.275615
 20
0.088614
 30
0.000000
 11
-0.274416
 21
0.087249
 31
0.000000
  0
LINE
  8
0
 62
     7
  6
CONTINUOUS
 10
-0.274416
 20
0.087249
 30
0.000000
 11
-0.273067
 21
0.086030
 31
0.000000
  0
LINE
  8
0
 62
     7
  6
CONTINUOUS
 10
-0.273067
 20
0.086030
 30
0.000000
 11
-0.271579
 21
0.084986
 31
0.000000
  0
LINE
  8
0
 62
     7
  6
CONTINUOUS
 10
-0.271579
 20
0.084986
 30
0.000000
 11
-0.269969
 21
0.084141
 31
0.000000
  0
LINE
  8
0
 62
     7
  6
CONTINUOUS
 10
-0.269969
 20
0.084141
 30
0.000000
 11
-0.268264
 21
0.083508
 31
0.000000
  0
LINE
  8
0
 62
     7
  6
CONTINUOUS
 10
-0.268264
 20
0.083508
 30
0.000000
 11
-0.266494
 21
0.083091
 31
0.000000
  0
LINE
  8
0
 62
     7
  6
CONTINUOUS
 10
-0.266494
 20
0.083091
 30
0.000000
 11
-0.264689
 21
0.082881
 31
0.000000
  0
LINE
  8
0
 62
     7
  6
CONTINUOUS
 10
-0.264689
 20
0.082881
 30
0.000000
 11
-0.262871
 21
0.082862
 31
0.000000
  0
LINE
  8
0
 62
     7
  6
CONTINUOUS
 10
-0.262871
 20
0.082862
 30
0.000000
 11
-0.261058
 21
0.083010
 31
0.000000
  0
LINE
  8
0
 62
     7
  6
CONTINUOUS
 10
-0.261058
 20
0.083010
 30
0.000000
 11
-0.257502
 21
0.083745
 31
0.000000
  0
LINE
  8
0
 62
     7
  6
CONTINUOUS
 10
-0.257502
 20
0.083745
 30
0.000000
 11
-0.250687
 21
0.086259
 31
0.000000
  0
LINE
  8
0
 62
     7
  6
CONTINUOUS
 10
-0.274641
 20
0.061967
 30
0.000000
 11
-0.241483
 21
0.097573
 31
0.000000
  0
LINE
  8
0
 62
     7
  6
CONTINUOUS
 10
-0.297072
 20
0.042110
 30
0.000000
 11
-0.274641
 21
0.061967
 31
0.000000
  0
LINE
  8
0
 62
     7
  6
CONTINUOUS
 10
-0.320884
 20
0.023934
 30
0.000000
 11
-0.297072
 21
0.042110
 31
0.000000
  0
LINE
  8
0
 62
     7
  6
CONTINUOUS
 10
-0.346234
 20
0.007984
 30
0.000000
 11
-0.320884
 21
0.023934
 31
0.000000
  0
LINE
  8
0
 62
     7
  6
CONTINUOUS
 10
-0.359667
 20
0.001368
 30
0.000000
 11
-0.346234
 21
0.007984
 31
0.000000
  0
LINE
  8
0
 62
     7
  6
CONTINUOUS
 10
-0.366767
 20
-0.001017
 30
0.000000
 11
-0.359667
 21
0.001368
 31
0.000000
  0
LINE
  8
0
 62
     7
  6
CONTINUOUS
 10
-0.374081
 20
-0.002626
 30
0.000000
 11
-0.366767
 21
-0.001017
 31
0.000000
  0
LINE
  8
0
 62
     7
  6
CONTINUOUS
 10
-0.381530
 20
-0.003407
 30
0.000000
 11
-0.374081
 21
-0.002626
 31
0.000000
  0
LINE
  8
0
 62
     7
  6
CONTINUOUS
 10
-0.389018
 20
-0.003299
 30
0.000000
 11
-0.381530
 21
-0.003407
 31
0.000000
  0
LINE
  8
0
 62
     7
  6
CONTINUOUS
 10
-0.396430
 20
-0.002233
 30
0.000000
 11
-0.389018
 21
-0.003299
 31
0.000000
  0
LINE
  8
0
 62
     7
  6
CONTINUOUS
 10
-0.403618
 20
-0.000136
 30
0.000000
 11
-0.396430
 21
-0.002233
 31
0.000000
  0
LINE
  8
0
 62
     7
  6
CONTINUOUS
 10
-0.410380
 20
0.003077
 30
0.000000
 11
-0.403618
 21
-0.000136
 31
0.000000
  0
LINE
  8
0
 62
     7
  6
CONTINUOUS
 10
-0.413521
 20
0.005118
 30
0.000000
 11
-0.410380
 21
0.003077
 31
0.000000
  0
LINE
  8
0
 62
     7
  6
CONTINUOUS
 10
-0.416451
 20
0.007454
 30
0.000000
 11
-0.413521
 21
0.005118
 31
0.000000
  0
LINE
  8
0
 62
     7
  6
CONTINUOUS
 10
-0.419131
 20
0.010073
 30
0.000000
 11
-0.416451
 21
0.007454
 31
0.000000
  0
LINE
  8
0
 62
     7
  6
CONTINUOUS
 10
-0.421516
 20
0.012964
 30
0.000000
 11
-0.419131
 21
0.010073
 31
0.000000
  0
LINE
  8
0
 62
     7
  6
CONTINUOUS
 10
-0.423567
 20
0.016098
 30
0.000000
 11
-0.421516
 21
0.012964
 31
0.000000
  0
LINE
  8
0
 62
     7
  6
CONTINUOUS
 10
-0.425263
 20
0.019440
 30
0.000000
 11
-0.423567
 21
0.016098
 31
0.000000
  0
LINE
  8
0
 62
     7
  6
CONTINUOUS
 10
-0.426589
 20
0.022947
 30
0.000000
 11
-0.425263
 21
0.019440
 31
0.000000
  0
LINE
  8
0
 62
     7
  6
CONTINUOUS
 10
-0.428081
 20
0.030281
 30
0.000000
 11
-0.426589
 21
0.022947
 31
0.000000
  0
LINE
  8
0
 62
     7
  6
CONTINUOUS
 10
-0.366244
 20
0.002869
 30
0.000000
 11
-0.365938
 21
-0.012904
 31
0.000000
  0
LINE
  8
0
 62
     7
  6
CONTINUOUS
 10
-0.365938
 20
-0.012904
 30
0.000000
 11
-0.364621
 21
-0.020686
 31
0.000000
  0
LINE
  8
0
 62
     7
  6
CONTINUOUS
 10
-0.364621
 20
-0.020686
 30
0.000000
 11
-0.363548
 21
-0.024486
 31
0.000000
  0
LINE
  8
0
 62
     7
  6
CONTINUOUS
 10
-0.363548
 20
-0.024486
 30
0.000000
 11
-0.362129
 21
-0.028171
 31
0.000000
  0
LINE
  8
0
 62
     7
  6
CONTINUOUS
 10
-0.362129
 20
-0.028171
 30
0.000000
 11
-0.360298
 21
-0.031670
 31
0.000000
  0
LINE
  8
0
 62
     7
  6
CONTINUOUS
 10
-0.360298
 20
-0.031670
 30
0.000000
 11
-0.357988
 21
-0.034874
 31
0.000000
  0
LINE
  8
0
 62
     7
  6
CONTINUOUS
 10
-0.357988
 20
-0.034874
 30
0.000000
 11
-0.356640
 21
-0.036319
 31
0.000000
  0
LINE
  8
0
 62
     7
  6
CONTINUOUS
 10
-0.356640
 20
-0.036319
 30
0.000000
 11
-0.355162
 21
-0.037632
 31
0.000000
  0
LINE
  8
0
 62
     7
  6
CONTINUOUS
 10
-0.355162
 20
-0.037632
 30
0.000000
 11
-0.353561
 21
-0.038793
 31
0.000000
  0
LINE
  8
0
 62
     7
  6
CONTINUOUS
 10
-0.353561
 20
-0.038793
 30
0.000000
 11
-0.351848
 21
-0.039781
 31
0.000000
  0
LINE
  8
0
 62
     7
  6
CONTINUOUS
 10
-0.351848
 20
-0.039781
 30
0.000000
 11
-0.350042
 21
-0.040586
 31
0.000000
  0
LINE
  8
0
 62
     7
  6
CONTINUOUS
 10
-0.350042
 20
-0.040586
 30
0.000000
 11
-0.348164
 21
-0.041204
 31
0.000000
  0
LINE
  8
0
 62
     7
  6
CONTINUOUS
 10
-0.348164
 20
-0.041204
 30
0.000000
 11
-0.346235
 21
-0.041638
 31
0.000000
  0
LINE
  8
0
 62
     7
  6
CONTINUOUS
 10
-0.346235
 20
-0.041638
 30
0.000000
 11
-0.342301
 21
-0.041996
 31
0.000000
  0
LINE
  8
0
 62
     7
  6
CONTINUOUS
 10
-0.342301
 20
-0.041996
 30
0.000000
 11
-0.338357
 21
-0.041768
 31
0.000000
  0
LINE
  8
0
 62
     7
  6
CONTINUOUS
 10
-0.338357
 20
-0.041768
 30
0.000000
 11
-0.334469
 21
-0.041075
 31
0.000000
  0
LINE
  8
0
 62
     7
  6
CONTINUOUS
 10
-0.334469
 20
-0.041075
 30
0.000000
 11
-0.326951
 21
-0.038668
 31
0.000000
  0
LINE
  8
0
 62
     7
  6
CONTINUOUS
 10
-0.326951
 20
-0.038668
 30
0.000000
 11
-0.319796
 21
-0.035334
 31
0.000000
  0
LINE
  8
0
 62
     7
  6
CONTINUOUS
 10
-0.319796
 20
-0.035334
 30
0.000000
 11
-0.306395
 21
-0.026996
 31
0.000000
  0
LINE
  8
0
 62
     7
  6
CONTINUOUS
 10
-0.306395
 20
-0.026996
 30
0.000000
 11
-0.281985
 21
-0.006985
 31
0.000000
  0
LINE
  8
0
 62
     7
  6
CONTINUOUS
 10
-0.281985
 20
-0.006985
 30
0.000000
 11
-0.259429
 21
0.015109
 31
0.000000
  0
LINE
  8
0
 62
     7
  6
CONTINUOUS
 10
-0.259429
 20
0.015109
 30
0.000000
 11
-0.238309
 21
0.038581
 31
0.000000
  0
LINE
  8
0
 62
     7
  6
CONTINUOUS
 10
-0.238309
 20
0.038581
 30
0.000000
 11
-0.201883
 21
0.087665
 31
0.000000
  0
LINE
  8
0
 62
     7
  6
CONTINUOUS
 10
-0.201883
 20
0.087665
 30
0.000000
 11
-0.199219
 21
0.092438
 31
0.000000
  0
LINE
  8
0
 62
     7
  6
CONTINUOUS
 10
-0.201883
 20
0.087665
 30
0.004463
 11
-0.199219
 21
0.092438
 31
0.004463
  0
LINE
  8
0
 62
     7
  6
CONTINUOUS
 10
-0.202852
 20
0.082491
 30
0.000000
 11
-0.185805
 21
0.112194
 31
0.000000
  0
LINE
  8
0
 62
     7
  6
CONTINUOUS
 10
-0.185805
 20
0.112194
 30
0.000000
 11
-0.184875
 21
0.114431
 31
0.000000
  0
LINE
  8
0
 62
     7
  6
CONTINUOUS
 10
-0.163618
 20
0.081828
 30
0.000000
 11
-0.160331
 21
0.091162
 31
0.000000
  0
LINE
  8
0
 62
     7
  6
CONTINUOUS
 10
-0.177812
 20
0.053009
 30
0.000000
 11
-0.163618
 21
0.081828
 31
0.000000
  0
LINE
  8
0
 62
     7
  6
CONTINUOUS
 10
-0.194793
 20
0.025721
 30
0.000000
 11
-0.177812
 21
0.053009
 31
0.000000
  0
LINE
  8
0
 62
     7
  6
CONTINUOUS
 10
-0.231299
 20
-0.022499
 30
0.000000
 11
-0.194793
 21
0.025721
 31
0.000000
  0
LINE
  8
0
 62
     7
  6
CONTINUOUS
 10
-0.252147
 20
-0.044402
 30
0.000000
 11
-0.231299
 21
-0.022499
 31
0.000000
  0
LINE
  8
0
 62
     7
  6
CONTINUOUS
 10
-0.257957
 20
-0.049244
 30
0.000000
 11
-0.252147
 21
-0.044402
 31
0.000000
  0
LINE
  8
0
 62
     7
  6
CONTINUOUS
 10
-0.261089
 20
-0.051372
 30
0.000000
 11
-0.257957
 21
-0.049244
 31
0.000000
  0
LINE
  8
0
 62
     7
  6
CONTINUOUS
 10
-0.264432
 20
-0.053134
 30
0.000000
 11
-0.261089
 21
-0.051372
 31
0.000000
  0
LINE
  8
0
 62
     7
  6
CONTINUOUS
 10
-0.271552
 20
-0.055682
 30
0.000000
 11
-0.264432
 21
-0.053134
 31
0.000000
  0
LINE
  8
0
 62
     7
  6
CONTINUOUS
 10
-0.278965
 20
-0.057160
 30
0.000000
 11
-0.271552
 21
-0.055682
 31
0.000000
  0
LINE
  8
0
 62
     7
  6
CONTINUOUS
 10
-0.282738
 20
-0.057429
 30
0.000000
 11
-0.278965
 21
-0.057160
 31
0.000000
  0
LINE
  8
0
 62
     7
  6
CONTINUOUS
 10
-0.286519
 20
-0.057346
 30
0.000000
 11
-0.282738
 21
-0.057429
 31
0.000000
  0
LINE
  8
0
 62
     7
  6
CONTINUOUS
 10
-0.290272
 20
-0.056873
 30
0.000000
 11
-0.286519
 21
-0.057346
 31
0.000000
  0
LINE
  8
0
 62
     7
  6
CONTINUOUS
 10
-0.293947
 20
-0.055981
 30
0.000000
 11
-0.290272
 21
-0.056873
 31
0.000000
  0
LINE
  8
0
 62
     7
  6
CONTINUOUS
 10
-0.297486
 20
-0.054643
 30
0.000000
 11
-0.293947
 21
-0.055981
 31
0.000000
  0
LINE
  8
0
 62
     7
  6
CONTINUOUS
 10
-0.300817
 20
-0.052853
 30
0.000000
 11
-0.297486
 21
-0.054643
 31
0.000000
  0
LINE
  8
0
 62
     7
  6
CONTINUOUS
 10
-0.303880
 20
-0.050633
 30
0.000000
 11
-0.300817
 21
-0.052853
 31
0.000000
  0
LINE
  8
0
 62
     7
  6
CONTINUOUS
 10
-0.306618
 20
-0.048024
 30
0.000000
 11
-0.303880
 21
-0.050633
 31
0.000000
  0
LINE
  8
0
 62
     7
  6
CONTINUOUS
 10
-0.309005
 20
-0.045088
 30
0.000000
 11
-0.306618
 21
-0.048024
 31
0.000000
  0
LINE
  8
0
 62
     7
  6
CONTINUOUS
 10
-0.311029
 20
-0.041892
 30
0.000000
 11
-0.309005
 21
-0.045088
 31
0.000000
  0
LINE
  8
0
 62
     7
  6
CONTINUOUS
 10
-0.312706
 20
-0.038501
 30
0.000000
 11
-0.311029
 21
-0.041892
 31
0.000000
  0
LINE
  8
0
 62
     7
  6
CONTINUOUS
 10
-0.315136
 20
-0.031341
 30
0.000000
 11
-0.312706
 21
-0.038501
 31
0.000000
  0
LINE
  8
0
 62
     7
  6
CONTINUOUS
 10
-0.316519
 20
-0.023906
 30
0.000000
 11
-0.315136
 21
-0.031341
 31
0.000000
  0
LINE
  8
0
 62
     7
  6
CONTINUOUS
 10
-0.261056
 20
-0.043669
 30
0.000000
 11
-0.261166
 21
-0.051644
 31
0.000000
  0
LINE
  8
0
 62
     7
  6
CONTINUOUS
 10
-0.261166
 20
-0.051644
 30
0.000000
 11
-0.260198
 21
-0.059557
 31
0.000000
  0
LINE
  8
0
 62
     7
  6
CONTINUOUS
 10
-0.260198
 20
-0.059557
 30
0.000000
 11
-0.259153
 21
-0.063408
 31
0.000000
  0
LINE
  8
0
 62
     7
  6
CONTINUOUS
 10
-0.259153
 20
-0.063408
 30
0.000000
 11
-0.257623
 21
-0.067092
 31
0.000000
  0
LINE
  8
0
 62
     7
  6
CONTINUOUS
 10
-0.257623
 20
-0.067092
 30
0.000000
 11
-0.256646
 21
-0.068833
 31
0.000000
  0
LINE
  8
0
 62
     7
  6
CONTINUOUS
 10
-0.256646
 20
-0.068833
 30
0.000000
 11
-0.255514
 21
-0.070478
 31
0.000000
  0
LINE
  8
0
 62
     7
  6
CONTINUOUS
 10
-0.255514
 20
-0.070478
 30
0.000000
 11
-0.254225
 21
-0.072003
 31
0.000000
  0
LINE
  8
0
 62
     7
  6
CONTINUOUS
 10
-0.254225
 20
-0.072003
 30
0.000000
 11
-0.252780
 21
-0.073381
 31
0.000000
  0
LINE
  8
0
 62
     7
  6
CONTINUOUS
 10
-0.252780
 20
-0.073381
 30
0.000000
 11
-0.251189
 21
-0.074589
 31
0.000000
  0
LINE
  8
0
 62
     7
  6
CONTINUOUS
 10
-0.251189
 20
-0.074589
 30
0.000000
 11
-0.249475
 21
-0.075615
 31
0.000000
  0
LINE
  8
0
 62
     7
  6
CONTINUOUS
 10
-0.249475
 20
-0.075615
 30
0.000000
 11
-0.247660
 21
-0.076451
 31
0.000000
  0
LINE
  8
0
 62
     7
  6
CONTINUOUS
 10
-0.247660
 20
-0.076451
 30
0.000000
 11
-0.245771
 21
-0.077098
 31
0.000000
  0
LINE
  8
0
 62
     7
  6
CONTINUOUS
 10
-0.245771
 20
-0.077098
 30
0.000000
 11
-0.243829
 21
-0.077565
 31
0.000000
  0
LINE
  8
0
 62
     7
  6
CONTINUOUS
 10
-0.243829
 20
-0.077565
 30
0.000000
 11
-0.239864
 21
-0.078029
 31
0.000000
  0
LINE
  8
0
 62
     7
  6
CONTINUOUS
 10
-0.239864
 20
-0.078029
 30
0.000000
 11
-0.235874
 21
-0.077969
 31
0.000000
  0
LINE
  8
0
 62
     7
  6
CONTINUOUS
 10
-0.235874
 20
-0.077969
 30
0.000000
 11
-0.231910
 21
-0.077500
 31
0.000000
  0
LINE
  8
0
 62
     7
  6
CONTINUOUS
 10
-0.231910
 20
-0.077500
 30
0.000000
 11
-0.224141
 21
-0.075683
 31
0.000000
  0
LINE
  8
0
 62
     7
  6
CONTINUOUS
 10
-0.224141
 20
-0.075683
 30
0.000000
 11
-0.209282
 21
-0.069890
 31
0.000000
  0
LINE
  8
0
 62
     7
  6
CONTINUOUS
 10
-0.209282
 20
-0.069890
 30
0.000000
 11
-0.202287
 21
-0.066043
 31
0.000000
  0
LINE
  8
0
 62
     7
  6
CONTINUOUS
 10
-0.202287
 20
-0.066043
 30
0.000000
 11
-0.195798
 21
-0.061399
 31
0.000000
  0
LINE
  8
0
 62
     7
  6
CONTINUOUS
 10
-0.195798
 20
-0.061399
 30
0.000000
 11
-0.189872
 21
-0.056047
 31
0.000000
  0
LINE
  8
0
 62
     7
  6
CONTINUOUS
 10
-0.189872
 20
-0.056047
 30
0.000000
 11
-0.179464
 21
-0.043961
 31
0.000000
  0
LINE
  8
0
 62
     7
  6
CONTINUOUS
 10
-0.179464
 20
-0.043961
 30
0.000000
 11
-0.170654
 21
-0.030658
 31
0.000000
  0
LINE
  8
0
 62
     7
  6
CONTINUOUS
 10
-0.170654
 20
-0.030658
 30
0.000000
 11
-0.156581
 21
-0.002037
 31
0.000000
  0
LINE
  8
0
 62
     7
  6
CONTINUOUS
 10
-0.156581
 20
-0.002037
 30
0.000000
 11
-0.151193
 21
0.013342
 31
0.000000
  0
LINE
  8
0
 62
     7
  6
CONTINUOUS
 10
-0.158001
 20
0.029033
 30
0.000000
 11
-0.156146
 21
0.029378
 31
0.000000
  0
LINE
  8
0
 62
     7
  6
CONTINUOUS
 10
-0.161766
 20
0.028857
 30
0.000000
 11
-0.158001
 21
0.029033
 31
0.000000
  0
LINE
  8
0
 62
     7
  6
CONTINUOUS
 10
-0.165519
 20
0.029227
 30
0.000000
 11
-0.161766
 21
0.028857
 31
0.000000
  0
LINE
  8
0
 62
     7
  6
CONTINUOUS
 10
-0.167364
 20
0.029620
 30
0.000000
 11
-0.165519
 21
0.029227
 31
0.000000
  0
LINE
  8
0
 62
     7
  6
CONTINUOUS
 10
-0.169160
 20
0.030198
 30
0.000000
 11
-0.167364
 21
0.029620
 31
0.000000
  0
LINE
  8
0
 62
     7
  6
CONTINUOUS
 10
-0.170886
 20
0.030958
 30
0.000000
 11
-0.169160
 21
0.030198
 31
0.000000
  0
LINE
  8
0
 62
     7
  6
CONTINUOUS
 10
-0.172532
 20
0.031881
 30
0.000000
 11
-0.170886
 21
0.030958
 31
0.000000
  0
LINE
  8
0
 62
     7
  6
CONTINUOUS
 10
-0.174089
 20
0.032947
 30
0.000000
 11
-0.172532
 21
0.031881
 31
0.000000
  0
LINE
  8
0
 62
     7
  6
CONTINUOUS
 10
-0.176907
 20
0.035450
 30
0.000000
 11
-0.174089
 21
0.032947
 31
0.000000
  0
LINE
  8
0
 62
     7
  6
CONTINUOUS
 10
-0.179308
 20
0.038358
 30
0.000000
 11
-0.176907
 21
0.035450
 31
0.000000
  0
LINE
  8
0
 62
     7
  6
CONTINUOUS
 10
-0.181256
 20
0.041585
 30
0.000000
 11
-0.179308
 21
0.038358
 31
0.000000
  0
LINE
  8
0
 62
     7
  6
CONTINUOUS
 10
-0.182702
 20
0.045067
 30
0.000000
 11
-0.181256
 21
0.041585
 31
0.000000
  0
LINE
  8
0
 62
     7
  6
CONTINUOUS
 10
-0.183582
 20
0.048733
 30
0.000000
 11
-0.182702
 21
0.045067
 31
0.000000
  0
LINE
  8
0
 62
     7
  6
CONTINUOUS
 10
-0.183778
 20
0.050609
 30
0.000000
 11
-0.183582
 21
0.048733
 31
0.000000
  0
LINE
  8
0
 62
     7
  6
CONTINUOUS
 10
-0.183794
 20
0.052496
 30
0.000000
 11
-0.183778
 21
0.050609
 31
0.000000
  0
LINE
  8
0
 62
     7
  6
CONTINUOUS
 10
-0.183622
 20
0.054375
 30
0.000000
 11
-0.183794
 21
0.052496
 31
0.000000
  0
LINE
  8
0
 62
     7
  6
CONTINUOUS
 10
-0.183233
 20
0.056220
 30
0.000000
 11
-0.183622
 21
0.054375
 31
0.000000
  0
LINE
  8
0
 62
     7
  6
CONTINUOUS
 10
-0.182644
 20
0.058013
 30
0.000000
 11
-0.183233
 21
0.056220
 31
0.000000
  0
LINE
  8
0
 62
     7
  6
CONTINUOUS
 10
-0.165297
 20
0.075644
 30
0.000000
 11
-0.160245
 21
0.087045
 31
0.000000
  0
LINE
  8
0
 62
     7
  6
CONTINUOUS
 10
-0.160245
 20
0.087045
 30
0.000000
 11
-0.159375
 21
0.089718
 31
0.000000
  0
LINE
  8
0
 62
     7
  6
CONTINUOUS
 10
-0.163618
 20
0.081828
 30
0.004463
 11
-0.160331
 21
0.091162
 31
0.004463
  0
LINE
  8
LEFT_SIDE_STI0
 62
     5
  6
CONTINUOUS
 10
-0.137376
 20
0.063750
 30
0.000000
 11
-0.137063
 21
0.063750
 31
0.000000
  0
LINE
  8
LEFT_SIDE_STI0
 62
     5
  6
CONTINUOUS
 10
-0.137063
 20
0.063750
 30
0.000000
 11
-0.137063
 21
0.270848
 31
0.000000
  0
LINE
  8
LEFT_SIDE_STI0
 62
     5
  6
CONTINUOUS
 10
-0.114750
 20
0.223125
 30
0.000000
 11
-0.092495
 21
0.207385
 31
0.000000
  0
LINE
  8
LEFT_SIDE_STI0
 62
     5
  6
CONTINUOUS
 10
-0.092437
 20
0.193579
 30
0.000000
 11
-0.092495
 21
0.207385
 31
0.000000
  0
ARC
  8
LEFT_SIDE_STI
 62
     5
  6
CONTINUOUS
 10
-0.059103
 20
0.126227
 30
0.000000
 40
0.073699
 50
100.744635
 51
111.699835
  0
ARC
  8
LEFT_SIDE_STI
 62
     5
  6
CONTINUOUS
 10
-0.029842
 20
-0.027972
 30
0.000000
 40
0.230649
 50
95.920690
 51
100.744635
  0
ARC
  8
LEFT_SIDE_STI
 62
     5
  6
CONTINUOUS
 10
-0.007933
 20
-0.239233
 30
0.000000
 40
0.443043
 50
92.829087
 51
95.920690
  0
ARC
  8
LEFT_SIDE_STI
 62
     5
  6
CONTINUOUS
 10
-0.000251
 20
-0.394702
 30
0.000000
 40
0.598702
 50
91.997000
 51
92.829087
  0
ARC
  8
LEFT_SIDE_STI
 62
     5
  6
CONTINUOUS
 10
-0.000008
 20
-0.401675
 30
0.000000
 40
0.605679
 50
87.190755
 51
91.997000
  0
ARC
  8
LEFT_SIDE_STI
 62
     5
  6
CONTINUOUS
 10
0.008097
 20
-0.236512
 30
0.000000
 40
0.440317
 50
83.993629
 51
87.190755
  0
ARC
  8
LEFT_SIDE_STI
 62
     5
  6
CONTINUOUS
 10
0.030761
 20
-0.021117
 30
0.000000
 40
0.223733
 50
78.894603
 51
83.993629
  0
ARC
  8
LEFT_SIDE_STI
 62
     5
  6
CONTINUOUS
 10
0.061751
 20
0.136769
 30
0.000000
 40
0.062835
 50
66.742460
 51
78.894603
  0
ARC
  8
LEFT_SIDE_STI
 62
     5
  6
CONTINUOUS
 10
0.085168
 20
0.191252
 30
0.000000
 40
0.003533
 50
319.273014
 51
426.742460
  0
ARC
  8
LEFT_SIDE_STI
 62
     5
  6
CONTINUOUS
 10
0.126494
 20
0.155672
 30
0.000000
 40
0.051000
 50
139.273014
 51
168.602571
  0
LINE
  8
LEFT_SIDE_STI
 62
     5
  6
CONTINUOUS
 10
0.076500
 20
-0.038250
 30
0.000000
 11
0.076500
 21
0.165750
 31
0.000000
  0
ARC
  8
LEFT_SIDE_STI
 62
     5
  6
CONTINUOUS
 10
-0.026911
 20
-0.027568
 30
0.000000
 40
0.103961
 50
285.230963
 51
354.102347
  0
ARC
  8
LEFT_SIDE_STI
 62
     5
  6
CONTINUOUS
 10
0.020874
 20
-0.032507
 30
0.000000
 40
0.097543
 50
183.375554
 51
257.884259
  0
LINE
  8
LEFT_SIDE_STI
 62
     5
  6
CONTINUOUS
 10
-0.076500
 20
0.165750
 30
0.000000
 11
-0.076500
 21
-0.038250
 31
0.000000
  0
ARC
  8
LEFT_SIDE_STI
 62
     5
  6
CONTINUOUS
 10
-0.126502
 20
0.155709
 30
0.000000
 40
0.051000
 50
11.354979
 51
40.605832
  0
ARC
  8
LEFT_SIDE_STI
 62
     5
  6
CONTINUOUS
 10
-0.084995
 20
0.191291
 30
0.000000
 40
0.003671
 50
111.699835
 51
220.605832
  0
ARC
  8
LEFT_SIDE_STI
 62
     5
  6
CONTINUOUS
 10
-0.083708
 20
0.193004
 30
0.000000
 40
0.005813
 50
233.051672
 51
248.610843
  0
ARC
  8
LEFT_SIDE_STI
 62
     5
  6
CONTINUOUS
 10
-0.059827
 20
0.253971
 30
0.000000
 40
0.071291
 50
248.610843
 51
259.006292
  0
ARC
  8
LEFT_SIDE_STI
 62
     5
  6
CONTINUOUS
 10
-0.030769
 20
0.403552
 30
0.000000
 40
0.223668
 50
259.006292
 51
263.993075
  0
ARC
  8
LEFT_SIDE_STI
 62
     5
  6
CONTINUOUS
 10
-0.008097
 20
0.619013
 30
0.000000
 40
0.440319
 50
263.993075
 51
267.190761
  0
ARC
  8
LEFT_SIDE_STI
 62
     5
  6
CONTINUOUS
 10
0.000008
 20
0.784175
 30
0.000000
 40
0.605679
 50
267.190761
 51
271.996996
  0
ARC
  8
LEFT_SIDE_STI
 62
     5
  6
CONTINUOUS
 10
0.000251
 20
0.777202
 30
0.000000
 40
0.598702
 50
271.996996
 51
272.829087
  0
ARC
  8
LEFT_SIDE_STI
 62
     5
  6
CONTINUOUS
 10
0.007933
 20
0.621733
 30
0.000000
 40
0.443043
 50
272.829087
 51
275.920690
  0
ARC
  8
LEFT_SIDE_STI
 62
     5
  6
CONTINUOUS
 10
0.029842
 20
0.410472
 30
0.000000
 40
0.230649
 50
275.920690
 51
280.744635
  0
ARC
  8
LEFT_SIDE_STI
 62
     5
  6
CONTINUOUS
 10
0.059103
 20
0.256273
 30
0.000000
 40
0.073699
 50
280.744635
 51
291.250388
  0
ARC
  8
LEFT_SIDE_STI
 62
     5
  6
CONTINUOUS
 10
0.083708
 20
0.193004
 30
0.000000
 40
0.005813
 50
291.250388
 51
309.820300
  0
LINE
  8
LEFT_SIDE_STI0
 62
     5
  6
CONTINUOUS
 10
0.092437
 20
0.077319
 30
0.000000
 11
0.092437
 21
0.193579
 31
0.000000
  0
ARC
  8
LEFT_SIDE_STI
 62
     5
  6
CONTINUOUS
 10
0.084232
 20
0.046295
 30
0.000000
 40
0.023014
 50
52.064244
 51
112.958739
  0
ARC
  8
LEFT_SIDE_STI
 62
     5
  6
CONTINUOUS
 10
0.085925
 20
-0.002708
 30
0.000000
 40
0.080292
 50
63.257123
 51
96.741095
  0
LINE
  8
LEFT_SIDE_STI
 62
     5
  6
CONTINUOUS
 10
0.132623
 20
0.064843
 30
0.000000
 11
0.122055
 21
0.068995
 31
0.000000
  0
ARC
  8
LEFT_SIDE_STI
 62
     5
  6
CONTINUOUS
 10
0.146513
 20
0.114355
 30
0.000000
 40
0.051423
 50
254.328780
 51
287.159339
  0
LINE
  8
LEFT_SIDE_STI
 62
     5
  6
CONTINUOUS
 10
0.162062
 20
0.046727
 30
0.000000
 11
0.161685
 21
0.065221
 31
0.000000
  0
ARC
  8
LEFT_SIDE_STI
 62
     5
  6
CONTINUOUS
 10
0.124401
 20
0.054706
 30
0.000000
 40
0.038497
 50
285.806624
 51
348.037288
  0
ARC
  8
LEFT_SIDE_STI
 62
     5
  6
CONTINUOUS
 10
0.127905
 20
0.039665
 30
0.000000
 40
0.023081
 50
196.030343
 51
287.607528
  0
ARC
  8
LEFT_SIDE_STI
 62
     5
  6
CONTINUOUS
 10
0.193847
 20
0.070502
 30
0.000000
 40
0.095659
 50
183.630012
 51
202.891707
  0
LINE
  8
LEFT_SIDE_STI0
 62
     5
  6
CONTINUOUS
 10
0.114750
 20
0.072231
 30
0.000000
 11
0.114750
 21
0.223125
 31
0.000000
  0
LINE
  8
LEFT_SIDE_STI0
 62
     5
  6
CONTINUOUS
 10
0.114750
 20
0.223125
 30
0.000000
 11
0.092295
 21
0.207298
 31
0.000000
  0
LINE
  8
LEFT_SIDE_STI0
 62
     5
  6
CONTINUOUS
 10
0.092295
 20
0.207298
 30
0.000000
 11
0.092437
 21
0.193579
 31
0.000000
  0
LINE
  8
LEFT_SIDE_STI0
 62
     5
  6
CONTINUOUS
 10
0.114933
 20
0.239667
 30
0.000000
 11
0.114750
 21
0.223125
 31
0.000000
  0
LINE
  8
LEFT_SIDE_STI0
 62
     5
  6
CONTINUOUS
 10
0.137063
 20
0.255000
 30
0.000000
 11
0.114933
 21
0.239667
 31
0.000000
  0
LINE
  8
LEFT_SIDE_STI0
 62
     5
  6
CONTINUOUS
 10
0.137063
 20
0.255000
 30
0.000000
 11
0.137063
 21
0.063750
 31
0.000000
  0
LINE
  8
LEFT_SIDE_STI0
 62
     5
  6
CONTINUOUS
 10
0.137376
 20
0.063750
 30
0.000000
 11
0.137063
 21
0.063750
 31
0.000000
  0
ARC
  8
LEFT_SIDE_STI0
 62
     5
  6
CONTINUOUS
 10
0.000000
 20
0.063750
 30
0.000000
 40
0.159375
 50
6.282271
 51
6.307674
  0
LINE
  8
0
 62
     7
  6
CONTINUOUS
 10
0.167406
 20
0.083356
 30
0.000000
 11
0.159375
 21
0.081420
 31
0.000000
  0
LINE
  8
0
 62
     7
  6
CONTINUOUS
 10
0.176662
 20
0.086778
 30
0.000000
 11
0.167406
 21
0.083356
 31
0.000000
  0
LINE
  8
0
 62
     7
  6
CONTINUOUS
 10
0.185576
 20
0.091015
 30
0.000000
 11
0.176662
 21
0.086778
 31
0.000000
  0
LINE
  8
0
 62
     7
  6
CONTINUOUS
 10
0.202374
 20
0.101360
 30
0.000000
 11
0.185576
 21
0.091015
 31
0.000000
  0
LINE
  8
0
 62
     7
  6
CONTINUOUS
 10
0.210152
 20
0.107432
 30
0.000000
 11
0.202374
 21
0.101360
 31
0.000000
  0
LINE
  8
0
 62
     7
  6
CONTINUOUS
 10
0.213542
 20
0.111016
 30
0.000000
 11
0.210152
 21
0.107432
 31
0.000000
  0
LINE
  8
0
 62
     7
  6
CONTINUOUS
 10
0.216441
 20
0.115009
 30
0.000000
 11
0.213542
 21
0.111016
 31
0.000000
  0
LINE
  8
0
 62
     7
  6
CONTINUOUS
 10
0.221109
 20
0.123699
 30
0.000000
 11
0.216441
 21
0.115009
 31
0.000000
  0
LINE
  8
0
 62
     7
  6
CONTINUOUS
 10
0.224811
 20
0.132847
 30
0.000000
 11
0.221109
 21
0.123699
 31
0.000000
  0
LINE
  8
0
 62
     7
  6
CONTINUOUS
 10
0.231100
 20
0.151561
 30
0.000000
 11
0.224811
 21
0.132847
 31
0.000000
  0
LINE
  8
0
 62
     7
  6
CONTINUOUS
 10
0.237764
 20
0.170139
 30
0.000000
 11
0.231100
 21
0.151561
 31
0.000000
  0
LINE
  8
0
 62
     7
  6
CONTINUOUS
 10
0.242198
 20
0.178954
 30
0.000000
 11
0.237764
 21
0.170139
 31
0.000000
  0
LINE
  8
0
 62
     7
  6
CONTINUOUS
 10
0.247543
 20
0.187249
 30
0.000000
 11
0.242198
 21
0.178954
 31
0.000000
  0
LINE
  8
0
 62
     7
  6
CONTINUOUS
 10
0.260407
 20
0.202197
 30
0.000000
 11
0.247543
 21
0.187249
 31
0.000000
  0
LINE
  8
0
 62
     7
  6
CONTINUOUS
 10
0.275022
 20
0.215462
 30
0.000000
 11
0.260407
 21
0.202197
 31
0.000000
  0
LINE
  8
0
 62
     7
  6
CONTINUOUS
 10
0.279122
 20
0.218204
 30
0.000000
 11
0.275022
 21
0.215462
 31
0.000000
  0
LINE
  8
0
 62
     7
  6
CONTINUOUS
 10
0.283504
 20
0.220474
 30
0.000000
 11
0.279122
 21
0.218204
 31
0.000000
  0
LINE
  8
0
 62
     7
  6
CONTINUOUS
 10
0.292734
 20
0.223956
 30
0.000000
 11
0.283504
 21
0.220474
 31
0.000000
  0
LINE
  8
0
 62
     7
  6
CONTINUOUS
 10
0.302300
 20
0.226378
 30
0.000000
 11
0.292734
 21
0.223956
 31
0.000000
  0
LINE
  8
0
 62
     7
  6
CONTINUOUS
 10
0.312047
 20
0.227922
 30
0.000000
 11
0.302300
 21
0.226378
 31
0.000000
  0
LINE
  8
0
 62
     7
  6
CONTINUOUS
 10
0.321895
 20
0.228542
 30
0.000000
 11
0.312047
 21
0.227922
 31
0.000000
  0
LINE
  8
0
 62
     7
  6
CONTINUOUS
 10
0.341627
 20
0.227938
 30
0.000000
 11
0.321895
 21
0.228542
 31
0.000000
  0
LINE
  8
0
 62
     7
  6
CONTINUOUS
 10
0.381078
 20
0.226269
 30
0.000000
 11
0.341627
 21
0.227938
 31
0.000000
  0
LINE
  8
0
 62
     7
  6
CONTINUOUS
 10
0.459987
 20
0.223187
 30
0.000000
 11
0.381078
 21
0.226269
 31
0.000000
  0
LINE
  8
0
 62
     7
  6
CONTINUOUS
 10
0.479679
 20
0.224222
 30
0.000000
 11
0.459987
 21
0.223187
 31
0.000000
  0
LINE
  8
0
 62
     7
  6
CONTINUOUS
 10
0.499018
 20
0.228131
 30
0.000000
 11
0.479679
 21
0.224222
 31
0.000000
  0
LINE
  8
0
 62
     7
  6
CONTINUOUS
 10
0.517741
 20
0.234356
 30
0.000000
 11
0.499018
 21
0.228131
 31
0.000000
  0
LINE
  8
0
 62
     7
  6
CONTINUOUS
 10
0.526696
 20
0.238502
 30
0.000000
 11
0.517741
 21
0.234356
 31
0.000000
  0
LINE
  8
0
 62
     7
  6
CONTINUOUS
 10
0.535114
 20
0.243643
 30
0.000000
 11
0.526696
 21
0.238502
 31
0.000000
  0
LINE
  8
0
 62
     7
  6
CONTINUOUS
 10
0.538935
 20
0.246766
 30
0.000000
 11
0.535114
 21
0.243643
 31
0.000000
  0
LINE
  8
0
 62
     7
  6
CONTINUOUS
 10
0.542252
 20
0.250418
 30
0.000000
 11
0.538935
 21
0.246766
 31
0.000000
  0
LINE
  8
0
 62
     7
  6
CONTINUOUS
 10
0.545062
 20
0.254475
 30
0.000000
 11
0.542252
 21
0.250418
 31
0.000000
  0
LINE
  8
0
 62
     7
  6
CONTINUOUS
 10
0.547394
 20
0.258824
 30
0.000000
 11
0.545062
 21
0.254475
 31
0.000000
  0
LINE
  8
0
 62
     7
  6
CONTINUOUS
 10
0.550822
 20
0.268070
 30
0.000000
 11
0.547394
 21
0.258824
 31
0.000000
  0
LINE
  8
0
 62
     7
  6
CONTINUOUS
 10
0.552848
 20
0.277724
 30
0.000000
 11
0.550822
 21
0.268070
 31
0.000000
  0
LINE
  8
0
 62
     7
  6
CONTINUOUS
 10
0.553349
 20
0.282638
 30
0.000000
 11
0.552848
 21
0.277724
 31
0.000000
  0
LINE
  8
0
 62
     7
  6
CONTINUOUS
 10
0.553349
 20
0.282622
 30
0.000000
 11
0.552844
 21
0.277697
 31
0.000000
  0
LINE
  8
0
 62
     7
  6
CONTINUOUS
 10
0.552844
 20
0.277697
 30
0.000000
 11
0.550808
 21
0.268020
 31
0.000000
  0
LINE
  8
0
 62
     7
  6
CONTINUOUS
 10
0.550808
 20
0.268020
 30
0.000000
 11
0.547361
 21
0.258754
 31
0.000000
  0
LINE
  8
0
 62
     7
  6
CONTINUOUS
 10
0.547361
 20
0.258754
 30
0.000000
 11
0.545015
 21
0.254399
 31
0.000000
  0
LINE
  8
0
 62
     7
  6
CONTINUOUS
 10
0.545015
 20
0.254399
 30
0.000000
 11
0.542189
 21
0.250339
 31
0.000000
  0
LINE
  8
0
 62
     7
  6
CONTINUOUS
 10
0.542189
 20
0.250339
 30
0.000000
 11
0.538853
 21
0.246688
 31
0.000000
  0
LINE
  8
0
 62
     7
  6
CONTINUOUS
 10
0.538853
 20
0.246688
 30
0.000000
 11
0.535013
 21
0.243570
 31
0.000000
  0
LINE
  8
0
 62
     7
  6
CONTINUOUS
 10
0.535013
 20
0.243570
 30
0.000000
 11
0.526564
 21
0.238432
 31
0.000000
  0
LINE
  8
0
 62
     7
  6
CONTINUOUS
 10
0.526564
 20
0.238432
 30
0.000000
 11
0.517579
 21
0.234290
 31
0.000000
  0
LINE
  8
0
 62
     7
  6
CONTINUOUS
 10
0.517579
 20
0.234290
 30
0.000000
 11
0.498803
 21
0.228073
 31
0.000000
  0
LINE
  8
0
 62
     7
  6
CONTINUOUS
 10
0.498803
 20
0.228073
 30
0.000000
 11
0.479410
 21
0.224185
 31
0.000000
  0
LINE
  8
0
 62
     7
  6
CONTINUOUS
 10
0.479410
 20
0.224185
 30
0.000000
 11
0.459667
 21
0.223194
 31
0.000000
  0
LINE
  8
0
 62
     7
  6
CONTINUOUS
 10
0.459667
 20
0.223194
 30
0.000000
 11
0.380563
 21
0.226291
 31
0.000000
  0
LINE
  8
0
 62
     7
  6
CONTINUOUS
 10
0.380563
 20
0.226291
 30
0.000000
 11
0.341016
 21
0.227962
 31
0.000000
  0
LINE
  8
0
 62
     7
  6
CONTINUOUS
 10
0.341016
 20
0.227962
 30
0.000000
 11
0.321234
 21
0.228535
 31
0.000000
  0
LINE
  8
0
 62
     7
  6
CONTINUOUS
 10
0.321234
 20
0.228535
 30
0.000000
 11
0.311366
 21
0.227843
 31
0.000000
  0
LINE
  8
0
 62
     7
  6
CONTINUOUS
 10
0.311366
 20
0.227843
 30
0.000000
 11
0.301606
 21
0.226234
 31
0.000000
  0
LINE
  8
0
 62
     7
  6
CONTINUOUS
 10
0.301606
 20
0.226234
 30
0.000000
 11
0.292034
 21
0.223738
 31
0.000000
  0
LINE
  8
0
 62
     7
  6
CONTINUOUS
 10
0.292034
 20
0.223738
 30
0.000000
 11
0.282818
 21
0.220152
 31
0.000000
  0
LINE
  8
0
 62
     7
  6
CONTINUOUS
 10
0.282818
 20
0.220152
 30
0.000000
 11
0.278460
 21
0.217811
 31
0.000000
  0
LINE
  8
0
 62
     7
  6
CONTINUOUS
 10
0.278460
 20
0.217811
 30
0.000000
 11
0.274411
 21
0.214973
 31
0.000000
  0
LINE
  8
0
 62
     7
  6
CONTINUOUS
 10
0.274411
 20
0.214973
 30
0.000000
 11
0.259820
 21
0.201608
 31
0.000000
  0
LINE
  8
0
 62
     7
  6
CONTINUOUS
 10
0.259820
 20
0.201608
 30
0.000000
 11
0.247032
 21
0.186533
 31
0.000000
  0
LINE
  8
0
 62
     7
  6
CONTINUOUS
 10
0.247032
 20
0.186533
 30
0.000000
 11
0.241753
 21
0.178167
 31
0.000000
  0
LINE
  8
0
 62
     7
  6
CONTINUOUS
 10
0.241753
 20
0.178167
 30
0.000000
 11
0.237399
 21
0.169285
 31
0.000000
  0
LINE
  8
0
 62
     7
  6
CONTINUOUS
 10
0.237399
 20
0.169285
 30
0.000000
 11
0.224455
 21
0.131885
 31
0.000000
  0
LINE
  8
0
 62
     7
  6
CONTINUOUS
 10
0.224455
 20
0.131885
 30
0.000000
 11
0.220669
 21
0.122746
 31
0.000000
  0
LINE
  8
0
 62
     7
  6
CONTINUOUS
 10
0.220669
 20
0.122746
 30
0.000000
 11
0.215848
 21
0.114113
 31
0.000000
  0
LINE
  8
0
 62
     7
  6
CONTINUOUS
 10
0.215848
 20
0.114113
 30
0.000000
 11
0.212841
 21
0.110186
 31
0.000000
  0
LINE
  8
0
 62
     7
  6
CONTINUOUS
 10
0.212841
 20
0.110186
 30
0.000000
 11
0.209330
 21
0.106704
 31
0.000000
  0
LINE
  8
0
 62
     7
  6
CONTINUOUS
 10
0.209330
 20
0.106704
 30
0.000000
 11
0.201458
 21
0.100711
 31
0.000000
  0
LINE
  8
0
 62
     7
  6
CONTINUOUS
 10
0.201458
 20
0.100711
 30
0.000000
 11
0.184536
 21
0.090476
 31
0.000000
  0
LINE
  8
0
 62
     7
  6
CONTINUOUS
 10
0.184536
 20
0.090476
 30
0.000000
 11
0.175559
 21
0.086316
 31
0.000000
  0
LINE
  8
0
 62
     7
  6
CONTINUOUS
 10
0.175559
 20
0.086316
 30
0.000000
 11
0.166238
 21
0.083003
 31
0.000000
  0
LINE
  8
0
 62
     7
  6
CONTINUOUS
 10
0.166238
 20
0.083003
 30
0.000000
 11
0.159375
 21
0.081475
 31
0.000000
  0
LINE
  8
0
 62
     7
  6
CONTINUOUS
 10
0.163937
 20
0.081828
 30
0.000000
 11
0.160650
 21
0.091162
 31
0.000000
  0
LINE
  8
0
 62
     7
  6
CONTINUOUS
 10
0.160235
 20
0.087871
 30
0.000000
 11
0.159375
 21
0.090558
 31
0.000000
  0
LINE
  8
0
 62
     7
  6
CONTINUOUS
 10
0.164807
 20
0.077229
 30
0.000000
 11
0.160235
 21
0.087871
 31
0.000000
  0
LINE
  8
0
 62
     7
  6
CONTINUOUS
 10
0.171571
 20
0.064685
 30
0.000000
 11
0.164807
 21
0.077229
 31
0.000000
  0
LINE
  8
0
 62
     7
  6
CONTINUOUS
 10
0.175599
 20
0.058807
 30
0.000000
 11
0.171571
 21
0.064685
 31
0.000000
  0
LINE
  8
0
 62
     7
  6
CONTINUOUS
 10
0.177895
 20
0.056081
 30
0.000000
 11
0.175599
 21
0.058807
 31
0.000000
  0
LINE
  8
0
 62
     7
  6
CONTINUOUS
 10
0.180479
 20
0.053627
 30
0.000000
 11
0.177895
 21
0.056081
 31
0.000000
  0
LINE
  8
0
 62
     7
  6
CONTINUOUS
 10
0.186169
 20
0.049343
 30
0.000000
 11
0.180479
 21
0.053627
 31
0.000000
  0
LINE
  8
0
 62
     7
  6
CONTINUOUS
 10
0.189264
 20
0.047575
 30
0.000000
 11
0.186169
 21
0.049343
 31
0.000000
  0
LINE
  8
0
 62
     7
  6
CONTINUOUS
 10
0.192516
 20
0.046119
 30
0.000000
 11
0.189264
 21
0.047575
 31
0.000000
  0
LINE
  8
0
 62
     7
  6
CONTINUOUS
 10
0.195913
 20
0.045041
 30
0.000000
 11
0.192516
 21
0.046119
 31
0.000000
  0
LINE
  8
0
 62
     7
  6
CONTINUOUS
 10
0.199421
 20
0.044422
 30
0.000000
 11
0.195913
 21
0.045041
 31
0.000000
  0
LINE
  8
0
 62
     7
  6
CONTINUOUS
 10
0.202982
 20
0.044350
 30
0.000000
 11
0.199421
 21
0.044422
 31
0.000000
  0
LINE
  8
0
 62
     7
  6
CONTINUOUS
 10
0.204754
 20
0.044545
 30
0.000000
 11
0.202982
 21
0.044350
 31
0.000000
  0
LINE
  8
0
 62
     7
  6
CONTINUOUS
 10
0.206500
 20
0.044902
 30
0.000000
 11
0.204754
 21
0.044545
 31
0.000000
  0
LINE
  8
0
 62
     7
  6
CONTINUOUS
 10
0.208206
 20
0.045418
 30
0.000000
 11
0.206500
 21
0.044902
 31
0.000000
  0
LINE
  8
0
 62
     7
  6
CONTINUOUS
 10
0.209852
 20
0.046103
 30
0.000000
 11
0.208206
 21
0.045418
 31
0.000000
  0
LINE
  8
0
 62
     7
  6
CONTINUOUS
 10
0.211407
 20
0.046974
 30
0.000000
 11
0.209852
 21
0.046103
 31
0.000000
  0
LINE
  8
0
 62
     7
  6
CONTINUOUS
 10
0.212860
 20
0.048006
 30
0.000000
 11
0.211407
 21
0.046974
 31
0.000000
  0
LINE
  8
0
 62
     7
  6
CONTINUOUS
 10
0.214197
 20
0.049185
 30
0.000000
 11
0.212860
 21
0.048006
 31
0.000000
  0
LINE
  8
0
 62
     7
  6
CONTINUOUS
 10
0.215411
 20
0.050489
 30
0.000000
 11
0.214197
 21
0.049185
 31
0.000000
  0
LINE
  8
0
 62
     7
  6
CONTINUOUS
 10
0.216498
 20
0.051903
 30
0.000000
 11
0.215411
 21
0.050489
 31
0.000000
  0
LINE
  8
0
 62
     7
  6
CONTINUOUS
 10
0.218297
 20
0.054977
 30
0.000000
 11
0.216498
 21
0.051903
 31
0.000000
  0
LINE
  8
0
 62
     7
  6
CONTINUOUS
 10
0.219617
 20
0.058285
 30
0.000000
 11
0.218297
 21
0.054977
 31
0.000000
  0
LINE
  8
0
 62
     7
  6
CONTINUOUS
 10
0.220479
 20
0.061743
 30
0.000000
 11
0.219617
 21
0.058285
 31
0.000000
  0
LINE
  8
0
 62
     7
  6
CONTINUOUS
 10
0.220896
 20
0.065281
 30
0.000000
 11
0.220479
 21
0.061743
 31
0.000000
  0
LINE
  8
0
 62
     7
  6
CONTINUOUS
 10
0.220842
 20
0.068843
 30
0.000000
 11
0.220896
 21
0.065281
 31
0.000000
  0
LINE
  8
0
 62
     7
  6
CONTINUOUS
 10
0.220256
 20
0.072356
 30
0.000000
 11
0.220842
 21
0.068843
 31
0.000000
  0
LINE
  8
0
 62
     7
  6
CONTINUOUS
 10
0.214502
 20
0.067279
 30
0.000000
 11
0.209659
 21
0.073167
 31
0.000000
  0
LINE
  8
0
 62
     7
  6
CONTINUOUS
 10
0.209659
 20
0.073167
 30
0.000000
 11
0.201032
 21
0.085744
 31
0.000000
  0
LINE
  8
0
 62
     7
  6
CONTINUOUS
 10
0.201032
 20
0.085744
 30
0.000000
 11
0.185861
 21
0.112194
 31
0.000000
  0
LINE
  8
0
 62
     7
  6
CONTINUOUS
 10
0.185861
 20
0.112194
 30
0.000000
 11
0.184875
 21
0.114431
 31
0.000000
  0
LINE
  8
0
 62
     7
  6
CONTINUOUS
 10
0.201883
 20
0.087665
 30
0.000000
 11
0.199219
 21
0.092438
 31
0.000000
  0
LINE
  8
0
 62
     7
  6
CONTINUOUS
 10
0.238343
 20
0.038540
 30
0.000000
 11
0.201883
 21
0.087665
 31
0.000000
  0
LINE
  8
0
 62
     7
  6
CONTINUOUS
 10
0.259485
 20
0.015050
 30
0.000000
 11
0.238343
 21
0.038540
 31
0.000000
  0
LINE
  8
0
 62
     7
  6
CONTINUOUS
 10
0.282066
 20
-0.007058
 30
0.000000
 11
0.259485
 21
0.015050
 31
0.000000
  0
LINE
  8
0
 62
     7
  6
CONTINUOUS
 10
0.306507
 20
-0.027074
 30
0.000000
 11
0.282066
 21
-0.007058
 31
0.000000
  0
LINE
  8
0
 62
     7
  6
CONTINUOUS
 10
0.319932
 20
-0.035398
 30
0.000000
 11
0.306507
 21
-0.027074
 31
0.000000
  0
LINE
  8
0
 62
     7
  6
CONTINUOUS
 10
0.327103
 20
-0.038716
 30
0.000000
 11
0.319932
 21
-0.035398
 31
0.000000
  0
LINE
  8
0
 62
     7
  6
CONTINUOUS
 10
0.334635
 20
-0.041101
 30
0.000000
 11
0.327103
 21
-0.038716
 31
0.000000
  0
LINE
  8
0
 62
     7
  6
CONTINUOUS
 10
0.338529
 20
-0.041780
 30
0.000000
 11
0.334635
 21
-0.041101
 31
0.000000
  0
LINE
  8
0
 62
     7
  6
CONTINUOUS
 10
0.342477
 20
-0.041995
 30
0.000000
 11
0.338529
 21
-0.041780
 31
0.000000
  0
LINE
  8
0
 62
     7
  6
CONTINUOUS
 10
0.346414
 20
-0.041626
 30
0.000000
 11
0.342477
 21
-0.041995
 31
0.000000
  0
LINE
  8
0
 62
     7
  6
CONTINUOUS
 10
0.348343
 20
-0.041188
 30
0.000000
 11
0.346414
 21
-0.041626
 31
0.000000
  0
LINE
  8
0
 62
     7
  6
CONTINUOUS
 10
0.350223
 20
-0.040569
 30
0.000000
 11
0.348343
 21
-0.041188
 31
0.000000
  0
LINE
  8
0
 62
     7
  6
CONTINUOUS
 10
0.352031
 20
-0.039763
 30
0.000000
 11
0.350223
 21
-0.040569
 31
0.000000
  0
LINE
  8
0
 62
     7
  6
CONTINUOUS
 10
0.353747
 20
-0.038778
 30
0.000000
 11
0.352031
 21
-0.039763
 31
0.000000
  0
LINE
  8
0
 62
     7
  6
CONTINUOUS
 10
0.355352
 20
-0.037621
 30
0.000000
 11
0.353747
 21
-0.038778
 31
0.000000
  0
LINE
  8
0
 62
     7
  6
CONTINUOUS
 10
0.356836
 20
-0.036311
 30
0.000000
 11
0.355352
 21
-0.037621
 31
0.000000
  0
LINE
  8
0
 62
     7
  6
CONTINUOUS
 10
0.358191
 20
-0.034871
 30
0.000000
 11
0.356836
 21
-0.036311
 31
0.000000
  0
LINE
  8
0
 62
     7
  6
CONTINUOUS
 10
0.360518
 20
-0.031675
 30
0.000000
 11
0.358191
 21
-0.034871
 31
0.000000
  0
LINE
  8
0
 62
     7
  6
CONTINUOUS
 10
0.362368
 20
-0.028182
 30
0.000000
 11
0.360518
 21
-0.031675
 31
0.000000
  0
LINE
  8
0
 62
     7
  6
CONTINUOUS
 10
0.363807
 20
-0.024500
 30
0.000000
 11
0.362368
 21
-0.028182
 31
0.000000
  0
LINE
  8
0
 62
     7
  6
CONTINUOUS
 10
0.364896
 20
-0.020702
 30
0.000000
 11
0.363807
 21
-0.024500
 31
0.000000
  0
LINE
  8
0
 62
     7
  6
CONTINUOUS
 10
0.366238
 20
-0.012917
 30
0.000000
 11
0.364896
 21
-0.020702
 31
0.000000
  0
LINE
  8
0
 62
     7
  6
CONTINUOUS
 10
0.366563
 20
0.002869
 30
0.000000
 11
0.366238
 21
-0.012917
 31
0.000000
  0
LINE
  8
0
 62
     7
  6
CONTINUOUS
 10
0.366951
 20
-0.001064
 30
0.000000
 11
0.359836
 21
0.001302
 31
0.000000
  0
LINE
  8
0
 62
     7
  6
CONTINUOUS
 10
0.359836
 20
0.001302
 30
0.000000
 11
0.353001
 21
0.004383
 31
0.000000
  0
LINE
  8
0
 62
     7
  6
CONTINUOUS
 10
0.353001
 20
0.004383
 30
0.000000
 11
0.327220
 21
0.019685
 31
0.000000
  0
LINE
  8
0
 62
     7
  6
CONTINUOUS
 10
0.327220
 20
0.019685
 30
0.000000
 11
0.303026
 21
0.037399
 31
0.000000
  0
LINE
  8
0
 62
     7
  6
CONTINUOUS
 10
0.303026
 20
0.037399
 30
0.000000
 11
0.280216
 21
0.056867
 31
0.000000
  0
LINE
  8
0
 62
     7
  6
CONTINUOUS
 10
0.280216
 20
0.056867
 30
0.000000
 11
0.241487
 21
0.097573
 31
0.000000
  0
LINE
  8
0
 62
     7
  6
CONTINUOUS
 10
0.241487
 20
0.097573
 30
0.000000
 11
0.236831
 21
0.103594
 31
0.000000
  0
LINE
  8
0
 62
     7
  6
CONTINUOUS
 10
0.241487
 20
0.097573
 30
0.004463
 11
0.236831
 21
0.103594
 31
0.004463
  0
LINE
  8
0
 62
     7
  6
CONTINUOUS
 10
0.250893
 20
0.086293
 30
0.000000
 11
0.238064
 21
0.093076
 31
0.000000
  0
LINE
  8
0
 62
     7
  6
CONTINUOUS
 10
0.257704
 20
0.083769
 30
0.000000
 11
0.250893
 21
0.086293
 31
0.000000
  0
LINE
  8
0
 62
     7
  6
CONTINUOUS
 10
0.261256
 20
0.083015
 30
0.000000
 11
0.257704
 21
0.083769
 31
0.000000
  0
LINE
  8
0
 62
     7
  6
CONTINUOUS
 10
0.263069
 20
0.082863
 30
0.000000
 11
0.261256
 21
0.083015
 31
0.000000
  0
LINE
  8
0
 62
     7
  6
CONTINUOUS
 10
0.264887
 20
0.082881
 30
0.000000
 11
0.263069
 21
0.082863
 31
0.000000
  0
LINE
  8
0
 62
     7
  6
CONTINUOUS
 10
0.266692
 20
0.083091
 30
0.000000
 11
0.264887
 21
0.082881
 31
0.000000
  0
LINE
  8
0
 62
     7
  6
CONTINUOUS
 10
0.268462
 20
0.083511
 30
0.000000
 11
0.266692
 21
0.083091
 31
0.000000
  0
LINE
  8
0
 62
     7
  6
CONTINUOUS
 10
0.270165
 20
0.084147
 30
0.000000
 11
0.268462
 21
0.083511
 31
0.000000
  0
LINE
  8
0
 62
     7
  6
CONTINUOUS
 10
0.271773
 20
0.084996
 30
0.000000
 11
0.270165
 21
0.084147
 31
0.000000
  0
LINE
  8
0
 62
     7
  6
CONTINUOUS
 10
0.273260
 20
0.086042
 30
0.000000
 11
0.271773
 21
0.084996
 31
0.000000
  0
LINE
  8
0
 62
     7
  6
CONTINUOUS
 10
0.274608
 20
0.087261
 30
0.000000
 11
0.273260
 21
0.086042
 31
0.000000
  0
LINE
  8
0
 62
     7
  6
CONTINUOUS
 10
0.275809
 20
0.088626
 30
0.000000
 11
0.274608
 21
0.087261
 31
0.000000
  0
LINE
  8
0
 62
     7
  6
CONTINUOUS
 10
0.276861
 20
0.090107
 30
0.000000
 11
0.275809
 21
0.088626
 31
0.000000
  0
LINE
  8
0
 62
     7
  6
CONTINUOUS
 10
0.277769
 20
0.091681
 30
0.000000
 11
0.276861
 21
0.090107
 31
0.000000
  0
LINE
  8
0
 62
     7
  6
CONTINUOUS
 10
0.279172
 20
0.095030
 30
0.000000
 11
0.277769
 21
0.091681
 31
0.000000
  0
LINE
  8
0
 62
     7
  6
CONTINUOUS
 10
0.280072
 20
0.098548
 30
0.000000
 11
0.279172
 21
0.095030
 31
0.000000
  0
LINE
  8
0
 62
     7
  6
CONTINUOUS
 10
0.280501
 20
0.102154
 30
0.000000
 11
0.280072
 21
0.098548
 31
0.000000
  0
LINE
  8
0
 62
     7
  6
CONTINUOUS
 10
0.280466
 20
0.105785
 30
0.000000
 11
0.280501
 21
0.102154
 31
0.000000
  0
LINE
  8
0
 62
     7
  6
CONTINUOUS
 10
0.279928
 20
0.109375
 30
0.000000
 11
0.280466
 21
0.105785
 31
0.000000
  0
LINE
  8
0
 62
     7
  6
CONTINUOUS
 10
0.279453
 20
0.111130
 30
0.000000
 11
0.279928
 21
0.109375
 31
0.000000
  0
LINE
  8
0
 62
     7
  6
CONTINUOUS
 10
0.278783
 20
0.112816
 30
0.000000
 11
0.279453
 21
0.111130
 31
0.000000
  0
LINE
  8
0
 62
     7
  6
CONTINUOUS
 10
0.277950
 20
0.114431
 30
0.000000
 11
0.278783
 21
0.112816
 31
0.000000
  0
LINE
  8
0
 62
     7
  6
CONTINUOUS
 10
0.273910
 20
0.110034
 30
0.000000
 11
0.260628
 21
0.115845
 31
0.000000
  0
LINE
  8
0
 62
     7
  6
CONTINUOUS
 10
0.260628
 20
0.115845
 30
0.000000
 11
0.254408
 21
0.119578
 31
0.000000
  0
LINE
  8
0
 62
     7
  6
CONTINUOUS
 10
0.254408
 20
0.119578
 30
0.000000
 11
0.248551
 21
0.123857
 31
0.000000
  0
LINE
  8
0
 62
     7
  6
CONTINUOUS
 10
0.248551
 20
0.123857
 30
0.000000
 11
0.243122
 21
0.128668
 31
0.000000
  0
LINE
  8
0
 62
     7
  6
CONTINUOUS
 10
0.243122
 20
0.128668
 30
0.000000
 11
0.238180
 21
0.133978
 31
0.000000
  0
LINE
  8
0
 62
     7
  6
CONTINUOUS
 10
0.238180
 20
0.133978
 30
0.000000
 11
0.233785
 21
0.139750
 31
0.000000
  0
LINE
  8
0
 62
     7
  6
CONTINUOUS
 10
0.233785
 20
0.139750
 30
0.000000
 11
0.231412
 21
0.143438
 31
0.000000
  0
LINE
  8
0
 62
     7
  6
CONTINUOUS
 10
0.227529
 20
0.140944
 30
0.000000
 11
0.222470
 21
0.142004
 31
0.000000
  0
LINE
  8
0
 62
     7
  6
CONTINUOUS
 10
0.222470
 20
0.142004
 30
0.000000
 11
0.217558
 21
0.143610
 31
0.000000
  0
LINE
  8
0
 62
     7
  6
CONTINUOUS
 10
0.217558
 20
0.143610
 30
0.000000
 11
0.208315
 21
0.148240
 31
0.000000
  0
LINE
  8
0
 62
     7
  6
CONTINUOUS
 10
0.208315
 20
0.148240
 30
0.000000
 11
0.199284
 21
0.153277
 31
0.000000
  0
LINE
  8
0
 62
     7
  6
CONTINUOUS
 10
0.199284
 20
0.153277
 30
0.000000
 11
0.199219
 21
0.153319
 31
0.000000
  0
LINE
  8
0
 62
     7
  6
CONTINUOUS
 10
0.220407
 20
0.170762
 30
0.000000
 11
0.220256
 21
0.170850
 31
0.000000
  0
LINE
  8
0
 62
     7
  6
CONTINUOUS
 10
0.241011
 20
0.158331
 30
0.000000
 11
0.220407
 21
0.170762
 31
0.000000
  0
LINE
  8
0
 62
     7
  6
CONTINUOUS
 10
0.243440
 20
0.157219
 30
0.000000
 11
0.241011
 21
0.158331
 31
0.000000
  0
LINE
  8
0
 62
     7
  6
CONTINUOUS
 10
0.248600
 20
0.155831
 30
0.000000
 11
0.243440
 21
0.157219
 31
0.000000
  0
LINE
  8
0
 62
     7
  6
CONTINUOUS
 10
0.253896
 20
0.155102
 30
0.000000
 11
0.248600
 21
0.155831
 31
0.000000
  0
LINE
  8
0
 62
     7
  6
CONTINUOUS
 10
0.259237
 20
0.154872
 30
0.000000
 11
0.253896
 21
0.155102
 31
0.000000
  0
LINE
  8
0
 62
     7
  6
CONTINUOUS
 10
0.264578
 20
0.155134
 30
0.000000
 11
0.259237
 21
0.154872
 31
0.000000
  0
LINE
  8
0
 62
     7
  6
CONTINUOUS
 10
0.269847
 20
0.156021
 30
0.000000
 11
0.264578
 21
0.155134
 31
0.000000
  0
LINE
  8
0
 62
     7
  6
CONTINUOUS
 10
0.272401
 20
0.156816
 30
0.000000
 11
0.269847
 21
0.156021
 31
0.000000
  0
LINE
  8
0
 62
     7
  6
CONTINUOUS
 10
0.273627
 20
0.157348
 30
0.000000
 11
0.272401
 21
0.156816
 31
0.000000
  0
LINE
  8
0
 62
     7
  6
CONTINUOUS
 10
0.274799
 20
0.157993
 30
0.000000
 11
0.273627
 21
0.157348
 31
0.000000
  0
LINE
  8
0
 62
     7
  6
CONTINUOUS
 10
0.275892
 20
0.158763
 30
0.000000
 11
0.274799
 21
0.157993
 31
0.000000
  0
LINE
  8
0
 62
     7
  6
CONTINUOUS
 10
0.276869
 20
0.159677
 30
0.000000
 11
0.275892
 21
0.158763
 31
0.000000
  0
LINE
  8
0
 62
     7
  6
CONTINUOUS
 10
0.277717
 20
0.160711
 30
0.000000
 11
0.276869
 21
0.159677
 31
0.000000
  0
LINE
  8
0
 62
     7
  6
CONTINUOUS
 10
0.278429
 20
0.161843
 30
0.000000
 11
0.277717
 21
0.160711
 31
0.000000
  0
LINE
  8
0
 62
     7
  6
CONTINUOUS
 10
0.279004
 20
0.163050
 30
0.000000
 11
0.278429
 21
0.161843
 31
0.000000
  0
LINE
  8
0
 62
     7
  6
CONTINUOUS
 10
0.279448
 20
0.164312
 30
0.000000
 11
0.279004
 21
0.163050
 31
0.000000
  0
LINE
  8
0
 62
     7
  6
CONTINUOUS
 10
0.279979
 20
0.166931
 30
0.000000
 11
0.279448
 21
0.164312
 31
0.000000
  0
LINE
  8
0
 62
     7
  6
CONTINUOUS
 10
0.280093
 20
0.169600
 30
0.000000
 11
0.279979
 21
0.166931
 31
0.000000
  0
LINE
  8
0
 62
     7
  6
CONTINUOUS
 10
0.279847
 20
0.172263
 30
0.000000
 11
0.280093
 21
0.169600
 31
0.000000
  0
LINE
  8
0
 62
     7
  6
CONTINUOUS
 10
0.279279
 20
0.174875
 30
0.000000
 11
0.279847
 21
0.172263
 31
0.000000
  0
LINE
  8
0
 62
     7
  6
CONTINUOUS
 10
0.278406
 20
0.177401
 30
0.000000
 11
0.279279
 21
0.174875
 31
0.000000
  0
LINE
  8
0
 62
     7
  6
CONTINUOUS
 10
0.277227
 20
0.179800
 30
0.000000
 11
0.278406
 21
0.177401
 31
0.000000
  0
LINE
  8
0
 62
     7
  6
CONTINUOUS
 10
0.275719
 20
0.182006
 30
0.000000
 11
0.277227
 21
0.179800
 31
0.000000
  0
LINE
  8
0
 62
     7
  6
CONTINUOUS
 10
0.273396
 20
0.170919
 30
0.000000
 11
0.259960
 21
0.174242
 31
0.000000
  0
LINE
  8
0
 62
     7
  6
CONTINUOUS
 10
0.259960
 20
0.174242
 30
0.000000
 11
0.235363
 21
0.182453
 31
0.000000
  0
LINE
  8
0
 62
     7
  6
CONTINUOUS
 10
0.235363
 20
0.182453
 30
0.000000
 11
0.233644
 21
0.183281
 31
0.000000
  0
LINE
  8
0
 62
     7
  6
CONTINUOUS
 10
0.220407
 20
0.170762
 30
0.004463
 11
0.220256
 21
0.170850
 31
0.004463
  0
LINE
  8
0
 62
     7
  6
CONTINUOUS
 10
0.235363
 20
0.182453
 30
0.004463
 11
0.233644
 21
0.183281
 31
0.004463
  0
LINE
  8
0
 62
     7
  6
CONTINUOUS
 10
0.246229
 20
0.208323
 30
0.004463
 11
0.243525
 21
0.209738
 31
0.004463
  0
LINE
  8
0
 62
     7
  6
CONTINUOUS
 10
0.246229
 20
0.208323
 30
0.000000
 11
0.243525
 21
0.209738
 31
0.000000
  0
LINE
  8
0
 62
     7
  6
CONTINUOUS
 10
0.261824
 20
0.201461
 30
0.000000
 11
0.246229
 21
0.208323
 31
0.000000
  0
LINE
  8
0
 62
     7
  6
CONTINUOUS
 10
0.278085
 20
0.196364
 30
0.000000
 11
0.261824
 21
0.201461
 31
0.000000
  0
LINE
  8
0
 62
     7
  6
CONTINUOUS
 10
0.295838
 20
0.192450
 30
0.000000
 11
0.278085
 21
0.196364
 31
0.000000
  0
LINE
  8
0
 62
     7
  6
CONTINUOUS
 10
0.304827
 20
0.191101
 30
0.000000
 11
0.295838
 21
0.192450
 31
0.000000
  0
LINE
  8
0
 62
     7
  6
CONTINUOUS
 10
0.313911
 20
0.190844
 30
0.000000
 11
0.304827
 21
0.191101
 31
0.000000
  0
LINE
  8
0
 62
     7
  6
CONTINUOUS
 10
0.322946
 20
0.191804
 30
0.000000
 11
0.313911
 21
0.190844
 31
0.000000
  0
LINE
  8
0
 62
     7
  6
CONTINUOUS
 10
0.331740
 20
0.194081
 30
0.000000
 11
0.322946
 21
0.191804
 31
0.000000
  0
LINE
  8
0
 62
     7
  6
CONTINUOUS
 10
0.335963
 20
0.195762
 30
0.000000
 11
0.331740
 21
0.194081
 31
0.000000
  0
LINE
  8
0
 62
     7
  6
CONTINUOUS
 10
0.339993
 20
0.197861
 30
0.000000
 11
0.335963
 21
0.195762
 31
0.000000
  0
LINE
  8
0
 62
     7
  6
CONTINUOUS
 10
0.343719
 20
0.200461
 30
0.000000
 11
0.339993
 21
0.197861
 31
0.000000
  0
LINE
  8
0
 62
     7
  6
CONTINUOUS
 10
0.345394
 20
0.201998
 30
0.000000
 11
0.343719
 21
0.200461
 31
0.000000
  0
LINE
  8
0
 62
     7
  6
CONTINUOUS
 10
0.346855
 20
0.203738
 30
0.000000
 11
0.345394
 21
0.201998
 31
0.000000
  0
LINE
  8
0
 62
     7
  6
CONTINUOUS
 10
0.347466
 20
0.204699
 30
0.000000
 11
0.346855
 21
0.203738
 31
0.000000
  0
LINE
  8
0
 62
     7
  6
CONTINUOUS
 10
0.347945
 20
0.205728
 30
0.000000
 11
0.347466
 21
0.204699
 31
0.000000
  0
LINE
  8
0
 62
     7
  6
CONTINUOUS
 10
0.348301
 20
0.206809
 30
0.000000
 11
0.347945
 21
0.205728
 31
0.000000
  0
LINE
  8
0
 62
     7
  6
CONTINUOUS
 10
0.349213
 20
0.211258
 30
0.000000
 11
0.348301
 21
0.206809
 31
0.000000
  0
LINE
  8
0
 62
     7
  6
CONTINUOUS
 10
0.349468
 20
0.215794
 30
0.000000
 11
0.349213
 21
0.211258
 31
0.000000
  0
LINE
  8
0
 62
     7
  6
CONTINUOUS
 10
0.349128
 20
0.220325
 30
0.000000
 11
0.349468
 21
0.215794
 31
0.000000
  0
LINE
  8
0
 62
     7
  6
CONTINUOUS
 10
0.348124
 20
0.224755
 30
0.000000
 11
0.349128
 21
0.220325
 31
0.000000
  0
LINE
  8
0
 62
     7
  6
CONTINUOUS
 10
0.347332
 20
0.226886
 30
0.000000
 11
0.348124
 21
0.224755
 31
0.000000
  0
LINE
  8
0
 62
     7
  6
CONTINUOUS
 10
0.346317
 20
0.228920
 30
0.000000
 11
0.347332
 21
0.226886
 31
0.000000
  0
LINE
  8
0
 62
     7
  6
CONTINUOUS
 10
0.345060
 20
0.230813
 30
0.000000
 11
0.346317
 21
0.228920
 31
0.000000
  0
LINE
  8
0
 62
     7
  6
CONTINUOUS
 10
0.343547
 20
0.232510
 30
0.000000
 11
0.345060
 21
0.230813
 31
0.000000
  0
LINE
  8
0
 62
     7
  6
CONTINUOUS
 10
0.341791
 20
0.233952
 30
0.000000
 11
0.343547
 21
0.232510
 31
0.000000
  0
LINE
  8
0
 62
     7
  6
CONTINUOUS
 10
0.339824
 20
0.235097
 30
0.000000
 11
0.341791
 21
0.233952
 31
0.000000
  0
LINE
  8
0
 62
     7
  6
CONTINUOUS
 10
0.338776
 20
0.235535
 30
0.000000
 11
0.339824
 21
0.235097
 31
0.000000
  0
LINE
  8
0
 62
     7
  6
CONTINUOUS
 10
0.336600
 20
0.236194
 30
0.000000
 11
0.338776
 21
0.235535
 31
0.000000
  0
LINE
  8
0
 62
     7
  6
CONTINUOUS
 10
0.317794
 20
0.200813
 30
0.000000
 11
0.319568
 21
0.197845
 31
0.000000
  0
LINE
  8
0
 62
     7
  6
CONTINUOUS
 10
0.319568
 20
0.197845
 30
0.000000
 11
0.320217
 21
0.196240
 31
0.000000
  0
LINE
  8
0
 62
     7
  6
CONTINUOUS
 10
0.320217
 20
0.196240
 30
0.000000
 11
0.320712
 21
0.194582
 31
0.000000
  0
LINE
  8
0
 62
     7
  6
CONTINUOUS
 10
0.320712
 20
0.194582
 30
0.000000
 11
0.321050
 21
0.192884
 31
0.000000
  0
LINE
  8
0
 62
     7
  6
CONTINUOUS
 10
0.321050
 20
0.192884
 30
0.000000
 11
0.321275
 21
0.189432
 31
0.000000
  0
LINE
  8
0
 62
     7
  6
CONTINUOUS
 10
0.321275
 20
0.189432
 30
0.000000
 11
0.320926
 21
0.185991
 31
0.000000
  0
LINE
  8
0
 62
     7
  6
CONTINUOUS
 10
0.320926
 20
0.185991
 30
0.000000
 11
0.320026
 21
0.182652
 31
0.000000
  0
LINE
  8
0
 62
     7
  6
CONTINUOUS
 10
0.320026
 20
0.182652
 30
0.000000
 11
0.318586
 21
0.179508
 31
0.000000
  0
LINE
  8
0
 62
     7
  6
CONTINUOUS
 10
0.318586
 20
0.179508
 30
0.000000
 11
0.317661
 21
0.178045
 31
0.000000
  0
LINE
  8
0
 62
     7
  6
CONTINUOUS
 10
0.317661
 20
0.178045
 30
0.000000
 11
0.316600
 21
0.176677
 31
0.000000
  0
LINE
  8
0
 62
     7
  6
CONTINUOUS
 10
0.316600
 20
0.176677
 30
0.000000
 11
0.315402
 21
0.175429
 31
0.000000
  0
LINE
  8
0
 62
     7
  6
CONTINUOUS
 10
0.315402
 20
0.175429
 30
0.000000
 11
0.314073
 21
0.174319
 31
0.000000
  0
LINE
  8
0
 62
     7
  6
CONTINUOUS
 10
0.314073
 20
0.174319
 30
0.000000
 11
0.312619
 21
0.173382
 31
0.000000
  0
LINE
  8
0
 62
     7
  6
CONTINUOUS
 10
0.312619
 20
0.173382
 30
0.000000
 11
0.311066
 21
0.172616
 31
0.000000
  0
LINE
  8
0
 62
     7
  6
CONTINUOUS
 10
0.311066
 20
0.172616
 30
0.000000
 11
0.307790
 21
0.171504
 31
0.000000
  0
LINE
  8
0
 62
     7
  6
CONTINUOUS
 10
0.307790
 20
0.171504
 30
0.000000
 11
0.300990
 21
0.170235
 31
0.000000
  0
LINE
  8
0
 62
     7
  6
CONTINUOUS
 10
0.300990
 20
0.170235
 30
0.000000
 11
0.287170
 21
0.169634
 31
0.000000
  0
LINE
  8
0
 62
     7
  6
CONTINUOUS
 10
0.287170
 20
0.169634
 30
0.000000
 11
0.273396
 21
0.170919
 31
0.000000
  0
LINE
  8
0
 62
     7
  6
CONTINUOUS
 10
0.283390
 20
0.167991
 30
0.000000
 11
0.280181
 21
0.169894
 31
0.000000
  0
LINE
  8
0
 62
     7
  6
CONTINUOUS
 10
0.304588
 20
0.158825
 30
0.000000
 11
0.283390
 21
0.167991
 31
0.000000
  0
LINE
  8
0
 62
     7
  6
CONTINUOUS
 10
0.319219
 20
0.153993
 30
0.000000
 11
0.304588
 21
0.158825
 31
0.000000
  0
LINE
  8
0
 62
     7
  6
CONTINUOUS
 10
0.334095
 20
0.149982
 30
0.000000
 11
0.319219
 21
0.153993
 31
0.000000
  0
LINE
  8
0
 62
     7
  6
CONTINUOUS
 10
0.349232
 20
0.147129
 30
0.000000
 11
0.334095
 21
0.149982
 31
0.000000
  0
LINE
  8
0
 62
     7
  6
CONTINUOUS
 10
0.356914
 20
0.146580
 30
0.000000
 11
0.349232
 21
0.147129
 31
0.000000
  0
LINE
  8
0
 62
     7
  6
CONTINUOUS
 10
0.360759
 20
0.146811
 30
0.000000
 11
0.356914
 21
0.146580
 31
0.000000
  0
LINE
  8
0
 62
     7
  6
CONTINUOUS
 10
0.364547
 20
0.147505
 30
0.000000
 11
0.360759
 21
0.146811
 31
0.000000
  0
LINE
  8
0
 62
     7
  6
CONTINUOUS
 10
0.368212
 20
0.148689
 30
0.000000
 11
0.364547
 21
0.147505
 31
0.000000
  0
LINE
  8
0
 62
     7
  6
CONTINUOUS
 10
0.371675
 20
0.150374
 30
0.000000
 11
0.368212
 21
0.148689
 31
0.000000
  0
LINE
  8
0
 62
     7
  6
CONTINUOUS
 10
0.374853
 20
0.152547
 30
0.000000
 11
0.371675
 21
0.150374
 31
0.000000
  0
LINE
  8
0
 62
     7
  6
CONTINUOUS
 10
0.377668
 20
0.155174
 30
0.000000
 11
0.374853
 21
0.152547
 31
0.000000
  0
LINE
  8
0
 62
     7
  6
CONTINUOUS
 10
0.380051
 20
0.158198
 30
0.000000
 11
0.377668
 21
0.155174
 31
0.000000
  0
LINE
  8
0
 62
     7
  6
CONTINUOUS
 10
0.381950
 20
0.161548
 30
0.000000
 11
0.380051
 21
0.158198
 31
0.000000
  0
LINE
  8
0
 62
     7
  6
CONTINUOUS
 10
0.383324
 20
0.165146
 30
0.000000
 11
0.381950
 21
0.161548
 31
0.000000
  0
LINE
  8
0
 62
     7
  6
CONTINUOUS
 10
0.384144
 20
0.168908
 30
0.000000
 11
0.383324
 21
0.165146
 31
0.000000
  0
LINE
  8
0
 62
     7
  6
CONTINUOUS
 10
0.384407
 20
0.172750
 30
0.000000
 11
0.384144
 21
0.168908
 31
0.000000
  0
LINE
  8
0
 62
     7
  6
CONTINUOUS
 10
0.384094
 20
0.176588
 30
0.000000
 11
0.384407
 21
0.172750
 31
0.000000
  0
LINE
  8
0
 62
     7
  6
CONTINUOUS
 10
0.392318
 20
0.171655
 30
0.000000
 11
0.370304
 21
0.171831
 31
0.000000
  0
LINE
  8
0
 62
     7
  6
CONTINUOUS
 10
0.370304
 20
0.171831
 30
0.000000
 11
0.348550
 21
0.175216
 31
0.000000
  0
LINE
  8
0
 62
     7
  6
CONTINUOUS
 10
0.348550
 20
0.175216
 30
0.000000
 11
0.332706
 21
0.179883
 31
0.000000
  0
LINE
  8
0
 62
     7
  6
CONTINUOUS
 10
0.332706
 20
0.179883
 30
0.000000
 11
0.317589
 21
0.186530
 31
0.000000
  0
LINE
  8
0
 62
     7
  6
CONTINUOUS
 10
0.317589
 20
0.186530
 30
0.000000
 11
0.312056
 21
0.189656
 31
0.000000
  0
LINE
  8
0
 62
     7
  6
CONTINUOUS
 10
0.317589
 20
0.186530
 30
0.004463
 11
0.312056
 21
0.189656
 31
0.004463
  0
LINE
  8
0
 62
     7
  6
CONTINUOUS
 10
0.338849
 20
0.147931
 30
0.004463
 11
0.327675
 21
0.153319
 31
0.004463
  0
LINE
  8
0
 62
     7
  6
CONTINUOUS
 10
0.338849
 20
0.147931
 30
0.000000
 11
0.327675
 21
0.153319
 31
0.000000
  0
LINE
  8
0
 62
     7
  6
CONTINUOUS
 10
0.410002
 20
0.121672
 30
0.000000
 11
0.338849
 21
0.147931
 31
0.000000
  0
LINE
  8
0
 62
     7
  6
CONTINUOUS
 10
0.447781
 20
0.111330
 30
0.000000
 11
0.410002
 21
0.121672
 31
0.000000
  0
LINE
  8
0
 62
     7
  6
CONTINUOUS
 10
0.486092
 20
0.103188
 30
0.000000
 11
0.447781
 21
0.111330
 31
0.000000
  0
LINE
  8
0
 62
     7
  6
CONTINUOUS
 10
0.524927
 20
0.098167
 30
0.000000
 11
0.486092
 21
0.103188
 31
0.000000
  0
LINE
  8
0
 62
     7
  6
CONTINUOUS
 10
0.544503
 20
0.097690
 30
0.000000
 11
0.524927
 21
0.098167
 31
0.000000
  0
LINE
  8
0
 62
     7
  6
CONTINUOUS
 10
0.563928
 20
0.100038
 30
0.000000
 11
0.544503
 21
0.097690
 31
0.000000
  0
LINE
  8
0
 62
     7
  6
CONTINUOUS
 10
0.582750
 20
0.105399
 30
0.000000
 11
0.563928
 21
0.100038
 31
0.000000
  0
LINE
  8
0
 62
     7
  6
CONTINUOUS
 10
0.600528
 20
0.113573
 30
0.000000
 11
0.582750
 21
0.105399
 31
0.000000
  0
LINE
  8
0
 62
     7
  6
CONTINUOUS
 10
0.608807
 20
0.118801
 30
0.000000
 11
0.600528
 21
0.113573
 31
0.000000
  0
LINE
  8
0
 62
     7
  6
CONTINUOUS
 10
0.616424
 20
0.124949
 30
0.000000
 11
0.608807
 21
0.118801
 31
0.000000
  0
LINE
  8
0
 62
     7
  6
CONTINUOUS
 10
0.619862
 20
0.128436
 30
0.000000
 11
0.616424
 21
0.124949
 31
0.000000
  0
LINE
  8
0
 62
     7
  6
CONTINUOUS
 10
0.622927
 20
0.132254
 30
0.000000
 11
0.619862
 21
0.128436
 31
0.000000
  0
LINE
  8
0
 62
     7
  6
CONTINUOUS
 10
0.625461
 20
0.136445
 30
0.000000
 11
0.622927
 21
0.132254
 31
0.000000
  0
LINE
  8
0
 62
     7
  6
CONTINUOUS
 10
0.626453
 20
0.138688
 30
0.000000
 11
0.625461
 21
0.136445
 31
0.000000
  0
LINE
  8
0
 62
     7
  6
CONTINUOUS
 10
0.627146
 20
0.141031
 30
0.000000
 11
0.626453
 21
0.138688
 31
0.000000
  0
LINE
  8
0
 62
     7
  6
CONTINUOUS
 10
0.627619
 20
0.143438
 30
0.000000
 11
0.627146
 21
0.141031
 31
0.000000
  0
LINE
  8
0
 62
     7
  6
CONTINUOUS
 10
0.630823
 20
0.135367
 30
0.000000
 11
0.606785
 21
0.133137
 31
0.000000
  0
LINE
  8
0
 62
     7
  6
CONTINUOUS
 10
0.606785
 20
0.133137
 30
0.000000
 11
0.558536
 21
0.134588
 31
0.000000
  0
LINE
  8
0
 62
     7
  6
CONTINUOUS
 10
0.558536
 20
0.134588
 30
0.000000
 11
0.510614
 21
0.140528
 31
0.000000
  0
LINE
  8
0
 62
     7
  6
CONTINUOUS
 10
0.510614
 20
0.140528
 30
0.000000
 11
0.463121
 21
0.149285
 31
0.000000
  0
LINE
  8
0
 62
     7
  6
CONTINUOUS
 10
0.463121
 20
0.149285
 30
0.000000
 11
0.375491
 21
0.171959
 31
0.000000
  0
LINE
  8
0
 62
     7
  6
CONTINUOUS
 10
0.375491
 20
0.171959
 30
0.000000
 11
0.368794
 21
0.174356
 31
0.000000
  0
LINE
  8
0
 62
     7
  6
CONTINUOUS
 10
0.375491
 20
0.171959
 30
0.004463
 11
0.368794
 21
0.174356
 31
0.004463
  0
LINE
  8
0
 62
     7
  6
CONTINUOUS
 10
0.403258
 20
0.172921
 30
0.000000
 11
0.392318
 21
0.171655
 31
0.000000
  0
LINE
  8
0
 62
     7
  6
CONTINUOUS
 10
0.413968
 20
0.175476
 30
0.000000
 11
0.403258
 21
0.172921
 31
0.000000
  0
LINE
  8
0
 62
     7
  6
CONTINUOUS
 10
0.424321
 20
0.179231
 30
0.000000
 11
0.413968
 21
0.175476
 31
0.000000
  0
LINE
  8
0
 62
     7
  6
CONTINUOUS
 10
0.434174
 20
0.184147
 30
0.000000
 11
0.424321
 21
0.179231
 31
0.000000
  0
LINE
  8
0
 62
     7
  6
CONTINUOUS
 10
0.443239
 20
0.190393
 30
0.000000
 11
0.434174
 21
0.184147
 31
0.000000
  0
LINE
  8
0
 62
     7
  6
CONTINUOUS
 10
0.447314
 20
0.194099
 30
0.000000
 11
0.443239
 21
0.190393
 31
0.000000
  0
LINE
  8
0
 62
     7
  6
CONTINUOUS
 10
0.450944
 20
0.198242
 30
0.000000
 11
0.447314
 21
0.194099
 31
0.000000
  0
LINE
  8
0
 62
     7
  6
CONTINUOUS
 10
0.453984
 20
0.202835
 30
0.000000
 11
0.450944
 21
0.198242
 31
0.000000
  0
LINE
  8
0
 62
     7
  6
CONTINUOUS
 10
0.456265
 20
0.207849
 30
0.000000
 11
0.453984
 21
0.202835
 31
0.000000
  0
LINE
  8
0
 62
     7
  6
CONTINUOUS
 10
0.457072
 20
0.210485
 30
0.000000
 11
0.456265
 21
0.207849
 31
0.000000
  0
LINE
  8
0
 62
     7
  6
CONTINUOUS
 10
0.457637
 20
0.213183
 30
0.000000
 11
0.457072
 21
0.210485
 31
0.000000
  0
LINE
  8
0
 62
     7
  6
CONTINUOUS
 10
0.458036
 20
0.218678
 30
0.000000
 11
0.457637
 21
0.213183
 31
0.000000
  0
LINE
  8
0
 62
     7
  6
CONTINUOUS
 10
0.457881
 20
0.221432
 30
0.000000
 11
0.458036
 21
0.218678
 31
0.000000
  0
LINE
  8
0
 62
     7
  6
CONTINUOUS
 10
0.457477
 20
0.224156
 30
0.000000
 11
0.457881
 21
0.221432
 31
0.000000
  0
LINE
  8
0
 62
     7
  6
CONTINUOUS
 10
0.456131
 20
0.229500
 30
0.000000
 11
0.457477
 21
0.224156
 31
0.000000
  0
LINE
  8
0
 62
     7
  6
CONTINUOUS
 10
0.462825
 20
0.265200
 30
0.000000
 11
0.569149
 21
0.262755
 31
0.000000
  0
LINE
  8
0
 62
     7
  6
CONTINUOUS
 10
0.569149
 20
0.262755
 30
0.000000
 11
0.675431
 21
0.265234
 31
0.000000
  0
LINE
  8
0
 62
     7
  6
CONTINUOUS
 10
0.675431
 20
0.265234
 30
0.000000
 11
0.727781
 21
0.274441
 31
0.000000
  0
LINE
  8
0
 62
     7
  6
CONTINUOUS
 10
0.727781
 20
0.274441
 30
0.000000
 11
0.779291
 21
0.287615
 31
0.000000
  0
LINE
  8
0
 62
     7
  6
CONTINUOUS
 10
0.779291
 20
0.287615
 30
0.000000
 11
0.804517
 21
0.295997
 31
0.000000
  0
LINE
  8
0
 62
     7
  6
CONTINUOUS
 10
0.804517
 20
0.295997
 30
0.000000
 11
0.816684
 21
0.301333
 31
0.000000
  0
LINE
  8
0
 62
     7
  6
CONTINUOUS
 10
0.816684
 20
0.301333
 30
0.000000
 11
0.823019
 21
0.303342
 31
0.000000
  0
LINE
  8
0
 62
     7
  6
CONTINUOUS
 10
0.823019
 20
0.303342
 30
0.000000
 11
0.829517
 21
0.304728
 31
0.000000
  0
LINE
  8
0
 62
     7
  6
CONTINUOUS
 10
0.829517
 20
0.304728
 30
0.000000
 11
0.832822
 21
0.305078
 31
0.000000
  0
LINE
  8
0
 62
     7
  6
CONTINUOUS
 10
0.832822
 20
0.305078
 30
0.000000
 11
0.836146
 21
0.305065
 31
0.000000
  0
LINE
  8
0
 62
     7
  6
CONTINUOUS
 10
0.836146
 20
0.305065
 30
0.000000
 11
0.837797
 21
0.304863
 31
0.000000
  0
LINE
  8
0
 62
     7
  6
CONTINUOUS
 10
0.837797
 20
0.304863
 30
0.000000
 11
0.839419
 21
0.304485
 31
0.000000
  0
LINE
  8
0
 62
     7
  6
CONTINUOUS
 10
0.839419
 20
0.304485
 30
0.000000
 11
0.840969
 21
0.303878
 31
0.000000
  0
LINE
  8
0
 62
     7
  6
CONTINUOUS
 10
0.840969
 20
0.303878
 30
0.000000
 11
0.841700
 21
0.303472
 31
0.000000
  0
LINE
  8
0
 62
     7
  6
CONTINUOUS
 10
0.841700
 20
0.303472
 30
0.000000
 11
0.842384
 21
0.302994
 31
0.000000
  0
LINE
  8
0
 62
     7
  6
CONTINUOUS
 10
0.842384
 20
0.302994
 30
0.000000
 11
0.843009
 21
0.302442
 31
0.000000
  0
LINE
  8
0
 62
     7
  6
CONTINUOUS
 10
0.843009
 20
0.302442
 30
0.000000
 11
0.843562
 21
0.301817
 31
0.000000
  0
LINE
  8
0
 62
     7
  6
CONTINUOUS
 10
0.843562
 20
0.301817
 30
0.000000
 11
0.844036
 21
0.301128
 31
0.000000
  0
LINE
  8
0
 62
     7
  6
CONTINUOUS
 10
0.844036
 20
0.301128
 30
0.000000
 11
0.844428
 21
0.300389
 31
0.000000
  0
LINE
  8
0
 62
     7
  6
CONTINUOUS
 10
0.844428
 20
0.300389
 30
0.000000
 11
0.844733
 21
0.299613
 31
0.000000
  0
LINE
  8
0
 62
     7
  6
CONTINUOUS
 10
0.844733
 20
0.299613
 30
0.000000
 11
0.844955
 21
0.298810
 31
0.000000
  0
LINE
  8
0
 62
     7
  6
CONTINUOUS
 10
0.844955
 20
0.298810
 30
0.000000
 11
0.845189
 21
0.297157
 31
0.000000
  0
LINE
  8
0
 62
     7
  6
CONTINUOUS
 10
0.845189
 20
0.297157
 30
0.000000
 11
0.845202
 21
0.295486
 31
0.000000
  0
LINE
  8
0
 62
     7
  6
CONTINUOUS
 10
0.845202
 20
0.295486
 30
0.000000
 11
0.845039
 21
0.293828
 31
0.000000
  0
LINE
  8
0
 62
     7
  6
CONTINUOUS
 10
0.845039
 20
0.293828
 30
0.000000
 11
0.844303
 21
0.290601
 31
0.000000
  0
LINE
  8
0
 62
     7
  6
CONTINUOUS
 10
0.844303
 20
0.290601
 30
0.000000
 11
0.842240
 21
0.284210
 31
0.000000
  0
LINE
  8
0
 62
     7
  6
CONTINUOUS
 10
0.842240
 20
0.284210
 30
0.000000
 11
0.841598
 21
0.282665
 31
0.000000
  0
LINE
  8
0
 62
     7
  6
CONTINUOUS
 10
0.841598
 20
0.282665
 30
0.000000
 11
0.840782
 21
0.281231
 31
0.000000
  0
LINE
  8
0
 62
     7
  6
CONTINUOUS
 10
0.840782
 20
0.281231
 30
0.000000
 11
0.839737
 21
0.279948
 31
0.000000
  0
LINE
  8
0
 62
     7
  6
CONTINUOUS
 10
0.839737
 20
0.279948
 30
0.000000
 11
0.821118
 21
0.260978
 31
0.000000
  0
LINE
  8
0
 62
     7
  6
CONTINUOUS
 10
0.821118
 20
0.260978
 30
0.000000
 11
0.800902
 21
0.243723
 31
0.000000
  0
LINE
  8
0
 62
     7
  6
CONTINUOUS
 10
0.800902
 20
0.243723
 30
0.000000
 11
0.778734
 21
0.229079
 31
0.000000
  0
LINE
  8
0
 62
     7
  6
CONTINUOUS
 10
0.778734
 20
0.229079
 30
0.000000
 11
0.755045
 21
0.217025
 31
0.000000
  0
LINE
  8
0
 62
     7
  6
CONTINUOUS
 10
0.755045
 20
0.217025
 30
0.000000
 11
0.705102
 21
0.198913
 31
0.000000
  0
LINE
  8
0
 62
     7
  6
CONTINUOUS
 10
0.705102
 20
0.198913
 30
0.000000
 11
0.652902
 21
0.189002
 31
0.000000
  0
LINE
  8
0
 62
     7
  6
CONTINUOUS
 10
0.652902
 20
0.189002
 30
0.000000
 11
0.546723
 21
0.184711
 31
0.000000
  0
LINE
  8
0
 62
     7
  6
CONTINUOUS
 10
0.546723
 20
0.184711
 30
0.000000
 11
0.425775
 21
0.193553
 31
0.000000
  0
LINE
  8
0
 62
     7
  6
CONTINUOUS
 10
0.425775
 20
0.193553
 30
0.000000
 11
0.410550
 21
0.195394
 31
0.000000
  0
LINE
  8
0
 62
     7
  6
CONTINUOUS
 10
0.425775
 20
0.193553
 30
0.004463
 11
0.410550
 21
0.195394
 31
0.004463
  0
LINE
  8
0
 62
     7
  6
CONTINUOUS
 10
0.349988
 20
0.155550
 30
0.000000
 11
0.350037
 21
0.148048
 31
0.000000
  0
LINE
  8
0
 62
     7
  6
CONTINUOUS
 10
0.350037
 20
0.148048
 30
0.000000
 11
0.349629
 21
0.144318
 31
0.000000
  0
LINE
  8
0
 62
     7
  6
CONTINUOUS
 10
0.349629
 20
0.144318
 30
0.000000
 11
0.348786
 21
0.140662
 31
0.000000
  0
LINE
  8
0
 62
     7
  6
CONTINUOUS
 10
0.348786
 20
0.140662
 30
0.000000
 11
0.347392
 21
0.137180
 31
0.000000
  0
LINE
  8
0
 62
     7
  6
CONTINUOUS
 10
0.347392
 20
0.137180
 30
0.000000
 11
0.346457
 21
0.135552
 31
0.000000
  0
LINE
  8
0
 62
     7
  6
CONTINUOUS
 10
0.346457
 20
0.135552
 30
0.000000
 11
0.345361
 21
0.134028
 31
0.000000
  0
LINE
  8
0
 62
     7
  6
CONTINUOUS
 10
0.345361
 20
0.134028
 30
0.000000
 11
0.344109
 21
0.132629
 31
0.000000
  0
LINE
  8
0
 62
     7
  6
CONTINUOUS
 10
0.344109
 20
0.132629
 30
0.000000
 11
0.342716
 21
0.131371
 31
0.000000
  0
LINE
  8
0
 62
     7
  6
CONTINUOUS
 10
0.342716
 20
0.131371
 30
0.000000
 11
0.341203
 21
0.130260
 31
0.000000
  0
LINE
  8
0
 62
     7
  6
CONTINUOUS
 10
0.341203
 20
0.130260
 30
0.000000
 11
0.339592
 21
0.129295
 31
0.000000
  0
LINE
  8
0
 62
     7
  6
CONTINUOUS
 10
0.339592
 20
0.129295
 30
0.000000
 11
0.336160
 21
0.127778
 31
0.000000
  0
LINE
  8
0
 62
     7
  6
CONTINUOUS
 10
0.336160
 20
0.127778
 30
0.000000
 11
0.332556
 21
0.126734
 31
0.000000
  0
LINE
  8
0
 62
     7
  6
CONTINUOUS
 10
0.332556
 20
0.126734
 30
0.000000
 11
0.328861
 21
0.126073
 31
0.000000
  0
LINE
  8
0
 62
     7
  6
CONTINUOUS
 10
0.328861
 20
0.126073
 30
0.000000
 11
0.321374
 21
0.125587
 31
0.000000
  0
LINE
  8
0
 62
     7
  6
CONTINUOUS
 10
0.321374
 20
0.125587
 30
0.000000
 11
0.313885
 21
0.126043
 31
0.000000
  0
LINE
  8
0
 62
     7
  6
CONTINUOUS
 10
0.313885
 20
0.126043
 30
0.000000
 11
0.306504
 21
0.127399
 31
0.000000
  0
LINE
  8
0
 62
     7
  6
CONTINUOUS
 10
0.306504
 20
0.127399
 30
0.000000
 11
0.299295
 21
0.129486
 31
0.000000
  0
LINE
  8
0
 62
     7
  6
CONTINUOUS
 10
0.299295
 20
0.129486
 30
0.000000
 11
0.285467
 21
0.135304
 31
0.000000
  0
LINE
  8
0
 62
     7
  6
CONTINUOUS
 10
0.285467
 20
0.135304
 30
0.000000
 11
0.272420
 21
0.142718
 31
0.000000
  0
LINE
  8
0
 62
     7
  6
CONTINUOUS
 10
0.272420
 20
0.142718
 30
0.000000
 11
0.257130
 21
0.153583
 31
0.000000
  0
LINE
  8
0
 62
     7
  6
CONTINUOUS
 10
0.257130
 20
0.153583
 30
0.000000
 11
0.254681
 21
0.155550
 31
0.000000
  0
LINE
  8
0
 62
     7
  6
CONTINUOUS
 10
0.264133
 20
0.147977
 30
0.000000
 11
0.262334
 21
0.146124
 31
0.000000
  0
LINE
  8
0
 62
     7
  6
CONTINUOUS
 10
0.262334
 20
0.146124
 30
0.000000
 11
0.260284
 21
0.144551
 31
0.000000
  0
LINE
  8
0
 62
     7
  6
CONTINUOUS
 10
0.260284
 20
0.144551
 30
0.000000
 11
0.258053
 21
0.143246
 31
0.000000
  0
LINE
  8
0
 62
     7
  6
CONTINUOUS
 10
0.258053
 20
0.143246
 30
0.000000
 11
0.255696
 21
0.142185
 31
0.000000
  0
LINE
  8
0
 62
     7
  6
CONTINUOUS
 10
0.255696
 20
0.142185
 30
0.000000
 11
0.253226
 21
0.141424
 31
0.000000
  0
LINE
  8
0
 62
     7
  6
CONTINUOUS
 10
0.253226
 20
0.141424
 30
0.000000
 11
0.248142
 21
0.140497
 31
0.000000
  0
LINE
  8
0
 62
     7
  6
CONTINUOUS
 10
0.248142
 20
0.140497
 30
0.000000
 11
0.237821
 21
0.140015
 31
0.000000
  0
LINE
  8
0
 62
     7
  6
CONTINUOUS
 10
0.237821
 20
0.140015
 30
0.000000
 11
0.227529
 21
0.140944
 31
0.000000
  0
LINE
  8
0
 62
     7
  6
CONTINUOUS
 10
0.233785
 20
0.139750
 30
0.004463
 11
0.231412
 21
0.143438
 31
0.004463
  0
LINE
  8
0
 62
     7
  6
CONTINUOUS
 10
0.257130
 20
0.153583
 30
0.004463
 11
0.254681
 21
0.155550
 31
0.004463
  0
LINE
  8
0
 62
     7
  6
CONTINUOUS
 10
0.265620
 20
0.150090
 30
0.000000
 11
0.264133
 21
0.147977
 31
0.000000
  0
LINE
  8
0
 62
     7
  6
CONTINUOUS
 10
0.266747
 20
0.152414
 30
0.000000
 11
0.265620
 21
0.150090
 31
0.000000
  0
LINE
  8
0
 62
     7
  6
CONTINUOUS
 10
0.267512
 20
0.154883
 30
0.000000
 11
0.266747
 21
0.152414
 31
0.000000
  0
LINE
  8
0
 62
     7
  6
CONTINUOUS
 10
0.267937
 20
0.157431
 30
0.000000
 11
0.267512
 21
0.154883
 31
0.000000
  0
LINE
  8
0
 62
     7
  6
CONTINUOUS
 10
0.268069
 20
0.160012
 30
0.000000
 11
0.267937
 21
0.157431
 31
0.000000
  0
LINE
  8
0
 62
     7
  6
CONTINUOUS
 10
0.283390
 20
0.167991
 30
0.004463
 11
0.280181
 21
0.169894
 31
0.004463
  0
LINE
  8
0
 62
     7
  6
CONTINUOUS
 10
0.305317
 20
0.132186
 30
0.004463
 11
0.299944
 21
0.135469
 31
0.004463
  0
LINE
  8
0
 62
     7
  6
CONTINUOUS
 10
0.409742
 20
0.079435
 30
0.000000
 11
0.305317
 21
0.132186
 31
0.000000
  0
LINE
  8
0
 62
     7
  6
CONTINUOUS
 10
0.444352
 20
0.067166
 30
0.000000
 11
0.409742
 21
0.079435
 31
0.000000
  0
LINE
  8
0
 62
     7
  6
CONTINUOUS
 10
0.462192
 20
0.062817
 30
0.000000
 11
0.444352
 21
0.067166
 31
0.000000
  0
LINE
  8
0
 62
     7
  6
CONTINUOUS
 10
0.480414
 20
0.060575
 30
0.000000
 11
0.462192
 21
0.062817
 31
0.000000
  0
LINE
  8
0
 62
     7
  6
CONTINUOUS
 10
0.498772
 20
0.060547
 30
0.000000
 11
0.480414
 21
0.060575
 31
0.000000
  0
LINE
  8
0
 62
     7
  6
CONTINUOUS
 10
0.516957
 20
0.063032
 30
0.000000
 11
0.498772
 21
0.060547
 31
0.000000
  0
LINE
  8
0
 62
     7
  6
CONTINUOUS
 10
0.525837
 20
0.065369
 30
0.000000
 11
0.516957
 21
0.063032
 31
0.000000
  0
LINE
  8
0
 62
     7
  6
CONTINUOUS
 10
0.534448
 20
0.068557
 30
0.000000
 11
0.525837
 21
0.065369
 31
0.000000
  0
LINE
  8
0
 62
     7
  6
CONTINUOUS
 10
0.542634
 20
0.072713
 30
0.000000
 11
0.534448
 21
0.068557
 31
0.000000
  0
LINE
  8
0
 62
     7
  6
CONTINUOUS
 10
0.550146
 20
0.077987
 30
0.000000
 11
0.542634
 21
0.072713
 31
0.000000
  0
LINE
  8
0
 62
     7
  6
CONTINUOUS
 10
0.553529
 20
0.081094
 30
0.000000
 11
0.550146
 21
0.077987
 31
0.000000
  0
LINE
  8
0
 62
     7
  6
CONTINUOUS
 10
0.556571
 20
0.084535
 30
0.000000
 11
0.553529
 21
0.081094
 31
0.000000
  0
LINE
  8
0
 62
     7
  6
CONTINUOUS
 10
0.559184
 20
0.088312
 30
0.000000
 11
0.556571
 21
0.084535
 31
0.000000
  0
LINE
  8
0
 62
     7
  6
CONTINUOUS
 10
0.561263
 20
0.092406
 30
0.000000
 11
0.559184
 21
0.088312
 31
0.000000
  0
LINE
  8
0
 62
     7
  6
CONTINUOUS
 10
0.562728
 20
0.096764
 30
0.000000
 11
0.561263
 21
0.092406
 31
0.000000
  0
LINE
  8
0
 62
     7
  6
CONTINUOUS
 10
0.563169
 20
0.099016
 30
0.000000
 11
0.562728
 21
0.096764
 31
0.000000
  0
LINE
  8
0
 62
     7
  6
CONTINUOUS
 10
0.563550
 20
0.103594
 30
0.000000
 11
0.563169
 21
0.099016
 31
0.000000
  0
LINE
  8
0
 62
     7
  6
CONTINUOUS
 10
0.500437
 20
0.064706
 30
0.000000
 11
0.497691
 21
0.056680
 31
0.000000
  0
LINE
  8
0
 62
     7
  6
CONTINUOUS
 10
0.497691
 20
0.056680
 30
0.000000
 11
0.495731
 21
0.052909
 31
0.000000
  0
LINE
  8
0
 62
     7
  6
CONTINUOUS
 10
0.495731
 20
0.052909
 30
0.000000
 11
0.493421
 21
0.049347
 31
0.000000
  0
LINE
  8
0
 62
     7
  6
CONTINUOUS
 10
0.493421
 20
0.049347
 30
0.000000
 11
0.490778
 21
0.046023
 31
0.000000
  0
LINE
  8
0
 62
     7
  6
CONTINUOUS
 10
0.490778
 20
0.046023
 30
0.000000
 11
0.487834
 21
0.042962
 31
0.000000
  0
LINE
  8
0
 62
     7
  6
CONTINUOUS
 10
0.487834
 20
0.042962
 30
0.000000
 11
0.481205
 21
0.037666
 31
0.000000
  0
LINE
  8
0
 62
     7
  6
CONTINUOUS
 10
0.481205
 20
0.037666
 30
0.000000
 11
0.473831
 21
0.033466
 31
0.000000
  0
LINE
  8
0
 62
     7
  6
CONTINUOUS
 10
0.473831
 20
0.033466
 30
0.000000
 11
0.465960
 21
0.030287
 31
0.000000
  0
LINE
  8
0
 62
     7
  6
CONTINUOUS
 10
0.465960
 20
0.030287
 30
0.000000
 11
0.457774
 21
0.028043
 31
0.000000
  0
LINE
  8
0
 62
     7
  6
CONTINUOUS
 10
0.457774
 20
0.028043
 30
0.000000
 11
0.449404
 21
0.026628
 31
0.000000
  0
LINE
  8
0
 62
     7
  6
CONTINUOUS
 10
0.449404
 20
0.026628
 30
0.000000
 11
0.432451
 21
0.025972
 31
0.000000
  0
LINE
  8
0
 62
     7
  6
CONTINUOUS
 10
0.432451
 20
0.025972
 30
0.000000
 11
0.415579
 21
0.027792
 31
0.000000
  0
LINE
  8
0
 62
     7
  6
CONTINUOUS
 10
0.415579
 20
0.027792
 30
0.000000
 11
0.399077
 21
0.031755
 31
0.000000
  0
LINE
  8
0
 62
     7
  6
CONTINUOUS
 10
0.399077
 20
0.031755
 30
0.000000
 11
0.383188
 21
0.037732
 31
0.000000
  0
LINE
  8
0
 62
     7
  6
CONTINUOUS
 10
0.383188
 20
0.037732
 30
0.000000
 11
0.353100
 21
0.053433
 31
0.000000
  0
LINE
  8
0
 62
     7
  6
CONTINUOUS
 10
0.353100
 20
0.053433
 30
0.000000
 11
0.324716
 21
0.072063
 31
0.000000
  0
LINE
  8
0
 62
     7
  6
CONTINUOUS
 10
0.324716
 20
0.072063
 30
0.000000
 11
0.271757
 21
0.114529
 31
0.000000
  0
LINE
  8
0
 62
     7
  6
CONTINUOUS
 10
0.271757
 20
0.114529
 30
0.000000
 11
0.268069
 21
0.117938
 31
0.000000
  0
LINE
  8
0
 62
     7
  6
CONTINUOUS
 10
0.271757
 20
0.114529
 30
0.004463
 11
0.268069
 21
0.117938
 31
0.004463
  0
LINE
  8
0
 62
     7
  6
CONTINUOUS
 10
0.287934
 20
0.106351
 30
0.000000
 11
0.273910
 21
0.110034
 31
0.000000
  0
LINE
  8
0
 62
     7
  6
CONTINUOUS
 10
0.295120
 20
0.105356
 30
0.000000
 11
0.287934
 21
0.106351
 31
0.000000
  0
LINE
  8
0
 62
     7
  6
CONTINUOUS
 10
0.298748
 20
0.105353
 30
0.000000
 11
0.295120
 21
0.105356
 31
0.000000
  0
LINE
  8
0
 62
     7
  6
CONTINUOUS
 10
0.302340
 20
0.105867
 30
0.000000
 11
0.298748
 21
0.105353
 31
0.000000
  0
LINE
  8
0
 62
     7
  6
CONTINUOUS
 10
0.304088
 20
0.106356
 30
0.000000
 11
0.302340
 21
0.105867
 31
0.000000
  0
LINE
  8
0
 62
     7
  6
CONTINUOUS
 10
0.305778
 20
0.107021
 30
0.000000
 11
0.304088
 21
0.106356
 31
0.000000
  0
LINE
  8
0
 62
     7
  6
CONTINUOUS
 10
0.307382
 20
0.107872
 30
0.000000
 11
0.305778
 21
0.107021
 31
0.000000
  0
LINE
  8
0
 62
     7
  6
CONTINUOUS
 10
0.308871
 20
0.108910
 30
0.000000
 11
0.307382
 21
0.107872
 31
0.000000
  0
LINE
  8
0
 62
     7
  6
CONTINUOUS
 10
0.310217
 20
0.110130
 30
0.000000
 11
0.308871
 21
0.108910
 31
0.000000
  0
LINE
  8
0
 62
     7
  6
CONTINUOUS
 10
0.311397
 20
0.111510
 30
0.000000
 11
0.310217
 21
0.110130
 31
0.000000
  0
LINE
  8
0
 62
     7
  6
CONTINUOUS
 10
0.312398
 20
0.113024
 30
0.000000
 11
0.311397
 21
0.111510
 31
0.000000
  0
LINE
  8
0
 62
     7
  6
CONTINUOUS
 10
0.313216
 20
0.114644
 30
0.000000
 11
0.312398
 21
0.113024
 31
0.000000
  0
LINE
  8
0
 62
     7
  6
CONTINUOUS
 10
0.313855
 20
0.116343
 30
0.000000
 11
0.313216
 21
0.114644
 31
0.000000
  0
LINE
  8
0
 62
     7
  6
CONTINUOUS
 10
0.314323
 20
0.118097
 30
0.000000
 11
0.313855
 21
0.116343
 31
0.000000
  0
LINE
  8
0
 62
     7
  6
CONTINUOUS
 10
0.314790
 20
0.121692
 30
0.000000
 11
0.314323
 21
0.118097
 31
0.000000
  0
LINE
  8
0
 62
     7
  6
CONTINUOUS
 10
0.314689
 20
0.125318
 30
0.000000
 11
0.314790
 21
0.121692
 31
0.000000
  0
LINE
  8
0
 62
     7
  6
CONTINUOUS
 10
0.314062
 20
0.128889
 30
0.000000
 11
0.314689
 21
0.125318
 31
0.000000
  0
LINE
  8
0
 62
     7
  6
CONTINUOUS
 10
0.312900
 20
0.132325
 30
0.000000
 11
0.314062
 21
0.128889
 31
0.000000
  0
LINE
  8
0
 62
     7
  6
CONTINUOUS
 10
0.312082
 20
0.133943
 30
0.000000
 11
0.312900
 21
0.132325
 31
0.000000
  0
LINE
  8
0
 62
     7
  6
CONTINUOUS
 10
0.311100
 20
0.135469
 30
0.000000
 11
0.312082
 21
0.133943
 31
0.000000
  0
LINE
  8
0
 62
     7
  6
CONTINUOUS
 10
0.305317
 20
0.132186
 30
0.000000
 11
0.299944
 21
0.135469
 31
0.000000
  0
LINE
  8
0
 62
     7
  6
CONTINUOUS
 10
0.255638
 20
0.092438
 30
0.000000
 11
0.256635
 21
0.088759
 31
0.000000
  0
LINE
  8
0
 62
     7
  6
CONTINUOUS
 10
0.256635
 20
0.088759
 30
0.000000
 11
0.257126
 21
0.084979
 31
0.000000
  0
LINE
  8
0
 62
     7
  6
CONTINUOUS
 10
0.257126
 20
0.084979
 30
0.000000
 11
0.257143
 21
0.081167
 31
0.000000
  0
LINE
  8
0
 62
     7
  6
CONTINUOUS
 10
0.257143
 20
0.081167
 30
0.000000
 11
0.256694
 21
0.077382
 31
0.000000
  0
LINE
  8
0
 62
     7
  6
CONTINUOUS
 10
0.256694
 20
0.077382
 30
0.000000
 11
0.255755
 21
0.073687
 31
0.000000
  0
LINE
  8
0
 62
     7
  6
CONTINUOUS
 10
0.255755
 20
0.073687
 30
0.000000
 11
0.254287
 21
0.070170
 31
0.000000
  0
LINE
  8
0
 62
     7
  6
CONTINUOUS
 10
0.254287
 20
0.070170
 30
0.000000
 11
0.253339
 21
0.068516
 31
0.000000
  0
LINE
  8
0
 62
     7
  6
CONTINUOUS
 10
0.253339
 20
0.068516
 30
0.000000
 11
0.252242
 21
0.066957
 31
0.000000
  0
LINE
  8
0
 62
     7
  6
CONTINUOUS
 10
0.252242
 20
0.066957
 30
0.000000
 11
0.250992
 21
0.065516
 31
0.000000
  0
LINE
  8
0
 62
     7
  6
CONTINUOUS
 10
0.250992
 20
0.065516
 30
0.000000
 11
0.249594
 21
0.064219
 31
0.000000
  0
LINE
  8
0
 62
     7
  6
CONTINUOUS
 10
0.249594
 20
0.064219
 30
0.000000
 11
0.248058
 21
0.063088
 31
0.000000
  0
LINE
  8
0
 62
     7
  6
CONTINUOUS
 10
0.248058
 20
0.063088
 30
0.000000
 11
0.246400
 21
0.062147
 31
0.000000
  0
LINE
  8
0
 62
     7
  6
CONTINUOUS
 10
0.246400
 20
0.062147
 30
0.000000
 11
0.242856
 21
0.060744
 31
0.000000
  0
LINE
  8
0
 62
     7
  6
CONTINUOUS
 10
0.242856
 20
0.060744
 30
0.000000
 11
0.239146
 21
0.059871
 31
0.000000
  0
LINE
  8
0
 62
     7
  6
CONTINUOUS
 10
0.239146
 20
0.059871
 30
0.000000
 11
0.235352
 21
0.059507
 31
0.000000
  0
LINE
  8
0
 62
     7
  6
CONTINUOUS
 10
0.235352
 20
0.059507
 30
0.000000
 11
0.231541
 21
0.059622
 31
0.000000
  0
LINE
  8
0
 62
     7
  6
CONTINUOUS
 10
0.231541
 20
0.059622
 30
0.000000
 11
0.227774
 21
0.060206
 31
0.000000
  0
LINE
  8
0
 62
     7
  6
CONTINUOUS
 10
0.227774
 20
0.060206
 30
0.000000
 11
0.224109
 21
0.061251
 31
0.000000
  0
LINE
  8
0
 62
     7
  6
CONTINUOUS
 10
0.224109
 20
0.061251
 30
0.000000
 11
0.220611
 21
0.062767
 31
0.000000
  0
LINE
  8
0
 62
     7
  6
CONTINUOUS
 10
0.220611
 20
0.062767
 30
0.000000
 11
0.217370
 21
0.064771
 31
0.000000
  0
LINE
  8
0
 62
     7
  6
CONTINUOUS
 10
0.217370
 20
0.064771
 30
0.000000
 11
0.214502
 21
0.067279
 31
0.000000
  0
LINE
  8
0
 62
     7
  6
CONTINUOUS
 10
0.201883
 20
0.087665
 30
0.004463
 11
0.199219
 21
0.092438
 31
0.004463
  0
LINE
  8
0
 62
     7
  6
CONTINUOUS
 10
0.185861
 20
0.112194
 30
0.004463
 11
0.184875
 21
0.114431
 31
0.004463
  0
LINE
  8
0
 62
     7
  6
CONTINUOUS
 10
0.208074
 20
0.128612
 30
0.004463
 11
0.207187
 21
0.131006
 31
0.004463
  0
LINE
  8
0
 62
     7
  6
CONTINUOUS
 10
0.208074
 20
0.128612
 30
0.000000
 11
0.207187
 21
0.131006
 31
0.000000
  0
LINE
  8
0
 62
     7
  6
CONTINUOUS
 10
0.212942
 20
0.118877
 30
0.000000
 11
0.208074
 21
0.128612
 31
0.000000
  0
LINE
  8
0
 62
     7
  6
CONTINUOUS
 10
0.216974
 20
0.112837
 30
0.000000
 11
0.212942
 21
0.118877
 31
0.000000
  0
LINE
  8
0
 62
     7
  6
CONTINUOUS
 10
0.221552
 20
0.107199
 30
0.000000
 11
0.216974
 21
0.112837
 31
0.000000
  0
LINE
  8
0
 62
     7
  6
CONTINUOUS
 10
0.226621
 20
0.101999
 30
0.000000
 11
0.221552
 21
0.107199
 31
0.000000
  0
LINE
  8
0
 62
     7
  6
CONTINUOUS
 10
0.232142
 20
0.097281
 30
0.000000
 11
0.226621
 21
0.101999
 31
0.000000
  0
LINE
  8
0
 62
     7
  6
CONTINUOUS
 10
0.238064
 20
0.093076
 30
0.000000
 11
0.232142
 21
0.097281
 31
0.000000
  0
LINE
  8
0
 62
     7
  6
CONTINUOUS
 10
0.183794
 20
0.052498
 30
0.000000
 11
0.183778
 21
0.050613
 31
0.000000
  0
LINE
  8
0
 62
     7
  6
CONTINUOUS
 10
0.183778
 20
0.050613
 30
0.000000
 11
0.183582
 21
0.048738
 31
0.000000
  0
LINE
  8
0
 62
     7
  6
CONTINUOUS
 10
0.183582
 20
0.048738
 30
0.000000
 11
0.182704
 21
0.045073
 31
0.000000
  0
LINE
  8
0
 62
     7
  6
CONTINUOUS
 10
0.182704
 20
0.045073
 30
0.000000
 11
0.181260
 21
0.041593
 31
0.000000
  0
LINE
  8
0
 62
     7
  6
CONTINUOUS
 10
0.181260
 20
0.041593
 30
0.000000
 11
0.179313
 21
0.038365
 31
0.000000
  0
LINE
  8
0
 62
     7
  6
CONTINUOUS
 10
0.179313
 20
0.038365
 30
0.000000
 11
0.176915
 21
0.035459
 31
0.000000
  0
LINE
  8
0
 62
     7
  6
CONTINUOUS
 10
0.176915
 20
0.035459
 30
0.000000
 11
0.174099
 21
0.032955
 31
0.000000
  0
LINE
  8
0
 62
     7
  6
CONTINUOUS
 10
0.174099
 20
0.032955
 30
0.000000
 11
0.172544
 21
0.031888
 31
0.000000
  0
LINE
  8
0
 62
     7
  6
CONTINUOUS
 10
0.172544
 20
0.031888
 30
0.000000
 11
0.170900
 21
0.030965
 31
0.000000
  0
LINE
  8
0
 62
     7
  6
CONTINUOUS
 10
0.170900
 20
0.030965
 30
0.000000
 11
0.169175
 21
0.030203
 31
0.000000
  0
LINE
  8
0
 62
     7
  6
CONTINUOUS
 10
0.169175
 20
0.030203
 30
0.000000
 11
0.167381
 21
0.029625
 31
0.000000
  0
LINE
  8
0
 62
     7
  6
CONTINUOUS
 10
0.167381
 20
0.029625
 30
0.000000
 11
0.165537
 21
0.029229
 31
0.000000
  0
LINE
  8
0
 62
     7
  6
CONTINUOUS
 10
0.165537
 20
0.029229
 30
0.000000
 11
0.161787
 21
0.028855
 31
0.000000
  0
LINE
  8
0
 62
     7
  6
CONTINUOUS
 10
0.161787
 20
0.028855
 30
0.000000
 11
0.158024
 21
0.029048
 31
0.000000
  0
LINE
  8
0
 62
     7
  6
CONTINUOUS
 10
0.158024
 20
0.029048
 30
0.000000
 11
0.156173
 21
0.029406
 31
0.000000
  0
LINE
  8
0
 62
     7
  6
CONTINUOUS
 10
0.156173
 20
0.029406
 30
0.000000
 11
0.155665
 21
0.029562
 31
0.000000
  0
ARC
  8
LEFT_SIDE_STI0
 62
     5
  6
CONTINUOUS
 10
0.000000
 20
0.063750
 30
0.000000
 40
0.159375
 50
292.360516
 51
349.017367
  0
LINE
  8
0
 62
     7
  6
CONTINUOUS
 10
0.094653
 20
-0.067222
 30
0.000000
 11
0.093507
 21
-0.065311
 31
0.000000
  0
LINE
  8
0
 62
     7
  6
CONTINUOUS
 10
0.096896
 20
-0.070068
 30
0.000000
 11
0.094653
 21
-0.067222
 31
0.000000
  0
LINE
  8
0
 62
     7
  6
CONTINUOUS
 10
0.099495
 20
-0.072590
 30
0.000000
 11
0.096896
 21
-0.070068
 31
0.000000
  0
LINE
  8
0
 62
     7
  6
CONTINUOUS
 10
0.102412
 20
-0.074739
 30
0.000000
 11
0.099495
 21
-0.072590
 31
0.000000
  0
LINE
  8
0
 62
     7
  6
CONTINUOUS
 10
0.105589
 20
-0.076479
 30
0.000000
 11
0.102412
 21
-0.074739
 31
0.000000
  0
LINE
  8
0
 62
     7
  6
CONTINUOUS
 10
0.108963
 20
-0.077795
 30
0.000000
 11
0.105589
 21
-0.076479
 31
0.000000
  0
LINE
  8
0
 62
     7
  6
CONTINUOUS
 10
0.112475
 20
-0.078681
 30
0.000000
 11
0.108963
 21
-0.077795
 31
0.000000
  0
LINE
  8
0
 62
     7
  6
CONTINUOUS
 10
0.116070
 20
-0.079135
 30
0.000000
 11
0.112475
 21
-0.078681
 31
0.000000
  0
LINE
  8
0
 62
     7
  6
CONTINUOUS
 10
0.119691
 20
-0.079139
 30
0.000000
 11
0.116070
 21
-0.079135
 31
0.000000
  0
LINE
  8
0
 62
     7
  6
CONTINUOUS
 10
0.123286
 20
-0.078701
 30
0.000000
 11
0.119691
 21
-0.079139
 31
0.000000
  0
LINE
  8
0
 62
     7
  6
CONTINUOUS
 10
0.126772
 20
-0.077718
 30
0.000000
 11
0.123286
 21
-0.078701
 31
0.000000
  0
LINE
  8
0
 62
     7
  6
CONTINUOUS
 10
0.130090
 20
-0.076267
 30
0.000000
 11
0.126772
 21
-0.077718
 31
0.000000
  0
LINE
  8
0
 62
     7
  6
CONTINUOUS
 10
0.133208
 20
-0.074422
 30
0.000000
 11
0.130090
 21
-0.076267
 31
0.000000
  0
LINE
  8
0
 62
     7
  6
CONTINUOUS
 10
0.136102
 20
-0.072245
 30
0.000000
 11
0.133208
 21
-0.074422
 31
0.000000
  0
LINE
  8
0
 62
     7
  6
CONTINUOUS
 10
0.138743
 20
-0.069765
 30
0.000000
 11
0.136102
 21
-0.072245
 31
0.000000
  0
LINE
  8
0
 62
     7
  6
CONTINUOUS
 10
0.141083
 20
-0.067001
 30
0.000000
 11
0.138743
 21
-0.069765
 31
0.000000
  0
LINE
  8
0
 62
     7
  6
CONTINUOUS
 10
0.143040
 20
-0.063954
 30
0.000000
 11
0.141083
 21
-0.067001
 31
0.000000
  0
LINE
  8
0
 62
     7
  6
CONTINUOUS
 10
0.143828
 20
-0.062323
 30
0.000000
 11
0.143040
 21
-0.063954
 31
0.000000
  0
LINE
  8
0
 62
     7
  6
CONTINUOUS
 10
0.144456
 20
-0.060624
 30
0.000000
 11
0.143828
 21
-0.062323
 31
0.000000
  0
LINE
  8
0
 62
     7
  6
CONTINUOUS
 10
0.144876
 20
-0.058861
 30
0.000000
 11
0.144456
 21
-0.060624
 31
0.000000
  0
LINE
  8
0
 62
     7
  6
CONTINUOUS
 10
0.145031
 20
-0.057056
 30
0.000000
 11
0.144876
 21
-0.058861
 31
0.000000
  0
LINE
  8
0
 62
     7
  6
CONTINUOUS
 10
0.141206
 20
-0.064806
 30
0.000000
 11
0.138840
 21
-0.057492
 31
0.000000
  0
LINE
  8
0
 62
     7
  6
CONTINUOUS
 10
0.142849
 20
-0.068283
 30
0.000000
 11
0.141206
 21
-0.064806
 31
0.000000
  0
LINE
  8
0
 62
     7
  6
CONTINUOUS
 10
0.144814
 20
-0.071588
 30
0.000000
 11
0.142849
 21
-0.068283
 31
0.000000
  0
LINE
  8
0
 62
     7
  6
CONTINUOUS
 10
0.147085
 20
-0.074691
 30
0.000000
 11
0.144814
 21
-0.071588
 31
0.000000
  0
LINE
  8
0
 62
     7
  6
CONTINUOUS
 10
0.149638
 20
-0.077566
 30
0.000000
 11
0.147085
 21
-0.074691
 31
0.000000
  0
LINE
  8
0
 62
     7
  6
CONTINUOUS
 10
0.152447
 20
-0.080192
 30
0.000000
 11
0.149638
 21
-0.077566
 31
0.000000
  0
LINE
  8
0
 62
     7
  6
CONTINUOUS
 10
0.155479
 20
-0.082556
 30
0.000000
 11
0.152447
 21
-0.080192
 31
0.000000
  0
LINE
  8
0
 62
     7
  6
CONTINUOUS
 10
0.158706
 20
-0.084647
 30
0.000000
 11
0.155479
 21
-0.082556
 31
0.000000
  0
LINE
  8
0
 62
     7
  6
CONTINUOUS
 10
0.165637
 20
-0.087960
 30
0.000000
 11
0.158706
 21
-0.084647
 31
0.000000
  0
LINE
  8
0
 62
     7
  6
CONTINUOUS
 10
0.169293
 20
-0.089147
 30
0.000000
 11
0.165637
 21
-0.087960
 31
0.000000
  0
LINE
  8
0
 62
     7
  6
CONTINUOUS
 10
0.173049
 20
-0.089968
 30
0.000000
 11
0.169293
 21
-0.089147
 31
0.000000
  0
LINE
  8
0
 62
     7
  6
CONTINUOUS
 10
0.176875
 20
-0.090331
 30
0.000000
 11
0.173049
 21
-0.089968
 31
0.000000
  0
LINE
  8
0
 62
     7
  6
CONTINUOUS
 10
0.178796
 20
-0.090273
 30
0.000000
 11
0.176875
 21
-0.090331
 31
0.000000
  0
LINE
  8
0
 62
     7
  6
CONTINUOUS
 10
0.180701
 20
-0.090001
 30
0.000000
 11
0.178796
 21
-0.090273
 31
0.000000
  0
LINE
  8
0
 62
     7
  6
CONTINUOUS
 10
0.182542
 20
-0.089454
 30
0.000000
 11
0.180701
 21
-0.090001
 31
0.000000
  0
LINE
  8
0
 62
     7
  6
CONTINUOUS
 10
0.184297
 20
-0.088666
 30
0.000000
 11
0.182542
 21
-0.089454
 31
0.000000
  0
LINE
  8
0
 62
     7
  6
CONTINUOUS
 10
0.187547
 20
-0.086617
 30
0.000000
 11
0.184297
 21
-0.088666
 31
0.000000
  0
LINE
  8
0
 62
     7
  6
CONTINUOUS
 10
0.190478
 20
-0.084130
 30
0.000000
 11
0.187547
 21
-0.086617
 31
0.000000
  0
LINE
  8
0
 62
     7
  6
CONTINUOUS
 10
0.193126
 20
-0.081342
 30
0.000000
 11
0.190478
 21
-0.084130
 31
0.000000
  0
LINE
  8
0
 62
     7
  6
CONTINUOUS
 10
0.197630
 20
-0.075119
 30
0.000000
 11
0.193126
 21
-0.081342
 31
0.000000
  0
LINE
  8
0
 62
     7
  6
CONTINUOUS
 10
0.201060
 20
-0.068244
 30
0.000000
 11
0.197630
 21
-0.075119
 31
0.000000
  0
LINE
  8
0
 62
     7
  6
CONTINUOUS
 10
0.202314
 20
-0.064610
 30
0.000000
 11
0.201060
 21
-0.068244
 31
0.000000
  0
LINE
  8
0
 62
     7
  6
CONTINUOUS
 10
0.203213
 20
-0.060872
 30
0.000000
 11
0.202314
 21
-0.064610
 31
0.000000
  0
LINE
  8
0
 62
     7
  6
CONTINUOUS
 10
0.203681
 20
-0.057056
 30
0.000000
 11
0.203213
 21
-0.060872
 31
0.000000
  0
LINE
  8
0
 62
     7
  6
CONTINUOUS
 10
0.202476
 20
-0.065961
 30
0.000000
 11
0.195999
 21
-0.061309
 31
0.000000
  0
LINE
  8
0
 62
     7
  6
CONTINUOUS
 10
0.209458
 20
-0.069823
 30
0.000000
 11
0.202476
 21
-0.065961
 31
0.000000
  0
LINE
  8
0
 62
     7
  6
CONTINUOUS
 10
0.224290
 20
-0.075662
 30
0.000000
 11
0.209458
 21
-0.069823
 31
0.000000
  0
LINE
  8
0
 62
     7
  6
CONTINUOUS
 10
0.232050
 20
-0.077496
 30
0.000000
 11
0.224290
 21
-0.075662
 31
0.000000
  0
LINE
  8
0
 62
     7
  6
CONTINUOUS
 10
0.236011
 20
-0.077969
 30
0.000000
 11
0.232050
 21
-0.077496
 31
0.000000
  0
LINE
  8
0
 62
     7
  6
CONTINUOUS
 10
0.240000
 20
-0.078029
 30
0.000000
 11
0.236011
 21
-0.077969
 31
0.000000
  0
LINE
  8
0
 62
     7
  6
CONTINUOUS
 10
0.243962
 20
-0.077561
 30
0.000000
 11
0.240000
 21
-0.078029
 31
0.000000
  0
LINE
  8
0
 62
     7
  6
CONTINUOUS
 10
0.245902
 20
-0.077089
 30
0.000000
 11
0.243962
 21
-0.077561
 31
0.000000
  0
LINE
  8
0
 62
     7
  6
CONTINUOUS
 10
0.247788
 20
-0.076437
 30
0.000000
 11
0.245902
 21
-0.077089
 31
0.000000
  0
LINE
  8
0
 62
     7
  6
CONTINUOUS
 10
0.249599
 20
-0.075595
 30
0.000000
 11
0.247788
 21
-0.076437
 31
0.000000
  0
LINE
  8
0
 62
     7
  6
CONTINUOUS
 10
0.251308
 20
-0.074565
 30
0.000000
 11
0.249599
 21
-0.075595
 31
0.000000
  0
LINE
  8
0
 62
     7
  6
CONTINUOUS
 10
0.252894
 20
-0.073351
 30
0.000000
 11
0.251308
 21
-0.074565
 31
0.000000
  0
LINE
  8
0
 62
     7
  6
CONTINUOUS
 10
0.254335
 20
-0.071971
 30
0.000000
 11
0.252894
 21
-0.073351
 31
0.000000
  0
LINE
  8
0
 62
     7
  6
CONTINUOUS
 10
0.255622
 20
-0.070444
 30
0.000000
 11
0.254335
 21
-0.071971
 31
0.000000
  0
LINE
  8
0
 62
     7
  6
CONTINUOUS
 10
0.256752
 20
-0.068800
 30
0.000000
 11
0.255622
 21
-0.070444
 31
0.000000
  0
LINE
  8
0
 62
     7
  6
CONTINUOUS
 10
0.257730
 20
-0.067061
 30
0.000000
 11
0.256752
 21
-0.068800
 31
0.000000
  0
LINE
  8
0
 62
     7
  6
CONTINUOUS
 10
0.259271
 20
-0.063383
 30
0.000000
 11
0.257730
 21
-0.067061
 31
0.000000
  0
LINE
  8
0
 62
     7
  6
CONTINUOUS
 10
0.260335
 20
-0.059541
 30
0.000000
 11
0.259271
 21
-0.063383
 31
0.000000
  0
LINE
  8
0
 62
     7
  6
CONTINUOUS
 10
0.261374
 20
-0.051641
 30
0.000000
 11
0.260335
 21
-0.059541
 31
0.000000
  0
LINE
  8
0
 62
     7
  6
CONTINUOUS
 10
0.261375
 20
-0.043669
 30
0.000000
 11
0.261374
 21
-0.051641
 31
0.000000
  0
LINE
  8
0
 62
     7
  6
CONTINUOUS
 10
0.258135
 20
-0.049139
 30
0.000000
 11
0.252341
 21
-0.044290
 31
0.000000
  0
LINE
  8
0
 62
     7
  6
CONTINUOUS
 10
0.252341
 20
-0.044290
 30
0.000000
 11
0.231530
 21
-0.022397
 31
0.000000
  0
LINE
  8
0
 62
     7
  6
CONTINUOUS
 10
0.231530
 20
-0.022397
 30
0.000000
 11
0.195073
 21
0.025779
 31
0.000000
  0
LINE
  8
0
 62
     7
  6
CONTINUOUS
 10
0.195073
 20
0.025779
 30
0.000000
 11
0.178113
 21
0.053039
 31
0.000000
  0
LINE
  8
0
 62
     7
  6
CONTINUOUS
 10
0.178113
 20
0.053039
 30
0.000000
 11
0.163937
 21
0.081828
 31
0.000000
  0
LINE
  8
0
 62
     7
  6
CONTINUOUS
 10
0.163937
 20
0.081828
 30
0.004463
 11
0.160650
 21
0.091162
 31
0.004463
  0
LINE
  8
LEFT_SIDE_STI0
 62
     5
  6
CONTINUOUS
 10
0.159375
 20
0.063750
 30
0.000000
 11
0.159375
 21
0.286875
 31
0.000000
  0
LINE
  8
LEFT_SIDE_STI0
 62
     5
  6
CONTINUOUS
 10
0.159150
 20
0.286634
 30
0.000000
 11
0.137147
 21
0.271402
 31
0.000000
  0
LINE
  8
LEFT_SIDE_STI0
 62
     5
  6
CONTINUOUS
 10
0.137147
 20
0.271402
 30
0.000000
 11
0.137063
 21
0.255000
 31
0.000000
  0
LINE
  8
0
 62
     7
  6
CONTINUOUS
 10
0.169092
 20
0.229580
 30
0.000000
 11
0.163488
 21
0.221428
 31
0.000000
  0
LINE
  8
0
 62
     7
  6
CONTINUOUS
 10
0.163488
 20
0.221428
 30
0.000000
 11
0.158884
 21
0.212675
 31
0.000000
  0
LINE
  8
0
 62
     7
  6
CONTINUOUS
 10
0.158884
 20
0.212675
 30
0.000000
 11
0.157158
 21
0.208037
 31
0.000000
  0
LINE
  8
0
 62
     7
  6
CONTINUOUS
 10
0.157083
 20
0.207734
 30
0.000000
 11
0.158678
 21
0.212188
 31
0.000000
  0
LINE
  8
0
 62
     7
  6
CONTINUOUS
 10
0.158678
 20
0.212188
 30
0.000000
 11
0.163200
 21
0.220955
 31
0.000000
  0
LINE
  8
0
 62
     7
  6
CONTINUOUS
 10
0.163200
 20
0.220955
 30
0.000000
 11
0.168743
 21
0.229119
 31
0.000000
  0
LINE
  8
0
 62
     7
  6
CONTINUOUS
 10
0.168743
 20
0.229119
 30
0.000000
 11
0.175032
 21
0.236726
 31
0.000000
  0
LINE
  8
0
 62
     7
  6
CONTINUOUS
 10
0.175032
 20
0.236726
 30
0.000000
 11
0.189429
 21
0.250207
 31
0.000000
  0
LINE
  8
0
 62
     7
  6
CONTINUOUS
 10
0.189429
 20
0.250207
 30
0.000000
 11
0.205887
 21
0.261074
 31
0.000000
  0
LINE
  8
0
 62
     7
  6
CONTINUOUS
 10
0.205887
 20
0.261074
 30
0.000000
 11
0.214774
 21
0.265368
 31
0.000000
  0
LINE
  8
0
 62
     7
  6
CONTINUOUS
 10
0.214774
 20
0.265368
 30
0.000000
 11
0.224024
 21
0.268816
 31
0.000000
  0
LINE
  8
0
 62
     7
  6
CONTINUOUS
 10
0.224024
 20
0.268816
 30
0.000000
 11
0.233563
 21
0.271353
 31
0.000000
  0
LINE
  8
0
 62
     7
  6
CONTINUOUS
 10
0.233563
 20
0.271353
 30
0.000000
 11
0.253054
 21
0.274464
 31
0.000000
  0
LINE
  8
0
 62
     7
  6
CONTINUOUS
 10
0.253054
 20
0.274464
 30
0.000000
 11
0.331852
 21
0.279313
 31
0.000000
  0
LINE
  8
0
 62
     7
  6
CONTINUOUS
 10
0.331852
 20
0.279313
 30
0.000000
 11
0.489775
 21
0.279340
 31
0.000000
  0
LINE
  8
0
 62
     7
  6
CONTINUOUS
 10
0.489775
 20
0.279340
 30
0.000000
 11
0.529233
 21
0.280879
 31
0.000000
  0
LINE
  8
0
 62
     7
  6
CONTINUOUS
 10
0.529233
 20
0.280879
 30
0.000000
 11
0.539083
 21
0.281512
 31
0.000000
  0
LINE
  8
0
 62
     7
  6
CONTINUOUS
 10
0.539083
 20
0.281512
 30
0.000000
 11
0.544020
 21
0.281898
 31
0.000000
  0
LINE
  8
0
 62
     7
  6
CONTINUOUS
 10
0.544020
 20
0.281898
 30
0.000000
 11
0.546259
 21
0.281866
 31
0.000000
  0
LINE
  8
0
 62
     7
  6
CONTINUOUS
 10
0.546259
 20
0.281866
 30
0.000000
 11
0.547472
 21
0.281954
 31
0.000000
  0
LINE
  8
0
 62
     7
  6
CONTINUOUS
 10
0.547472
 20
0.281954
 30
0.000000
 11
0.548874
 21
0.282247
 31
0.000000
  0
LINE
  8
0
 62
     7
  6
CONTINUOUS
 10
0.548874
 20
0.282247
 30
0.000000
 11
0.552065
 21
0.283259
 31
0.000000
  0
LINE
  8
0
 62
     7
  6
CONTINUOUS
 10
0.552065
 20
0.283259
 30
0.000000
 11
0.552394
 21
0.283313
 31
0.000000
  0
LINE
  8
0
 62
     7
  6
CONTINUOUS
 10
0.552406
 20
0.283315
 30
0.000000
 11
0.551717
 21
0.283176
 31
0.000000
  0
LINE
  8
0
 62
     7
  6
CONTINUOUS
 10
0.550929
 20
0.282933
 30
0.000000
 11
0.551717
 21
0.283176
 31
0.000000
  0
LINE
  8
0
 62
     7
  6
CONTINUOUS
 10
0.550929
 20
0.282933
 30
0.000000
 11
0.549273
 21
0.282366
 31
0.000000
  0
LINE
  8
0
 62
     7
  6
CONTINUOUS
 10
0.549273
 20
0.282366
 30
0.000000
 11
0.547804
 21
0.282004
 31
0.000000
  0
LINE
  8
0
 62
     7
  6
CONTINUOUS
 10
0.547804
 20
0.282004
 30
0.000000
 11
0.546549
 21
0.281874
 31
0.000000
  0
LINE
  8
0
 62
     7
  6
CONTINUOUS
 10
0.546549
 20
0.281874
 30
0.000000
 11
0.545413
 21
0.281873
 31
0.000000
  0
LINE
  8
0
 62
     7
  6
CONTINUOUS
 10
0.545413
 20
0.281873
 30
0.000000
 11
0.540648
 21
0.281666
 31
0.000000
  0
LINE
  8
0
 62
     7
  6
CONTINUOUS
 10
0.540648
 20
0.281666
 30
0.000000
 11
0.530735
 21
0.280970
 31
0.000000
  0
LINE
  8
0
 62
     7
  6
CONTINUOUS
 10
0.530735
 20
0.280970
 30
0.000000
 11
0.491180
 21
0.279369
 31
0.000000
  0
LINE
  8
0
 62
     7
  6
CONTINUOUS
 10
0.491180
 20
0.279369
 30
0.000000
 11
0.332867
 21
0.279341
 31
0.000000
  0
LINE
  8
0
 62
     7
  6
CONTINUOUS
 10
0.332867
 20
0.279341
 30
0.000000
 11
0.253869
 21
0.274561
 31
0.000000
  0
LINE
  8
0
 62
     7
  6
CONTINUOUS
 10
0.253869
 20
0.274561
 30
0.000000
 11
0.234318
 21
0.271516
 31
0.000000
  0
LINE
  8
0
 62
     7
  6
CONTINUOUS
 10
0.234318
 20
0.271516
 30
0.000000
 11
0.224738
 21
0.269040
 31
0.000000
  0
LINE
  8
0
 62
     7
  6
CONTINUOUS
 10
0.224738
 20
0.269040
 30
0.000000
 11
0.215441
 21
0.265650
 31
0.000000
  0
LINE
  8
0
 62
     7
  6
CONTINUOUS
 10
0.215441
 20
0.265650
 30
0.000000
 11
0.206503
 21
0.261405
 31
0.000000
  0
LINE
  8
0
 62
     7
  6
CONTINUOUS
 10
0.206503
 20
0.261405
 30
0.000000
 11
0.189941
 21
0.250609
 31
0.000000
  0
LINE
  8
0
 62
     7
  6
CONTINUOUS
 10
0.189941
 20
0.250609
 30
0.000000
 11
0.175437
 21
0.237172
 31
0.000000
  0
LINE
  8
0
 62
     7
  6
CONTINUOUS
 10
0.175437
 20
0.237172
 30
0.000000
 11
0.169092
 21
0.229580
 31
0.000000
  0
LINE
  8
0
 62
     7
  6
CONTINUOUS
 10
0.199284
 20
0.153277
 30
0.004463
 11
0.199219
 21
0.153319
 31
0.004463
  0
LINE
  8
0
 62
     7
  6
CONTINUOUS
 10
0.182644
 20
0.058013
 30
0.000000
 11
0.183233
 21
0.056220
 31
0.000000
  0
LINE
  8
0
 62
     7
  6
CONTINUOUS
 10
0.183233
 20
0.056220
 30
0.000000
 11
0.183622
 21
0.054377
 31
0.000000
  0
LINE
  8
0
 62
     7
  6
CONTINUOUS
 10
0.183622
 20
0.054377
 30
0.000000
 11
0.183794
 21
0.052498
 31
0.000000
  0
LINE
  8
0
 62
     7
  6
CONTINUOUS
 10
0.156776
 20
-0.001990
 30
0.000000
 11
0.151289
 21
0.013629
 31
0.000000
  0
LINE
  8
0
 62
     7
  6
CONTINUOUS
 10
0.170869
 20
-0.030582
 30
0.000000
 11
0.156776
 21
-0.001990
 31
0.000000
  0
LINE
  8
0
 62
     7
  6
CONTINUOUS
 10
0.179682
 20
-0.043872
 30
0.000000
 11
0.170869
 21
-0.030582
 31
0.000000
  0
LINE
  8
0
 62
     7
  6
CONTINUOUS
 10
0.190083
 20
-0.055953
 30
0.000000
 11
0.179682
 21
-0.043872
 31
0.000000
  0
LINE
  8
0
 62
     7
  6
CONTINUOUS
 10
0.195999
 20
-0.061309
 30
0.000000
 11
0.190083
 21
-0.055953
 31
0.000000
  0
LINE
  8
0
 62
     7
  6
CONTINUOUS
 10
0.138840
 20
-0.057492
 30
0.000000
 11
0.132196
 21
-0.025269
 31
0.000000
  0
LINE
  8
DEFAULT
 62
     5
  6
CONTINUOUS
 10
0.196278
 20
-0.137162
 30
0.000000
 11
0.193654
 21
-0.137213
 31
0.000000
  0
LINE
  8
DEFAULT
 62
     5
  6
CONTINUOUS
 10
0.198850
 20
-0.137264
 30
0.000000
 11
0.196278
 21
-0.137162
 31
0.000000
  0
LINE
  8
DEFAULT
 62
     5
  6
CONTINUOUS
 10
0.201474
 20
-0.137626
 30
0.000000
 11
0.198850
 21
-0.137264
 31
0.000000
  0
LINE
  8
DEFAULT
 62
     5
  6
CONTINUOUS
 10
0.204046
 20
-0.138137
 30
0.000000
 11
0.201474
 21
-0.137626
 31
0.000000
  0
LINE
  8
DEFAULT
 62
     5
  6
CONTINUOUS
 10
0.206515
 20
-0.138909
 30
0.000000
 11
0.204046
 21
-0.138137
 31
0.000000
  0
LINE
  8
DEFAULT
 62
     5
  6
CONTINUOUS
 10
0.208984
 20
-0.139837
 30
0.000000
 11
0.206515
 21
-0.138909
 31
0.000000
  0
LINE
  8
DEFAULT
 62
     5
  6
CONTINUOUS
 10
0.211350
 20
-0.140966
 30
0.000000
 11
0.208984
 21
-0.139837
 31
0.000000
  0
LINE
  8
DEFAULT
 62
     5
  6
CONTINUOUS
 10
0.213613
 20
-0.142253
 30
0.000000
 11
0.211350
 21
-0.140966
 31
0.000000
  0
LINE
  8
DEFAULT
 62
     5
  6
CONTINUOUS
 10
0.215773
 20
-0.143744
 30
0.000000
 11
0.213613
 21
-0.142253
 31
0.000000
  0
LINE
  8
DEFAULT
 62
     5
  6
CONTINUOUS
 10
0.217780
 20
-0.145393
 30
0.000000
 11
0.215773
 21
-0.143744
 31
0.000000
  0
LINE
  8
DEFAULT
 62
     5
  6
CONTINUOUS
 10
0.217780
 20
-0.156863
 30
0.000000
 11
0.217780
 21
-0.138346
 31
0.000000
  0
LINE
  8
DEFAULT
 62
     5
  6
CONTINUOUS
 10
0.234106
 20
-0.140964
 30
0.000000
 11
0.250679
 21
-0.140964
 31
0.000000
  0
LINE
  8
DEFAULT
 62
     5
  6
CONTINUOUS
 10
0.242393
 20
-0.140964
 30
0.000000
 11
0.242393
 21
-0.186187
 31
0.000000
  0
LINE
  8
DEFAULT
 62
     5
  6
CONTINUOUS
 10
0.242393
 20
-0.186187
 30
0.000000
 11
0.242448
 21
-0.188270
 31
0.000000
  0
LINE
  8
DEFAULT
 62
     5
  6
CONTINUOUS
 10
0.242448
 20
-0.188270
 30
0.000000
 11
0.242776
 21
-0.190302
 31
0.000000
  0
LINE
  8
DEFAULT
 62
     5
  6
CONTINUOUS
 10
0.242776
 20
-0.190302
 30
0.000000
 11
0.243326
 21
-0.192330
 31
0.000000
  0
LINE
  8
DEFAULT
 62
     5
  6
CONTINUOUS
 10
0.243326
 20
-0.192330
 30
0.000000
 11
0.244037
 21
-0.194252
 31
0.000000
  0
LINE
  8
DEFAULT
 62
     5
  6
CONTINUOUS
 10
0.244037
 20
-0.194252
 30
0.000000
 11
0.244970
 21
-0.196118
 31
0.000000
  0
LINE
  8
DEFAULT
 62
     5
  6
CONTINUOUS
 10
0.244970
 20
-0.196118
 30
0.000000
 11
0.246125
 21
-0.197818
 31
0.000000
  0
LINE
  8
DEFAULT
 62
     5
  6
CONTINUOUS
 10
0.246125
 20
-0.197818
 30
0.000000
 11
0.247386
 21
-0.199467
 31
0.000000
  0
LINE
  8
DEFAULT
 62
     5
  6
CONTINUOUS
 10
0.247386
 20
-0.199467
 30
0.000000
 11
0.248869
 21
-0.200894
 31
0.000000
  0
LINE
  8
DEFAULT
 62
     5
  6
CONTINUOUS
 10
0.248869
 20
-0.200894
 30
0.000000
 11
0.250462
 21
-0.202211
 31
0.000000
  0
LINE
  8
DEFAULT
 62
     5
  6
CONTINUOUS
 10
0.250462
 20
-0.202211
 30
0.000000
 11
0.252218
 21
-0.203306
 31
0.000000
  0
LINE
  8
DEFAULT
 62
     5
  6
CONTINUOUS
 10
0.252218
 20
-0.203306
 30
0.000000
 11
0.254084
 21
-0.204239
 31
0.000000
  0
LINE
  8
DEFAULT
 62
     5
  6
CONTINUOUS
 10
0.254084
 20
-0.204239
 30
0.000000
 11
0.256001
 21
-0.205010
 31
0.000000
  0
LINE
  8
DEFAULT
 62
     5
  6
CONTINUOUS
 10
0.256001
 20
-0.205010
 30
0.000000
 11
0.257978
 21
-0.205504
 31
0.000000
  0
LINE
  8
DEFAULT
 62
     5
  6
CONTINUOUS
 10
0.257978
 20
-0.205504
 30
0.000000
 11
0.260066
 21
-0.205832
 31
0.000000
  0
LINE
  8
DEFAULT
 62
     5
  6
CONTINUOUS
 10
0.260066
 20
-0.205832
 30
0.000000
 11
0.262094
 21
-0.205943
 31
0.000000
  0
LINE
  8
DEFAULT
 62
     5
  6
CONTINUOUS
 10
0.262094
 20
-0.205943
 30
0.000000
 11
0.264181
 21
-0.205832
 31
0.000000
  0
LINE
  8
DEFAULT
 62
     5
  6
CONTINUOUS
 10
0.264181
 20
-0.205832
 30
0.000000
 11
0.266209
 21
-0.205504
 31
0.000000
  0
LINE
  8
DEFAULT
 62
     5
  6
CONTINUOUS
 10
0.266209
 20
-0.205504
 30
0.000000
 11
0.268242
 21
-0.205010
 31
0.000000
  0
LINE
  8
DEFAULT
 62
     5
  6
CONTINUOUS
 10
0.268242
 20
-0.205010
 30
0.000000
 11
0.270163
 21
-0.204239
 31
0.000000
  0
LINE
  8
DEFAULT
 62
     5
  6
CONTINUOUS
 10
0.270163
 20
-0.204239
 30
0.000000
 11
0.272029
 21
-0.203306
 31
0.000000
  0
LINE
  8
DEFAULT
 62
     5
  6
CONTINUOUS
 10
0.272029
 20
-0.203306
 30
0.000000
 11
0.273729
 21
-0.202211
 31
0.000000
  0
LINE
  8
DEFAULT
 62
     5
  6
CONTINUOUS
 10
0.273729
 20
-0.202211
 30
0.000000
 11
0.275374
 21
-0.200894
 31
0.000000
  0
LINE
  8
DEFAULT
 62
     5
  6
CONTINUOUS
 10
0.275374
 20
-0.200894
 30
0.000000
 11
0.276801
 21
-0.199467
 31
0.000000
  0
LINE
  8
DEFAULT
 62
     5
  6
CONTINUOUS
 10
0.276801
 20
-0.199467
 30
0.000000
 11
0.278118
 21
-0.197818
 31
0.000000
  0
LINE
  8
DEFAULT
 62
     5
  6
CONTINUOUS
 10
0.278118
 20
-0.197818
 30
0.000000
 11
0.279273
 21
-0.196118
 31
0.000000
  0
LINE
  8
DEFAULT
 62
     5
  6
CONTINUOUS
 10
0.279273
 20
-0.196118
 30
0.000000
 11
0.280206
 21
-0.194252
 31
0.000000
  0
LINE
  8
DEFAULT
 62
     5
  6
CONTINUOUS
 10
0.280206
 20
-0.194252
 30
0.000000
 11
0.280917
 21
-0.192330
 31
0.000000
  0
LINE
  8
DEFAULT
 62
     5
  6
CONTINUOUS
 10
0.280917
 20
-0.192330
 30
0.000000
 11
0.281467
 21
-0.190302
 31
0.000000
  0
LINE
  8
DEFAULT
 62
     5
  6
CONTINUOUS
 10
0.281467
 20
-0.190302
 30
0.000000
 11
0.281795
 21
-0.188270
 31
0.000000
  0
LINE
  8
DEFAULT
 62
     5
  6
CONTINUOUS
 10
0.281795
 20
-0.188270
 30
0.000000
 11
0.281850
 21
-0.186187
 31
0.000000
  0
LINE
  8
DEFAULT
 62
     5
  6
CONTINUOUS
 10
0.281850
 20
-0.186187
 30
0.000000
 11
0.281850
 21
-0.140964
 31
0.000000
  0
LINE
  8
DEFAULT
 62
     5
  6
CONTINUOUS
 10
0.273564
 20
-0.140964
 30
0.000000
 11
0.290137
 21
-0.140964
 31
0.000000
  0
LINE
  8
DEFAULT
 62
     5
  6
CONTINUOUS
 10
0.302885
 20
-0.140841
 30
0.000000
 11
0.311219
 21
-0.140841
 31
0.000000
  0
LINE
  8
DEFAULT
 62
     5
  6
CONTINUOUS
 10
0.311219
 20
-0.140841
 30
0.000000
 11
0.348206
 21
-0.204678
 31
0.000000
  0
LINE
  8
DEFAULT
 62
     5
  6
CONTINUOUS
 10
0.348206
 20
-0.204678
 30
0.000000
 11
0.348206
 21
-0.140841
 31
0.000000
  0
LINE
  8
DEFAULT
 62
     5
  6
CONTINUOUS
 10
0.339923
 20
-0.140841
 30
0.000000
 11
0.356486
 21
-0.140841
 31
0.000000
  0
LINE
  8
DEFAULT
 62
     5
  6
CONTINUOUS
 10
0.311219
 20
-0.140841
 30
0.000000
 11
0.311219
 21
-0.204678
 31
0.000000
  0
LINE
  8
DEFAULT
 62
     5
  6
CONTINUOUS
 10
0.319500
 20
-0.204678
 30
0.000000
 11
0.302885
 21
-0.204678
 31
0.000000
  0
LINE
  8
DEFAULT
 62
     5
  6
CONTINUOUS
 10
0.385863
 20
-0.204678
 30
0.000000
 11
0.369249
 21
-0.204678
 31
0.000000
  0
LINE
  8
DEFAULT
 62
     5
  6
CONTINUOUS
 10
0.377583
 20
-0.140841
 30
0.000000
 11
0.377583
 21
-0.204678
 31
0.000000
  0
LINE
  8
DEFAULT
 62
     5
  6
CONTINUOUS
 10
0.369249
 20
-0.140841
 30
0.000000
 11
0.377583
 21
-0.140841
 31
0.000000
  0
LINE
  8
DEFAULT
 62
     5
  6
CONTINUOUS
 10
0.377583
 20
-0.140841
 30
0.000000
 11
0.414569
 21
-0.204678
 31
0.000000
  0
LINE
  8
DEFAULT
 62
     5
  6
CONTINUOUS
 10
0.414569
 20
-0.204678
 30
0.000000
 11
0.414569
 21
-0.140841
 31
0.000000
  0
LINE
  8
DEFAULT
 62
     5
  6
CONTINUOUS
 10
0.406287
 20
-0.140841
 30
0.000000
 11
0.422850
 21
-0.140841
 31
0.000000
  0
LINE
  8
DEFAULT
 62
     5
  6
CONTINUOUS
 10
0.435613
 20
-0.140841
 30
0.000000
 11
0.477073
 21
-0.140841
 31
0.000000
  0
LINE
  8
DEFAULT
 62
     5
  6
CONTINUOUS
 10
0.477073
 20
-0.140841
 30
0.000000
 11
0.477073
 21
-0.151693
 31
0.000000
  0
LINE
  8
DEFAULT
 62
     5
  6
CONTINUOUS
 10
0.464935
 20
-0.179165
 30
0.000000
 11
0.464935
 21
-0.163835
 31
0.000000
  0
LINE
  8
DEFAULT
 62
     5
  6
CONTINUOUS
 10
0.464935
 20
-0.171500
 30
0.000000
 11
0.443894
 21
-0.171500
 31
0.000000
  0
LINE
  8
DEFAULT
 62
     5
  6
CONTINUOUS
 10
0.443894
 20
-0.140841
 30
0.000000
 11
0.443894
 21
-0.204678
 31
0.000000
  0
LINE
  8
DEFAULT
 62
     5
  6
CONTINUOUS
 10
0.435613
 20
-0.204678
 30
0.000000
 11
0.477742
 21
-0.204678
 31
0.000000
  0
LINE
  8
DEFAULT
 62
     5
  6
CONTINUOUS
 10
0.477742
 20
-0.204678
 30
0.000000
 11
0.477742
 21
-0.189966
 31
0.000000
  0
LINE
  8
DEFAULT
 62
     5
  6
CONTINUOUS
 10
0.490502
 20
-0.204678
 30
0.000000
 11
0.507075
 21
-0.204678
 31
0.000000
  0
LINE
  8
DEFAULT
 62
     5
  6
CONTINUOUS
 10
0.498789
 20
-0.204678
 30
0.000000
 11
0.498789
 21
-0.140964
 31
0.000000
  0
LINE
  8
DEFAULT
 62
     5
  6
CONTINUOUS
 10
0.490502
 20
-0.140964
 30
0.000000
 11
0.519150
 21
-0.140964
 31
0.000000
  0
LINE
  8
DEFAULT
 62
     5
  6
CONTINUOUS
 10
0.519150
 20
-0.140964
 30
0.000000
 11
0.521016
 21
-0.141075
 31
0.000000
  0
LINE
  8
DEFAULT
 62
     5
  6
CONTINUOUS
 10
0.521016
 20
-0.141075
 30
0.000000
 11
0.522827
 21
-0.141403
 31
0.000000
  0
LINE
  8
DEFAULT
 62
     5
  6
CONTINUOUS
 10
0.522827
 20
-0.141403
 30
0.000000
 11
0.524582
 21
-0.141953
 31
0.000000
  0
LINE
  8
DEFAULT
 62
     5
  6
CONTINUOUS
 10
0.524582
 20
-0.141953
 30
0.000000
 11
0.526282
 21
-0.142720
 31
0.000000
  0
LINE
  8
DEFAULT
 62
     5
  6
CONTINUOUS
 10
0.526282
 20
-0.142720
 30
0.000000
 11
0.527821
 21
-0.143708
 31
0.000000
  0
LINE
  8
DEFAULT
 62
     5
  6
CONTINUOUS
 10
0.527821
 20
-0.143708
 30
0.000000
 11
0.529303
 21
-0.144807
 31
0.000000
  0
LINE
  8
DEFAULT
 62
     5
  6
CONTINUOUS
 10
0.529303
 20
-0.144807
 30
0.000000
 11
0.530620
 21
-0.146124
 31
0.000000
  0
LINE
  8
DEFAULT
 62
     5
  6
CONTINUOUS
 10
0.530620
 20
-0.146124
 30
0.000000
 11
0.531715
 21
-0.147606
 31
0.000000
  0
LINE
  8
DEFAULT
 62
     5
  6
CONTINUOUS
 10
0.531715
 20
-0.147606
 30
0.000000
 11
0.532703
 21
-0.149140
 31
0.000000
  0
LINE
  8
DEFAULT
 62
     5
  6
CONTINUOUS
 10
0.532703
 20
-0.149140
 30
0.000000
 11
0.533474
 21
-0.150844
 31
0.000000
  0
LINE
  8
DEFAULT
 62
     5
  6
CONTINUOUS
 10
0.533474
 20
-0.150844
 30
0.000000
 11
0.534020
 21
-0.152600
 31
0.000000
  0
LINE
  8
DEFAULT
 62
     5
  6
CONTINUOUS
 10
0.534020
 20
-0.152600
 30
0.000000
 11
0.534352
 21
-0.154411
 31
0.000000
  0
LINE
  8
DEFAULT
 62
     5
  6
CONTINUOUS
 10
0.534352
 20
-0.154411
 30
0.000000
 11
0.534459
 21
-0.156277
 31
0.000000
  0
LINE
  8
DEFAULT
 62
     5
  6
CONTINUOUS
 10
0.534459
 20
-0.156277
 30
0.000000
 11
0.534352
 21
-0.158088
 31
0.000000
  0
LINE
  8
DEFAULT
 62
     5
  6
CONTINUOUS
 10
0.534352
 20
-0.158088
 30
0.000000
 11
0.534020
 21
-0.159898
 31
0.000000
  0
LINE
  8
DEFAULT
 62
     5
  6
CONTINUOUS
 10
0.534020
 20
-0.159898
 30
0.000000
 11
0.533474
 21
-0.161709
 31
0.000000
  0
LINE
  8
DEFAULT
 62
     5
  6
CONTINUOUS
 10
0.533474
 20
-0.161709
 30
0.000000
 11
0.532703
 21
-0.163354
 31
0.000000
  0
LINE
  8
DEFAULT
 62
     5
  6
CONTINUOUS
 10
0.532703
 20
-0.163354
 30
0.000000
 11
0.531715
 21
-0.164947
 31
0.000000
  0
LINE
  8
DEFAULT
 62
     5
  6
CONTINUOUS
 10
0.531715
 20
-0.164947
 30
0.000000
 11
0.530620
 21
-0.166375
 31
0.000000
  0
LINE
  8
DEFAULT
 62
     5
  6
CONTINUOUS
 10
0.530620
 20
-0.166375
 30
0.000000
 11
0.529303
 21
-0.167691
 31
0.000000
  0
LINE
  8
DEFAULT
 62
     5
  6
CONTINUOUS
 10
0.529303
 20
-0.167691
 30
0.000000
 11
0.527821
 21
-0.168841
 31
0.000000
  0
LINE
  8
DEFAULT
 62
     5
  6
CONTINUOUS
 10
0.527821
 20
-0.168841
 30
0.000000
 11
0.526282
 21
-0.169775
 31
0.000000
  0
LINE
  8
DEFAULT
 62
     5
  6
CONTINUOUS
 10
0.526282
 20
-0.169775
 30
0.000000
 11
0.524582
 21
-0.170546
 31
0.000000
  0
LINE
  8
DEFAULT
 62
     5
  6
CONTINUOUS
 10
0.524582
 20
-0.170546
 30
0.000000
 11
0.522827
 21
-0.171091
 31
0.000000
  0
LINE
  8
DEFAULT
 62
     5
  6
CONTINUOUS
 10
0.522827
 20
-0.171091
 30
0.000000
 11
0.521016
 21
-0.171423
 31
0.000000
  0
LINE
  8
DEFAULT
 62
     5
  6
CONTINUOUS
 10
0.521016
 20
-0.171423
 30
0.000000
 11
0.519150
 21
-0.171530
 31
0.000000
  0
LINE
  8
DEFAULT
 62
     5
  6
CONTINUOUS
 10
0.519150
 20
-0.171530
 30
0.000000
 11
0.498789
 21
-0.171530
 31
0.000000
  0
LINE
  8
DEFAULT
 62
     5
  6
CONTINUOUS
 10
0.519150
 20
-0.171530
 30
0.000000
 11
0.520795
 21
-0.171641
 31
0.000000
  0
LINE
  8
DEFAULT
 62
     5
  6
CONTINUOUS
 10
0.520795
 20
-0.171641
 30
0.000000
 11
0.522444
 21
-0.171973
 31
0.000000
  0
LINE
  8
DEFAULT
 62
     5
  6
CONTINUOUS
 10
0.522444
 20
-0.171973
 30
0.000000
 11
0.524033
 21
-0.172518
 31
0.000000
  0
LINE
  8
DEFAULT
 62
     5
  6
CONTINUOUS
 10
0.524033
 20
-0.172518
 30
0.000000
 11
0.525516
 21
-0.173234
 31
0.000000
  0
LINE
  8
DEFAULT
 62
     5
  6
CONTINUOUS
 10
0.525516
 20
-0.173234
 30
0.000000
 11
0.526943
 21
-0.174167
 31
0.000000
  0
LINE
  8
DEFAULT
 62
     5
  6
CONTINUOUS
 10
0.526943
 20
-0.174167
 30
0.000000
 11
0.528204
 21
-0.175262
 31
0.000000
  0
LINE
  8
DEFAULT
 62
     5
  6
CONTINUOUS
 10
0.528204
 20
-0.175262
 30
0.000000
 11
0.529303
 21
-0.176528
 31
0.000000
  0
LINE
  8
DEFAULT
 62
     5
  6
CONTINUOUS
 10
0.529303
 20
-0.176528
 30
0.000000
 11
0.530236
 21
-0.177900
 31
0.000000
  0
LINE
  8
DEFAULT
 62
     5
  6
CONTINUOUS
 10
0.530236
 20
-0.177900
 30
0.000000
 11
0.530948
 21
-0.179378
 31
0.000000
  0
LINE
  8
DEFAULT
 62
     5
  6
CONTINUOUS
 10
0.530948
 20
-0.179378
 30
0.000000
 11
0.531497
 21
-0.180971
 31
0.000000
  0
LINE
  8
DEFAULT
 62
     5
  6
CONTINUOUS
 10
0.531497
 20
-0.180971
 30
0.000000
 11
0.531770
 21
-0.182616
 31
0.000000
  0
LINE
  8
DEFAULT
 62
     5
  6
CONTINUOUS
 10
0.531770
 20
-0.182616
 30
0.000000
 11
0.531881
 21
-0.184265
 31
0.000000
  0
LINE
  8
DEFAULT
 62
     5
  6
CONTINUOUS
 10
0.531881
 20
-0.184265
 30
0.000000
 11
0.531881
 21
-0.204678
 31
0.000000
  0
LINE
  8
DEFAULT
 62
     5
  6
CONTINUOUS
 10
0.531881
 20
-0.204678
 30
0.000000
 11
0.540168
 21
-0.204678
 31
0.000000
  0
LINE
  8
0
 62
     7
  6
CONTINUOUS
 10
0.389232
 20
-0.003290
 30
0.000000
 11
0.381736
 21
-0.003413
 31
0.000000
  0
LINE
  8
0
 62
     7
  6
CONTINUOUS
 10
0.381736
 20
-0.003413
 30
0.000000
 11
0.374278
 21
-0.002652
 31
0.000000
  0
LINE
  8
0
 62
     7
  6
CONTINUOUS
 10
0.374278
 20
-0.002652
 30
0.000000
 11
0.366951
 21
-0.001064
 31
0.000000
  0
LINE
  8
0
 62
     7
  6
CONTINUOUS
 10
0.396651
 20
-0.002213
 30
0.000000
 11
0.389232
 21
-0.003290
 31
0.000000
  0
LINE
  8
0
 62
     7
  6
CONTINUOUS
 10
0.403846
 20
-0.000113
 30
0.000000
 11
0.396651
 21
-0.002213
 31
0.000000
  0
LINE
  8
0
 62
     7
  6
CONTINUOUS
 10
0.410619
 20
0.003095
 30
0.000000
 11
0.403846
 21
-0.000113
 31
0.000000
  0
LINE
  8
0
 62
     7
  6
CONTINUOUS
 10
0.413767
 20
0.005133
 30
0.000000
 11
0.410619
 21
0.003095
 31
0.000000
  0
LINE
  8
0
 62
     7
  6
CONTINUOUS
 10
0.416708
 20
0.007461
 30
0.000000
 11
0.413767
 21
0.005133
 31
0.000000
  0
LINE
  8
0
 62
     7
  6
CONTINUOUS
 10
0.419397
 20
0.010076
 30
0.000000
 11
0.416708
 21
0.007461
 31
0.000000
  0
LINE
  8
0
 62
     7
  6
CONTINUOUS
 10
0.421794
 20
0.012961
 30
0.000000
 11
0.419397
 21
0.010076
 31
0.000000
  0
LINE
  8
0
 62
     7
  6
CONTINUOUS
 10
0.423857
 20
0.016092
 30
0.000000
 11
0.421794
 21
0.012961
 31
0.000000
  0
LINE
  8
0
 62
     7
  6
CONTINUOUS
 10
0.425564
 20
0.019433
 30
0.000000
 11
0.423857
 21
0.016092
 31
0.000000
  0
LINE
  8
0
 62
     7
  6
CONTINUOUS
 10
0.426899
 20
0.022941
 30
0.000000
 11
0.425564
 21
0.019433
 31
0.000000
  0
LINE
  8
0
 62
     7
  6
CONTINUOUS
 10
0.428400
 20
0.030281
 30
0.000000
 11
0.426899
 21
0.022941
 31
0.000000
  0
LINE
  8
0
 62
     7
  6
CONTINUOUS
 10
0.316519
 20
-0.023906
 30
0.000000
 11
0.315142
 21
-0.031334
 31
0.000000
  0
LINE
  8
0
 62
     7
  6
CONTINUOUS
 10
0.315142
 20
-0.031334
 30
0.000000
 11
0.312732
 21
-0.038492
 31
0.000000
  0
LINE
  8
0
 62
     7
  6
CONTINUOUS
 10
0.312732
 20
-0.038492
 30
0.000000
 11
0.311069
 21
-0.041885
 31
0.000000
  0
LINE
  8
0
 62
     7
  6
CONTINUOUS
 10
0.311069
 20
-0.041885
 30
0.000000
 11
0.309059
 21
-0.045085
 31
0.000000
  0
LINE
  8
0
 62
     7
  6
CONTINUOUS
 10
0.309059
 20
-0.045085
 30
0.000000
 11
0.306688
 21
-0.048028
 31
0.000000
  0
LINE
  8
0
 62
     7
  6
CONTINUOUS
 10
0.306688
 20
-0.048028
 30
0.000000
 11
0.303962
 21
-0.050645
 31
0.000000
  0
LINE
  8
0
 62
     7
  6
CONTINUOUS
 10
0.303962
 20
-0.050645
 30
0.000000
 11
0.300910
 21
-0.052872
 31
0.000000
  0
LINE
  8
0
 62
     7
  6
CONTINUOUS
 10
0.300910
 20
-0.052872
 30
0.000000
 11
0.297584
 21
-0.054666
 31
0.000000
  0
LINE
  8
0
 62
     7
  6
CONTINUOUS
 10
0.297584
 20
-0.054666
 30
0.000000
 11
0.294051
 21
-0.056003
 31
0.000000
  0
LINE
  8
0
 62
     7
  6
CONTINUOUS
 10
0.294051
 20
-0.056003
 30
0.000000
 11
0.290378
 21
-0.056891
 31
0.000000
  0
LINE
  8
0
 62
     7
  6
CONTINUOUS
 10
0.290378
 20
-0.056891
 30
0.000000
 11
0.286629
 21
-0.057354
 31
0.000000
  0
LINE
  8
0
 62
     7
  6
CONTINUOUS
 10
0.286629
 20
-0.057354
 30
0.000000
 11
0.282851
 21
-0.057425
 31
0.000000
  0
LINE
  8
0
 62
     7
  6
CONTINUOUS
 10
0.282851
 20
-0.057425
 30
0.000000
 11
0.279083
 21
-0.057141
 31
0.000000
  0
LINE
  8
0
 62
     7
  6
CONTINUOUS
 10
0.279083
 20
-0.057141
 30
0.000000
 11
0.271685
 21
-0.055633
 31
0.000000
  0
LINE
  8
0
 62
     7
  6
CONTINUOUS
 10
0.271685
 20
-0.055633
 30
0.000000
 11
0.264584
 21
-0.053059
 31
0.000000
  0
LINE
  8
0
 62
     7
  6
CONTINUOUS
 10
0.264584
 20
-0.053059
 30
0.000000
 11
0.261254
 21
-0.051277
 31
0.000000
  0
LINE
  8
0
 62
     7
  6
CONTINUOUS
 10
0.261254
 20
-0.051277
 30
0.000000
 11
0.258135
 21
-0.049139
 31
0.000000
  0
LINE
  8
DEFAULT
 62
     5
  6
CONTINUOUS
 10
0.193654
 20
-0.137213
 30
0.000000
 11
0.191031
 21
-0.137524
 31
0.000000
  0
LINE
  8
DEFAULT
 62
     5
  6
CONTINUOUS
 10
0.191031
 20
-0.137524
 30
0.000000
 11
0.188458
 21
-0.138035
 31
0.000000
  0
LINE
  8
DEFAULT
 62
     5
  6
CONTINUOUS
 10
0.188458
 20
-0.138035
 30
0.000000
 11
0.185938
 21
-0.138704
 31
0.000000
  0
LINE
  8
DEFAULT
 62
     5
  6
CONTINUOUS
 10
0.185938
 20
-0.138704
 30
0.000000
 11
0.183520
 21
-0.139578
 31
0.000000
  0
LINE
  8
DEFAULT
 62
     5
  6
CONTINUOUS
 10
0.183520
 20
-0.139578
 30
0.000000
 11
0.181102
 21
-0.140660
 31
0.000000
  0
LINE
  8
DEFAULT
 62
     5
  6
CONTINUOUS
 10
0.181102
 20
-0.140660
 30
0.000000
 11
0.178840
 21
-0.141946
 31
0.000000
  0
LINE
  8
DEFAULT
 62
     5
  6
CONTINUOUS
 10
0.178840
 20
-0.141946
 30
0.000000
 11
0.176677
 21
-0.143387
 31
0.000000
  0
LINE
  8
DEFAULT
 62
     5
  6
CONTINUOUS
 10
0.176677
 20
-0.143387
 30
0.000000
 11
0.174568
 21
-0.144980
 31
0.000000
  0
LINE
  8
DEFAULT
 62
     5
  6
CONTINUOUS
 10
0.174568
 20
-0.144980
 30
0.000000
 11
0.172666
 21
-0.146731
 31
0.000000
  0
LINE
  8
DEFAULT
 62
     5
  6
CONTINUOUS
 10
0.172666
 20
-0.146731
 30
0.000000
 11
0.170866
 21
-0.148682
 31
0.000000
  0
LINE
  8
DEFAULT
 62
     5
  6
CONTINUOUS
 10
0.170866
 20
-0.148682
 30
0.000000
 11
0.169270
 21
-0.150689
 31
0.000000
  0
LINE
  8
DEFAULT
 62
     5
  6
CONTINUOUS
 10
0.169270
 20
-0.150689
 30
0.000000
 11
0.167779
 21
-0.152905
 31
0.000000
  0
LINE
  8
DEFAULT
 62
     5
  6
CONTINUOUS
 10
0.167779
 20
-0.152905
 30
0.000000
 11
0.166544
 21
-0.155167
 31
0.000000
  0
LINE
  8
DEFAULT
 62
     5
  6
CONTINUOUS
 10
0.166544
 20
-0.155167
 30
0.000000
 11
0.165412
 21
-0.157532
 31
0.000000
  0
LINE
  8
DEFAULT
 62
     5
  6
CONTINUOUS
 10
0.165412
 20
-0.157532
 30
0.000000
 11
0.164539
 21
-0.160003
 31
0.000000
  0
LINE
  8
DEFAULT
 62
     5
  6
CONTINUOUS
 10
0.164539
 20
-0.160003
 30
0.000000
 11
0.163819
 21
-0.162470
 31
0.000000
  0
LINE
  8
DEFAULT
 62
     5
  6
CONTINUOUS
 10
0.163819
 20
-0.162470
 30
0.000000
 11
0.163303
 21
-0.165043
 31
0.000000
  0
LINE
  8
DEFAULT
 62
     5
  6
CONTINUOUS
 10
0.163303
 20
-0.165043
 30
0.000000
 11
0.162994
 21
-0.167668
 31
0.000000
  0
LINE
  8
DEFAULT
 62
     5
  6
CONTINUOUS
 10
0.162994
 20
-0.167667
 30
0.000000
 11
0.162892
 21
-0.170288
 31
0.000000
  0
LINE
  8
DEFAULT
 62
     5
  6
CONTINUOUS
 10
0.162892
 20
-0.170288
 30
0.000000
 11
0.162994
 21
-0.172861
 31
0.000000
  0
LINE
  8
DEFAULT
 62
     5
  6
CONTINUOUS
 10
0.162994
 20
-0.172861
 30
0.000000
 11
0.163303
 21
-0.175435
 31
0.000000
  0
LINE
  8
DEFAULT
 62
     5
  6
CONTINUOUS
 10
0.163303
 20
-0.175435
 30
0.000000
 11
0.163819
 21
-0.177953
 31
0.000000
  0
LINE
  8
DEFAULT
 62
     5
  6
CONTINUOUS
 10
0.163819
 20
-0.177953
 30
0.000000
 11
0.164539
 21
-0.180424
 31
0.000000
  0
LINE
  8
DEFAULT
 62
     5
  6
CONTINUOUS
 10
0.164539
 20
-0.180424
 30
0.000000
 11
0.165412
 21
-0.182895
 31
0.000000
  0
LINE
  8
DEFAULT
 62
     5
  6
CONTINUOUS
 10
0.165412
 20
-0.182895
 30
0.000000
 11
0.166492
 21
-0.185208
 31
0.000000
  0
LINE
  8
DEFAULT
 62
     5
  6
CONTINUOUS
 10
0.166492
 20
-0.185208
 30
0.000000
 11
0.167779
 21
-0.187471
 31
0.000000
  0
LINE
  8
DEFAULT
 62
     5
  6
CONTINUOUS
 10
0.167779
 20
-0.187471
 30
0.000000
 11
0.169168
 21
-0.189631
 31
0.000000
  0
LINE
  8
DEFAULT
 62
     5
  6
CONTINUOUS
 10
0.169168
 20
-0.189631
 30
0.000000
 11
0.170764
 21
-0.191689
 31
0.000000
  0
LINE
  8
DEFAULT
 62
     5
  6
CONTINUOUS
 10
0.170764
 20
-0.191689
 30
0.000000
 11
0.172564
 21
-0.193593
 31
0.000000
  0
LINE
  8
DEFAULT
 62
     5
  6
CONTINUOUS
 10
0.172564
 20
-0.193593
 30
0.000000
 11
0.174415
 21
-0.195340
 31
0.000000
  0
LINE
  8
DEFAULT
 62
     5
  6
CONTINUOUS
 10
0.174415
 20
-0.195340
 30
0.000000
 11
0.176473
 21
-0.196938
 31
0.000000
  0
LINE
  8
DEFAULT
 62
     5
  6
CONTINUOUS
 10
0.176473
 20
-0.196938
 30
0.000000
 11
0.178633
 21
-0.198378
 31
0.000000
  0
LINE
  8
DEFAULT
 62
     5
  6
CONTINUOUS
 10
0.178633
 20
-0.198378
 30
0.000000
 11
0.180844
 21
-0.199665
 31
0.000000
  0
LINE
  8
DEFAULT
 62
     5
  6
CONTINUOUS
 10
0.180844
 20
-0.199665
 30
0.000000
 11
0.183211
 21
-0.200743
 31
0.000000
  0
LINE
  8
DEFAULT
 62
     5
  6
CONTINUOUS
 10
0.183211
 20
-0.200743
 30
0.000000
 11
0.185629
 21
-0.201667
 31
0.000000
  0
LINE
  8
DEFAULT
 62
     5
  6
CONTINUOUS
 10
0.185629
 20
-0.201667
 30
0.000000
 11
0.188098
 21
-0.202387
 31
0.000000
  0
LINE
  8
DEFAULT
 62
     5
  6
CONTINUOUS
 10
0.188098
 20
-0.202387
 30
0.000000
 11
0.190671
 21
-0.202903
 31
0.000000
  0
LINE
  8
DEFAULT
 62
     5
  6
CONTINUOUS
 10
0.190671
 20
-0.202903
 30
0.000000
 11
0.193243
 21
-0.203214
 31
0.000000
  0
LINE
  8
DEFAULT
 62
     5
  6
CONTINUOUS
 10
0.193243
 20
-0.203214
 30
0.000000
 11
0.195814
 21
-0.203316
 31
0.000000
  0
LINE
  8
DEFAULT
 62
     5
  6
CONTINUOUS
 10
0.195814
 20
-0.203316
 30
0.000000
 11
0.198387
 21
-0.203214
 31
0.000000
  0
LINE
  8
DEFAULT
 62
     5
  6
CONTINUOUS
 10
0.198387
 20
-0.203214
 30
0.000000
 11
0.200959
 21
-0.202954
 31
0.000000
  0
LINE
  8
DEFAULT
 62
     5
  6
CONTINUOUS
 10
0.200959
 20
-0.202954
 30
0.000000
 11
0.203530
 21
-0.202443
 31
0.000000
  0
LINE
  8
DEFAULT
 62
     5
  6
CONTINUOUS
 10
0.203530
 20
-0.202443
 30
0.000000
 11
0.205999
 21
-0.201774
 31
0.000000
  0
LINE
  8
DEFAULT
 62
     5
  6
CONTINUOUS
 10
0.205999
 20
-0.201774
 30
0.000000
 11
0.208417
 21
-0.200896
 31
0.000000
  0
LINE
  8
DEFAULT
 62
     5
  6
CONTINUOUS
 10
0.208417
 20
-0.200896
 30
0.000000
 11
0.210784
 21
-0.199818
 31
0.000000
  0
LINE
  8
DEFAULT
 62
     5
  6
CONTINUOUS
 10
0.210784
 20
-0.199818
 30
0.000000
 11
0.213048
 21
-0.198583
 31
0.000000
  0
LINE
  8
DEFAULT
 62
     5
  6
CONTINUOUS
 10
0.213048
 20
-0.198583
 30
0.000000
 11
0.215208
 21
-0.197143
 31
0.000000
  0
LINE
  8
DEFAULT
 62
     5
  6
CONTINUOUS
 10
0.215208
 20
-0.197143
 30
0.000000
 11
0.217266
 21
-0.195600
 31
0.000000
  0
LINE
  8
DEFAULT
 62
     5
  6
CONTINUOUS
 10
0.217266
 20
-0.195600
 30
0.000000
 11
0.219220
 21
-0.193849
 31
0.000000
  0
LINE
  8
DEFAULT
 62
     5
  6
CONTINUOUS
 10
0.219220
 20
-0.193849
 30
0.000000
 11
0.220969
 21
-0.191945
 31
0.000000
  0
LINE
  8
DEFAULT
 62
     5
  6
CONTINUOUS
 10
0.221204
 20
-0.200308
 30
0.000000
 11
0.221204
 21
-0.175171
 31
0.000000
  0
LINE
  8
DEFAULT
 62
     5
  6
CONTINUOUS
 10
0.221204
 20
-0.175171
 30
0.000000
 11
0.195395
 21
-0.175171
 31
0.000000
  0
LINE
  8
DEFAULT
 62
     5
  6
CONTINUOUS
 10
0.094359
 20
-0.204678
 30
0.000000
 11
0.039534
 21
-0.204678
 31
0.000000
  0
LINE
  8
DEFAULT
 62
     5
  6
CONTINUOUS
 10
0.047817
 20
-0.140841
 30
0.000000
 11
0.047817
 21
-0.204678
 31
0.000000
  0
LINE
  8
DEFAULT
 62
     5
  6
CONTINUOUS
 10
0.047868
 20
-0.140841
 30
0.000000
 11
0.047868
 21
-0.204678
 31
0.000000
  0
LINE
  8
DEFAULT
 62
     5
  6
CONTINUOUS
 10
0.010146
 20
-0.204678
 30
0.000000
 11
0.026762
 21
-0.204678
 31
0.000000
  0
LINE
  8
DEFAULT
 62
     5
  6
CONTINUOUS
 10
0.018428
 20
-0.159357
 30
0.000000
 11
0.018428
 21
-0.204678
 31
0.000000
  0
LINE
  8
DEFAULT
 62
     5
  6
CONTINUOUS
 10
0.018324
 20
-0.157402
 30
0.000000
 11
0.018428
 21
-0.159357
 31
0.000000
  0
LINE
  8
DEFAULT
 62
     5
  6
CONTINUOUS
 10
0.018017
 20
-0.155450
 30
0.000000
 11
0.018324
 21
-0.157402
 31
0.000000
  0
LINE
  8
DEFAULT
 62
     5
  6
CONTINUOUS
 10
0.017502
 20
-0.153546
 30
0.000000
 11
0.018017
 21
-0.155450
 31
0.000000
  0
LINE
  8
DEFAULT
 62
     5
  6
CONTINUOUS
 10
0.016833
 20
-0.151692
 30
0.000000
 11
0.017502
 21
-0.153546
 31
0.000000
  0
LINE
  8
DEFAULT
 62
     5
  6
CONTINUOUS
 10
0.015960
 20
-0.149894
 30
0.000000
 11
0.016833
 21
-0.151692
 31
0.000000
  0
LINE
  8
DEFAULT
 62
     5
  6
CONTINUOUS
 10
0.014931
 20
-0.148246
 30
0.000000
 11
0.015960
 21
-0.149894
 31
0.000000
  0
LINE
  8
DEFAULT
 62
     5
  6
CONTINUOUS
 10
0.013695
 20
-0.146652
 30
0.000000
 11
0.014931
 21
-0.148246
 31
0.000000
  0
LINE
  8
DEFAULT
 62
     5
  6
CONTINUOUS
 10
0.012357
 20
-0.145212
 30
0.000000
 11
0.013695
 21
-0.146652
 31
0.000000
  0
LINE
  8
DEFAULT
 62
     5
  6
CONTINUOUS
 10
0.010866
 20
-0.143925
 30
0.000000
 11
0.012357
 21
-0.145212
 31
0.000000
  0
LINE
  8
DEFAULT
 62
     5
  6
CONTINUOUS
 10
0.009272
 20
-0.142741
 30
0.000000
 11
0.010866
 21
-0.143925
 31
0.000000
  0
LINE
  8
DEFAULT
 62
     5
  6
CONTINUOUS
 10
0.007575
 20
-0.141765
 30
0.000000
 11
0.009272
 21
-0.142741
 31
0.000000
  0
LINE
  8
DEFAULT
 62
     5
  6
CONTINUOUS
 10
0.005774
 20
-0.140943
 30
0.000000
 11
0.007575
 21
-0.141765
 31
0.000000
  0
LINE
  8
DEFAULT
 62
     5
  6
CONTINUOUS
 10
0.003870
 20
-0.140325
 30
0.000000
 11
0.005774
 21
-0.140943
 31
0.000000
  0
LINE
  8
DEFAULT
 62
     5
  6
CONTINUOUS
 10
0.001968
 20
-0.139860
 30
0.000000
 11
0.003870
 21
-0.140325
 31
0.000000
  0
LINE
  8
DEFAULT
 62
     5
  6
CONTINUOUS
 10
0.000012
 20
-0.139656
 30
0.000000
 11
0.001968
 21
-0.139860
 31
0.000000
  0
LINE
  8
DEFAULT
 62
     5
  6
CONTINUOUS
 10
-0.001995
 20
-0.139605
 30
0.000000
 11
0.000012
 21
-0.139656
 31
0.000000
  0
LINE
  8
DEFAULT
 62
     5
  6
CONTINUOUS
 10
-0.003897
 20
-0.139656
 30
0.000000
 11
-0.001995
 21
-0.139605
 31
0.000000
  0
LINE
  8
DEFAULT
 62
     5
  6
CONTINUOUS
 10
-0.005853
 20
-0.139963
 30
0.000000
 11
-0.003897
 21
-0.139656
 31
0.000000
  0
LINE
  8
DEFAULT
 62
     5
  6
CONTINUOUS
 10
-0.007755
 20
-0.140427
 30
0.000000
 11
-0.005853
 21
-0.139963
 31
0.000000
  0
LINE
  8
DEFAULT
 62
     5
  6
CONTINUOUS
 10
-0.009555
 20
-0.141045
 30
0.000000
 11
-0.007755
 21
-0.140427
 31
0.000000
  0
LINE
  8
DEFAULT
 62
     5
  6
CONTINUOUS
 10
-0.011304
 20
-0.141867
 30
0.000000
 11
-0.009555
 21
-0.141045
 31
0.000000
  0
LINE
  8
DEFAULT
 62
     5
  6
CONTINUOUS
 10
-0.013002
 20
-0.142898
 30
0.000000
 11
-0.011304
 21
-0.141867
 31
0.000000
  0
LINE
  8
DEFAULT
 62
     5
  6
CONTINUOUS
 10
-0.014547
 20
-0.144027
 30
0.000000
 11
-0.013002
 21
-0.142898
 31
0.000000
  0
LINE
  8
DEFAULT
 62
     5
  6
CONTINUOUS
 10
-0.015987
 20
-0.145365
 30
0.000000
 11
-0.014547
 21
-0.144027
 31
0.000000
  0
LINE
  8
DEFAULT
 62
     5
  6
CONTINUOUS
 10
-0.017325
 20
-0.146805
 30
0.000000
 11
-0.015987
 21
-0.145365
 31
0.000000
  0
LINE
  8
DEFAULT
 62
     5
  6
CONTINUOUS
 10
-0.018456
 20
-0.148348
 30
0.000000
 11
-0.017325
 21
-0.146805
 31
0.000000
  0
LINE
  8
DEFAULT
 62
     5
  6
CONTINUOUS
 10
-0.019434
 20
-0.149997
 30
0.000000
 11
-0.018456
 21
-0.148348
 31
0.000000
  0
LINE
  8
DEFAULT
 62
     5
  6
CONTINUOUS
 10
-0.020307
 20
-0.151795
 30
0.000000
 11
-0.019434
 21
-0.149997
 31
0.000000
  0
LINE
  8
DEFAULT
 62
     5
  6
CONTINUOUS
 10
-0.020925
 20
-0.153597
 30
0.000000
 11
-0.020307
 21
-0.151795
 31
0.000000
  0
LINE
  8
DEFAULT
 62
     5
  6
CONTINUOUS
 10
-0.021387
 20
-0.155501
 30
0.000000
 11
-0.020925
 21
-0.153597
 31
0.000000
  0
LINE
  8
DEFAULT
 62
     5
  6
CONTINUOUS
 10
-0.021696
 20
-0.157402
 30
0.000000
 11
-0.021387
 21
-0.155501
 31
0.000000
  0
LINE
  8
DEFAULT
 62
     5
  6
CONTINUOUS
 10
-0.021747
 20
-0.159357
 30
0.000000
 11
-0.021696
 21
-0.157402
 31
0.000000
  0
LINE
  8
DEFAULT
 62
     5
  6
CONTINUOUS
 10
-0.021747
 20
-0.204678
 30
0.000000
 11
-0.021747
 21
-0.159357
 31
0.000000
  0
LINE
  8
DEFAULT
 62
     5
  6
CONTINUOUS
 10
-0.030081
 20
-0.204678
 30
0.000000
 11
-0.013466
 21
-0.204678
 31
0.000000
  0
LINE
  8
DEFAULT
 62
     5
  6
CONTINUOUS
 10
-0.042829
 20
-0.204632
 30
0.000000
 11
-0.060241
 21
-0.204632
 31
0.000000
  0
LINE
  8
DEFAULT
 62
     5
  6
CONTINUOUS
 10
-0.060389
 20
-0.204678
 30
0.000000
 11
-0.060936
 21
-0.204678
 31
0.000000
  0
LINE
  8
DEFAULT
 62
     5
  6
CONTINUOUS
 10
-0.060936
 20
-0.204678
 30
0.000000
 11
-0.060936
 21
-0.191013
 31
0.000000
  0
LINE
  8
DEFAULT
 62
     5
  6
CONTINUOUS
 10
-0.052010
 20
-0.204632
 30
0.000000
 11
-0.052010
 21
-0.141086
 31
0.000000
  0
LINE
  8
DEFAULT
 62
     5
  6
CONTINUOUS
 10
-0.060689
 20
-0.154072
 30
0.000000
 11
-0.060689
 21
-0.141086
 31
0.000000
  0
LINE
  8
DEFAULT
 62
     5
  6
CONTINUOUS
 10
-0.043070
 20
-0.141086
 30
0.000000
 11
-0.060689
 21
-0.141086
 31
0.000000
  0
LINE
  8
DEFAULT
 62
     5
  6
CONTINUOUS
 10
-0.043070
 20
-0.141086
 30
0.000000
 11
-0.043070
 21
-0.154522
 31
0.000000
  0
LINE
  8
DEFAULT
 62
     5
  6
CONTINUOUS
 10
0.018429
 20
-0.180397
 30
0.000000
 11
-0.021747
 21
-0.180397
 31
0.000000
  0
LINE
  8
DEFAULT
 62
     5
  6
CONTINUOUS
 10
0.039534
 20
-0.140841
 30
0.000000
 11
0.056150
 21
-0.140841
 31
0.000000
  0
LINE
  8
DEFAULT
 62
     5
  6
CONTINUOUS
 10
0.081614
 20
-0.204678
 30
0.000000
 11
0.081614
 21
-0.189966
 31
0.000000
  0
LINE
  8
DEFAULT
 62
     5
  6
CONTINUOUS
 10
-0.042829
 20
-0.204632
 30
0.000000
 11
-0.042829
 21
-0.191071
 31
0.000000
  0
LINE
  8
DEFAULT
 62
     5
  6
CONTINUOUS
 10
-0.081968
 20
-0.204678
 30
0.000000
 11
-0.073681
 21
-0.204678
 31
0.000000
  0
LINE
  8
DEFAULT
 62
     5
  6
CONTINUOUS
 10
-0.081968
 20
-0.184265
 30
0.000000
 11
-0.081968
 21
-0.204678
 31
0.000000
  0
LINE
  8
DEFAULT
 62
     5
  6
CONTINUOUS
 10
-0.082079
 20
-0.182616
 30
0.000000
 11
-0.081968
 21
-0.184265
 31
0.000000
  0
LINE
  8
DEFAULT
 62
     5
  6
CONTINUOUS
 10
-0.082351
 20
-0.180971
 30
0.000000
 11
-0.082079
 21
-0.182616
 31
0.000000
  0
LINE
  8
DEFAULT
 62
     5
  6
CONTINUOUS
 10
-0.082901
 20
-0.179378
 30
0.000000
 11
-0.082351
 21
-0.180971
 31
0.000000
  0
LINE
  8
DEFAULT
 62
     5
  6
CONTINUOUS
 10
-0.083612
 20
-0.177900
 30
0.000000
 11
-0.082901
 21
-0.179378
 31
0.000000
  0
LINE
  8
DEFAULT
 62
     5
  6
CONTINUOUS
 10
-0.084546
 20
-0.176528
 30
0.000000
 11
-0.083612
 21
-0.177900
 31
0.000000
  0
LINE
  8
DEFAULT
 62
     5
  6
CONTINUOUS
 10
-0.085645
 20
-0.175262
 30
0.000000
 11
-0.084546
 21
-0.176528
 31
0.000000
  0
LINE
  8
DEFAULT
 62
     5
  6
CONTINUOUS
 10
-0.086906
 20
-0.174167
 30
0.000000
 11
-0.085645
 21
-0.175262
 31
0.000000
  0
LINE
  8
DEFAULT
 62
     5
  6
CONTINUOUS
 10
-0.088333
 20
-0.173234
 30
0.000000
 11
-0.086906
 21
-0.174167
 31
0.000000
  0
LINE
  8
DEFAULT
 62
     5
  6
CONTINUOUS
 10
-0.089816
 20
-0.172518
 30
0.000000
 11
-0.088333
 21
-0.173234
 31
0.000000
  0
LINE
  8
DEFAULT
 62
     5
  6
CONTINUOUS
 10
-0.091405
 20
-0.171973
 30
0.000000
 11
-0.089816
 21
-0.172518
 31
0.000000
  0
LINE
  8
DEFAULT
 62
     5
  6
CONTINUOUS
 10
-0.093054
 20
-0.171641
 30
0.000000
 11
-0.091405
 21
-0.171973
 31
0.000000
  0
LINE
  8
DEFAULT
 62
     5
  6
CONTINUOUS
 10
-0.094699
 20
-0.171530
 30
0.000000
 11
-0.093054
 21
-0.171641
 31
0.000000
  0
LINE
  8
DEFAULT
 62
     5
  6
CONTINUOUS
 10
-0.092833
 20
-0.171423
 30
0.000000
 11
-0.094699
 21
-0.171530
 31
0.000000
  0
LINE
  8
DEFAULT
 62
     5
  6
CONTINUOUS
 10
-0.091022
 20
-0.171091
 30
0.000000
 11
-0.092833
 21
-0.171423
 31
0.000000
  0
LINE
  8
DEFAULT
 62
     5
  6
CONTINUOUS
 10
-0.089267
 20
-0.170546
 30
0.000000
 11
-0.091022
 21
-0.171091
 31
0.000000
  0
LINE
  8
DEFAULT
 62
     5
  6
CONTINUOUS
 10
-0.087566
 20
-0.169775
 30
0.000000
 11
-0.089267
 21
-0.170546
 31
0.000000
  0
LINE
  8
DEFAULT
 62
     5
  6
CONTINUOUS
 10
-0.086028
 20
-0.168841
 30
0.000000
 11
-0.087566
 21
-0.169775
 31
0.000000
  0
LINE
  8
DEFAULT
 62
     5
  6
CONTINUOUS
 10
-0.084546
 20
-0.167691
 30
0.000000
 11
-0.086028
 21
-0.168841
 31
0.000000
  0
LINE
  8
DEFAULT
 62
     5
  6
CONTINUOUS
 10
-0.083229
 20
-0.166375
 30
0.000000
 11
-0.084546
 21
-0.167691
 31
0.000000
  0
LINE
  8
DEFAULT
 62
     5
  6
CONTINUOUS
 10
-0.082134
 20
-0.164947
 30
0.000000
 11
-0.083229
 21
-0.166375
 31
0.000000
  0
LINE
  8
DEFAULT
 62
     5
  6
CONTINUOUS
 10
-0.081146
 20
-0.163354
 30
0.000000
 11
-0.082134
 21
-0.164947
 31
0.000000
  0
LINE
  8
DEFAULT
 62
     5
  6
CONTINUOUS
 10
-0.080374
 20
-0.161709
 30
0.000000
 11
-0.081146
 21
-0.163354
 31
0.000000
  0
LINE
  8
DEFAULT
 62
     5
  6
CONTINUOUS
 10
-0.079829
 20
-0.159898
 30
0.000000
 11
-0.080374
 21
-0.161709
 31
0.000000
  0
LINE
  8
DEFAULT
 62
     5
  6
CONTINUOUS
 10
-0.079497
 20
-0.158088
 30
0.000000
 11
-0.079829
 21
-0.159898
 31
0.000000
  0
LINE
  8
DEFAULT
 62
     5
  6
CONTINUOUS
 10
-0.079390
 20
-0.156277
 30
0.000000
 11
-0.079497
 21
-0.158088
 31
0.000000
  0
LINE
  8
DEFAULT
 62
     5
  6
CONTINUOUS
 10
-0.079497
 20
-0.154411
 30
0.000000
 11
-0.079390
 21
-0.156277
 31
0.000000
  0
LINE
  8
DEFAULT
 62
     5
  6
CONTINUOUS
 10
-0.079829
 20
-0.152600
 30
0.000000
 11
-0.079497
 21
-0.154411
 31
0.000000
  0
LINE
  8
DEFAULT
 62
     5
  6
CONTINUOUS
 10
-0.080374
 20
-0.150844
 30
0.000000
 11
-0.079829
 21
-0.152600
 31
0.000000
  0
LINE
  8
DEFAULT
 62
     5
  6
CONTINUOUS
 10
-0.081146
 20
-0.149140
 30
0.000000
 11
-0.080374
 21
-0.150844
 31
0.000000
  0
LINE
  8
DEFAULT
 62
     5
  6
CONTINUOUS
 10
-0.082134
 20
-0.147606
 30
0.000000
 11
-0.081146
 21
-0.149140
 31
0.000000
  0
LINE
  8
DEFAULT
 62
     5
  6
CONTINUOUS
 10
-0.083229
 20
-0.146124
 30
0.000000
 11
-0.082134
 21
-0.147606
 31
0.000000
  0
LINE
  8
DEFAULT
 62
     5
  6
CONTINUOUS
 10
-0.084546
 20
-0.144807
 30
0.000000
 11
-0.083229
 21
-0.146124
 31
0.000000
  0
LINE
  8
DEFAULT
 62
     5
  6
CONTINUOUS
 10
-0.086028
 20
-0.143708
 30
0.000000
 11
-0.084546
 21
-0.144807
 31
0.000000
  0
LINE
  8
DEFAULT
 62
     5
  6
CONTINUOUS
 10
-0.087566
 20
-0.142720
 30
0.000000
 11
-0.086028
 21
-0.143708
 31
0.000000
  0
LINE
  8
DEFAULT
 62
     5
  6
CONTINUOUS
 10
-0.089267
 20
-0.141953
 30
0.000000
 11
-0.087566
 21
-0.142720
 31
0.000000
  0
LINE
  8
DEFAULT
 62
     5
  6
CONTINUOUS
 10
-0.091022
 20
-0.141403
 30
0.000000
 11
-0.089267
 21
-0.141953
 31
0.000000
  0
LINE
  8
DEFAULT
 62
     5
  6
CONTINUOUS
 10
-0.092833
 20
-0.141075
 30
0.000000
 11
-0.091022
 21
-0.141403
 31
0.000000
  0
LINE
  8
DEFAULT
 62
     5
  6
CONTINUOUS
 10
-0.094699
 20
-0.140964
 30
0.000000
 11
-0.092833
 21
-0.141075
 31
0.000000
  0
LINE
  8
DEFAULT
 62
     5
  6
CONTINUOUS
 10
-0.123347
 20
-0.140964
 30
0.000000
 11
-0.094699
 21
-0.140964
 31
0.000000
  0
LINE
  8
DEFAULT
 62
     5
  6
CONTINUOUS
 10
-0.115060
 20
-0.204678
 30
0.000000
 11
-0.115060
 21
-0.140964
 31
0.000000
  0
LINE
  8
DEFAULT
 62
     5
  6
CONTINUOUS
 10
-0.123347
 20
-0.204678
 30
0.000000
 11
-0.106773
 21
-0.204678
 31
0.000000
  0
LINE
  8
DEFAULT
 62
     5
  6
CONTINUOUS
 10
-0.178236
 20
-0.204678
 30
0.000000
 11
-0.136107
 21
-0.204678
 31
0.000000
  0
LINE
  8
DEFAULT
 62
     5
  6
CONTINUOUS
 10
-0.169955
 20
-0.140841
 30
0.000000
 11
-0.169955
 21
-0.204678
 31
0.000000
  0
LINE
  8
DEFAULT
 62
     5
  6
CONTINUOUS
 10
-0.178236
 20
-0.140841
 30
0.000000
 11
-0.136776
 21
-0.140841
 31
0.000000
  0
LINE
  8
DEFAULT
 62
     5
  6
CONTINUOUS
 10
-0.136776
 20
-0.140841
 30
0.000000
 11
-0.136776
 21
-0.151693
 31
0.000000
  0
LINE
  8
DEFAULT
 62
     5
  6
CONTINUOUS
 10
-0.148914
 20
-0.179165
 30
0.000000
 11
-0.148914
 21
-0.163835
 31
0.000000
  0
LINE
  8
DEFAULT
 62
     5
  6
CONTINUOUS
 10
-0.148914
 20
-0.171500
 30
0.000000
 11
-0.169955
 21
-0.171500
 31
0.000000
  0
LINE
  8
DEFAULT
 62
     5
  6
CONTINUOUS
 10
-0.199341
 20
-0.180397
 30
0.000000
 11
-0.239517
 21
-0.180397
 31
0.000000
  0
LINE
  8
DEFAULT
 62
     5
  6
CONTINUOUS
 10
-0.239517
 20
-0.204678
 30
0.000000
 11
-0.239517
 21
-0.159357
 31
0.000000
  0
LINE
  8
DEFAULT
 62
     5
  6
CONTINUOUS
 10
-0.247851
 20
-0.204678
 30
0.000000
 11
-0.231236
 21
-0.204678
 31
0.000000
  0
LINE
  8
DEFAULT
 62
     5
  6
CONTINUOUS
 10
-0.207624
 20
-0.204678
 30
0.000000
 11
-0.191008
 21
-0.204678
 31
0.000000
  0
LINE
  8
DEFAULT
 62
     5
  6
CONTINUOUS
 10
-0.199342
 20
-0.159357
 30
0.000000
 11
-0.199342
 21
-0.204678
 31
0.000000
  0
LINE
  8
DEFAULT
 62
     5
  6
CONTINUOUS
 10
-0.199446
 20
-0.157402
 30
0.000000
 11
-0.199342
 21
-0.159357
 31
0.000000
  0
LINE
  8
DEFAULT
 62
     5
  6
CONTINUOUS
 10
-0.199753
 20
-0.155450
 30
0.000000
 11
-0.199446
 21
-0.157402
 31
0.000000
  0
LINE
  8
DEFAULT
 62
     5
  6
CONTINUOUS
 10
-0.200268
 20
-0.153546
 30
0.000000
 11
-0.199753
 21
-0.155450
 31
0.000000
  0
LINE
  8
DEFAULT
 62
     5
  6
CONTINUOUS
 10
-0.200937
 20
-0.151692
 30
0.000000
 11
-0.200268
 21
-0.153546
 31
0.000000
  0
LINE
  8
DEFAULT
 62
     5
  6
CONTINUOUS
 10
-0.201810
 20
-0.149894
 30
0.000000
 11
-0.200937
 21
-0.151692
 31
0.000000
  0
LINE
  8
DEFAULT
 62
     5
  6
CONTINUOUS
 10
-0.202839
 20
-0.148246
 30
0.000000
 11
-0.201810
 21
-0.149894
 31
0.000000
  0
LINE
  8
DEFAULT
 62
     5
  6
CONTINUOUS
 10
-0.204075
 20
-0.146652
 30
0.000000
 11
-0.202839
 21
-0.148246
 31
0.000000
  0
LINE
  8
DEFAULT
 62
     5
  6
CONTINUOUS
 10
-0.205413
 20
-0.145212
 30
0.000000
 11
-0.204075
 21
-0.146652
 31
0.000000
  0
LINE
  8
DEFAULT
 62
     5
  6
CONTINUOUS
 10
-0.206904
 20
-0.143925
 30
0.000000
 11
-0.205413
 21
-0.145212
 31
0.000000
  0
LINE
  8
DEFAULT
 62
     5
  6
CONTINUOUS
 10
-0.208498
 20
-0.142741
 30
0.000000
 11
-0.206904
 21
-0.143925
 31
0.000000
  0
LINE
  8
DEFAULT
 62
     5
  6
CONTINUOUS
 10
-0.210195
 20
-0.141765
 30
0.000000
 11
-0.208498
 21
-0.142741
 31
0.000000
  0
LINE
  8
DEFAULT
 62
     5
  6
CONTINUOUS
 10
-0.211996
 20
-0.140943
 30
0.000000
 11
-0.210195
 21
-0.141765
 31
0.000000
  0
LINE
  8
DEFAULT
 62
     5
  6
CONTINUOUS
 10
-0.213900
 20
-0.140325
 30
0.000000
 11
-0.211996
 21
-0.140943
 31
0.000000
  0
LINE
  8
DEFAULT
 62
     5
  6
CONTINUOUS
 10
-0.215802
 20
-0.139860
 30
0.000000
 11
-0.213900
 21
-0.140325
 31
0.000000
  0
LINE
  8
DEFAULT
 62
     5
  6
CONTINUOUS
 10
-0.217758
 20
-0.139656
 30
0.000000
 11
-0.215802
 21
-0.139860
 31
0.000000
  0
LINE
  8
DEFAULT
 62
     5
  6
CONTINUOUS
 10
-0.219765
 20
-0.139605
 30
0.000000
 11
-0.217758
 21
-0.139656
 31
0.000000
  0
LINE
  8
DEFAULT
 62
     5
  6
CONTINUOUS
 10
-0.221667
 20
-0.139656
 30
0.000000
 11
-0.219765
 21
-0.139605
 31
0.000000
  0
LINE
  8
DEFAULT
 62
     5
  6
CONTINUOUS
 10
-0.223623
 20
-0.139963
 30
0.000000
 11
-0.221667
 21
-0.139656
 31
0.000000
  0
LINE
  8
DEFAULT
 62
     5
  6
CONTINUOUS
 10
-0.225525
 20
-0.140427
 30
0.000000
 11
-0.223623
 21
-0.139963
 31
0.000000
  0
LINE
  8
DEFAULT
 62
     5
  6
CONTINUOUS
 10
-0.227325
 20
-0.141045
 30
0.000000
 11
-0.225525
 21
-0.140427
 31
0.000000
  0
LINE
  8
DEFAULT
 62
     5
  6
CONTINUOUS
 10
-0.229074
 20
-0.141867
 30
0.000000
 11
-0.227325
 21
-0.141045
 31
0.000000
  0
LINE
  8
DEFAULT
 62
     5
  6
CONTINUOUS
 10
-0.230772
 20
-0.142898
 30
0.000000
 11
-0.229074
 21
-0.141867
 31
0.000000
  0
LINE
  8
DEFAULT
 62
     5
  6
CONTINUOUS
 10
-0.232317
 20
-0.144027
 30
0.000000
 11
-0.230772
 21
-0.142898
 31
0.000000
  0
LINE
  8
DEFAULT
 62
     5
  6
CONTINUOUS
 10
-0.233757
 20
-0.145365
 30
0.000000
 11
-0.232317
 21
-0.144027
 31
0.000000
  0
LINE
  8
DEFAULT
 62
     5
  6
CONTINUOUS
 10
-0.235095
 20
-0.146805
 30
0.000000
 11
-0.233757
 21
-0.145365
 31
0.000000
  0
LINE
  8
DEFAULT
 62
     5
  6
CONTINUOUS
 10
-0.236226
 20
-0.148348
 30
0.000000
 11
-0.235095
 21
-0.146805
 31
0.000000
  0
LINE
  8
DEFAULT
 62
     5
  6
CONTINUOUS
 10
-0.237204
 20
-0.149997
 30
0.000000
 11
-0.236226
 21
-0.148348
 31
0.000000
  0
LINE
  8
DEFAULT
 62
     5
  6
CONTINUOUS
 10
-0.238077
 20
-0.151795
 30
0.000000
 11
-0.237204
 21
-0.149997
 31
0.000000
  0
LINE
  8
DEFAULT
 62
     5
  6
CONTINUOUS
 10
-0.238695
 20
-0.153597
 30
0.000000
 11
-0.238077
 21
-0.151795
 31
0.000000
  0
LINE
  8
DEFAULT
 62
     5
  6
CONTINUOUS
 10
-0.239157
 20
-0.155501
 30
0.000000
 11
-0.238695
 21
-0.153597
 31
0.000000
  0
LINE
  8
DEFAULT
 62
     5
  6
CONTINUOUS
 10
-0.239466
 20
-0.157402
 30
0.000000
 11
-0.239157
 21
-0.155501
 31
0.000000
  0
LINE
  8
DEFAULT
 62
     5
  6
CONTINUOUS
 10
-0.239517
 20
-0.159357
 30
0.000000
 11
-0.239466
 21
-0.157402
 31
0.000000
  0
LINE
  8
0
 62
     7
  6
CONTINUOUS
 10
-0.184069
 20
-0.088620
 30
0.000000
 11
-0.182318
 21
-0.089418
 31
0.000000
  0
LINE
  8
0
 62
     7
  6
CONTINUOUS
 10
-0.182318
 20
-0.089418
 30
0.000000
 11
-0.180479
 21
-0.089980
 31
0.000000
  0
LINE
  8
0
 62
     7
  6
CONTINUOUS
 10
-0.180479
 20
-0.089980
 30
0.000000
 11
-0.178577
 21
-0.090265
 31
0.000000
  0
LINE
  8
0
 62
     7
  6
CONTINUOUS
 10
-0.178577
 20
-0.090265
 30
0.000000
 11
-0.176655
 21
-0.090332
 31
0.000000
  0
LINE
  8
0
 62
     7
  6
CONTINUOUS
 10
-0.176655
 20
-0.090332
 30
0.000000
 11
-0.172826
 21
-0.089984
 31
0.000000
  0
LINE
  8
0
 62
     7
  6
CONTINUOUS
 10
-0.172826
 20
-0.089984
 30
0.000000
 11
-0.169067
 21
-0.089172
 31
0.000000
  0
LINE
  8
0
 62
     7
  6
CONTINUOUS
 10
-0.169067
 20
-0.089172
 30
0.000000
 11
-0.165406
 21
-0.087993
 31
0.000000
  0
LINE
  8
0
 62
     7
  6
CONTINUOUS
 10
-0.165406
 20
-0.087993
 30
0.000000
 11
-0.158465
 21
-0.084693
 31
0.000000
  0
LINE
  8
0
 62
     7
  6
CONTINUOUS
 10
-0.158465
 20
-0.084693
 30
0.000000
 11
-0.155233
 21
-0.082609
 31
0.000000
  0
LINE
  8
0
 62
     7
  6
CONTINUOUS
 10
-0.155233
 20
-0.082609
 30
0.000000
 11
-0.152195
 21
-0.080249
 31
0.000000
  0
LINE
  8
0
 62
     7
  6
CONTINUOUS
 10
-0.152195
 20
-0.080249
 30
0.000000
 11
-0.149380
 21
-0.077628
 31
0.000000
  0
LINE
  8
0
 62
     7
  6
CONTINUOUS
 10
-0.149380
 20
-0.077628
 30
0.000000
 11
-0.146820
 21
-0.074758
 31
0.000000
  0
LINE
  8
0
 62
     7
  6
CONTINUOUS
 10
-0.146820
 20
-0.074758
 30
0.000000
 11
-0.144542
 21
-0.071658
 31
0.000000
  0
LINE
  8
0
 62
     7
  6
CONTINUOUS
 10
-0.144542
 20
-0.071658
 30
0.000000
 11
-0.142570
 21
-0.068355
 31
0.000000
  0
LINE
  8
0
 62
     7
  6
CONTINUOUS
 10
-0.142570
 20
-0.068355
 30
0.000000
 11
-0.140919
 21
-0.064881
 31
0.000000
  0
LINE
  8
0
 62
     7
  6
CONTINUOUS
 10
-0.140919
 20
-0.064881
 30
0.000000
 11
-0.138543
 21
-0.057568
 31
0.000000
  0
LINE
  8
0
 62
     7
  6
CONTINUOUS
 10
-0.138543
 20
-0.057568
 30
0.000000
 11
-0.131999
 21
-0.025562
 31
0.000000
  0
LINE
  8
0
 62
     7
  6
CONTINUOUS
 10
-0.145031
 20
-0.057056
 30
0.000000
 11
-0.144873
 21
-0.058862
 31
0.000000
  0
LINE
  8
0
 62
     7
  6
CONTINUOUS
 10
-0.144873
 20
-0.058862
 30
0.000000
 11
-0.144442
 21
-0.060624
 31
0.000000
  0
LINE
  8
0
 62
     7
  6
CONTINUOUS
 10
-0.144442
 20
-0.060624
 30
0.000000
 11
-0.143801
 21
-0.062320
 31
0.000000
  0
LINE
  8
0
 62
     7
  6
CONTINUOUS
 10
-0.143801
 20
-0.062320
 30
0.000000
 11
-0.142996
 21
-0.063946
 31
0.000000
  0
LINE
  8
0
 62
     7
  6
CONTINUOUS
 10
-0.142996
 20
-0.063946
 30
0.000000
 11
-0.141010
 21
-0.066978
 31
0.000000
  0
LINE
  8
0
 62
     7
  6
CONTINUOUS
 10
-0.141010
 20
-0.066978
 30
0.000000
 11
-0.138645
 21
-0.069726
 31
0.000000
  0
LINE
  8
0
 62
     7
  6
CONTINUOUS
 10
-0.138645
 20
-0.069726
 30
0.000000
 11
-0.135986
 21
-0.072190
 31
0.000000
  0
LINE
  8
0
 62
     7
  6
CONTINUOUS
 10
-0.135986
 20
-0.072190
 30
0.000000
 11
-0.133079
 21
-0.074357
 31
0.000000
  0
LINE
  8
0
 62
     7
  6
CONTINUOUS
 10
-0.133079
 20
-0.074357
 30
0.000000
 11
-0.129956
 21
-0.076199
 31
0.000000
  0
LINE
  8
0
 62
     7
  6
CONTINUOUS
 10
-0.129956
 20
-0.076199
 30
0.000000
 11
-0.126638
 21
-0.077659
 31
0.000000
  0
LINE
  8
0
 62
     7
  6
CONTINUOUS
 10
-0.126638
 20
-0.077659
 30
0.000000
 11
-0.123155
 21
-0.078664
 31
0.000000
  0
LINE
  8
0
 62
     7
  6
CONTINUOUS
 10
-0.123155
 20
-0.078664
 30
0.000000
 11
-0.119559
 21
-0.079127
 31
0.000000
  0
LINE
  8
0
 62
     7
  6
CONTINUOUS
 10
-0.119559
 20
-0.079127
 30
0.000000
 11
-0.115934
 21
-0.079147
 31
0.000000
  0
LINE
  8
0
 62
     7
  6
CONTINUOUS
 10
-0.115934
 20
-0.079147
 30
0.000000
 11
-0.112335
 21
-0.078714
 31
0.000000
  0
LINE
  8
0
 62
     7
  6
CONTINUOUS
 10
-0.112335
 20
-0.078714
 30
0.000000
 11
-0.108814
 21
-0.077849
 31
0.000000
  0
LINE
  8
0
 62
     7
  6
CONTINUOUS
 10
-0.108814
 20
-0.077849
 30
0.000000
 11
-0.105428
 21
-0.076552
 31
0.000000
  0
LINE
  8
0
 62
     7
  6
CONTINUOUS
 10
-0.105428
 20
-0.076552
 30
0.000000
 11
-0.102237
 21
-0.074830
 31
0.000000
  0
LINE
  8
0
 62
     7
  6
CONTINUOUS
 10
-0.102237
 20
-0.074830
 30
0.000000
 11
-0.099305
 21
-0.072698
 31
0.000000
  0
LINE
  8
0
 62
     7
  6
CONTINUOUS
 10
-0.099305
 20
-0.072698
 30
0.000000
 11
-0.096686
 21
-0.070189
 31
0.000000
  0
LINE
  8
0
 62
     7
  6
CONTINUOUS
 10
-0.096686
 20
-0.070189
 30
0.000000
 11
-0.094426
 21
-0.067354
 31
0.000000
  0
LINE
  8
0
 62
     7
  6
CONTINUOUS
 10
-0.094426
 20
-0.067354
 30
0.000000
 11
-0.093283
 21
-0.065473
 31
0.000000
  0
ARC
  8
LEFT_SIDE_STI0
 62
     5
  6
CONTINUOUS
 10
0.000000
 20
0.063750
 30
0.000000
 40
0.159375
 50
190.982633
 51
246.822582
  0
LINE
  8
0
 62
     7
  6
CONTINUOUS
 10
-0.156146
 20
0.029378
 30
0.000000
 11
-0.155656
 21
0.029524
 31
0.000000
  0
LINE
  8
0
 62
     7
  6
CONTINUOUS
 10
-0.211718
 20
0.070108
 30
0.000000
 11
-0.202852
 21
0.082491
 31
0.000000
  0
LINE
  8
0
 62
     7
  6
CONTINUOUS
 10
-0.214220
 20
0.067237
 30
0.000000
 11
-0.211718
 21
0.070108
 31
0.000000
  0
LINE
  8
0
 62
     7
  6
CONTINUOUS
 10
-0.215618
 20
0.065945
 30
0.000000
 11
-0.214220
 21
0.067237
 31
0.000000
  0
LINE
  8
0
 62
     7
  6
CONTINUOUS
 10
-0.241483
 20
0.097573
 30
0.000000
 11
-0.236831
 21
0.103594
 31
0.000000
  0
LINE
  8
0
 62
     7
  6
CONTINUOUS
 10
-0.241483
 20
0.097573
 30
0.004463
 11
-0.236831
 21
0.103594
 31
0.004463
  0
LINE
  8
0
 62
     7
  6
CONTINUOUS
 10
-0.233523
 20
0.139750
 30
0.004463
 11
-0.231094
 21
0.143438
 31
0.004463
  0
LINE
  8
0
 62
     7
  6
CONTINUOUS
 10
-0.256863
 20
0.153583
 30
0.004463
 11
-0.254363
 21
0.155550
 31
0.004463
  0
LINE
  8
0
 62
     7
  6
CONTINUOUS
 10
-0.256863
 20
0.153583
 30
0.000000
 11
-0.254363
 21
0.155550
 31
0.000000
  0
LINE
  8
0
 62
     7
  6
CONTINUOUS
 10
-0.305264
 20
0.132186
 30
0.004463
 11
-0.299944
 21
0.135469
 31
0.004463
  0
LINE
  8
0
 62
     7
  6
CONTINUOUS
 10
-0.375173
 20
0.171959
 30
0.004463
 11
-0.368475
 21
0.174356
 31
0.004463
  0
LINE
  8
0
 62
     7
  6
CONTINUOUS
 10
-0.375173
 20
0.171959
 30
0.000000
 11
-0.368475
 21
0.174356
 31
0.000000
  0
LINE
  8
0
 62
     7
  6
CONTINUOUS
 10
-0.246225
 20
0.208323
 30
0.004463
 11
-0.243525
 21
0.209738
 31
0.004463
  0
LINE
  8
0
 62
     7
  6
CONTINUOUS
 10
-0.198009
 20
0.148819
 30
0.004463
 11
-0.197944
 21
0.148856
 31
0.004463
  0
LINE
  8
0
 62
     7
  6
CONTINUOUS
 10
-0.185805
 20
0.112194
 30
0.004463
 11
-0.184875
 21
0.114431
 31
0.004463
  0
LINE
  8
0
 62
     7
  6
CONTINUOUS
 10
-0.203681
 20
-0.057056
 30
0.000000
 11
-0.203143
 21
-0.060864
 31
0.000000
  0
LINE
  8
0
 62
     7
  6
CONTINUOUS
 10
-0.203143
 20
-0.060864
 30
0.000000
 11
-0.202190
 21
-0.064590
 31
0.000000
  0
LINE
  8
0
 62
     7
  6
CONTINUOUS
 10
-0.202190
 20
-0.064590
 30
0.000000
 11
-0.200895
 21
-0.068212
 31
0.000000
  0
LINE
  8
0
 62
     7
  6
CONTINUOUS
 10
-0.200895
 20
-0.068212
 30
0.000000
 11
-0.197415
 21
-0.075064
 31
0.000000
  0
LINE
  8
0
 62
     7
  6
CONTINUOUS
 10
-0.197415
 20
-0.075064
 30
0.000000
 11
-0.192890
 21
-0.081277
 31
0.000000
  0
LINE
  8
0
 62
     7
  6
CONTINUOUS
 10
-0.192890
 20
-0.081277
 30
0.000000
 11
-0.190240
 21
-0.084065
 31
0.000000
  0
LINE
  8
0
 62
     7
  6
CONTINUOUS
 10
-0.190240
 20
-0.084065
 30
0.000000
 11
-0.187313
 21
-0.086558
 31
0.000000
  0
LINE
  8
0
 62
     7
  6
CONTINUOUS
 10
-0.187313
 20
-0.086558
 30
0.000000
 11
-0.184069
 21
-0.088620
 31
0.000000
  0
LINE
  8
DEFAULT
 62
     5
  6
CONTINUOUS
 10
-0.094699
 20
-0.171530
 30
0.000000
 11
-0.115060
 21
-0.171530
 31
0.000000
  0
LINE
  8
DEFAULT
 62
     5
  6
CONTINUOUS
 10
-0.136107
 20
-0.204678
 30
0.000000
 11
-0.136107
 21
-0.189966
 31
0.000000
  0
LINE
  8
DEFAULT
 62
     5
  6
CONTINUOUS
 10
-0.365788
 20
-0.138075
 30
0.000000
 11
-0.327800
 21
-0.138075
 31
0.000000
  0
LINE
  8
DEFAULT
 62
     5
  6
CONTINUOUS
 10
-0.365788
 20
-0.149392
 30
0.000000
 11
-0.365788
 21
-0.138075
 31
0.000000
  0
LINE
  8
DEFAULT
 62
     5
  6
CONTINUOUS
 10
-0.386485
 20
-0.204678
 30
0.000000
 11
-0.386485
 21
-0.138075
 31
0.000000
  0
LINE
  8
DEFAULT
 62
     5
  6
CONTINUOUS
 10
-0.393838
 20
-0.204678
 30
0.000000
 11
-0.378517
 21
-0.204678
 31
0.000000
  0
LINE
  8
DEFAULT
 62
     5
  6
CONTINUOUS
 10
-0.343820
 20
-0.204678
 30
0.000000
 11
-0.359142
 21
-0.204678
 31
0.000000
  0
LINE
  8
DEFAULT
 62
     5
  6
CONTINUOUS
 10
-0.327800
 20
-0.138075
 30
0.000000
 11
-0.351132
 21
-0.204678
 31
0.000000
  0
LINE
  8
DEFAULT
 62
     5
  6
CONTINUOUS
 10
-0.386485
 20
-0.138075
 30
0.000000
 11
-0.399164
 21
-0.138075
 31
0.000000
  0
LINE
  8
DEFAULT
 62
     5
  6
CONTINUOUS
 10
-0.424327
 20
-0.173541
 30
0.000000
 11
-0.407027
 21
-0.173519
 31
0.000000
  0
LINE
  8
DEFAULT
 62
     5
  6
CONTINUOUS
 10
-0.434829
 20
-0.182096
 30
0.000000
 11
-0.435498
 21
-0.180396
 31
0.000000
  0
LINE
  8
DEFAULT
 62
     5
  6
CONTINUOUS
 10
-0.434367
 20
-0.183843
 30
0.000000
 11
-0.434829
 21
-0.182096
 31
0.000000
  0
LINE
  8
DEFAULT
 62
     5
  6
CONTINUOUS
 10
-0.434109
 20
-0.185645
 30
0.000000
 11
-0.434367
 21
-0.183843
 31
0.000000
  0
LINE
  8
DEFAULT
 62
     5
  6
CONTINUOUS
 10
-0.434007
 20
-0.187443
 30
0.000000
 11
-0.434109
 21
-0.185645
 31
0.000000
  0
LINE
  8
DEFAULT
 62
     5
  6
CONTINUOUS
 10
-0.434109
 20
-0.189246
 30
0.000000
 11
-0.434007
 21
-0.187443
 31
0.000000
  0
LINE
  8
DEFAULT
 62
     5
  6
CONTINUOUS
 10
-0.434367
 20
-0.191048
 30
0.000000
 11
-0.434109
 21
-0.189246
 31
0.000000
  0
LINE
  8
DEFAULT
 62
     5
  6
CONTINUOUS
 10
-0.434829
 20
-0.192795
 30
0.000000
 11
-0.434367
 21
-0.191048
 31
0.000000
  0
LINE
  8
DEFAULT
 62
     5
  6
CONTINUOUS
 10
-0.435498
 20
-0.194439
 30
0.000000
 11
-0.434829
 21
-0.192795
 31
0.000000
  0
LINE
  8
DEFAULT
 62
     5
  6
CONTINUOUS
 10
-0.436320
 20
-0.196088
 30
0.000000
 11
-0.435498
 21
-0.194439
 31
0.000000
  0
LINE
  8
DEFAULT
 62
     5
  6
CONTINUOUS
 10
-0.437298
 20
-0.197579
 30
0.000000
 11
-0.436320
 21
-0.196088
 31
0.000000
  0
LINE
  8
DEFAULT
 62
     5
  6
CONTINUOUS
 10
-0.438430
 20
-0.198968
 30
0.000000
 11
-0.437298
 21
-0.197579
 31
0.000000
  0
LINE
  8
DEFAULT
 62
     5
  6
CONTINUOUS
 10
-0.439716
 20
-0.200255
 30
0.000000
 11
-0.438430
 21
-0.198968
 31
0.000000
  0
LINE
  8
DEFAULT
 62
     5
  6
CONTINUOUS
 10
-0.441105
 20
-0.201384
 30
0.000000
 11
-0.439716
 21
-0.200255
 31
0.000000
  0
LINE
  8
DEFAULT
 62
     5
  6
CONTINUOUS
 10
-0.442597
 20
-0.202364
 30
0.000000
 11
-0.441105
 21
-0.201384
 31
0.000000
  0
LINE
  8
DEFAULT
 62
     5
  6
CONTINUOUS
 10
-0.444243
 20
-0.203186
 30
0.000000
 11
-0.442597
 21
-0.202364
 31
0.000000
  0
LINE
  8
DEFAULT
 62
     5
  6
CONTINUOUS
 10
-0.445890
 20
-0.203855
 30
0.000000
 11
-0.444243
 21
-0.203186
 31
0.000000
  0
LINE
  8
DEFAULT
 62
     5
  6
CONTINUOUS
 10
-0.447639
 20
-0.204320
 30
0.000000
 11
-0.445890
 21
-0.203855
 31
0.000000
  0
LINE
  8
DEFAULT
 62
     5
  6
CONTINUOUS
 10
-0.449439
 20
-0.204575
 30
0.000000
 11
-0.447639
 21
-0.204320
 31
0.000000
  0
LINE
  8
DEFAULT
 62
     5
  6
CONTINUOUS
 10
-0.451239
 20
-0.204678
 30
0.000000
 11
-0.449439
 21
-0.204575
 31
0.000000
  0
LINE
  8
DEFAULT
 62
     5
  6
CONTINUOUS
 10
-0.479327
 20
-0.204678
 30
0.000000
 11
-0.451239
 21
-0.204678
 31
0.000000
  0
LINE
  8
DEFAULT
 62
     5
  6
CONTINUOUS
 10
-0.471045
 20
-0.140841
 30
0.000000
 11
-0.471045
 21
-0.204678
 31
0.000000
  0
LINE
  8
DEFAULT
 62
     5
  6
CONTINUOUS
 10
-0.451239
 20
-0.140841
 30
0.000000
 11
-0.479327
 21
-0.140841
 31
0.000000
  0
LINE
  8
DEFAULT
 62
     5
  6
CONTINUOUS
 10
-0.449490
 20
-0.140943
 30
0.000000
 11
-0.451239
 21
-0.140841
 31
0.000000
  0
LINE
  8
DEFAULT
 62
     5
  6
CONTINUOUS
 10
-0.447741
 20
-0.141250
 30
0.000000
 11
-0.449490
 21
-0.140943
 31
0.000000
  0
LINE
  8
DEFAULT
 62
     5
  6
CONTINUOUS
 10
-0.446043
 20
-0.141765
 30
0.000000
 11
-0.447741
 21
-0.141250
 31
0.000000
  0
LINE
  8
DEFAULT
 62
     5
  6
CONTINUOUS
 10
-0.444399
 20
-0.142536
 30
0.000000
 11
-0.446043
 21
-0.141765
 31
0.000000
  0
LINE
  8
DEFAULT
 62
     5
  6
CONTINUOUS
 10
-0.442905
 20
-0.143410
 30
0.000000
 11
-0.444399
 21
-0.142536
 31
0.000000
  0
LINE
  8
DEFAULT
 62
     5
  6
CONTINUOUS
 10
-0.441516
 20
-0.144543
 30
0.000000
 11
-0.442905
 21
-0.143410
 31
0.000000
  0
LINE
  8
DEFAULT
 62
     5
  6
CONTINUOUS
 10
-0.440232
 20
-0.145779
 30
0.000000
 11
-0.441516
 21
-0.144543
 31
0.000000
  0
LINE
  8
DEFAULT
 62
     5
  6
CONTINUOUS
 10
-0.439150
 20
-0.147168
 30
0.000000
 11
-0.440232
 21
-0.145779
 31
0.000000
  0
LINE
  8
DEFAULT
 62
     5
  6
CONTINUOUS
 10
-0.438225
 20
-0.148710
 30
0.000000
 11
-0.439150
 21
-0.147168
 31
0.000000
  0
LINE
  8
DEFAULT
 62
     5
  6
CONTINUOUS
 10
-0.437505
 20
-0.150303
 30
0.000000
 11
-0.438225
 21
-0.148710
 31
0.000000
  0
LINE
  8
DEFAULT
 62
     5
  6
CONTINUOUS
 10
-0.436989
 20
-0.152003
 30
0.000000
 11
-0.437505
 21
-0.150303
 31
0.000000
  0
LINE
  8
DEFAULT
 62
     5
  6
CONTINUOUS
 10
-0.436681
 20
-0.153750
 30
0.000000
 11
-0.436989
 21
-0.152003
 31
0.000000
  0
LINE
  8
DEFAULT
 62
     5
  6
CONTINUOUS
 10
-0.436578
 20
-0.155552
 30
0.000000
 11
-0.436681
 21
-0.153750
 31
0.000000
  0
LINE
  8
DEFAULT
 62
     5
  6
CONTINUOUS
 10
-0.436681
 20
-0.157299
 30
0.000000
 11
-0.436578
 21
-0.155552
 31
0.000000
  0
LINE
  8
DEFAULT
 62
     5
  6
CONTINUOUS
 10
-0.436989
 20
-0.159050
 30
0.000000
 11
-0.436681
 21
-0.157299
 31
0.000000
  0
LINE
  8
DEFAULT
 62
     5
  6
CONTINUOUS
 10
-0.437505
 20
-0.160746
 30
0.000000
 11
-0.436989
 21
-0.159050
 31
0.000000
  0
LINE
  8
DEFAULT
 62
     5
  6
CONTINUOUS
 10
-0.438225
 20
-0.162395
 30
0.000000
 11
-0.437505
 21
-0.160746
 31
0.000000
  0
LINE
  8
DEFAULT
 62
     5
  6
CONTINUOUS
 10
-0.439150
 20
-0.163886
 30
0.000000
 11
-0.438225
 21
-0.162395
 31
0.000000
  0
LINE
  8
DEFAULT
 62
     5
  6
CONTINUOUS
 10
-0.440232
 20
-0.165275
 30
0.000000
 11
-0.439150
 21
-0.163886
 31
0.000000
  0
LINE
  8
DEFAULT
 62
     5
  6
CONTINUOUS
 10
-0.441516
 20
-0.166562
 30
0.000000
 11
-0.440232
 21
-0.165275
 31
0.000000
  0
LINE
  8
DEFAULT
 62
     5
  6
CONTINUOUS
 10
-0.442905
 20
-0.167640
 30
0.000000
 11
-0.441516
 21
-0.166562
 31
0.000000
  0
LINE
  8
DEFAULT
 62
     5
  6
CONTINUOUS
 10
-0.444399
 20
-0.168564
 30
0.000000
 11
-0.442905
 21
-0.167640
 31
0.000000
  0
LINE
  8
DEFAULT
 62
     5
  6
CONTINUOUS
 10
-0.446043
 20
-0.169285
 30
0.000000
 11
-0.444399
 21
-0.168564
 31
0.000000
  0
LINE
  8
DEFAULT
 62
     5
  6
CONTINUOUS
 10
-0.447741
 20
-0.169800
 30
0.000000
 11
-0.446043
 21
-0.169285
 31
0.000000
  0
LINE
  8
DEFAULT
 62
     5
  6
CONTINUOUS
 10
-0.449490
 20
-0.170111
 30
0.000000
 11
-0.447741
 21
-0.169800
 31
0.000000
  0
LINE
  8
DEFAULT
 62
     5
  6
CONTINUOUS
 10
-0.451239
 20
-0.170213
 30
0.000000
 11
-0.449490
 21
-0.170111
 31
0.000000
  0
LINE
  8
DEFAULT
 62
     5
  6
CONTINUOUS
 10
-0.449439
 20
-0.170316
 30
0.000000
 11
-0.451239
 21
-0.170213
 31
0.000000
  0
LINE
  8
DEFAULT
 62
     5
  6
CONTINUOUS
 10
-0.447639
 20
-0.170571
 30
0.000000
 11
-0.449439
 21
-0.170316
 31
0.000000
  0
LINE
  8
DEFAULT
 62
     5
  6
CONTINUOUS
 10
-0.445890
 20
-0.171036
 30
0.000000
 11
-0.447639
 21
-0.170571
 31
0.000000
  0
LINE
  8
DEFAULT
 62
     5
  6
CONTINUOUS
 10
-0.444243
 20
-0.171654
 30
0.000000
 11
-0.445890
 21
-0.171036
 31
0.000000
  0
LINE
  8
DEFAULT
 62
     5
  6
CONTINUOUS
 10
-0.442597
 20
-0.172476
 30
0.000000
 11
-0.444243
 21
-0.171654
 31
0.000000
  0
LINE
  8
DEFAULT
 62
     5
  6
CONTINUOUS
 10
-0.441105
 20
-0.173451
 30
0.000000
 11
-0.442597
 21
-0.172476
 31
0.000000
  0
LINE
  8
DEFAULT
 62
     5
  6
CONTINUOUS
 10
-0.439716
 20
-0.174585
 30
0.000000
 11
-0.441105
 21
-0.173451
 31
0.000000
  0
LINE
  8
DEFAULT
 62
     5
  6
CONTINUOUS
 10
-0.438430
 20
-0.175871
 30
0.000000
 11
-0.439716
 21
-0.174585
 31
0.000000
  0
LINE
  8
DEFAULT
 62
     5
  6
CONTINUOUS
 10
-0.437298
 20
-0.177312
 30
0.000000
 11
-0.438430
 21
-0.175871
 31
0.000000
  0
LINE
  8
DEFAULT
 62
     5
  6
CONTINUOUS
 10
-0.436320
 20
-0.178803
 30
0.000000
 11
-0.437298
 21
-0.177312
 31
0.000000
  0
LINE
  8
DEFAULT
 62
     5
  6
CONTINUOUS
 10
-0.435498
 20
-0.180396
 30
0.000000
 11
-0.436320
 21
-0.178803
 31
0.000000
  0
LINE
  8
DEFAULT
 62
     5
  6
CONTINUOUS
 10
-0.471045
 20
-0.170213
 30
0.000000
 11
-0.451239
 21
-0.170213
 31
0.000000
  0
LINE
  8
0
 62
     7
  6
CONTINUOUS
 10
0.552406
 20
0.283315
 30
0.000000
 11
0.552697
 21
0.283327
 31
0.000000
  0
LINE
  8
0
 62
     7
  6
CONTINUOUS
 10
0.552697
 20
0.283327
 30
0.000000
 11
0.552825
 21
0.283316
 31
0.000000
  0
LINE
  8
0
 62
     7
  6
CONTINUOUS
 10
0.552825
 20
0.283316
 30
0.000000
 11
0.552942
 21
0.283293
 31
0.000000
  0
LINE
  8
0
 62
     7
  6
CONTINUOUS
 10
0.552942
 20
0.283293
 30
0.000000
 11
0.553046
 21
0.283255
 31
0.000000
  0
LINE
  8
0
 62
     7
  6
CONTINUOUS
 10
0.553046
 20
0.283255
 30
0.000000
 11
0.553092
 21
0.283232
 31
0.000000
  0
LINE
  8
0
 62
     7
  6
CONTINUOUS
 10
0.553092
 20
0.283232
 30
0.000000
 11
0.553136
 21
0.283204
 31
0.000000
  0
LINE
  8
0
 62
     7
  6
CONTINUOUS
 10
0.553136
 20
0.283204
 30
0.000000
 11
0.553175
 21
0.283172
 31
0.000000
  0
LINE
  8
0
 62
     7
  6
CONTINUOUS
 10
0.553175
 20
0.283172
 30
0.000000
 11
0.553211
 21
0.283137
 31
0.000000
  0
LINE
  8
0
 62
     7
  6
CONTINUOUS
 10
0.553211
 20
0.283137
 30
0.000000
 11
0.553244
 21
0.283097
 31
0.000000
  0
LINE
  8
0
 62
     7
  6
CONTINUOUS
 10
0.553244
 20
0.283097
 30
0.000000
 11
0.553272
 21
0.283053
 31
0.000000
  0
LINE
  8
0
 62
     7
  6
CONTINUOUS
 10
0.553272
 20
0.283053
 30
0.000000
 11
0.553295
 21
0.283005
 31
0.000000
  0
LINE
  8
0
 62
     7
  6
CONTINUOUS
 10
0.553295
 20
0.283005
 30
0.000000
 11
0.553315
 21
0.282953
 31
0.000000
  0
LINE
  8
0
 62
     7
  6
CONTINUOUS
 10
0.553315
 20
0.282953
 30
0.000000
 11
0.553331
 21
0.282896
 31
0.000000
  0
LINE
  8
0
 62
     7
  6
CONTINUOUS
 10
0.553328
 20
0.282907
 30
0.000000
 11
0.553347
 21
0.282782
 31
0.000000
  0
LINE
  8
0
 62
     7
  6
CONTINUOUS
 10
0.553347
 20
0.282782
 30
0.000000
 11
0.553349
 21
0.282638
 31
0.000000
  0
LINE
  8
0
 62
     7
  6
CONTINUOUS
 10
0.676888
 20
0.149201
 30
0.000000
 11
0.665872
 21
0.144261
 31
0.000000
  0
LINE
  8
0
 62
     7
  6
CONTINUOUS
 10
0.687235
 20
0.155416
 30
0.000000
 11
0.676888
 21
0.149201
 31
0.000000
  0
LINE
  8
0
 62
     7
  6
CONTINUOUS
 10
0.696574
 20
0.163059
 30
0.000000
 11
0.687235
 21
0.155416
 31
0.000000
  0
LINE
  8
0
 62
     7
  6
CONTINUOUS
 10
0.700736
 20
0.167434
 30
0.000000
 11
0.696574
 21
0.163059
 31
0.000000
  0
LINE
  8
0
 62
     7
  6
CONTINUOUS
 10
0.704485
 20
0.172168
 30
0.000000
 11
0.700736
 21
0.167434
 31
0.000000
  0
LINE
  8
0
 62
     7
  6
CONTINUOUS
 10
0.707770
 20
0.177233
 30
0.000000
 11
0.704485
 21
0.172168
 31
0.000000
  0
LINE
  8
0
 62
     7
  6
CONTINUOUS
 10
0.710548
 20
0.182594
 30
0.000000
 11
0.707770
 21
0.177233
 31
0.000000
  0
LINE
  8
0
 62
     7
  6
CONTINUOUS
 10
0.712789
 20
0.188200
 30
0.000000
 11
0.710548
 21
0.182594
 31
0.000000
  0
LINE
  8
0
 62
     7
  6
CONTINUOUS
 10
0.714481
 20
0.193995
 30
0.000000
 11
0.712789
 21
0.188200
 31
0.000000
  0
LINE
  8
0
 62
     7
  6
CONTINUOUS
 10
0.715615
 20
0.199924
 30
0.000000
 11
0.714481
 21
0.193995
 31
0.000000
  0
LINE
  8
0
 62
     7
  6
CONTINUOUS
 10
0.716231
 20
0.211969
 30
0.000000
 11
0.715615
 21
0.199924
 31
0.000000
  0
LINE
  8
0
 62
     7
  6
CONTINUOUS
 10
0.665872
 20
0.144261
 30
0.000000
 11
0.654425
 21
0.140418
 31
0.000000
  0
LINE
  8
0
 62
     7
  6
CONTINUOUS
 10
0.654425
 20
0.140418
 30
0.000000
 11
0.630823
 21
0.135367
 31
0.000000
  0
ENDSEC
  0
EOF
