  0
SECTION
  2
HEADER
  9
$ACADVER
  1
AC1009
  9
$DWGCODEPAGE
  3
ansi_1252
  9
$INSBASE
 10
0.0
 20
0.0
 30
0.0
  9
$EXTMIN
 10
0.0079053196326138
 20
0.0245937344321033
 30
0.0
  9
$EXTMAX
 10
31.89533595381119
 20
13.53010431733437
 30
1.254622772167592
  9
$LIMMIN
 10
0.0
 20
0.0
  9
$LIMMAX
 10
12.0
 20
9.0
  9
$ORTHOMODE
 70
     0
  9
$REGENMODE
 70
     1
  9
$FILLMODE
 70
     1
  9
$QTEXTMODE
 70
     0
  9
$MIRRTEXT
 70
     1
  9
$DRAGMODE
 70
     2
  9
$LTSCALE
 40
1.0
  9
$OSMODE
 70
    37
  9
$ATTMODE
 70
     1
  9
$TEXTSIZE
 40
0.2
  9
$TRACEWID
 40
0.05
  9
$TEXTSTYLE
  7
STANDARD
  9
$CLAYER
  8
0
  9
$CELTYPE
  6
BYBLOCK
  9
$CECOLOR
 62
   256
  9
$DIMSCALE
 40
1.0
  9
$DIMASZ
 40
0.18
  9
$DIMEXO
 40
0.0625
  9
$DIMDLI
 40
0.38
  9
$DIMRND
 40
0.0
  9
$DIMDLE
 40
0.0
  9
$DIMEXE
 40
0.18
  9
$DIMTP
 40
0.0
  9
$DIMTM
 40
0.0
  9
$DIMTXT
 40
0.18
  9
$DIMCEN
 40
0.09
  9
$DIMTSZ
 40
0.0
  9
$DIMTOL
 70
     0
  9
$DIMLIM
 70
     0
  9
$DIMTIH
 70
     1
  9
$DIMTOH
 70
     1
  9
$DIMSE1
 70
     0
  9
$DIMSE2
 70
     0
  9
$DIMTAD
 70
     0
  9
$DIMZIN
 70
     0
  9
$DIMBLK
  1

  9
$DIMASO
 70
     1
  9
$DIMSHO
 70
     1
  9
$DIMPOST
  1

  9
$DIMAPOST
  1

  9
$DIMALT
 70
     0
  9
$DIMALTD
 70
     2
  9
$DIMALTF
 40
25.4
  9
$DIMLFAC
 40
1.0
  9
$DIMTOFL
 70
     0
  9
$DIMTVP
 40
0.0
  9
$DIMTIX
 70
     0
  9
$DIMSOXD
 70
     0
  9
$DIMSAH
 70
     0
  9
$DIMBLK1
  1

  9
$DIMBLK2
  1

  9
$DIMSTYLE
  2
STANDARD
  9
$DIMCLRD
 70
     0
  9
$DIMCLRE
 70
     0
  9
$DIMCLRT
 70
     0
  9
$DIMTFAC
 40
1.0
  9
$DIMGAP
 40
0.09
  9
$LUNITS
 70
     2
  9
$LUPREC
 70
     4
  9
$SKETCHINC
 40
0.1
  9
$FILLETRAD
 40
0.5
  9
$AUNITS
 70
     0
  9
$AUPREC
 70
     0
  9
$MENU
  1
.
  9
$ELEVATION
 40
0.0
  9
$PELEVATION
 40
0.0
  9
$THICKNESS
 40
0.0
  9
$LIMCHECK
 70
     0
  9
$CHAMFERA
 40
0.5
  9
$CHAMFERB
 40
0.5
  9
$SKPOLY
 70
     0
  9
$TDCREATE
 40
2453353.508792488
  9
$TDUPDATE
 40
2440782.836515556
  9
$TDINDWG
 40
2440852.080755556
  9
$TDUSRTIMER
 40
2440852.080755556
  9
$USRTIMER
 70
     1
  9
$ANGBASE
 50
0.0
  9
$ANGDIR
 70
     0
  9
$PDMODE
 70
     0
  9
$PDSIZE
 40
0.0
  9
$PLINEWID
 40
0.0
  9
$COORDS
 70
     1
  9
$SPLFRAME
 70
     0
  9
$SPLINETYPE
 70
     6
  9
$SPLINESEGS
 70
     8
  9
$ATTDIA
 70
     0
  9
$ATTREQ
 70
     1
  9
$HANDLING
 70
     1
  9
$HANDSEED
  5
74B
  9
$SURFTAB1
 70
     6
  9
$SURFTAB2
 70
     6
  9
$SURFTYPE
 70
     6
  9
$SURFU
 70
     6
  9
$SURFV
 70
     6
  9
$UCSNAME
  2

  9
$UCSORG
 10
0.0
 20
0.0
 30
0.0
  9
$UCSXDIR
 10
1.0
 20
0.0
 30
0.0
  9
$UCSYDIR
 10
0.0
 20
1.0
 30
0.0
  9
$PUCSNAME
  2

  9
$PUCSORG
 10
0.0
 20
0.0
 30
0.0
  9
$PUCSXDIR
 10
1.0
 20
0.0
 30
0.0
  9
$PUCSYDIR
 10
0.0
 20
1.0
 30
0.0
  9
$USERI1
 70
     0
  9
$USERI2
 70
     0
  9
$USERI3
 70
     0
  9
$USERI4
 70
     0
  9
$USERI5
 70
     0
  9
$USERR1
 40
0.0
  9
$USERR2
 40
0.0
  9
$USERR3
 40
0.0
  9
$USERR4
 40
0.0
  9
$USERR5
 40
0.0
  9
$WORLDVIEW
 70
     1
  9
$SHADEDGE
 70
     3
  9
$SHADEDIF
 70
    70
  9
$TILEMODE
 70
     1
  9
$MAXACTVP
 70
    64
  9
$PLIMCHECK
 70
     0
  9
$PEXTMIN
 10
0.0
 20
0.0
 30
0.0
  9
$PEXTMAX
 10
0.0
 20
0.0
 30
0.0
  9
$PLIMMIN
 10
0.0
 20
0.0
  9
$PLIMMAX
 10
0.0
 20
0.0
  9
$UNITMODE
 70
     0
  9
$VISRETAIN
 70
     1
  9
$PLINEGEN
 70
     0
  9
$PSLTSCALE
 70
     1
  0
ENDSEC
  0
SECTION
  2
TABLES
  0
TABLE
  2
VPORT
 70
     1
  0
VPORT
  2
*ACTIVE
 70
     0
 10
0.0
 20
0.0
 11
1.0
 21
1.0
 12
15.57514834775295
 22
6.643920695680413
 13
0.0
 23
0.0
 14
0.5
 24
0.5
 15
0.5
 25
0.5
 16
0.0
 26
0.0
 36
1.0
 17
0.0
 27
0.0
 37
0.0
 40
16.67001634647912
 41
1.972972972850329
 42
50.0
 43
0.0
 44
0.0
 50
0.0
 51
0.0
 71
    16
 72
   100
 73
     1
 74
     3
 75
     0
 76
     0
 77
     0
 78
     0
  0
ENDTAB
  0
TABLE
  2
LTYPE
 70
     1
  0
LTYPE
  2
CONTINUOUS
 70
     0
  3
Solid line
 72
    65
 73
     0
 40
0.0
  0
ENDTAB
  0
TABLE
  2
LAYER
 70
     2
  0
LAYER
  2
0
 70
     0
 62
     7
  6
CONTINUOUS
  0
LAYER
  2
LAYER_1
 70
     0
 62
     7
  6
CONTINUOUS
  0
ENDTAB
  0
TABLE
  2
STYLE
 70
     1
  0
STYLE
  2
STANDARD
 70
     0
 40
0.0
 41
1.0
 50
0.0
 71
     0
 42
0.2
  3
txt
  4

  0
ENDTAB
  0
TABLE
  2
VIEW
 70
     0
  0
ENDTAB
  0
TABLE
  2
UCS
 70
     0
  0
ENDTAB
  0
TABLE
  2
APPID
 70
     1
  0
APPID
  2
ACAD
 70
     0
  0
ENDTAB
  0
TABLE
  2
DIMSTYLE
 70
     1
  0
DIMSTYLE
  2
STANDARD
 70
     0
  3

  4

  5

  6

  7

 40
1.0
 41
0.18
 42
0.0625
 43
0.38
 44
0.18
 45
0.0
 46
0.0
 47
0.0
 48
0.0
140
0.18
141
0.09
142
0.0
143
25.4
144
1.0
145
0.0
146
1.0
147
0.09
 71
     0
 72
     0
 73
     1
 74
     1
 75
     0
 76
     0
 77
     0
 78
     0
170
     0
171
     2
172
     0
173
     0
174
     0
175
     0
176
     0
177
     0
178
     0
  0
ENDTAB
  0
ENDSEC
  0
SECTION
  2
BLOCKS
  0
BLOCK
  8
0
  2
$MODEL_SPACE
 70
     0
 10
0.0
 20
0.0
 30
0.0
  3
$MODEL_SPACE
  1

  0
ENDBLK
  5
21
  8
0
  0
BLOCK
 67
     1
  8
0
  2
$PAPER_SPACE
 70
     0
 10
0.0
 20
0.0
 30
0.0
  3
$PAPER_SPACE
  1

  0
ENDBLK
  5
76
 67
     1
  8
0
  0
ENDSEC
  0
SECTION
  2
ENTITIES
  0
ARC
  5
534
  8
0
  6
BYBLOCK
 10
22.30051560299328
 20
5.304425914745082
 30
0.0
 40
1.652720881347877
 50
221.3909160791851
 51
316.7161819960887
  0
ARC
  5
535
  8
0
  6
BYBLOCK
 10
24.6590617577547
 20
5.533750762218
 30
0.0
 40
1.786412933357562
 50
229.7005375244026
 51
307.9891377003767
  0
ARC
  5
538
  8
0
  6
BYBLOCK
 10
26.15562546254937
 20
5.741128899894279
 30
0.0
 40
1.663371435512335
 50
256.1916559905043
 51
334.8739361625615
  0
ARC
  5
53D
  8
0
  6
BYBLOCK
 10
25.09191689978724
 20
11.71150844994644
 30
0.0
 40
7.154100008394215
 50
291.0504896970357
 51
341.9861556770525
  0
ARC
  5
53E
  8
0
  6
BYBLOCK
 10
21.94473533362671
 20
3.395569559706433
 30
0.0
 40
6.370733229603986
 50
56.20384635093173
 51
97.97678849152973
  0
ARC
  5
53F
  8
0
  6
BYBLOCK
 10
27.64719388461854
 20
17.36435030916022
 30
0.0
 40
8.939153454083316
 50
256.024928484662
 51
298.37424020522
  0
ARC
  5
544
  8
0
  6
BYBLOCK
 10
21.25089658504583
 20
18.79092223992816
 30
0.0
 40
7.972763872052948
 50
229.3051046794755
 51
268.6327213943667
  0
ARC
  5
545
  8
0
  6
BYBLOCK
 10
14.30746623359804
 20
7.229630744724418
 30
0.0
 40
7.396838269936147
 50
283.076250559967
 51
335.9202127470259
  0
ARC
  5
54A
  8
0
  6
BYBLOCK
 10
17.15947157083566
 20
6.715424994538645
 30
0.0
 40
6.793825025043911
 50
201.601756499527
 51
260.0106758689454
  0
ARC
  5
54C
  8
0
  6
BYBLOCK
 10
10.35142590461053
 20
20.16707700426725
 30
0.0
 40
9.358049835438331
 50
272.8285537806175
 51
307.532133144477
  0
ARC
  5
54D
  8
0
  6
BYBLOCK
 10
9.601798690176645
 20
5.296490827705956
 30
0.0
 40
1.646613699056366
 50
223.1049333498692
 51
318.9096870989569
  0
ARC
  5
54E
  8
0
  6
BYBLOCK
 10
10.02787837716945
 20
3.171792057285605
 30
0.0
 40
6.605633903521875
 50
83.42838467014066
 51
122.5604581454602
  0
ARC
  5
54F
  8
0
  6
BYBLOCK
 10
4.18200684296683
 20
17.12984453578821
 30
0.0
 40
8.697757693891996
 50
241.3207714863104
 51
285.2705433038954
  0
ARC
  5
550
  8
0
  6
BYBLOCK
 10
6.797514749357784
 20
11.70330206914913
 30
0.0
 40
7.138430384379961
 50
197.9854827989304
 51
249.0933841254799
  0
ARC
  5
551
  8
0
  6
BYBLOCK
 10
7.328230501217664
 20
5.594255812831589
 30
0.0
 40
1.781190180481227
 50
231.7637212884173
 51
306.9767573342057
  0
ARC
  5
552
  8
0
  6
BYBLOCK
 10
5.690996100588
 20
5.680847625314457
 30
0.0
 40
1.578996302847002
 50
204.1498092145222
 51
289.7992067684216
  0
LINE
  5
556
  8
0
  6
BYBLOCK
 10
10.78386023928598
 20
10.7910660992191
 30
0.0
 11
10.78386023928598
 21
9.734024199743571
 31
0.0
  0
LINE
  5
559
  8
0
  6
BYBLOCK
 10
21.06065648418698
 20
10.82042837420453
 30
0.0
 11
21.06065648418698
 21
9.70466192475814
 31
0.0
  0
LINE
  5
596
  8
0
 62
     0
 10
11.68269351757599
 20
5.776623138197837
 30
1.254622772167592
 11
10.86669690354036
 21
5.776623138197837
 31
1.254622772167592
  0
LINE
  5
597
  8
0
 62
     0
 10
10.86669690354036
 20
5.776623138197837
 30
1.254622772167592
 11
10.86669690354036
 21
8.170699330539124
 31
1.254622772167592
  0
LINE
  5
598
  8
0
 62
     0
 10
10.86669690354036
 20
8.170699330539124
 30
1.254622772167592
 11
11.348490752135
 21
8.171210065828642
 31
0.0
  0
LINE
  5
599
  8
0
 62
     0
 10
11.59192737343529
 20
8.166186576740795
 30
0.0
 11
11.95714224898765
 21
8.168247797642309
 31
1.254622772167592
  0
LINE
  5
59A
  8
0
 62
     0
 10
11.95714224898765
 20
8.168247797642309
 30
1.254622772167592
 11
12.01840296970705
 21
8.168247797642309
 31
1.254622772167592
  0
LINE
  5
59B
  8
0
 62
     0
 10
12.01840296970705
 20
8.168247797642309
 30
1.254622772167592
 11
12.07231160098154
 21
8.165796264745495
 31
1.254622772167592
  0
LINE
  5
59C
  8
0
 62
     0
 10
12.07231160098154
 20
8.165796264745495
 30
1.254622772167592
 11
12.12377120860477
 21
8.160895708197407
 31
1.254622772167592
  0
LINE
  5
59D
  8
0
 62
     0
 10
12.12377120860477
 20
8.160895708197407
 30
1.254622772167592
 11
12.17033025967991
 21
8.158446684546137
 31
1.254622772167592
  0
LINE
  5
59E
  8
0
 62
     0
 10
12.17033025967991
 20
8.158446684546137
 30
1.254622772167592
 11
12.21198624496142
 21
8.15354612799805
 31
1.254622772167592
  0
LINE
  5
59F
  8
0
 62
     0
 10
12.21198624496142
 20
8.15354612799805
 30
1.254622772167592
 11
12.24874418294038
 21
8.146194038553148
 31
1.254622772167592
  0
LINE
  5
5A0
  8
0
 62
     0
 10
12.24874418294038
 20
8.146194038553148
 30
1.254622772167592
 11
12.28304807877699
 21
8.141293482005059
 31
1.254622772167592
  0
LINE
  5
5A1
  8
0
 62
     0
 10
12.28304807877699
 20
8.141293482005059
 30
1.254622772167592
 11
12.31735448385914
 21
8.131492368908887
 31
1.254622772167592
  0
LINE
  5
5A2
  8
0
 62
     0
 10
12.31735448385914
 20
8.131492368908887
 30
1.254622772167592
 11
12.34921186529002
 21
8.12168874656717
 31
1.254622772167592
  0
LINE
  5
5A3
  8
0
 62
     0
 10
12.34921186529002
 20
8.12168874656717
 30
1.254622772167592
 11
12.38106673747535
 21
8.109438609819724
 31
1.254622772167592
  0
LINE
  5
5A4
  8
0
 62
     0
 10
12.38106673747535
 20
8.109438609819724
 30
1.254622772167592
 11
12.41292160966069
 21
8.097185963826737
 31
1.254622772167592
  0
LINE
  5
5A5
  8
0
 62
     0
 10
12.41292160966069
 20
8.097185963826737
 30
1.254622772167592
 11
12.44232745819475
 21
8.082481784936933
 31
1.254622772167592
  0
LINE
  5
5A6
  8
0
 62
     0
 10
12.44232745819475
 20
8.082481784936933
 30
1.254622772167592
 11
12.47173330672882
 21
8.065328582395857
 31
1.254622772167592
  0
LINE
  5
5A7
  8
0
 62
     0
 10
12.47173330672882
 20
8.065328582395857
 30
1.254622772167592
 11
12.49868762236607
 21
8.048175379854783
 31
1.254622772167592
  0
LINE
  5
5A8
  8
0
 62
     0
 10
12.49868762236607
 20
8.048175379854783
 30
1.254622772167592
 11
12.52564193800331
 21
8.028573153662435
 31
1.254622772167592
  0
LINE
  5
5A9
  8
0
 62
     0
 10
12.52564193800331
 20
8.028573153662435
 30
1.254622772167592
 11
12.55259625364056
 21
8.006519394573273
 31
1.254622772167592
  0
LINE
  5
5AA
  8
0
 62
     0
 10
12.55259625364056
 20
8.006519394573273
 30
1.254622772167592
 11
12.57710154562654
 21
7.98446563548411
 31
1.254622772167592
  0
LINE
  5
5AB
  8
0
 62
     0
 10
12.57710154562654
 20
7.98446563548411
 30
1.254622772167592
 11
12.5991553047157
 21
7.959960343498135
 31
1.254622772167592
  0
LINE
  5
5AC
  8
0
 62
     0
 10
12.5991553047157
 20
7.959960343498135
 30
1.254622772167592
 11
12.62120906380486
 21
7.935457560757701
 31
1.254622772167592
  0
LINE
  5
5AD
  8
0
 62
     0
 10
12.62120906380486
 20
7.935457560757701
 30
1.254622772167592
 11
12.64326282289403
 21
7.906051712223636
 31
1.254622772167592
  0
LINE
  5
5AE
  8
0
 62
     0
 10
12.64326282289403
 20
7.906051712223636
 30
1.254622772167592
 11
12.66286755833192
 21
7.879097396586388
 31
1.254622772167592
  0
LINE
  5
5AF
  8
0
 62
     0
 10
12.66286755833192
 20
7.879097396586388
 30
1.254622772167592
 11
12.68246978452426
 21
7.84724001515551
 31
1.254622772167592
  0
LINE
  5
5B0
  8
0
 62
     0
 10
12.68246978452426
 20
7.84724001515551
 30
1.254622772167592
 11
12.69962298706534
 21
7.815385142970174
 31
1.254622772167592
  0
LINE
  5
5B1
  8
0
 62
     0
 10
12.69962298706534
 20
7.815385142970174
 30
1.254622772167592
 11
12.7143246567096
 21
7.783530270784839
 31
1.254622772167592
  0
LINE
  5
5B2
  8
0
 62
     0
 10
12.7143246567096
 20
7.783530270784839
 30
1.254622772167592
 11
12.72657730270259
 21
7.749223865702687
 31
1.254622772167592
  0
LINE
  5
5B3
  8
0
 62
     0
 10
12.72657730270259
 20
7.749223865702687
 30
1.254622772167592
 11
12.73637841579876
 21
7.714917460620537
 31
1.254622772167592
  0
LINE
  5
5B4
  8
0
 62
     0
 10
12.73637841579876
 20
7.714917460620537
 30
1.254622772167592
 11
12.74618203814048
 21
7.680611055538387
 31
1.254622772167592
  0
LINE
  5
5B5
  8
0
 62
     0
 10
12.74618203814048
 20
7.680611055538387
 30
1.254622772167592
 11
12.75108259468857
 21
7.643855626804966
 31
1.254622772167592
  0
LINE
  5
5B6
  8
0
 62
     0
 10
12.75108259468857
 20
7.643855626804966
 30
1.254622772167592
 11
12.75598315123665
 21
7.604648665174729
 31
1.254622772167592
  0
LINE
  5
5B7
  8
0
 62
     0
 10
12.75598315123665
 20
7.604648665174729
 30
1.254622772167592
 11
12.75598315123665
 21
7.567890727195763
 31
1.254622772167592
  0
LINE
  5
5B8
  8
0
 62
     0
 10
12.75598315123665
 20
7.567890727195763
 30
1.254622772167592
 11
12.75353161833984
 21
7.526234741914253
 31
1.254622772167592
  0
LINE
  5
5B9
  8
0
 62
     0
 10
12.75353161833984
 20
7.526234741914253
 30
1.254622772167592
 11
12.75108259468857
 21
7.484576247387201
 31
1.254622772167592
  0
LINE
  5
5BA
  8
0
 62
     0
 10
12.75108259468857
 20
7.484576247387201
 30
1.254622772167592
 11
12.74373050524366
 21
7.445369285756964
 31
1.254622772167592
  0
LINE
  5
5BB
  8
0
 62
     0
 10
12.74373050524366
 20
7.445369285756964
 30
1.254622772167592
 11
12.73392939214749
 21
7.406162324126727
 31
1.254622772167592
  0
LINE
  5
5BC
  8
0
 62
     0
 10
12.73392939214749
 20
7.406162324126727
 30
1.254622772167592
 11
12.7216767461545
 21
7.366955362496489
 31
1.254622772167592
  0
LINE
  5
5BD
  8
0
 62
     0
 10
12.7216767461545
 20
7.366955362496489
 30
1.254622772167592
 11
12.70452354361343
 21
7.330199933763067
 31
1.254622772167592
  0
LINE
  5
5BE
  8
0
 62
     0
 10
12.70452354361343
 20
7.330199933763067
 30
1.254622772167592
 11
12.68737034107235
 21
7.293441995784103
 31
1.254622772167592
  0
LINE
  5
5BF
  8
0
 62
     0
 10
12.68737034107235
 20
7.293441995784103
 30
1.254622772167592
 11
12.66531658198319
 21
7.25913559070195
 31
1.254622772167592
  0
LINE
  5
5C0
  8
0
 62
     0
 10
12.66531658198319
 20
7.25913559070195
 30
1.254622772167592
 11
12.64326282289403
 21
7.2248291856198
 31
1.254622772167592
  0
LINE
  5
5C1
  8
0
 62
     0
 10
12.64326282289403
 20
7.2248291856198
 30
1.254622772167592
 11
12.61630850725678
 21
7.192974313434466
 31
1.254622772167592
  0
LINE
  5
5C2
  8
0
 62
     0
 10
12.61630850725678
 20
7.192974313434466
 30
1.254622772167592
 11
12.58935419161953
 21
7.163568464900401
 31
1.254622772167592
  0
LINE
  5
5C3
  8
0
 62
     0
 10
12.58935419161953
 20
7.163568464900401
 30
1.254622772167592
 11
12.55994834308546
 21
7.134165125611881
 31
1.254622772167592
  0
LINE
  5
5C4
  8
0
 62
     0
 10
12.55994834308546
 20
7.134165125611881
 30
1.254622772167592
 11
12.52809347090013
 21
7.109659833625904
 31
1.254622772167592
  0
LINE
  5
5C5
  8
0
 62
     0
 10
12.52809347090013
 20
7.109659833625904
 30
1.254622772167592
 11
12.49378706581798
 21
7.087606074536741
 31
1.254622772167592
  0
LINE
  5
5C6
  8
0
 62
     0
 10
12.49378706581798
 20
7.087606074536741
 30
1.254622772167592
 11
12.45948066073583
 21
7.065552315447579
 31
1.254622772167592
  0
LINE
  5
5C7
  8
0
 62
     0
 10
12.45948066073583
 20
7.065552315447579
 30
1.254622772167592
 11
12.42272272275686
 21
7.048399112906504
 31
1.254622772167592
  0
LINE
  5
5C8
  8
0
 62
     0
 10
12.42272272275686
 20
7.048399112906504
 30
1.254622772167592
 11
12.47418233038009
 21
7.028794377468614
 31
1.254622772167592
  0
LINE
  5
5C9
  8
0
 62
     0
 10
12.47418233038009
 20
7.028794377468614
 30
1.254622772167592
 11
12.52319291435204
 21
7.009192151276267
 31
1.254622772167592
  0
LINE
  5
5CA
  8
0
 62
     0
 10
12.52319291435204
 20
7.009192151276267
 30
1.254622772167592
 11
12.56974945618164
 21
6.987138392187105
 31
1.254622772167592
  0
LINE
  5
5CB
  8
0
 62
     0
 10
12.56974945618164
 20
6.987138392187105
 30
1.254622772167592
 11
12.61385697435996
 21
6.960184076549857
 31
1.254622772167592
  0
LINE
  5
5CC
  8
0
 62
     0
 10
12.61385697435996
 20
6.960184076549857
 30
1.254622772167592
 11
12.65551546888701
 21
6.933229760912608
 31
1.254622772167592
  0
LINE
  5
5CD
  8
0
 62
     0
 10
12.65551546888701
 20
6.933229760912608
 30
1.254622772167592
 11
12.69227089762044
 21
6.901372379481728
 31
1.254622772167592
  0
LINE
  5
5CE
  8
0
 62
     0
 10
12.69227089762044
 20
6.901372379481728
 30
1.254622772167592
 11
12.72657730270259
 21
6.867065974399578
 31
1.254622772167592
  0
LINE
  5
5CF
  8
0
 62
     0
 10
12.72657730270259
 20
6.867065974399578
 30
1.254622772167592
 11
12.75598315123665
 21
6.830310545666156
 31
1.254622772167592
  0
LINE
  5
5D0
  8
0
 62
     0
 10
12.75598315123665
 20
6.830310545666156
 30
1.254622772167592
 11
12.7829374668739
 21
6.791103584035918
 31
1.254622772167592
  0
LINE
  5
5D1
  8
0
 62
     0
 10
12.7829374668739
 20
6.791103584035918
 30
1.254622772167592
 11
12.80744275885988
 21
6.749445089508866
 31
1.254622772167592
  0
LINE
  5
5D2
  8
0
 62
     0
 10
12.80744275885988
 20
6.749445089508866
 30
1.254622772167592
 11
12.82704498505222
 21
6.707789104227358
 31
1.254622772167592
  0
LINE
  5
5D3
  8
0
 62
     0
 10
12.82704498505222
 20
6.707789104227358
 30
1.254622772167592
 11
12.8441981875933
 21
6.663681586049034
 31
1.254622772167592
  0
LINE
  5
5D4
  8
0
 62
     0
 10
12.8441981875933
 20
6.663681586049034
 30
1.254622772167592
 11
12.85645083358629
 21
6.617122534973895
 31
1.254622772167592
  0
LINE
  5
5D5
  8
0
 62
     0
 10
12.85645083358629
 20
6.617122534973895
 30
1.254622772167592
 11
12.86625194668246
 21
6.570563483898755
 31
1.254622772167592
  0
LINE
  5
5D6
  8
0
 62
     0
 10
12.86625194668246
 20
6.570563483898755
 30
1.254622772167592
 11
12.87115250323055
 21
6.521555409172345
 31
1.254622772167592
  0
LINE
  5
5D7
  8
0
 62
     0
 10
12.87115250323055
 20
6.521555409172345
 30
1.254622772167592
 11
12.87360403612736
 21
6.470095801549118
 31
1.254622772167592
  0
LINE
  5
5D8
  8
0
 62
     0
 10
12.87360403612736
 20
6.470095801549118
 30
1.254622772167592
 11
12.87360403612736
 21
6.428439816267611
 31
1.254622772167592
  0
LINE
  5
5D9
  8
0
 62
     0
 10
12.87360403612736
 20
6.428439816267611
 30
1.254622772167592
 11
12.86870347957928
 21
6.389232854637373
 31
1.254622772167592
  0
LINE
  5
5DA
  8
0
 62
     0
 10
12.86870347957928
 20
6.389232854637373
 30
1.254622772167592
 11
12.86380292303119
 21
6.347574360110321
 31
1.254622772167592
  0
LINE
  5
5DB
  8
0
 62
     0
 10
12.86380292303119
 20
6.347574360110321
 30
1.254622772167592
 11
12.85399930068947
 21
6.308367398480084
 31
1.254622772167592
  0
LINE
  5
5DC
  8
0
 62
     0
 10
12.85399930068947
 20
6.308367398480084
 30
1.254622772167592
 11
12.8441981875933
 21
6.269160436849846
 31
1.254622772167592
  0
LINE
  5
5DD
  8
0
 62
     0
 10
12.8441981875933
 20
6.269160436849846
 30
1.254622772167592
 11
12.83194554160031
 21
6.22995347521961
 31
1.254622772167592
  0
LINE
  5
5DE
  8
0
 62
     0
 10
12.83194554160031
 20
6.22995347521961
 30
1.254622772167592
 11
12.81479233905924
 21
6.190746513589372
 31
1.254622772167592
  0
LINE
  5
5DF
  8
0
 62
     0
 10
12.81479233905924
 20
6.190746513589372
 30
1.254622772167592
 11
12.7976416457637
 21
6.151539551959135
 31
1.254622772167592
  0
LINE
  5
5E0
  8
0
 62
     0
 10
12.7976416457637
 20
6.151539551959135
 30
1.254622772167592
 11
12.77803691032581
 21
6.114784123225713
 31
1.254622772167592
  0
LINE
  5
5E1
  8
0
 62
     0
 10
12.77803691032581
 20
6.114784123225713
 30
1.254622772167592
 11
12.75598315123665
 21
6.080477718143563
 31
1.254622772167592
  0
LINE
  5
5E2
  8
0
 62
     0
 10
12.75598315123665
 20
6.080477718143563
 30
1.254622772167592
 11
12.73392939214749
 21
6.046171313061411
 31
1.254622772167592
  0
LINE
  5
5E3
  8
0
 62
     0
 10
12.73392939214749
 20
6.046171313061411
 30
1.254622772167592
 11
12.70697507651024
 21
6.014316440876075
 31
1.254622772167592
  0
LINE
  5
5E4
  8
0
 62
     0
 10
12.70697507651024
 20
6.014316440876075
 30
1.254622772167592
 11
12.68002076087299
 21
5.984910592342013
 31
1.254622772167592
  0
LINE
  5
5E5
  8
0
 62
     0
 10
12.68002076087299
 20
5.984910592342013
 30
1.254622772167592
 11
12.6530639359902
 21
5.955504743807949
 31
1.254622772167592
  0
LINE
  5
5E6
  8
0
 62
     0
 10
12.6530639359902
 20
5.955504743807949
 30
1.254622772167592
 11
12.62120906380486
 21
5.930999451821971
 31
1.254622772167592
  0
LINE
  5
5E7
  8
0
 62
     0
 10
12.62120906380486
 20
5.930999451821971
 30
1.254622772167592
 11
12.58935419161953
 21
5.906496669081538
 31
1.254622772167592
  0
LINE
  5
5E8
  8
0
 62
     0
 10
12.58935419161953
 20
5.906496669081538
 30
1.254622772167592
 11
12.55504778653738
 21
5.884442909992377
 31
1.254622772167592
  0
LINE
  5
5E9
  8
0
 62
     0
 10
12.55504778653738
 20
5.884442909992377
 30
1.254622772167592
 11
12.52074138145523
 21
5.864838174554484
 31
1.254622772167592
  0
LINE
  5
5EA
  8
0
 62
     0
 10
12.52074138145523
 20
5.864838174554484
 30
1.254622772167592
 11
12.48398595272181
 21
5.847684972013409
 31
1.254622772167592
  0
LINE
  5
5EB
  8
0
 62
     0
 10
12.48398595272181
 20
5.847684972013409
 30
1.254622772167592
 11
12.44232745819475
 21
5.83298330236915
 31
1.254622772167592
  0
LINE
  5
5EC
  8
0
 62
     0
 10
12.44232745819475
 20
5.83298330236915
 30
1.254622772167592
 11
12.4006689636677
 21
5.818281632724889
 31
1.254622772167592
  0
LINE
  5
5ED
  8
0
 62
     0
 10
12.4006689636677
 20
5.818281632724889
 30
1.254622772167592
 11
12.35901297838619
 21
5.808478010383172
 31
1.254622772167592
  0
LINE
  5
5EE
  8
0
 62
     0
 10
12.35901297838619
 20
5.808478010383172
 30
1.254622772167592
 11
12.31245392731105
 21
5.798676897287
 31
1.254622772167592
  0
LINE
  5
5EF
  8
0
 62
     0
 10
12.31245392731105
 20
5.798676897287
 30
1.254622772167592
 11
12.26589487623591
 21
5.793776340738912
 31
1.254622772167592
  0
LINE
  5
5F0
  8
0
 62
     0
 10
12.26589487623591
 20
5.793776340738912
 30
1.254622772167592
 11
12.22913944750249
 21
5.788875784190827
 31
1.254622772167592
  0
LINE
  5
5F1
  8
0
 62
     0
 10
12.22913944750249
 20
5.788875784190827
 30
1.254622772167592
 11
12.18503192932417
 21
5.78642425129401
 31
1.254622772167592
  0
LINE
  5
5F2
  8
0
 62
     0
 10
12.18503192932417
 20
5.78642425129401
 30
1.254622772167592
 11
12.12622023225604
 21
5.783975227642739
 31
1.254622772167592
  0
LINE
  5
5F3
  8
0
 62
     0
 10
12.12622023225604
 20
5.783975227642739
 30
1.254622772167592
 11
12.06005895498855
 21
5.781523694745925
 31
1.254622772167592
  0
LINE
  5
5F4
  8
0
 62
     0
 10
12.06005895498855
 20
5.781523694745925
 30
1.254622772167592
 11
11.98164503172808
 21
5.781523694745925
 31
1.254622772167592
  0
LINE
  5
5F5
  8
0
 62
     0
 10
11.98164503172808
 20
5.781523694745925
 30
1.254622772167592
 11
11.89097846247462
 21
5.779074671094652
 31
1.254622772167592
  0
LINE
  5
5F6
  8
0
 62
     0
 10
11.89097846247462
 20
5.779074671094652
 30
1.254622772167592
 11
11.7929623130218
 21
5.776623138197837
 31
1.254622772167592
  0
LINE
  5
5F7
  8
0
 62
     0
 10
11.7929623130218
 20
5.776623138197837
 30
1.254622772167592
 11
11.68269351757599
 21
5.776623138197837
 31
1.254622772167592
  0
LINE
  5
5F8
  8
0
 62
     0
 10
11.73764064275618
 20
6.819079089941496
 30
0.0
 11
11.81991662865904
 21
6.818057899673168
 31
1.254622772167592
  0
LINE
  5
5F9
  8
0
 62
     0
 10
11.81991662865904
 20
6.818057899673168
 30
1.254622772167592
 11
11.89342999537143
 21
6.815608876021895
 31
1.254622772167592
  0
LINE
  5
5FA
  8
0
 62
     0
 10
11.89342999537143
 20
6.815608876021895
 30
1.254622772167592
 11
11.95714224898765
 21
6.813157343125081
 31
1.254622772167592
  0
LINE
  5
5FB
  8
0
 62
     0
 10
11.95714224898765
 20
6.813157343125081
 30
1.254622772167592
 11
12.01350241315896
 21
6.810705810228265
 31
1.254622772167592
  0
LINE
  5
5FC
  8
0
 62
     0
 10
12.01350241315896
 20
6.810705810228265
 30
1.254622772167592
 11
12.06495951153664
 21
6.805805253680179
 31
1.254622772167592
  0
LINE
  5
5FD
  8
0
 62
     0
 10
12.06495951153664
 20
6.805805253680179
 30
1.254622772167592
 11
12.10661800606369
 21
6.798455673480821
 31
1.254622772167592
  0
LINE
  5
5FE
  8
0
 62
     0
 10
12.10661800606369
 20
6.798455673480821
 30
1.254622772167592
 11
12.14337343479711
 21
6.791103584035918
 31
1.254622772167592
  0
LINE
  5
5FF
  8
0
 62
     0
 10
12.14337343479711
 20
6.791103584035918
 30
1.254622772167592
 11
12.17277928333118
 21
6.783751494591016
 31
1.254622772167592
  0
LINE
  5
600
  8
0
 62
     0
 10
12.17277928333118
 20
6.783751494591016
 30
1.254622772167592
 11
12.19483304242034
 21
6.773950381494843
 31
1.254622772167592
  0
LINE
  5
601
  8
0
 62
     0
 10
12.19483304242034
 20
6.773950381494843
 30
1.254622772167592
 11
12.21933833440632
 21
6.764149268398671
 31
1.254622772167592
  0
LINE
  5
602
  8
0
 62
     0
 10
12.21933833440632
 20
6.764149268398671
 30
1.254622772167592
 11
12.23894056059866
 21
6.751896622405681
 31
1.254622772167592
  0
LINE
  5
603
  8
0
 62
     0
 10
12.23894056059866
 20
6.751896622405681
 30
1.254622772167592
 11
12.25854529603656
 21
6.739643976412694
 31
1.254622772167592
  0
LINE
  5
604
  8
0
 62
     0
 10
12.25854529603656
 20
6.739643976412694
 30
1.254622772167592
 11
12.2781475222289
 21
6.724942306768433
 31
1.254622772167592
  0
LINE
  5
605
  8
0
 62
     0
 10
12.2781475222289
 20
6.724942306768433
 30
1.254622772167592
 11
12.29530072476998
 21
6.710238127878629
 31
1.254622772167592
  0
LINE
  5
606
  8
0
 62
     0
 10
12.29530072476998
 20
6.710238127878629
 30
1.254622772167592
 11
12.31000490365978
 21
6.693084925337554
 31
1.254622772167592
  0
LINE
  5
607
  8
0
 62
     0
 10
12.31000490365978
 20
6.693084925337554
 30
1.254622772167592
 11
12.32470657330404
 21
6.675931722796479
 31
1.254622772167592
  0
LINE
  5
608
  8
0
 62
     0
 10
12.32470657330404
 20
6.675931722796479
 30
1.254622772167592
 11
12.33695921929703
 21
6.656329496604132
 31
1.254622772167592
  0
LINE
  5
609
  8
0
 62
     0
 10
12.33695921929703
 20
6.656329496604132
 30
1.254622772167592
 11
12.3467603323932
 21
6.636724761166242
 31
1.254622772167592
  0
LINE
  5
60A
  8
0
 62
     0
 10
12.3467603323932
 20
6.636724761166242
 30
1.254622772167592
 11
12.35656144548938
 21
6.614671002077079
 31
1.254622772167592
  0
LINE
  5
60B
  8
0
 62
     0
 10
12.35656144548938
 20
6.614671002077079
 30
1.254622772167592
 11
12.36391353493428
 21
6.592617242987918
 31
1.254622772167592
  0
LINE
  5
60C
  8
0
 62
     0
 10
12.36391353493428
 20
6.592617242987918
 30
1.254622772167592
 11
12.36881409148237
 21
6.568114460247484
 31
1.254622772167592
  0
LINE
  5
60D
  8
0
 62
     0
 10
12.36881409148237
 20
6.568114460247484
 30
1.254622772167592
 11
12.37371464803045
 21
6.543609168261507
 31
1.254622772167592
  0
LINE
  5
60E
  8
0
 62
     0
 10
12.37371464803045
 20
6.543609168261507
 30
1.254622772167592
 11
12.37616618092727
 21
6.51910387627553
 31
1.254622772167592
  0
LINE
  5
60F
  8
0
 62
     0
 10
12.37616618092727
 20
6.51910387627553
 30
1.254622772167592
 11
12.37616618092727
 21
6.49214956063828
 31
1.254622772167592
  0
LINE
  5
610
  8
0
 62
     0
 10
12.37616618092727
 20
6.49214956063828
 30
1.254622772167592
 11
12.37616618092727
 21
6.46274622134976
 31
1.254622772167592
  0
LINE
  5
611
  8
0
 62
     0
 10
12.37616618092727
 20
6.46274622134976
 30
1.254622772167592
 11
12.37126562437918
 21
6.433340372815698
 31
1.254622772167592
  0
LINE
  5
612
  8
0
 62
     0
 10
12.37126562437918
 20
6.433340372815698
 30
1.254622772167592
 11
12.36636506783109
 21
6.403934524281633
 31
1.254622772167592
  0
LINE
  5
613
  8
0
 62
     0
 10
12.36636506783109
 20
6.403934524281633
 30
1.254622772167592
 11
12.35901297838619
 21
6.379429232295656
 31
1.254622772167592
  0
LINE
  5
614
  8
0
 62
     0
 10
12.35901297838619
 20
6.379429232295656
 30
1.254622772167592
 11
12.34921186529002
 21
6.354926449555223
 31
1.254622772167592
  0
LINE
  5
615
  8
0
 62
     0
 10
12.34921186529002
 20
6.354926449555223
 30
1.254622772167592
 11
12.33695921929703
 21
6.330421157569246
 31
1.254622772167592
  0
LINE
  5
616
  8
0
 62
     0
 10
12.33695921929703
 20
6.330421157569246
 30
1.254622772167592
 11
12.32470657330404
 21
6.310818931376899
 31
1.254622772167592
  0
LINE
  5
617
  8
0
 62
     0
 10
12.32470657330404
 20
6.310818931376899
 30
1.254622772167592
 11
12.30755337076297
 21
6.291214195939009
 31
1.254622772167592
  0
LINE
  5
618
  8
0
 62
     0
 10
12.30755337076297
 20
6.291214195939009
 30
1.254622772167592
 11
12.29040016822189
 21
6.271611969746662
 31
1.254622772167592
  0
LINE
  5
619
  8
0
 62
     0
 10
12.29040016822189
 20
6.271611969746662
 30
1.254622772167592
 11
12.27079794202954
 21
6.256907790856856
 31
1.254622772167592
  0
LINE
  5
61A
  8
0
 62
     0
 10
12.27079794202954
 20
6.256907790856856
 30
1.254622772167592
 11
12.25119320659165
 21
6.242206121212597
 31
1.254622772167592
  0
LINE
  5
61B
  8
0
 62
     0
 10
12.25119320659165
 20
6.242206121212597
 30
1.254622772167592
 11
12.22913944750249
 21
6.22995347521961
 31
1.254622772167592
  0
LINE
  5
61C
  8
0
 62
     0
 10
12.22913944750249
 20
6.22995347521961
 30
1.254622772167592
 11
12.20708568841333
 21
6.21770082922662
 31
1.254622772167592
  0
LINE
  5
61D
  8
0
 62
     0
 10
12.20708568841333
 20
6.21770082922662
 30
1.254622772167592
 11
12.18258039642735
 21
6.207899716130447
 31
1.254622772167592
  0
LINE
  5
61E
  8
0
 62
     0
 10
12.18258039642735
 20
6.207899716130447
 30
1.254622772167592
 11
12.15807761368692
 21
6.200547626685545
 31
1.254622772167592
  0
LINE
  5
61F
  8
0
 62
     0
 10
12.15807761368692
 20
6.200547626685545
 30
1.254622772167592
 11
12.13112329804967
 21
6.195647070137457
 31
1.254622772167592
  0
LINE
  5
620
  8
0
 62
     0
 10
12.13112329804967
 20
6.195647070137457
 30
1.254622772167592
 11
12.11151856261178
 21
6.193198046486187
 31
1.254622772167592
  0
LINE
  5
621
  8
0
 62
     0
 10
12.11151856261178
 20
6.193198046486187
 30
1.254622772167592
 11
12.08456424697453
 21
6.188297489938099
 31
1.254622772167592
  0
LINE
  5
622
  8
0
 62
     0
 10
12.08456424697453
 20
6.188297489938099
 30
1.254622772167592
 11
12.0527093747892
 21
6.185845957041285
 31
1.254622772167592
  0
LINE
  5
623
  8
0
 62
     0
 10
12.0527093747892
 20
6.185845957041285
 30
1.254622772167592
 11
12.01350241315896
 21
6.18339442414447
 31
1.254622772167592
  0
LINE
  5
624
  8
0
 62
     0
 10
12.01350241315896
 20
6.18339442414447
 30
1.254622772167592
 11
11.96939238573509
 21
6.18339442414447
 31
1.254622772167592
  0
LINE
  5
625
  8
0
 62
     0
 10
11.96939238573509
 20
6.18339442414447
 30
1.254622772167592
 11
11.91793528735741
 21
6.1809454004932
 31
1.254622772167592
  0
LINE
  5
626
  8
0
 62
     0
 10
11.91793528735741
 20
6.1809454004932
 30
1.254622772167592
 11
11.8615751231861
 21
6.1809454004932
 31
1.254622772167592
  0
LINE
  5
627
  8
0
 62
     0
 10
11.8615751231861
 20
6.1809454004932
 30
1.254622772167592
 11
11.79786286956988
 21
6.1809454004932
 31
1.254622772167592
  0
LINE
  5
628
  8
0
 62
     0
 10
11.79786286956988
 20
6.1809454004932
 30
1.254622772167592
 11
11.3494330890962
 21
6.1809454004932
 31
1.254622772167592
  0
LINE
  5
629
  8
0
 62
     0
 10
11.5892360234515
 20
7.775464414349479
 30
1.254622772167592
 11
11.70964783321323
 21
7.77127762479185
 31
1.254622772167592
  0
LINE
  5
62A
  8
0
 62
     0
 10
11.70964783321323
 20
7.77127762479185
 30
1.254622772167592
 11
11.78070966702881
 21
7.77127762479185
 31
1.254622772167592
  0
LINE
  5
62B
  8
0
 62
     0
 10
11.78070966702881
 20
7.77127762479185
 30
1.254622772167592
 11
11.84687094429629
 21
7.77127762479185
 31
1.254622772167592
  0
LINE
  5
62C
  8
0
 62
     0
 10
11.84687094429629
 20
7.77127762479185
 30
1.254622772167592
 11
11.90323110846761
 21
7.768826091895035
 31
1.254622772167592
  0
LINE
  5
62D
  8
0
 62
     0
 10
11.90323110846761
 20
7.768826091895035
 30
1.254622772167592
 11
11.94979015954274
 21
7.768826091895035
 31
1.254622772167592
  0
LINE
  5
62E
  8
0
 62
     0
 10
11.94979015954274
 20
7.768826091895035
 30
1.254622772167592
 11
11.98899712117298
 21
7.766377068243765
 31
1.254622772167592
  0
LINE
  5
62F
  8
0
 62
     0
 10
11.98899712117298
 20
7.766377068243765
 30
1.254622772167592
 11
12.01840296970705
 21
7.763925535346949
 31
1.254622772167592
  0
LINE
  5
630
  8
0
 62
     0
 10
12.01840296970705
 20
7.763925535346949
 30
1.254622772167592
 11
12.04290575244748
 21
7.763925535346949
 31
1.254622772167592
  0
LINE
  5
631
  8
0
 62
     0
 10
12.04290575244748
 20
7.763925535346949
 30
1.254622772167592
 11
12.06986006808473
 21
7.759024978798863
 31
1.254622772167592
  0
LINE
  5
632
  8
0
 62
     0
 10
12.06986006808473
 20
7.759024978798863
 30
1.254622772167592
 11
12.09926591661879
 21
7.75167288935396
 31
1.254622772167592
  0
LINE
  5
633
  8
0
 62
     0
 10
12.09926591661879
 20
7.75167288935396
 30
1.254622772167592
 11
12.12377120860477
 21
7.744323309154602
 31
1.254622772167592
  0
LINE
  5
634
  8
0
 62
     0
 10
12.12377120860477
 20
7.744323309154602
 30
1.254622772167592
 11
12.1482739913452
 21
7.734519686812885
 31
1.254622772167592
  0
LINE
  5
635
  8
0
 62
     0
 10
12.1482739913452
 20
7.734519686812885
 30
1.254622772167592
 11
12.17033025967991
 21
7.722269550065439
 31
1.254622772167592
  0
LINE
  5
636
  8
0
 62
     0
 10
12.17033025967991
 20
7.722269550065439
 30
1.254622772167592
 11
12.18993248587226
 21
7.71001690407245
 31
1.254622772167592
  0
LINE
  5
637
  8
0
 62
     0
 10
12.18993248587226
 20
7.71001690407245
 30
1.254622772167592
 11
12.20708568841333
 21
7.695312725182648
 31
1.254622772167592
  0
LINE
  5
638
  8
0
 62
     0
 10
12.20708568841333
 20
7.695312725182648
 30
1.254622772167592
 11
12.22423889095441
 21
7.678162031887116
 31
1.254622772167592
  0
LINE
  5
639
  8
0
 62
     0
 10
12.22423889095441
 20
7.678162031887116
 30
1.254622772167592
 11
12.23894056059866
 21
7.66100882934604
 31
1.254622772167592
  0
LINE
  5
63A
  8
0
 62
     0
 10
12.23894056059866
 20
7.66100882934604
 30
1.254622772167592
 11
12.25119320659165
 21
7.64140409390815
 31
1.254622772167592
  0
LINE
  5
63B
  8
0
 62
     0
 10
12.25119320659165
 20
7.64140409390815
 30
1.254622772167592
 11
12.26099431968783
 21
7.621801867715803
 31
1.254622772167592
  0
LINE
  5
63C
  8
0
 62
     0
 10
12.26099431968783
 20
7.621801867715803
 30
1.254622772167592
 11
12.27079794202954
 21
7.59974810862664
 31
1.254622772167592
  0
LINE
  5
63D
  8
0
 62
     0
 10
12.27079794202954
 20
7.59974810862664
 30
1.254622772167592
 11
12.27569849857763
 21
7.575242816640664
 31
1.254622772167592
  0
LINE
  5
63E
  8
0
 62
     0
 10
12.27569849857763
 20
7.575242816640664
 30
1.254622772167592
 11
12.28059905512572
 21
7.550737524654686
 31
1.254622772167592
  0
LINE
  5
63F
  8
0
 62
     0
 10
12.28059905512572
 20
7.550737524654686
 30
1.254622772167592
 11
12.28549961167381
 21
7.526234741914253
 31
1.254622772167592
  0
LINE
  5
640
  8
0
 62
     0
 10
12.28549961167381
 20
7.526234741914253
 30
1.254622772167592
 11
12.28549961167381
 21
7.499277917031462
 31
1.254622772167592
  0
LINE
  5
641
  8
0
 62
     0
 10
12.28549961167381
 20
7.499277917031462
 30
1.254622772167592
 11
12.28549961167381
 21
7.469874577742941
 31
1.254622772167592
  0
LINE
  5
642
  8
0
 62
     0
 10
12.28549961167381
 20
7.469874577742941
 30
1.254622772167592
 11
12.28059905512572
 21
7.442920262105691
 31
1.254622772167592
  0
LINE
  5
643
  8
0
 62
     0
 10
12.28059905512572
 20
7.442920262105691
 30
1.254622772167592
 11
12.27569849857763
 21
7.418414970119715
 31
1.254622772167592
  0
LINE
  5
644
  8
0
 62
     0
 10
12.27569849857763
 20
7.418414970119715
 30
1.254622772167592
 11
12.26834640913273
 21
7.393909678133737
 31
1.254622772167592
  0
LINE
  5
645
  8
0
 62
     0
 10
12.26834640913273
 20
7.393909678133737
 30
1.254622772167592
 11
12.25854529603656
 21
7.371855919044577
 31
1.254622772167592
  0
LINE
  5
646
  8
0
 62
     0
 10
12.25854529603656
 20
7.371855919044577
 30
1.254622772167592
 11
12.24629265004357
 21
7.349802159955415
 31
1.254622772167592
  0
LINE
  5
647
  8
0
 62
     0
 10
12.24629265004357
 20
7.349802159955415
 30
1.254622772167592
 11
12.23159098039931
 21
7.330199933763067
 31
1.254622772167592
  0
LINE
  5
648
  8
0
 62
     0
 10
12.23159098039931
 20
7.330199933763067
 30
1.254622772167592
 11
12.21443777785823
 21
7.310595198325178
 31
1.254622772167592
  0
LINE
  5
649
  8
0
 62
     0
 10
12.21443777785823
 20
7.310595198325178
 30
1.254622772167592
 11
12.19483304242034
 21
7.293441995784103
 31
1.254622772167592
  0
LINE
  5
64A
  8
0
 62
     0
 10
12.19483304242034
 20
7.293441995784103
 30
1.254622772167592
 11
12.175230816228
 21
7.278740326139841
 31
1.254622772167592
  0
LINE
  5
64B
  8
0
 62
     0
 10
12.175230816228
 20
7.278740326139841
 30
1.254622772167592
 11
12.15317705713883
 21
7.266487680146852
 31
1.254622772167592
  0
LINE
  5
64C
  8
0
 62
     0
 10
12.15317705713883
 20
7.266487680146852
 30
1.254622772167592
 11
12.12867176515286
 21
7.254235034153865
 31
1.254622772167592
  0
LINE
  5
64D
  8
0
 62
     0
 10
12.12867176515286
 20
7.254235034153865
 30
1.254622772167592
 11
12.10416647316688
 21
7.244433921057691
 31
1.254622772167592
  0
LINE
  5
64E
  8
0
 62
     0
 10
12.10416647316688
 20
7.244433921057691
 30
1.254622772167592
 11
12.07721215752963
 21
7.237081831612788
 31
1.254622772167592
  0
LINE
  5
64F
  8
0
 62
     0
 10
12.07721215752963
 20
7.237081831612788
 30
1.254622772167592
 11
12.04780630899557
 21
7.229732251413431
 31
1.254622772167592
  0
LINE
  5
650
  8
0
 62
     0
 10
12.04780630899557
 20
7.229732251413431
 30
1.254622772167592
 11
12.01840296970705
 21
7.2248291856198
 31
1.254622772167592
  0
LINE
  5
651
  8
0
 62
     0
 10
12.01840296970705
 20
7.2248291856198
 30
1.254622772167592
 11
11.99879823426915
 21
7.2248291856198
 31
1.254622772167592
  0
LINE
  5
652
  8
0
 62
     0
 10
11.99879823426915
 20
7.2248291856198
 30
1.254622772167592
 11
11.97184391863191
 21
7.222380161968528
 31
1.254622772167592
  0
LINE
  5
653
  8
0
 62
     0
 10
11.97184391863191
 20
7.222380161968528
 30
1.254622772167592
 11
11.93753751354976
 21
7.219928629071713
 31
1.254622772167592
  0
LINE
  5
654
  8
0
 62
     0
 10
11.93753751354976
 20
7.219928629071713
 30
1.254622772167592
 11
11.89588152826825
 21
7.219928629071713
 31
1.254622772167592
  0
LINE
  5
655
  8
0
 62
     0
 10
11.89588152826825
 20
7.219928629071713
 30
1.254622772167592
 11
11.84932247719311
 21
7.217479605420443
 31
1.254622772167592
  0
LINE
  5
656
  8
0
 62
     0
 10
11.84932247719311
 20
7.217479605420443
 30
1.254622772167592
 11
11.79541133667307
 21
7.217479605420443
 31
1.254622772167592
  0
LINE
  5
657
  8
0
 62
     0
 10
11.79541133667307
 20
7.217479605420443
 30
1.254622772167592
 11
11.73415061595367
 21
7.217479605420443
 31
1.254622772167592
  0
LINE
  5
658
  8
0
 62
     0
 10
11.73415061595367
 20
7.217479605420443
 30
1.254622772167592
 11
11.59904745322256
 21
7.219215965034189
 31
0.0
  0
LINE
  5
659
  8
0
 62
     0
 10
11.34926969935289
 20
6.178446918837111
 30
1.254622772167592
 11
11.348490752135
 21
8.171210065828642
 31
0.0
  0
LINE
  5
65A
  8
0
 62
     0
 10
13.26567365242974
 20
5.776623138197837
 30
1.254622772167592
 11
13.26567365242974
 21
8.170699330539124
 31
1.254622772167592
  0
LINE
  5
65B
  8
0
 62
     0
 10
13.26567365242974
 20
8.170699330539124
 30
1.254622772167592
 11
13.74840983798557
 21
8.170699330539124
 31
1.254622772167592
  0
LINE
  5
65C
  8
0
 62
     0
 10
13.74840983798557
 20
8.170699330539124
 30
1.254622772167592
 11
13.74840983798557
 21
5.776623138197837
 31
1.254622772167592
  0
LINE
  5
65D
  8
0
 62
     0
 10
13.74840983798557
 20
5.776623138197837
 30
1.254622772167592
 11
13.26567365242974
 21
5.776623138197837
 31
1.254622772167592
  0
LINE
  5
65E
  8
0
 62
     0
 10
14.2164418446516
 20
5.776623138197837
 30
1.254622772167592
 11
14.2164418446516
 21
8.170699330539124
 31
1.254622772167592
  0
LINE
  5
65F
  8
0
 62
     0
 10
14.2164418446516
 20
8.170699330539124
 30
1.254622772167592
 11
14.69917803020744
 21
8.170699330539124
 31
1.254622772167592
  0
LINE
  5
660
  8
0
 62
     0
 10
14.69917803020744
 20
8.170699330539124
 30
1.254622772167592
 11
14.69917803020744
 21
7.107208300729089
 31
1.254622772167592
  0
LINE
  5
661
  8
0
 62
     0
 10
14.69917803020744
 20
7.107208300729089
 30
1.254622772167592
 11
15.67690053806656
 21
8.170699330539124
 31
1.254622772167592
  0
LINE
  5
662
  8
0
 62
     0
 10
15.67690053806656
 20
8.170699330539124
 30
1.254622772167592
 11
16.32871721613633
 21
8.170699330539124
 31
1.254622772167592
  0
LINE
  5
663
  8
0
 62
     0
 10
16.32871721613633
 20
8.170699330539124
 30
1.254622772167592
 11
15.4245080749896
 21
7.237081831612788
 31
1.254622772167592
  0
LINE
  5
664
  8
0
 62
     0
 10
15.4245080749896
 20
7.237081831612788
 30
1.254622772167592
 11
16.37772529086274
 21
5.776623138197837
 31
1.254622772167592
  0
LINE
  5
665
  8
0
 62
     0
 10
16.37772529086274
 20
5.776623138197837
 30
1.254622772167592
 11
15.75041390477894
 21
5.776623138197837
 31
1.254622772167592
  0
LINE
  5
666
  8
0
 62
     0
 10
15.75041390477894
 20
5.776623138197837
 30
1.254622772167592
 11
15.088796113613
 21
6.901372379481728
 31
1.254622772167592
  0
LINE
  5
667
  8
0
 62
     0
 10
15.088796113613
 20
6.901372379481728
 30
1.254622772167592
 11
14.69917803020744
 21
6.499501650083182
 31
1.254622772167592
  0
LINE
  5
668
  8
0
 62
     0
 10
14.69917803020744
 20
6.499501650083182
 30
1.254622772167592
 11
14.69917803020744
 21
5.776623138197837
 31
1.254622772167592
  0
LINE
  5
669
  8
0
 62
     0
 10
14.69917803020744
 20
5.776623138197837
 30
1.254622772167592
 11
14.2164418446516
 21
5.776623138197837
 31
1.254622772167592
  0
LINE
  5
66A
  8
0
 62
     0
 10
16.62767123953397
 20
5.776623138197837
 30
1.254622772167592
 11
16.62767123953397
 21
8.170699330539124
 31
1.254622772167592
  0
LINE
  5
66B
  8
0
 62
     0
 10
16.62767123953397
 20
8.170699330539124
 30
1.254622772167592
 11
18.399334093094
 21
8.170699330539124
 31
1.254622772167592
  0
LINE
  5
66C
  8
0
 62
     0
 10
18.399334093094
 20
8.170699330539124
 30
1.254622772167592
 11
18.399334093094
 21
7.766377068243765
 31
1.254622772167592
  0
LINE
  5
66D
  8
0
 62
     0
 10
18.399334093094
 20
7.766377068243765
 30
1.254622772167592
 11
17.1104074250898
 21
7.766377068243765
 31
1.254622772167592
  0
LINE
  5
66E
  8
0
 62
     0
 10
17.1104074250898
 20
7.766377068243765
 30
1.254622772167592
 11
17.1104074250898
 21
7.234632807961518
 31
1.254622772167592
  0
LINE
  5
66F
  8
0
 62
     0
 10
17.1104074250898
 20
7.234632807961518
 30
1.254622772167592
 11
18.30867003308608
 21
7.234632807961518
 31
1.254622772167592
  0
LINE
  5
670
  8
0
 62
     0
 10
18.30867003308608
 20
7.234632807961518
 30
1.254622772167592
 11
18.30867003308608
 21
6.830310545666156
 31
1.254622772167592
  0
LINE
  5
671
  8
0
 62
     0
 10
18.30867003308608
 20
6.830310545666156
 30
1.254622772167592
 11
17.1104074250898
 21
6.830310545666156
 31
1.254622772167592
  0
LINE
  5
672
  8
0
 62
     0
 10
17.1104074250898
 20
6.830310545666156
 30
1.254622772167592
 11
17.1104074250898
 21
6.1809454004932
 31
1.254622772167592
  0
LINE
  5
673
  8
0
 62
     0
 10
17.1104074250898
 20
6.1809454004932
 30
1.254622772167592
 11
18.44589314416914
 21
6.1809454004932
 31
1.254622772167592
  0
LINE
  5
674
  8
0
 62
     0
 10
18.44589314416914
 20
6.1809454004932
 30
1.254622772167592
 11
18.44589314416914
 21
5.776623138197837
 31
1.254622772167592
  0
LINE
  5
675
  8
0
 62
     0
 10
18.44589314416914
 20
5.776623138197837
 30
1.254622772167592
 11
16.62767123953397
 21
5.776623138197837
 31
1.254622772167592
  0
LINE
  5
676
  8
0
 62
     0
 10
19.34030117221969
 20
7.158667908352314
 30
1.254622772167592
 11
19.33925503158514
 21
8.171210065828646
 31
1.254622772167592
  0
LINE
  5
677
  8
0
 62
     0
 10
19.60557717400513
 20
7.763902068760157
 30
0.0
 11
19.78873095269338
 21
7.766377068243765
 31
1.254622772167592
  0
LINE
  5
678
  8
0
 62
     0
 10
19.78873095269338
 20
7.766377068243765
 30
1.254622772167592
 11
19.84999167341278
 21
7.766377068243765
 31
1.254622772167592
  0
LINE
  5
679
  8
0
 62
     0
 10
19.84999167341278
 20
7.766377068243765
 30
1.254622772167592
 11
19.90635183758409
 21
7.766377068243765
 31
1.254622772167592
  0
LINE
  5
67A
  8
0
 62
     0
 10
19.90635183758409
 20
7.766377068243765
 30
1.254622772167592
 11
19.95291088865923
 21
7.763925535346949
 31
1.254622772167592
  0
LINE
  5
67B
  8
0
 62
     0
 10
19.95291088865923
 20
7.763925535346949
 30
1.254622772167592
 11
19.99456938318628
 21
7.763925535346949
 31
1.254622772167592
  0
LINE
  5
67C
  8
0
 62
     0
 10
19.99456938318628
 20
7.763925535346949
 30
1.254622772167592
 11
20.02642425537162
 21
7.761476511695676
 31
1.254622772167592
  0
LINE
  5
67D
  8
0
 62
     0
 10
20.02642425537162
 20
7.761476511695676
 30
1.254622772167592
 11
20.05337857100887
 21
7.759024978798863
 31
1.254622772167592
  0
LINE
  5
67E
  8
0
 62
     0
 10
20.05337857100887
 20
7.759024978798863
 30
1.254622772167592
 11
20.07053177354994
 21
7.759024978798863
 31
1.254622772167592
  0
LINE
  5
67F
  8
0
 62
     0
 10
20.07053177354994
 20
7.759024978798863
 30
1.254622772167592
 11
20.09993762208401
 21
7.75167288935396
 31
1.254622772167592
  0
LINE
  5
680
  8
0
 62
     0
 10
20.09993762208401
 20
7.75167288935396
 30
1.254622772167592
 11
20.12689193772125
 21
7.744323309154602
 31
1.254622772167592
  0
LINE
  5
681
  8
0
 62
     0
 10
20.12689193772125
 20
7.744323309154602
 30
1.254622772167592
 11
20.15139722970723
 21
7.7369712197097
 31
1.254622772167592
  0
LINE
  5
682
  8
0
 62
     0
 10
20.15139722970723
 20
7.7369712197097
 30
1.254622772167592
 11
20.17590001244766
 21
7.724718573716713
 31
1.254622772167592
  0
LINE
  5
683
  8
0
 62
     0
 10
20.17590001244766
 20
7.724718573716713
 30
1.254622772167592
 11
20.19795377153683
 21
7.712465927723722
 31
1.254622772167592
  0
LINE
  5
684
  8
0
 62
     0
 10
20.19795377153683
 20
7.712465927723722
 30
1.254622772167592
 11
20.21755850697472
 21
7.697764258079463
 31
1.254622772167592
  0
LINE
  5
685
  8
0
 62
     0
 10
20.21755850697472
 20
7.697764258079463
 30
1.254622772167592
 11
20.23716073316707
 21
7.683062588435202
 31
1.254622772167592
  0
LINE
  5
686
  8
0
 62
     0
 10
20.23716073316707
 20
7.683062588435202
 30
1.254622772167592
 11
20.25431393570814
 21
7.663457852997313
 31
1.254622772167592
  0
LINE
  5
687
  8
0
 62
     0
 10
20.25431393570814
 20
7.663457852997313
 30
1.254622772167592
 11
20.26901811459794
 21
7.643855626804966
 31
1.254622772167592
  0
LINE
  5
688
  8
0
 62
     0
 10
20.26901811459794
 20
7.643855626804966
 30
1.254622772167592
 11
20.28126825134539
 21
7.624250891367076
 31
1.254622772167592
  0
LINE
  5
689
  8
0
 62
     0
 10
20.28126825134539
 20
7.624250891367076
 30
1.254622772167592
 11
20.29352089733838
 21
7.602197132277913
 31
1.254622772167592
  0
LINE
  5
68A
  8
0
 62
     0
 10
20.29352089733838
 20
7.602197132277913
 30
1.254622772167592
 11
20.30087298678328
 21
7.577691840291935
 31
1.254622772167592
  0
LINE
  5
68B
  8
0
 62
     0
 10
20.30087298678328
 20
7.577691840291935
 30
1.254622772167592
 11
20.30822507622818
 21
7.553189057551501
 31
1.254622772167592
  0
LINE
  5
68C
  8
0
 62
     0
 10
20.30822507622818
 20
7.553189057551501
 30
1.254622772167592
 11
20.31312563277627
 21
7.526234741914253
 31
1.254622772167592
  0
LINE
  5
68D
  8
0
 62
     0
 10
20.31312563277627
 20
7.526234741914253
 30
1.254622772167592
 11
20.31802618932435
 21
7.499277917031462
 31
1.254622772167592
  0
LINE
  5
68E
  8
0
 62
     0
 10
20.31802618932435
 20
7.499277917031462
 30
1.254622772167592
 11
20.31802618932435
 21
7.469874577742941
 31
1.254622772167592
  0
LINE
  5
68F
  8
0
 62
     0
 10
20.31802618932435
 20
7.469874577742941
 30
1.254622772167592
 11
20.31802618932435
 21
7.442920262105691
 31
1.254622772167592
  0
LINE
  5
690
  8
0
 62
     0
 10
20.31802618932435
 20
7.442920262105691
 30
1.254622772167592
 11
20.31557465642754
 21
7.418414970119715
 31
1.254622772167592
  0
LINE
  5
691
  8
0
 62
     0
 10
20.31557465642754
 20
7.418414970119715
 30
1.254622772167592
 11
20.31067409987945
 21
7.393909678133737
 31
1.254622772167592
  0
LINE
  5
692
  8
0
 62
     0
 10
20.31067409987945
 20
7.393909678133737
 30
1.254622772167592
 11
20.30577354333136
 21
7.369406895393304
 31
1.254622772167592
  0
LINE
  5
693
  8
0
 62
     0
 10
20.30577354333136
 20
7.369406895393304
 30
1.254622772167592
 11
20.29842145388646
 21
7.347353136304141
 31
1.254622772167592
  0
LINE
  5
694
  8
0
 62
     0
 10
20.29842145388646
 20
7.347353136304141
 30
1.254622772167592
 11
20.29107187368711
 21
7.327748400866252
 31
1.254622772167592
  0
LINE
  5
695
  8
0
 62
     0
 10
20.29107187368711
 20
7.327748400866252
 30
1.254622772167592
 11
20.28126825134539
 21
7.308146174673905
 31
1.254622772167592
  0
LINE
  5
696
  8
0
 62
     0
 10
20.28126825134539
 20
7.308146174673905
 30
1.254622772167592
 11
20.26901811459794
 21
7.288541439236015
 31
1.254622772167592
  0
LINE
  5
697
  8
0
 62
     0
 10
20.26901811459794
 20
7.288541439236015
 30
1.254622772167592
 11
20.25676546860495
 21
7.27138823669494
 31
1.254622772167592
  0
LINE
  5
698
  8
0
 62
     0
 10
20.25676546860495
 20
7.27138823669494
 30
1.254622772167592
 11
20.24206128971515
 21
7.25668656705068
 31
1.254622772167592
  0
LINE
  5
699
  8
0
 62
     0
 10
20.24206128971515
 20
7.25668656705068
 30
1.254622772167592
 11
20.22735962007089
 21
7.241982388160875
 31
1.254622772167592
  0
LINE
  5
69A
  8
0
 62
     0
 10
20.22735962007089
 20
7.241982388160875
 30
1.254622772167592
 11
20.21020641752982
 21
7.227280718516616
 31
1.254622772167592
  0
LINE
  5
69B
  8
0
 62
     0
 10
20.21020641752982
 20
7.227280718516616
 30
1.254622772167592
 11
20.19305321498874
 21
7.215028072523628
 31
1.254622772167592
  0
LINE
  5
69C
  8
0
 62
     0
 10
20.19305321498874
 20
7.215028072523628
 30
1.254622772167592
 11
20.17345098879639
 21
7.205226959427453
 31
1.254622772167592
  0
LINE
  5
69D
  8
0
 62
     0
 10
20.17345098879639
 20
7.205226959427453
 30
1.254622772167592
 11
20.1538462533585
 21
7.195425846331281
 31
1.254622772167592
  0
LINE
  5
69E
  8
0
 62
     0
 10
20.1538462533585
 20
7.195425846331281
 30
1.254622772167592
 11
20.13424402716615
 21
7.188073756886379
 31
1.254622772167592
  0
LINE
  5
69F
  8
0
 62
     0
 10
20.13424402716615
 20
7.188073756886379
 30
1.254622772167592
 11
20.10728720228336
 21
7.180721667441476
 31
1.254622772167592
  0
LINE
  5
6A0
  8
0
 62
     0
 10
20.10728720228336
 20
7.180721667441476
 30
1.254622772167592
 11
20.07298330644676
 21
7.175821110893391
 31
1.254622772167592
  0
LINE
  5
6A1
  8
0
 62
     0
 10
20.07298330644676
 20
7.175821110893391
 30
1.254622772167592
 11
20.0313248119197
 21
7.170920554345304
 31
1.254622772167592
  0
LINE
  5
6A2
  8
0
 62
     0
 10
20.0313248119197
 20
7.170920554345304
 30
1.254622772167592
 11
19.98231673719329
 21
7.166019997797216
 31
1.254622772167592
  0
LINE
  5
6A3
  8
0
 62
     0
 10
19.98231673719329
 20
7.166019997797216
 30
1.254622772167592
 11
19.92350504012516
 21
7.163568464900401
 31
1.254622772167592
  0
LINE
  5
6A4
  8
0
 62
     0
 10
19.92350504012516
 20
7.163568464900401
 30
1.254622772167592
 11
19.85734376285768
 21
7.161119441249128
 31
1.254622772167592
  0
LINE
  5
6A5
  8
0
 62
     0
 10
19.85734376285768
 20
7.161119441249128
 30
1.254622772167592
 11
19.78138137249402
 21
7.158667908352314
 31
1.254622772167592
  0
LINE
  5
6A6
  8
0
 62
     0
 10
19.78138137249402
 20
7.158667908352314
 30
1.254622772167592
 11
19.69806689268546
 21
7.158667908352314
 31
1.254622772167592
  0
LINE
  5
6A7
  8
0
 62
     0
 10
19.69806689268546
 20
7.158667908352314
 30
1.254622772167592
 11
19.34030117221969
 21
7.158667908352314
 31
1.254622772167592
  0
LINE
  5
6A8
  8
0
 62
     0
 10
19.60557717400513
 20
8.169746616634416
 30
0.0
 11
19.96761255830349
 21
8.170699330539124
 31
1.254622772167592
  0
LINE
  5
6A9
  8
0
 62
     0
 10
19.96761255830349
 20
8.170699330539124
 30
1.254622772167592
 11
20.05337857100887
 21
8.165796264745495
 31
1.254622772167592
  0
LINE
  5
6AA
  8
0
 62
     0
 10
20.05337857100887
 20
8.165796264745495
 30
1.254622772167592
 11
20.13424402716615
 21
8.160895708197407
 31
1.254622772167592
  0
LINE
  5
6AB
  8
0
 62
     0
 10
20.13424402716615
 20
8.160895708197407
 30
1.254622772167592
 11
20.20530586098173
 21
8.15354612799805
 31
1.254622772167592
  0
LINE
  5
6AC
  8
0
 62
     0
 10
20.20530586098173
 20
8.15354612799805
 30
1.254622772167592
 11
20.27146713824921
 21
8.146194038553148
 31
1.254622772167592
  0
LINE
  5
6AD
  8
0
 62
     0
 10
20.27146713824921
 20
8.146194038553148
 30
1.254622772167592
 11
20.33272785896861
 21
8.133941392560161
 31
1.254622772167592
  0
LINE
  5
6AE
  8
0
 62
     0
 10
20.33272785896861
 20
8.133941392560161
 30
1.254622772167592
 11
20.38663899948865
 21
8.12168874656717
 31
1.254622772167592
  0
LINE
  5
6AF
  8
0
 62
     0
 10
20.38663899948865
 20
8.12168874656717
 30
1.254622772167592
 11
20.43319554131825
 21
8.106987076922909
 31
1.254622772167592
  0
LINE
  5
6B0
  8
0
 62
     0
 10
20.43319554131825
 20
8.106987076922909
 30
1.254622772167592
 11
20.4748540358453
 21
8.08738234148502
 31
1.254622772167592
  0
LINE
  5
6B1
  8
0
 62
     0
 10
20.4748540358453
 20
8.08738234148502
 30
1.254622772167592
 11
20.51406099747554
 21
8.067780115292672
 31
1.254622772167592
  0
LINE
  5
6B2
  8
0
 62
     0
 10
20.51406099747554
 20
8.067780115292672
 30
1.254622772167592
 11
20.55326795910577
 21
8.043274823306696
 31
1.254622772167592
  0
LINE
  5
6B3
  8
0
 62
     0
 10
20.55326795910577
 20
8.043274823306696
 30
1.254622772167592
 11
20.5900233878392
 21
8.016320507669448
 31
1.254622772167592
  0
LINE
  5
6B4
  8
0
 62
     0
 10
20.5900233878392
 20
8.016320507669448
 30
1.254622772167592
 11
20.62188076927008
 21
7.986914659135383
 31
1.254622772167592
  0
LINE
  5
6B5
  8
0
 62
     0
 10
20.62188076927008
 20
7.986914659135383
 30
1.254622772167592
 11
20.65373564145541
 21
7.952610763298775
 31
1.254622772167592
  0
LINE
  5
6B6
  8
0
 62
     0
 10
20.65373564145541
 20
7.952610763298775
 30
1.254622772167592
 11
20.68314148998948
 21
7.915852825319812
 31
1.254622772167592
  0
LINE
  5
6B7
  8
0
 62
     0
 10
20.68314148998948
 20
7.915852825319812
 30
1.254622772167592
 11
20.71009580562673
 21
7.876645863689573
 31
1.254622772167592
  0
LINE
  5
6B8
  8
0
 62
     0
 10
20.71009580562673
 20
7.876645863689573
 30
1.254622772167592
 11
20.73459858836716
 21
7.834989878408065
 31
1.254622772167592
  0
LINE
  5
6B9
  8
0
 62
     0
 10
20.73459858836716
 20
7.834989878408065
 30
1.254622772167592
 11
20.75665485670186
 21
7.790879850984197
 31
1.254622772167592
  0
LINE
  5
6BA
  8
0
 62
     0
 10
20.75665485670186
 20
7.790879850984197
 30
1.254622772167592
 11
20.7738055499974
 21
7.746772332805872
 31
1.254622772167592
  0
LINE
  5
6BB
  8
0
 62
     0
 10
20.7738055499974
 20
7.746772332805872
 30
1.254622772167592
 11
20.7885097288872
 21
7.700215790976277
 31
1.254622772167592
  0
LINE
  5
6BC
  8
0
 62
     0
 10
20.7885097288872
 20
7.700215790976277
 30
1.254622772167592
 11
20.80076237488019
 21
7.651205207004322
 31
1.254622772167592
  0
LINE
  5
6BD
  8
0
 62
     0
 10
20.80076237488019
 20
7.651205207004322
 30
1.254622772167592
 11
20.80811195507955
 21
7.602197132277913
 31
1.254622772167592
  0
LINE
  5
6BE
  8
0
 62
     0
 10
20.80811195507955
 20
7.602197132277913
 30
1.254622772167592
 11
20.81301251162763
 21
7.553189057551501
 31
1.254622772167592
  0
LINE
  5
6BF
  8
0
 62
     0
 10
20.81301251162763
 20
7.553189057551501
 30
1.254622772167592
 11
20.81546404452445
 21
7.499277917031462
 31
1.254622772167592
  0
LINE
  5
6C0
  8
0
 62
     0
 10
20.81546404452445
 20
7.499277917031462
 30
1.254622772167592
 11
20.81301251162763
 21
7.433116639763973
 31
1.254622772167592
  0
LINE
  5
6C1
  8
0
 62
     0
 10
20.81301251162763
 20
7.433116639763973
 30
1.254622772167592
 11
20.80566293142828
 21
7.371855919044577
 31
1.254622772167592
  0
LINE
  5
6C2
  8
0
 62
     0
 10
20.80566293142828
 20
7.371855919044577
 30
1.254622772167592
 11
20.79341028543529
 21
7.310595198325178
 31
1.254622772167592
  0
LINE
  5
6C3
  8
0
 62
     0
 10
20.79341028543529
 20
7.310595198325178
 30
1.254622772167592
 11
20.77625708289421
 21
7.254235034153865
 31
1.254622772167592
  0
LINE
  5
6C4
  8
0
 62
     0
 10
20.77625708289421
 20
7.254235034153865
 30
1.254622772167592
 11
20.75420332380505
 21
7.200326402879366
 31
1.254622772167592
  0
LINE
  5
6C5
  8
0
 62
     0
 10
20.75420332380505
 20
7.200326402879366
 30
1.254622772167592
 11
20.7272490081678
 21
7.148866795256141
 31
1.254622772167592
  0
LINE
  5
6C6
  8
0
 62
     0
 10
20.7272490081678
 20
7.148866795256141
 30
1.254622772167592
 11
20.69294260308565
 21
7.099858720529731
 31
1.254622772167592
  0
LINE
  5
6C7
  8
0
 62
     0
 10
20.69294260308565
 20
7.099858720529731
 30
1.254622772167592
 11
20.65618466510669
 21
7.055751202351407
 31
1.254622772167592
  0
LINE
  5
6C8
  8
0
 62
     0
 10
20.65618466510669
 20
7.055751202351407
 30
1.254622772167592
 11
20.61452867982518
 21
7.014092707824355
 31
1.254622772167592
  0
LINE
  5
6C9
  8
0
 62
     0
 10
20.61452867982518
 20
7.014092707824355
 30
1.254622772167592
 11
20.56796962875004
 21
6.974885746194117
 31
1.254622772167592
  0
LINE
  5
6CA
  8
0
 62
     0
 10
20.56796962875004
 20
6.974885746194117
 30
1.254622772167592
 11
20.51651002112681
 21
6.940579341111965
 31
1.254622772167592
  0
LINE
  5
6CB
  8
0
 62
     0
 10
20.51651002112681
 20
6.940579341111965
 30
1.254622772167592
 11
20.4601498569555
 21
6.911173492577903
 31
1.254622772167592
  0
LINE
  5
6CC
  8
0
 62
     0
 10
20.4601498569555
 20
6.911173492577903
 30
1.254622772167592
 11
20.39644011258483
 21
6.88667070983747
 31
1.254622772167592
  0
LINE
  5
6CD
  8
0
 62
     0
 10
20.39644011258483
 20
6.88667070983747
 30
1.254622772167592
 11
20.33027883531734
 21
6.864616950748308
 31
1.254622772167592
  0
LINE
  5
6CE
  8
0
 62
     0
 10
20.33027883531734
 20
6.864616950748308
 30
1.254622772167592
 11
20.25921449225623
 21
6.847463748207233
 31
1.254622772167592
  0
LINE
  5
6CF
  8
0
 62
     0
 10
20.25921449225623
 20
6.847463748207233
 30
1.254622772167592
 11
20.18325210189257
 21
6.832759569317428
 31
1.254622772167592
  0
LINE
  5
6D0
  8
0
 62
     0
 10
20.18325210189257
 20
6.832759569317428
 30
1.254622772167592
 11
20.22245906352281
 21
6.810705810228265
 31
1.254622772167592
  0
LINE
  5
6D1
  8
0
 62
     0
 10
20.22245906352281
 20
6.810705810228265
 30
1.254622772167592
 11
20.25676546860495
 21
6.786203027487833
 31
1.254622772167592
  0
LINE
  5
6D2
  8
0
 62
     0
 10
20.25676546860495
 20
6.786203027487833
 30
1.254622772167592
 11
20.29352089733838
 21
6.761697735501856
 31
1.254622772167592
  0
LINE
  5
6D3
  8
0
 62
     0
 10
20.29352089733838
 20
6.761697735501856
 30
1.254622772167592
 11
20.32537827876926
 21
6.737194952761421
 31
1.254622772167592
  0
LINE
  5
6D4
  8
0
 62
     0
 10
20.32537827876926
 20
6.737194952761421
 30
1.254622772167592
 11
20.35723315095459
 21
6.712689660775443
 31
1.254622772167592
  0
LINE
  5
6D5
  8
0
 62
     0
 10
20.35723315095459
 20
6.712689660775443
 30
1.254622772167592
 11
20.38663899948865
 21
6.685735345138197
 31
1.254622772167592
  0
LINE
  5
6D6
  8
0
 62
     0
 10
20.38663899948865
 20
6.685735345138197
 30
1.254622772167592
 11
20.41604233877717
 21
6.658781029500947
 31
1.254622772167592
  0
LINE
  5
6D7
  8
0
 62
     0
 10
20.41604233877717
 20
6.658781029500947
 30
1.254622772167592
 11
20.44054763076315
 21
6.631824204618154
 31
1.254622772167592
  0
LINE
  5
6D8
  8
0
 62
     0
 10
20.44054763076315
 20
6.631824204618154
 30
1.254622772167592
 11
20.4675019464004
 21
6.602420865329634
 31
1.254622772167592
  0
LINE
  5
6D9
  8
0
 62
     0
 10
20.4675019464004
 20
6.602420865329634
 30
1.254622772167592
 11
20.49690779493447
 21
6.568114460247484
 31
1.254622772167592
  0
LINE
  5
6DA
  8
0
 62
     0
 10
20.49690779493447
 20
6.568114460247484
 30
1.254622772167592
 11
20.5287626671198
 21
6.526455965720432
 31
1.254622772167592
  0
LINE
  5
6DB
  8
0
 62
     0
 10
20.5287626671198
 20
6.526455965720432
 30
1.254622772167592
 11
20.56062004855068
 21
6.479896914645293
 31
1.254622772167592
  0
LINE
  5
6DC
  8
0
 62
     0
 10
20.56062004855068
 20
6.479896914645293
 30
1.254622772167592
 11
20.5973754772841
 21
6.428439816267611
 31
1.254622772167592
  0
LINE
  5
6DD
  8
0
 62
     0
 10
20.5973754772841
 20
6.428439816267611
 30
1.254622772167592
 11
20.63413090601753
 21
6.372079652096298
 31
1.254622772167592
  0
LINE
  5
6DE
  8
0
 62
     0
 10
20.63413090601753
 20
6.372079652096298
 30
1.254622772167592
 11
20.67578940054457
 21
6.310818931376899
 31
1.254622772167592
  0
LINE
  5
6DF
  8
0
 62
     0
 10
20.67578940054457
 20
6.310818931376899
 30
1.254622772167592
 11
20.71744789507163
 21
6.244655144863869
 31
1.254622772167592
  0
LINE
  5
6E0
  8
0
 62
     0
 10
20.71744789507163
 20
6.244655144863869
 30
1.254622772167592
 11
21.00904731977882
 21
5.776623138197837
 31
1.254622772167592
  0
LINE
  5
6E1
  8
0
 62
     0
 10
21.00904731977882
 20
5.776623138197837
 30
1.254622772167592
 11
20.43074651766698
 21
5.776623138197837
 31
1.254622772167592
  0
LINE
  5
6E2
  8
0
 62
     0
 10
20.43074651766698
 20
5.776623138197837
 30
1.254622772167592
 11
20.08278441954293
 21
6.298566285383911
 31
1.254622772167592
  0
LINE
  5
6E3
  8
0
 62
     0
 10
20.08278441954293
 20
6.298566285383911
 30
1.254622772167592
 11
20.03622536846779
 21
6.364727562651396
 31
1.254622772167592
  0
LINE
  5
6E4
  8
0
 62
     0
 10
20.03622536846779
 20
6.364727562651396
 30
1.254622772167592
 11
19.99701840683755
 21
6.423539259719523
 31
1.254622772167592
  0
LINE
  5
6E5
  8
0
 62
     0
 10
19.99701840683755
 20
6.423539259719523
 30
1.254622772167592
 11
19.95781144520732
 21
6.477447890994021
 31
1.254622772167592
  0
LINE
  5
6E6
  8
0
 62
     0
 10
19.95781144520732
 20
6.477447890994021
 30
1.254622772167592
 11
19.92595657302198
 21
6.526455965720432
 31
1.254622772167592
  0
LINE
  5
6E7
  8
0
 62
     0
 10
19.92595657302198
 20
6.526455965720432
 30
1.254622772167592
 11
19.89410170083665
 21
6.56566292735067
 31
1.254622772167592
  0
LINE
  5
6E8
  8
0
 62
     0
 10
19.89410170083665
 20
6.56566292735067
 30
1.254622772167592
 11
19.86959640885067
 21
6.59996933243282
 31
1.254622772167592
  0
LINE
  5
6E9
  8
0
 62
     0
 10
19.86959640885067
 20
6.59996933243282
 30
1.254622772167592
 11
19.84509111686469
 21
6.629375180966884
 31
1.254622772167592
  0
LINE
  5
6EA
  8
0
 62
     0
 10
19.84509111686469
 20
6.629375180966884
 30
1.254622772167592
 11
19.82793791432362
 21
6.648977407159229
 31
1.254622772167592
  0
LINE
  5
6EB
  8
0
 62
     0
 10
19.82793791432362
 20
6.648977407159229
 30
1.254622772167592
 11
19.81078471178254
 21
6.666130609700304
 31
1.254622772167592
  0
LINE
  5
6EC
  8
0
 62
     0
 10
19.81078471178254
 20
6.666130609700304
 30
1.254622772167592
 11
19.7911824855902
 21
6.683283812241381
 31
1.254622772167592
  0
LINE
  5
6ED
  8
0
 62
     0
 10
19.7911824855902
 20
6.683283812241381
 30
1.254622772167592
 11
19.77402928304912
 21
6.697987991131184
 31
1.254622772167592
  0
LINE
  5
6EE
  8
0
 62
     0
 10
19.77402928304912
 20
6.697987991131184
 30
1.254622772167592
 11
19.75687608050804
 21
6.710238127878629
 31
1.254622772167592
  0
LINE
  5
6EF
  8
0
 62
     0
 10
19.75687608050804
 20
6.710238127878629
 30
1.254622772167592
 11
19.7372738543157
 21
6.722490773871619
 31
1.254622772167592
  0
LINE
  5
6F0
  8
0
 62
     0
 10
19.7372738543157
 20
6.722490773871619
 30
1.254622772167592
 11
19.72012065177462
 21
6.732291886967791
 31
1.254622772167592
  0
LINE
  5
6F1
  8
0
 62
     0
 10
19.72012065177462
 20
6.732291886967791
 30
1.254622772167592
 11
19.70051591633673
 21
6.742095509309508
 31
1.254622772167592
  0
LINE
  5
6F2
  8
0
 62
     0
 10
19.70051591633673
 20
6.742095509309508
 30
1.254622772167592
 11
19.68091369014438
 21
6.749445089508866
 31
1.254622772167592
  0
LINE
  5
6F3
  8
0
 62
     0
 10
19.68091369014438
 20
6.749445089508866
 30
1.254622772167592
 11
19.66130895470649
 21
6.756797178953769
 31
1.254622772167592
  0
LINE
  5
6F4
  8
0
 62
     0
 10
19.66130895470649
 20
6.756797178953769
 30
1.254622772167592
 11
19.63680366272052
 21
6.761697735501856
 31
1.254622772167592
  0
LINE
  5
6F5
  8
0
 62
     0
 10
19.63680366272052
 20
6.761697735501856
 30
1.254622772167592
 11
19.61230087998008
 21
6.766598292049941
 31
1.254622772167592
  0
LINE
  5
6F6
  8
0
 62
     0
 10
19.61230087998008
 20
6.766598292049941
 30
1.254622772167592
 11
19.58289503144602
 21
6.769049824946758
 31
1.254622772167592
  0
LINE
  5
6F7
  8
0
 62
     0
 10
19.58289503144602
 20
6.769049824946758
 30
1.254622772167592
 11
19.55104015926068
 21
6.771498848598029
 31
1.254622772167592
  0
LINE
  5
6F8
  8
0
 62
     0
 10
19.55104015926068
 20
6.771498848598029
 30
1.254622772167592
 11
19.51673375417853
 21
6.773950381494843
 31
1.254622772167592
  0
LINE
  5
6F9
  8
0
 62
     0
 10
19.51673375417853
 20
6.773950381494843
 30
1.254622772167592
 11
19.4775267925483
 21
6.776401914391658
 31
1.254622772167592
  0
LINE
  5
6FA
  8
0
 62
     0
 10
19.4775267925483
 20
6.776401914391658
 30
1.254622772167592
 11
19.43831983091806
 21
6.776401914391658
 31
1.254622772167592
  0
LINE
  5
6FB
  8
0
 62
     0
 10
19.43831983091806
 20
6.776401914391658
 30
1.254622772167592
 11
19.34030117221969
 21
6.776401914391658
 31
1.254622772167592
  0
LINE
  5
6FC
  8
0
 62
     0
 10
19.34030117221969
 20
6.776401914391658
 30
1.254622772167592
 11
19.34030117221969
 21
5.776623138197837
 31
1.254622772167592
  0
LINE
  5
6FD
  8
0
 62
     0
 10
19.34030117221969
 20
5.776623138197837
 30
1.254622772167592
 11
18.8575674959094
 21
5.776623138197837
 31
1.254622772167592
  0
LINE
  5
6FE
  8
0
 62
     0
 10
18.8575674959094
 20
5.776623138197837
 30
1.254622772167592
 11
18.8575674959094
 21
8.170699330539124
 31
1.254622772167592
  0
LINE
  5
6FF
  8
0
 62
     0
 10
18.8575674959094
 20
8.170699330539124
 30
1.254622772167592
 11
19.33925503158514
 21
8.171210065828646
 31
1.254622772167592
  0
LINE
  5
700
  8
0
  6
BYBLOCK
 10
19.60557717400513
 20
8.169746616634416
 30
0.0
 11
19.60557717400513
 21
7.763902068760157
 31
0.0
  0
LINE
  5
701
  8
0
  6
BYBLOCK
 10
11.59192737343529
 20
8.166186576740795
 30
0.0
 11
11.59192737343529
 21
7.77458218844107
 31
0.0
  0
LINE
  5
702
  8
0
  6
BYBLOCK
 10
11.59192737343529
 20
7.77458218844107
 30
0.0
 11
11.61891694731243
 21
7.775464414349479
 31
0.0
  0
LINE
  5
703
  8
0
  6
BYBLOCK
 10
11.59904745322256
 20
7.219215965034189
 30
0.0
 11
11.59904745322256
 21
6.820491496947197
 31
0.0
  0
LINE
  5
704
  8
0
  6
BYBLOCK
 10
11.59904745322256
 20
6.820491496947197
 30
0.0
 11
11.73764064275618
 21
6.819079089941496
 31
0.0
  0
ENDSEC
  0
EOF
