  0
SECTION
  2
HEADER
  9
$ACADVER
  1
AC1015
  9
$ACADMAINTVER
 70
    20
  9
$DWGCODEPAGE
  3
ANSI_1252
  9
$INSBASE
 10
0.0
 20
0.0
 30
0.0
  9
$EXTMIN
 10
-5.478128117173831
 20
-5.64442428250858
 30
-0.0015258207003583
  9
$EXTMAX
 10
5.484944597059371
 20
5.636852791159647
 30
0.0000000349246037
  9
$LIMMIN
 10
0.0
 20
0.0
  9
$LIMMAX
 10
0.0
 20
0.0
  9
$ORTHOMODE
 70
     0
  9
$REGENMODE
 70
     1
  9
$FILLMODE
 70
     1
  9
$QTEXTMODE
 70
     0
  9
$MIRRTEXT
 70
     1
  9
$LTSCALE
 40
1.0
  9
$ATTMODE
 70
     1
  9
$TEXTSIZE
 40
0.0
  9
$TRACEWID
 40
0.05
  9
$TEXTSTYLE
  7
Standard
  9
$CLAYER
  8
0
  9
$CELTYPE
  6
Continuous
  9
$CECOLOR
 62
   256
  9
$CELTSCALE
 40
1.0
  9
$DISPSILH
 70
     0
  9
$DIMSCALE
 40
1.0
  9
$DIMASZ
 40
0.18
  9
$DIMEXO
 40
0.0625
  9
$DIMDLI
 40
0.38
  9
$DIMRND
 40
0.0
  9
$DIMDLE
 40
0.0
  9
$DIMEXE
 40
0.18
  9
$DIMTP
 40
0.0
  9
$DIMTM
 40
0.0
  9
$DIMTXT
 40
0.18
  9
$DIMCEN
 40
0.09
  9
$DIMTSZ
 40
0.0
  9
$DIMTOL
 70
     0
  9
$DIMLIM
 70
     0
  9
$DIMTIH
 70
     1
  9
$DIMTOH
 70
     1
  9
$DIMSE1
 70
     0
  9
$DIMSE2
 70
     0
  9
$DIMTAD
 70
     0
  9
$DIMZIN
 70
     0
  9
$DIMBLK
  1

  9
$DIMASO
 70
     1
  9
$DIMSHO
 70
     1
  9
$DIMPOST
  1

  9
$DIMAPOST
  1

  9
$DIMALT
 70
     0
  9
$DIMALTD
 70
     2
  9
$DIMALTF
 40
25.4
  9
$DIMLFAC
 40
1.0
  9
$DIMTOFL
 70
     0
  9
$DIMTVP
 40
0.0
  9
$DIMTIX
 70
     0
  9
$DIMSOXD
 70
     0
  9
$DIMSAH
 70
     0
  9
$DIMBLK1
  1

  9
$DIMBLK2
  1

  9
$DIMSTYLE
  2
Standard
  9
$DIMCLRD
 70
     0
  9
$DIMCLRE
 70
     0
  9
$DIMCLRT
 70
     0
  9
$DIMTFAC
 40
1.0
  9
$DIMGAP
 40
0.09
  9
$DIMJUST
 70
     0
  9
$DIMSD1
 70
     0
  9
$DIMSD2
 70
     0
  9
$DIMTOLJ
 70
     1
  9
$DIMTZIN
 70
     0
  9
$DIMALTZ
 70
     0
  9
$DIMALTTZ
 70
     0
  9
$DIMUPT
 70
     0
  9
$DIMDEC
 70
     4
  9
$DIMTDEC
 70
     4
  9
$DIMALTU
 70
     2
  9
$DIMALTTD
 70
     2
  9
$DIMTXSTY
  7
Standard
  9
$DIMAUNIT
 70
     0
  9
$DIMADEC
 70
     0
  9
$DIMALTRND
 40
0.0
  9
$DIMAZIN
 70
     0
  9
$DIMDSEP
 70
     0
  9
$DIMATFIT
 70
     3
  9
$DIMFRAC
 70
     0
  9
$DIMLDRBLK
  1

  9
$DIMLUNIT
 70
     2
  9
$DIMLWD
 70
     0
  9
$DIMLWE
 70
     0
  9
$DIMTMOVE
 70
     0
  9
$LUNITS
 70
     2
  9
$LUPREC
 70
     4
  9
$SKETCHINC
 40
0.1
  9
$FILLETRAD
 40
0.0
  9
$AUNITS
 70
     0
  9
$AUPREC
 70
     0
  9
$MENU
  1
acad
  9
$ELEVATION
 40
0.0
  9
$PELEVATION
 40
0.0
  9
$THICKNESS
 40
0.0
  9
$LIMCHECK
 70
     0
  9
$CHAMFERA
 40
0.0
  9
$CHAMFERB
 40
0.0
  9
$CHAMFERC
 40
0.0
  9
$CHAMFERD
 40
0.0
  9
$SKPOLY
 70
     0
  9
$TDCREATE
 40
2454594.694298322
  9
$TDUCREATE
 40
2454594.610964988
  9
$TDUPDATE
 40
2454594.695128577
  9
$TDUUPDATE
 40
2454594.611795243
  9
$TDINDWG
 40
0.0008311690
  9
$TDUSRTIMER
 40
0.0008311690
  9
$USRTIMER
 70
     1
  9
$ANGBASE
 50
0.0
  9
$ANGDIR
 70
     0
  9
$PDMODE
 70
     0
  9
$PDSIZE
 40
0.0
  9
$PLINEWID
 40
0.0
  9
$SPLFRAME
 70
     0
  9
$SPLINETYPE
 70
     6
  9
$SPLINESEGS
 70
     8
  9
$HANDSEED
  5
6E
  9
$SURFTAB1
 70
     6
  9
$SURFTAB2
 70
     6
  9
$SURFTYPE
 70
     6
  9
$SURFU
 70
     6
  9
$SURFV
 70
     6
  9
$UCSBASE
  2

  9
$UCSNAME
  2

  9
$UCSORG
 10
0.0
 20
0.0
 30
0.0
  9
$UCSXDIR
 10
1.0
 20
0.0
 30
0.0
  9
$UCSYDIR
 10
0.0
 20
1.0
 30
0.0
  9
$UCSORTHOREF
  2

  9
$UCSORTHOVIEW
 70
     0
  9
$UCSORGTOP
 10
0.0
 20
0.0
 30
0.0
  9
$UCSORGBOTTOM
 10
0.0
 20
0.0
 30
0.0
  9
$UCSORGLEFT
 10
0.0
 20
0.0
 30
0.0
  9
$UCSORGRIGHT
 10
0.0
 20
0.0
 30
0.0
  9
$UCSORGFRONT
 10
0.0
 20
0.0
 30
0.0
  9
$UCSORGBACK
 10
0.0
 20
0.0
 30
0.0
  9
$PUCSBASE
  2

  9
$PUCSNAME
  2

  9
$PUCSORG
 10
0.0
 20
0.0
 30
0.0
  9
$PUCSXDIR
 10
1.0
 20
0.0
 30
0.0
  9
$PUCSYDIR
 10
0.0
 20
1.0
 30
0.0
  9
$PUCSORTHOREF
  2

  9
$PUCSORTHOVIEW
 70
     0
  9
$PUCSORGTOP
 10
0.0
 20
0.0
 30
0.0
  9
$PUCSORGBOTTOM
 10
0.0
 20
0.0
 30
0.0
  9
$PUCSORGLEFT
 10
0.0
 20
0.0
 30
0.0
  9
$PUCSORGRIGHT
 10
0.0
 20
0.0
 30
0.0
  9
$PUCSORGFRONT
 10
0.0
 20
0.0
 30
0.0
  9
$PUCSORGBACK
 10
0.0
 20
0.0
 30
0.0
  9
$USERI1
 70
     0
  9
$USERI2
 70
     0
  9
$USERI3
 70
     0
  9
$USERI4
 70
     0
  9
$USERI5
 70
     0
  9
$USERR1
 40
0.0
  9
$USERR2
 40
0.0
  9
$USERR3
 40
0.0
  9
$USERR4
 40
0.0
  9
$USERR5
 40
0.0
  9
$WORLDVIEW
 70
     1
  9
$SHADEDGE
 70
     3
  9
$SHADEDIF
 70
    70
  9
$TILEMODE
 70
     1
  9
$MAXACTVP
 70
    16
  9
$PINSBASE
 10
0.0
 20
0.0
 30
0.0
  9
$PLIMCHECK
 70
     0
  9
$PEXTMIN
 10
1.000000000000000E+20
 20
1.000000000000000E+20
 30
1.000000000000000E+20
  9
$PEXTMAX
 10
-1.000000000000000E+20
 20
-1.000000000000000E+20
 30
-1.000000000000000E+20
  9
$PLIMMIN
 10
0.0
 20
0.0
  9
$PLIMMAX
 10
12.0
 20
9.0
  9
$UNITMODE
 70
     0
  9
$VISRETAIN
 70
     0
  9
$PLINEGEN
 70
     1
  9
$PSLTSCALE
 70
     0
  9
$TREEDEPTH
 70
  3020
  9
$CMLSTYLE
  2
Standard
  9
$CMLJUST
 70
     0
  9
$CMLSCALE
 40
1.0
  9
$PROXYGRAPHICS
 70
     0
  9
$MEASUREMENT
 70
     0
  9
$CELWEIGHT
370
     0
  9
$ENDCAPS
280
     0
  9
$JOINSTYLE
280
     0
  9
$LWDISPLAY
290
     0
  9
$INSUNITS
 70
     5
  9
$HYPERLINKBASE
  1

  9
$STYLESHEET
  1

  9
$XEDIT
290
     1
  9
$CEPSNTYPE
380
     0
  9
$PSTYLEMODE
290
     1
  9
$FINGERPRINTGUID
  2

  9
$VERSIONGUID
  2
{1187B7FB-9C03-4684-BE3F-F94D935EDFE6}
  9
$EXTNAMES
290
     1
  9
$PSVPSCALE
 40
0.0
  9
$OLESTARTUP
290
     0
  0
ENDSEC
  0
SECTION
  2
CLASSES
  0
CLASS
  1
IMAGE
  2
AcDbRasterImage
  3
ISM
 90
    32895
280
     0
281
     1
  0
CLASS
  1
DICTIONARYVAR
  2
AcDbDictionaryVar
  3
ObjectDBX Classes
 90
        0
280
     0
281
     0
  0
CLASS
  1
RASTERVARIABLES
  2
AcDbRasterVariables
  3
ISM
 90
    32768
280
     0
281
     0
  0
CLASS
  1
IMAGEDEF
  2
AcDbRasterImageDef
  3
ISM
 90
    32768
280
     0
281
     0
  0
CLASS
  1
IMAGEDEF_REACTOR
  2
AcDbRasterImageDefReactor
  3
ISM
 90
    32769
280
     0
281
     0
  0
CLASS
  1
IDBUFFER
  2
AcDbIdBuffer
  3
ObjectDBX Classes
 90
    32768
280
     0
281
     0
  0
CLASS
  1
SPATIAL_FILTER
  2
AcDbSpatialFilter
  3
ObjectDBX Classes
 90
    32768
280
     0
281
     0
  0
CLASS
  1
SORTENTSTABLE
  2
AcDbSortentsTable
  3
ObjectDBX Classes
 90
    32768
280
     0
281
     0
  0
CLASS
  1
LAYER_INDEX
  2
AcDbLayerIndex
  3
ObjectDBX Classes
 90
    32768
280
     0
281
     0
  0
CLASS
  1
SPATIAL_INDEX
  2
AcDbSpatialIndex
  3
ObjectDBX Classes
 90
    32768
280
     0
281
     0
  0
CLASS
  1
OBJECT_PTR
  2
CAseDLPNTableRecord
  3
\"ASE-LPNTableRecord\"
 90
    32769
280
     0
281
     0
  0
CLASS
  1
LAYOUT
  2
AcDbLayout
  3
ObjectDBX Classes
 90
        0
280
     0
281
     0
  0
CLASS
  1
PLOTSETTINGS
  2
AcDbPlotSettings
  3
ObjectDBX Classes
 90
    32768
280
     0
281
     0
  0
CLASS
  1
ACDBDICTIONARYWDFLT
  2
AcDbDictionaryWithDefault
  3
ObjectDBX Classes
 90
        0
280
     0
281
     0
  0
CLASS
  1
ACDBPLACEHOLDER
  2
AcDbPlaceHolder
  3
ObjectDBX Classes
 90
        0
280
     0
281
     0
  0
CLASS
  1
VBA_PROJECT
  2
AcDbVbaProject
  3
acad
 90
    32768
280
     0
281
     0
  0
CLASS
  1
WIPEOUT
  2
AcDbWipeout
  3
\"WipeOut|Product Desc: Object Enabler for WipeOut entity^I^I^I^I^I^I|Company: Autodesk, Inc.^I^I^I^I^I^I|WEB Address: www.autodesk.com\"
 90
    32895
280
     0
281
     1
  0
CLASS
  1
WIPEOUTVARIABLES
  2
AcDbWipeoutVariables
  3
\"WipeOut|Product Desc:     WipeOut Dbx Application|Company:          Autodesk, Inc.|WEB Address:      www.autodesk.com\"
 90
        0
280
     0
281
     0
  0
CLASS
  1
RTEXT
  2
RText
  3
RText|AutoCAD Express Tool|expresstools@autodesk.com
 90
    32768
280
     0
281
     1
  0
CLASS
  1
ARCALIGNEDTEXT
  2
AcDbArcAlignedText
  3
ATEXT|AutoCAD Express Tool|expresstools@autodesk.com
 90
    32768
280
     0
281
     1
  0
CLASS
  1
TABLESTYLE
  2
AcDbTableStyle
  3
ObjectDBX Classes
 90
     2047
280
     0
281
     0
  0
ENDSEC
  0
SECTION
  2
TABLES
  0
TABLE
  2
VPORT
  5
7
330
0
100
AcDbSymbolTable
 70
     2
  0
VPORT
  5
68
330
7
100
AcDbSymbolTableRecord
100
AcDbViewportTableRecord
  2
*Active
 70
     0
 10
0.0
 20
0.0
 11
1.0
 21
1.0
 12
0.00340823994277
 22
-0.0037857456744668
 13
0.0
 23
0.0
 14
1.0
 24
1.0
 15
0.0
 25
0.0
 16
0.0
 26
0.0
 36
1.0
 17
0.0
 27
0.0
 37
0.0
 40
11.36195366775882
 41
1.916467780429594
 42
50.0
 43
0.0
 44
0.0
 50
0.0
 51
0.0
 71
     0
 72
   100
 73
     1
 74
     1
 75
     0
 76
     0
 77
     0
 78
     0
281
     0
 65
     0
110
0.0
120
0.0
130
0.0
111
1.0
121
0.0
131
0.0
112
0.0
122
1.0
132
0.0
 79
     0
146
0.0
  0
ENDTAB
  0
TABLE
  2
LTYPE
  5
4
330
0
100
AcDbSymbolTable
 70
     1
  0
LTYPE
  5
11
330
4
100
AcDbSymbolTableRecord
100
AcDbLinetypeTableRecord
  2
ByBlock
 70
     0
  3

 72
    65
 73
     0
 40
0.0
  0
LTYPE
  5
12
330
4
100
AcDbSymbolTableRecord
100
AcDbLinetypeTableRecord
  2
ByLayer
 70
     0
  3

 72
    65
 73
     0
 40
0.0
  0
LTYPE
  5
13
330
4
100
AcDbSymbolTableRecord
100
AcDbLinetypeTableRecord
  2
Continuous
 70
     0
  3
Solid line
 72
    65
 73
     0
 40
0.0
  0
ENDTAB
  0
TABLE
  2
LAYER
  5
2
330
0
100
AcDbSymbolTable
 70
     2
  0
LAYER
  5
14
330
2
100
AcDbSymbolTableRecord
100
AcDbLayerTableRecord
  2
0
 70
     0
 62
     7
  6
Continuous
370
    -3
390
1D
  0
LAYER
  5
24
330
2
100
AcDbSymbolTableRecord
100
AcDbLayerTableRecord
  2
Ebene 1
 70
     0
 62
     7
  6
Continuous
370
    -3
390
1F
  0
ENDTAB
  0
TABLE
  2
STYLE
  5
3
330
0
100
AcDbSymbolTable
 70
     1
  0
STYLE
  5
17
330
3
100
AcDbSymbolTableRecord
100
AcDbTextStyleTableRecord
  2
Standard
 70
     0
 40
0.0
 41
1.0
 50
0.0
 71
     0
 42
0.0
  3
txt
  4

  0
ENDTAB
  0
TABLE
  2
VIEW
  5
5
330
0
100
AcDbSymbolTable
 70
     0
  0
ENDTAB
  0
TABLE
  2
UCS
  5
6
330
0
100
AcDbSymbolTable
 70
     0
  0
ENDTAB
  0
TABLE
  2
APPID
  5
8
330
0
100
AcDbSymbolTable
 70
     1
  0
APPID
  5
16
330
8
100
AcDbSymbolTableRecord
100
AcDbRegAppTableRecord
  2
ACAD
 70
     0
  0
ENDTAB
  0
TABLE
  2
DIMSTYLE
  5
9
330
0
100
AcDbSymbolTable
 70
     1
100
AcDbDimStyleTable
 71
     0
  0
DIMSTYLE
105
18
330
9
100
AcDbSymbolTableRecord
100
AcDbDimStyleTableRecord
  2
Standard
 70
     0
340
17
  0
ENDTAB
  0
TABLE
  2
BLOCK_RECORD
  5
1
330
0
100
AcDbSymbolTable
 70
     0
  0
BLOCK_RECORD
  5
A
330
1
100
AcDbSymbolTableRecord
100
AcDbBlockTableRecord
  2
*MODEL_SPACE
340
20
  0
BLOCK_RECORD
  5
B
330
1
100
AcDbSymbolTableRecord
100
AcDbBlockTableRecord
  2
*PAPER_SPACE
340
21
  0
ENDTAB
  0
ENDSEC
  0
SECTION
  2
BLOCKS
  0
BLOCK
  5
D
330
A
100
AcDbEntity
  8
0
100
AcDbBlockBegin
  2
*MODEL_SPACE
 70
     0
 10
0.0
 20
0.0
 30
0.0
  3
*MODEL_SPACE
  1

  0
ENDBLK
  5
E
330
A
100
AcDbEntity
  8
0
100
AcDbBlockEnd
  0
BLOCK
  5
F
330
B
100
AcDbEntity
 67
     1
  8
0
100
AcDbBlockBegin
  2
*PAPER_SPACE
 70
     0
 10
0.0
 20
0.0
 30
0.0
  3
*PAPER_SPACE
  1

  0
ENDBLK
  5
10
330
B
100
AcDbEntity
 67
     1
  8
0
100
AcDbBlockEnd
  0
ENDSEC
  0
SECTION
  2
ENTITIES
  0
SPLINE
  5
25
330
A
100
AcDbEntity
  8
Ebene 1
100
AcDbSpline
210
0.0
220
0.0
230
1.0
 70
    11
 71
     3
 72
   316
 73
   312
 74
     0
 42
0.0000000001
 43
0.0000000001
 40
0.0
 40
0.0
 40
0.0
 40
0.0
 40
0.0128205128205128
 40
0.0128205128205128
 40
0.0128205128205128
 40
0.0128205128205128
 40
0.0256410256410256
 40
0.0256410256410256
 40
0.0256410256410256
 40
0.0256410256410256
 40
0.0384615384615385
 40
0.0384615384615385
 40
0.0384615384615385
 40
0.0384615384615385
 40
0.0512820512820513
 40
0.0512820512820513
 40
0.0512820512820513
 40
0.0512820512820513
 40
0.0641025641025641
 40
0.0641025641025641
 40
0.0641025641025641
 40
0.0641025641025641
 40
0.0769230769230769
 40
0.0769230769230769
 40
0.0769230769230769
 40
0.0769230769230769
 40
0.0897435897435897
 40
0.0897435897435897
 40
0.0897435897435897
 40
0.0897435897435897
 40
0.1025641025641026
 40
0.1025641025641026
 40
0.1025641025641026
 40
0.1025641025641026
 40
0.1153846153846154
 40
0.1153846153846154
 40
0.1153846153846154
 40
0.1153846153846154
 40
0.1282051282051282
 40
0.1282051282051282
 40
0.1282051282051282
 40
0.1282051282051282
 40
0.141025641025641
 40
0.141025641025641
 40
0.141025641025641
 40
0.141025641025641
 40
0.1538461538461539
 40
0.1538461538461539
 40
0.1538461538461539
 40
0.1538461538461539
 40
0.1666666666666667
 40
0.1666666666666667
 40
0.1666666666666667
 40
0.1666666666666667
 40
0.1794871794871795
 40
0.1794871794871795
 40
0.1794871794871795
 40
0.1794871794871795
 40
0.1923076923076924
 40
0.1923076923076924
 40
0.1923076923076924
 40
0.1923076923076924
 40
0.2051282051282052
 40
0.2051282051282052
 40
0.2051282051282052
 40
0.2051282051282052
 40
0.217948717948718
 40
0.217948717948718
 40
0.217948717948718
 40
0.217948717948718
 40
0.2307692307692308
 40
0.2307692307692308
 40
0.2307692307692308
 40
0.2307692307692308
 40
0.2435897435897437
 40
0.2435897435897437
 40
0.2435897435897437
 40
0.2435897435897437
 40
0.2564102564102565
 40
0.2564102564102565
 40
0.2564102564102565
 40
0.2564102564102565
 40
0.2692307692307692
 40
0.2692307692307692
 40
0.2692307692307692
 40
0.2692307692307692
 40
0.2820512820512822
 40
0.2820512820512822
 40
0.2820512820512822
 40
0.2820512820512822
 40
0.294871794871795
 40
0.294871794871795
 40
0.294871794871795
 40
0.294871794871795
 40
0.3076923076923078
 40
0.3076923076923078
 40
0.3076923076923078
 40
0.3076923076923078
 40
0.3205128205128207
 40
0.3205128205128207
 40
0.3205128205128207
 40
0.3205128205128207
 40
0.3333333333333335
 40
0.3333333333333335
 40
0.3333333333333335
 40
0.3333333333333335
 40
0.3461538461538463
 40
0.3461538461538463
 40
0.3461538461538463
 40
0.3461538461538463
 40
0.3589743589743591
 40
0.3589743589743591
 40
0.3589743589743591
 40
0.3589743589743591
 40
0.371794871794872
 40
0.371794871794872
 40
0.371794871794872
 40
0.371794871794872
 40
0.3846153846153848
 40
0.3846153846153848
 40
0.3846153846153848
 40
0.3846153846153848
 40
0.3974358974358976
 40
0.3974358974358976
 40
0.3974358974358976
 40
0.3974358974358976
 40
0.4102564102564105
 40
0.4102564102564105
 40
0.4102564102564105
 40
0.4102564102564105
 40
0.4230769230769233
 40
0.4230769230769233
 40
0.4230769230769233
 40
0.4230769230769233
 40
0.4358974358974362
 40
0.4358974358974362
 40
0.4358974358974362
 40
0.4358974358974362
 40
0.448717948717949
 40
0.448717948717949
 40
0.448717948717949
 40
0.448717948717949
 40
0.4615384615384618
 40
0.4615384615384618
 40
0.4615384615384618
 40
0.4615384615384618
 40
0.4743589743589747
 40
0.4743589743589747
 40
0.4743589743589747
 40
0.4743589743589747
 40
0.4871794871794875
 40
0.4871794871794875
 40
0.4871794871794875
 40
0.4871794871794875
 40
0.5000000000000002
 40
0.5000000000000002
 40
0.5000000000000002
 40
0.5000000000000002
 40
0.512820512820513
 40
0.512820512820513
 40
0.512820512820513
 40
0.512820512820513
 40
0.5256410256410258
 40
0.5256410256410258
 40
0.5256410256410258
 40
0.5256410256410258
 40
0.5384615384615385
 40
0.5384615384615385
 40
0.5384615384615385
 40
0.5384615384615385
 40
0.5512820512820513
 40
0.5512820512820513
 40
0.5512820512820513
 40
0.5512820512820513
 40
0.5641025641025641
 40
0.5641025641025641
 40
0.5641025641025641
 40
0.5641025641025641
 40
0.5769230769230769
 40
0.5769230769230769
 40
0.5769230769230769
 40
0.5769230769230769
 40
0.5897435897435896
 40
0.5897435897435896
 40
0.5897435897435896
 40
0.5897435897435896
 40
0.6025641025641024
 40
0.6025641025641024
 40
0.6025641025641024
 40
0.6025641025641024
 40
0.6153846153846152
 40
0.6153846153846152
 40
0.6153846153846152
 40
0.6153846153846152
 40
0.628205128205128
 40
0.628205128205128
 40
0.628205128205128
 40
0.628205128205128
 40
0.6410256410256407
 40
0.6410256410256407
 40
0.6410256410256407
 40
0.6410256410256407
 40
0.6538461538461535
 40
0.6538461538461535
 40
0.6538461538461535
 40
0.6538461538461535
 40
0.6666666666666663
 40
0.6666666666666663
 40
0.6666666666666663
 40
0.6666666666666663
 40
0.6794871794871791
 40
0.6794871794871791
 40
0.6794871794871791
 40
0.6794871794871791
 40
0.6923076923076918
 40
0.6923076923076918
 40
0.6923076923076918
 40
0.6923076923076918
 40
0.7051282051282046
 40
0.7051282051282046
 40
0.7051282051282046
 40
0.7051282051282046
 40
0.7179487179487174
 40
0.7179487179487174
 40
0.7179487179487174
 40
0.7179487179487174
 40
0.7307692307692302
 40
0.7307692307692302
 40
0.7307692307692302
 40
0.7307692307692302
 40
0.7435897435897429
 40
0.7435897435897429
 40
0.7435897435897429
 40
0.7435897435897429
 40
0.7564102564102557
 40
0.7564102564102557
 40
0.7564102564102557
 40
0.7564102564102557
 40
0.7692307692307685
 40
0.7692307692307685
 40
0.7692307692307685
 40
0.7692307692307685
 40
0.7820512820512813
 40
0.7820512820512813
 40
0.7820512820512813
 40
0.7820512820512813
 40
0.794871794871794
 40
0.794871794871794
 40
0.794871794871794
 40
0.794871794871794
 40
0.8076923076923067
 40
0.8076923076923067
 40
0.8076923076923067
 40
0.8076923076923067
 40
0.8205128205128195
 40
0.8205128205128195
 40
0.8205128205128195
 40
0.8205128205128195
 40
0.8333333333333323
 40
0.8333333333333323
 40
0.8333333333333323
 40
0.8333333333333323
 40
0.8461538461538451
 40
0.8461538461538451
 40
0.8461538461538451
 40
0.8461538461538451
 40
0.8589743589743578
 40
0.8589743589743578
 40
0.8589743589743578
 40
0.8589743589743578
 40
0.8717948717948706
 40
0.8717948717948706
 40
0.8717948717948706
 40
0.8717948717948706
 40
0.8846153846153834
 40
0.8846153846153834
 40
0.8846153846153834
 40
0.8846153846153834
 40
0.8974358974358962
 40
0.8974358974358962
 40
0.8974358974358962
 40
0.8974358974358962
 40
0.9102564102564089
 40
0.9102564102564089
 40
0.9102564102564089
 40
0.9102564102564089
 40
0.9230769230769217
 40
0.9230769230769217
 40
0.9230769230769217
 40
0.9230769230769217
 40
0.9358974358974345
 40
0.9358974358974345
 40
0.9358974358974345
 40
0.9358974358974345
 40
0.9487179487179473
 40
0.9487179487179473
 40
0.9487179487179473
 40
0.9487179487179473
 40
0.96153846153846
 40
0.96153846153846
 40
0.96153846153846
 40
0.96153846153846
 40
0.9743589743589728
 40
0.9743589743589728
 40
0.9743589743589728
 40
0.9743589743589728
 40
0.9871794871794856
 40
0.9871794871794856
 40
0.9871794871794856
 40
0.9871794871794856
 40
1.0
 40
1.0
 40
1.0
 40
1.0
 10
5.1411
 20
0.7080900000000002
 30
0.0
 10
5.1411
 20
0.7080900000000002
 30
0.0
 10
5.12332
 20
0.6903100000000002
 30
0.0
 10
5.12332
 20
0.6903100000000002
 30
0.0
 10
5.12332
 20
0.6903100000000002
 30
0.0
 10
5.08776
 20
0.6903100000000002
 30
0.0
 10
5.12332
 20
0.6547500000000001
 30
0.0
 10
5.12332
 20
0.6903100000000002
 30
0.0
 10
5.12332
 20
0.6903100000000002
 30
0.0
 10
5.12332
 20
0.6903100000000002
 30
0.0
 10
5.1411
 20
0.7080900000000002
 30
0.0
 10
5.1411
 20
0.7080900000000002
 30
0.0
 10
5.1411
 20
0.7080900000000002
 30
0.0
 10
5.19698
 20
0.76143
 30
0.0
 10
5.26556
 20
0.8173100000000001
 30
0.0
 10
5.357
 20
0.8173100000000001
 30
0.0
 10
5.357
 20
0.8173100000000001
 30
0.0
 10
5.30366
 20
0.4388500000000001
 30
0.0
 10
5.0522
 20
0.09849
 30
0.0
 10
4.765179999999999
 20
-0.15042
 30
0.0
 10
4.765179999999999
 20
-0.15042
 30
0.0
 10
4.90742
 20
-0.20376
 30
0.0
 10
5.03442
 20
0.00959
 30
0.0
 10
5.17666
 20
-0.05898
 30
0.0
 10
5.17666
 20
-0.05898
 30
0.0
 10
5.10554
 20
-0.32822
 30
0.0
 10
4.90742
 20
-0.6508000000000001
 30
0.0
 10
4.67628
 20
-0.8133600000000001
 30
0.0
 10
4.67628
 20
-0.8133600000000001
 30
0.0
 10
4.80074
 20
-0.8666999999999999
 30
0.0
 10
4.94298
 20
-0.7397000000000001
 30
0.0
 10
5.06998
 20
-0.72192
 30
0.0
 10
5.06998
 20
-0.72192
 30
0.0
 10
5.01664
 20
-1.02672
 30
0.0
 10
4.85408
 20
-1.313739999999999
 30
0.0
 10
4.602619999999999
 20
-1.51186
 30
0.0
 10
4.602619999999999
 20
-1.51186
 30
0.0
 10
4.71184
 20
-1.547419999999999
 30
0.0
 10
4.8363
 20
-1.33152
 30
0.0
 10
4.9633
 20
-1.40264
 30
0.0
 10
4.9633
 20
-1.40264
 30
0.0
 10
4.8744
 20
-1.671879999999999
 30
0.0
 10
4.78296
 20
-1.9589
 30
0.0
 10
4.56706
 20
-2.15702
 30
0.0
 10
4.56706
 20
-2.15702
 30
0.0
 10
4.90742
 20
-2.37038
 30
0.0
 10
4.10224
 20
-2.73106
 30
0.0
 10
3.81522
 20
-2.74884
 30
0.0
 10
3.81522
 20
-2.74884
 30
0.0
 10
3.86856
 20
-2.8733
 30
0.0
 10
4.084459999999999
 20
-2.7844
 30
0.0
 10
4.17336
 20
-2.83774
 30
0.0
 10
4.17336
 20
-2.83774
 30
0.0
 10
3.93968
 20
-3.10698
 30
0.0
 10
3.51042
 20
-3.32034
 30
0.0
 10
3.15228
 20
-3.19588
 30
0.0
 10
3.15228
 20
-3.19588
 30
0.0
 10
3.726319999999999
 20
-3.4829
 30
0.0
 10
2.95416
 20
-3.678479999999999
 30
0.0
 10
2.59602
 20
-3.5718
 30
0.0
 10
2.59602
 20
-3.5718
 30
0.0
 10
2.25566
 20
-3.42956
 30
0.0
 10
2.25566
 20
-2.97998
 30
0.0
 10
2.14898
 20
-2.71074
 30
0.0
 10
2.14898
 20
-2.71074
 30
0.0
 10
1.968639999999999
 20
-3.16032
 30
0.0
 10
2.16676
 20
-3.660699999999999
 30
0.0
 10
1.879739999999999
 20
-4.056939999999999
 30
0.0
 10
1.879739999999999
 20
-4.056939999999999
 30
0.0
 10
1.57494
 20
-4.0036
 30
0.0
 10
1.19902
 20
-4.056939999999999
 30
0.0
 10
0.9831199999999999
 20
-4.30586
 30
0.0
 10
0.9831199999999999
 20
-4.30586
 30
0.0
 10
0.8561200000000001
 20
-4.57764
 30
0.0
 10
1.23458
 20
-5.25582
 30
0.0
 10
0.8408800000000001
 20
-5.16692
 30
0.0
 10
0.8408800000000001
 20
-5.16692
 30
0.0
 10
0.94756
 20
-5.54538
 30
0.0
 10
0.6072000000000001
 20
-5.4895
 30
0.0
 10
0.53354
 20
-5.23804
 30
0.0
 10
0.53354
 20
-5.23804
 30
0.0
 10
0.53354
 20
-5.23804
 30
0.0
 10
0.4268600000000001
 20
-5.2736
 30
0.0
 10
0.4268600000000001
 20
-5.2736
 30
0.0
 10
0.4268600000000001
 20
-5.2736
 30
0.0
 10
0.5894200000000001
 20
-5.5784
 30
0.0
 10
-0.07097
 20
-5.68762
 30
0.0
 10
0.00014
 20
-5.34726
 30
0.0
 10
0.00014
 20
-5.34726
 30
0.0
 10
0.00014
 20
-5.34726
 30
0.0
 10
-0.12431
 20
-5.29392
 30
0.0
 10
-0.12431
 20
-5.29392
 30
0.0
 10
-0.12431
 20
-5.29392
 30
0.0
 10
-0.34021
 20
-5.2736
 30
0.0
 10
-0.19797
 20
-5.52506
 30
0.0
 10
-0.25131
 20
-5.63428
 30
0.0
 10
-0.25131
 20
-5.63428
 30
0.0
 10
-0.5916700000000001
 20
-5.74096
 30
0.0
 10
-0.46467
 20
-4.93324
 30
0.0
 10
-0.7288300000000002
 20
-5.29392
 30
0.0
 10
-0.7288300000000002
 20
-5.29392
 30
0.0
 10
-0.7288300000000002
 20
-5.29392
 30
0.0
 10
-0.85583
 20
-5.1847
 30
0.0
 10
-0.85583
 20
-5.1847
 30
0.0
 10
-0.85583
 20
-5.1847
 30
0.0
 10
-0.9244099999999999
 20
-4.84434
 30
0.0
 10
-0.6450100000000001
 20
-4.55732
 30
0.0
 10
-0.8456699999999999
 20
-4.23474
 30
0.0
 10
-0.8456699999999999
 20
-4.23474
 30
0.0
 10
-1.188569999999999
 20
-4.0798
 30
0.0
 10
-1.297789999999999
 20
-4.17632
 30
0.0
 10
-1.53401
 20
-4.2068
 30
0.0
 10
-1.53401
 20
-4.2068
 30
0.0
 10
-1.996289999999999
 20
-4.267759999999999
 30
0.0
 10
-1.73213
 20
-3.5718
 30
0.0
 10
-2.026769999999999
 20
-2.89108
 30
0.0
 10
-2.026769999999999
 20
-2.89108
 30
0.0
 10
-1.99375
 20
-3.33812
 30
0.0
 10
-2.51699
 20
-3.660699999999999
 30
0.0
 10
-2.93355
 20
-3.62514
 30
0.0
 10
-2.93355
 20
-3.62514
 30
0.0
 10
-2.867509999999999
 20
-3.37622
 30
0.0
 10
-2.62621
 20
-3.16032
 30
0.0
 10
-2.58303
 20
-2.89108
 30
0.0
 10
-2.58303
 20
-2.89108
 30
0.0
 10
-2.68209
 20
-3.07142
 30
0.0
 10
-2.76845
 20
-3.32034
 30
0.0
 10
-2.99451
 20
-3.37622
 30
0.0
 10
-2.99451
 20
-3.37622
 30
0.0
 10
-3.16977
 20
-3.44734
 30
0.0
 10
-3.34503
 20
-3.46512
 30
0.0
 10
-3.543149999999999
 20
-3.44734
 30
0.0
 10
-3.543149999999999
 20
-3.44734
 30
0.0
 10
-3.543149999999999
 20
-3.44734
 30
0.0
 10
-3.27899
 20
-3.07142
 30
0.0
 10
-3.27899
 20
-3.07142
 30
0.0
 10
-3.27899
 20
-3.07142
 30
0.0
 10
-3.27899
 20
-3.07142
 30
0.0
 10
-3.26121
 20
-3.05364
 30
0.0
 10
-3.26121
 20
-3.05364
 30
0.0
 10
-3.26121
 20
-3.05364
 30
0.0
 10
-3.26121
 20
-3.05364
 30
0.0
 10
-3.24343
 20
-3.033319999999999
 30
0.0
 10
-3.24343
 20
-3.033319999999999
 30
0.0
 10
-3.24343
 20
-3.033319999999999
 30
0.0
 10
-3.22057
 20
-3.033319999999999
 30
0.0
 10
-3.202789999999999
 20
-2.99776
 30
0.0
 10
-3.20787
 20
-2.97998
 30
0.0
 10
-3.20787
 20
-2.97998
 30
0.0
 10
-3.20787
 20
-2.97998
 30
0.0
 10
-3.19009
 20
-2.96474
 30
0.0
 10
-3.19009
 20
-2.96474
 30
0.0
 10
-3.19009
 20
-2.96474
 30
0.0
 10
-3.15707
 20
-2.96474
 30
0.0
 10
-3.19263
 20
-2.92664
 30
0.0
 10
-3.19009
 20
-2.96474
 30
0.0
 10
-3.19009
 20
-2.96474
 30
0.0
 10
-3.19009
 20
-2.96474
 30
0.0
 10
-3.20787
 20
-2.97998
 30
0.0
 10
-3.20787
 20
-2.97998
 30
0.0
 10
-3.20787
 20
-2.97998
 30
0.0
 10
-3.23073
 20
-2.97998
 30
0.0
 10
-3.24851
 20
-3.01554
 30
0.0
 10
-3.24343
 20
-3.033319999999999
 30
0.0
 10
-3.24343
 20
-3.033319999999999
 30
0.0
 10
-3.24343
 20
-3.033319999999999
 30
0.0
 10
-3.26121
 20
-3.05364
 30
0.0
 10
-3.26121
 20
-3.05364
 30
0.0
 10
-3.26121
 20
-3.05364
 30
0.0
 10
-3.26121
 20
-3.05364
 30
0.0
 10
-3.27899
 20
-3.07142
 30
0.0
 10
-3.27899
 20
-3.07142
 30
0.0
 10
-3.27899
 20
-3.07142
 30
0.0
 10
-3.51775
 20
-3.287319999999999
 30
0.0
 10
-3.98003
 20
-3.1781
 30
0.0
 10
-4.193389999999999
 20
-3.033319999999999
 30
0.0
 10
-4.193389999999999
 20
-3.033319999999999
 30
0.0
 10
-3.896209999999999
 20
-2.97998
 30
0.0
 10
-3.662529999999999
 20
-2.76662
 30
0.0
 10
-3.461869999999999
 20
-2.53294
 30
0.0
 10
-3.461869999999999
 20
-2.53294
 30
0.0
 10
-3.72095
 20
-2.85552
 30
0.0
 10
-4.28483
 20
-2.81996
 30
0.0
 10
-4.56423
 20
-2.44404
 30
0.0
 10
-4.56423
 20
-2.44404
 30
0.0
 10
-4.28483
 20
-2.42626
 30
0.0
 10
-3.99019
 20
-2.33482
 30
0.0
 10
-3.766669999999999
 20
-2.15702
 30
0.0
 10
-3.766669999999999
 20
-2.15702
 30
0.0
 10
-4.19593
 20
-2.692959999999999
 30
0.0
 10
-5.07223
 20
-1.42042
 30
0.0
 10
-4.528669999999999
 20
-1.654099999999999
 30
0.0
 10
-4.528669999999999
 20
-1.654099999999999
 30
0.0
 10
-4.45501
 20
-1.654099999999999
 30
0.0
 10
-4.34833
 20
-1.70744
 30
0.0
 10
-4.28483
 20
-1.654099999999999
 30
0.0
 10
-4.28483
 20
-1.654099999999999
 30
0.0
 10
-4.57439
 20
-1.4763
 30
0.0
 10
-4.95285
 20
-0.97338
 30
0.0
 10
-4.44739
 20
-1.20706
 30
0.0
 10
-4.44739
 20
-1.20706
 30
0.0
 10
-4.68361
 20
-0.9556
 30
0.0
 10
-4.94777
 20
-0.6508000000000001
 30
0.0
 10
-4.42961
 20
-0.7574800000000001
 30
0.0
 10
-4.42961
 20
-0.7574800000000001
 30
0.0
 10
-4.84617
 20
-0.6863600000000001
 30
0.0
 10
-4.99857
 20
-0.18598
 30
0.0
 10
-5.10271
 20
0.17215
 30
0.0
 10
-5.10271
 20
0.17215
 30
0.0
 10
-4.95539
 20
0.08071
 30
0.0
 10
-4.78013
 20
-0.05898
 30
0.0
 10
-4.60995
 20
-0.02342
 30
0.0
 10
-4.60995
 20
-0.02342
 30
0.0
 10
-4.60995
 20
-0.02342
 30
0.0
 10
-4.79791
 20
0.04515
 30
0.0
 10
-4.79791
 20
0.04515
 30
0.0
 10
-4.79791
 20
0.04515
 30
0.0
 10
-4.79791
 20
0.04515
 30
0.0
 10
-4.87411
 20
0.09849
 30
0.0
 10
-4.87411
 20
0.09849
 30
0.0
 10
-4.87411
 20
0.09849
 30
0.0
 10
-5.28305
 20
0.6191900000000001
 30
0.0
 10
-5.42275
 20
1.35325
 30
0.0
 10
-5.47863
 20
2.01873
 30
0.0
 10
-5.47863
 20
2.01873
 30
0.0
 10
-5.35417
 20
2.01873
 30
0.0
 10
-5.25257
 20
1.640269999999999
 30
0.0
 10
-5.19669
 20
1.72917
 30
0.0
 10
-5.19669
 20
1.72917
 30
0.0
 10
-5.35163
 20
2.28543
 30
0.0
 10
-5.35671
 20
2.93059
 30
0.0
 10
-5.25257
 20
3.48685
 30
0.0
 10
-5.25257
 20
3.48685
 30
0.0
 10
-5.12303
 20
3.48685
 30
0.0
 10
-5.21447
 20
3.18205
 30
0.0
 10
-5.09001
 20
3.19983
 30
0.0
 10
-5.09001
 20
3.19983
 30
0.0
 10
-5.06715
 20
3.809429999999999
 30
0.0
 10
-4.90967
 20
4.507929999999999
 30
0.0
 10
-4.53375
 20
4.92195
 30
0.0
 10
-4.53375
 20
4.92195
 30
0.0
 10
-4.53375
 20
4.92195
 30
0.0
 10
-4.55153
 20
4.14979
 30
0.0
 10
-4.55153
 20
4.14979
 30
0.0
 10
-4.55153
 20
4.14979
 30
0.0
 10
-4.58455
 20
3.84499
 30
0.0
 10
-4.47533
 20
3.664649999999999
 30
0.0
 10
-4.48041
 20
4.06089
 30
0.0
 10
-4.48041
 20
4.06089
 30
0.0
 10
-4.328009999999999
 20
4.52571
 30
0.0
 10
-4.08417
 20
5.06419
 30
0.0
 10
-3.695549999999999
 20
5.35121
 30
0.0
 10
-3.695549999999999
 20
5.35121
 30
0.0
 10
-4.40675
 20
3.59353
 30
0.0
 10
-3.657449999999999
 20
1.72917
 30
0.0
 10
-2.527149999999999
 20
0.38551
 30
0.0
 10
-2.527149999999999
 20
0.38551
 30
0.0
 10
-2.572869999999999
 20
0.02737
 30
0.0
 10
-2.979269999999999
 20
-0.2571
 30
0.0
 10
-2.81417
 20
-0.6508000000000001
 30
0.0
 10
-2.81417
 20
-0.6508000000000001
 30
0.0
 10
-2.72781
 20
-0.9022599999999998
 30
0.0
 10
-2.59319
 20
-1.11816
 30
0.0
 10
-2.35951
 20
-1.27818
 30
0.0
 10
-2.35951
 20
-1.27818
 30
0.0
 10
-2.15885
 20
-1.33152
 30
0.0
 10
-2.22743
 20
-0.97338
 30
0.0
 10
-2.100429999999999
 20
-0.8666999999999999
 30
0.0
 10
-2.100429999999999
 20
-0.8666999999999999
 30
0.0
 10
-1.80071
 20
0.45663
 30
0.0
 10
-0.3757700000000001
 20
0.9773299999999998
 30
0.0
 10
0.8561200000000001
 20
0.7969900000000001
 30
0.0
 10
0.8561200000000001
 20
0.7969900000000001
 30
0.0
 10
1.71718
 20
0.53029
 30
0.0
 10
2.09564
 20
-0.4349000000000001
 30
0.0
 10
2.32678
 20
-1.171499999999999
 30
0.0
 10
2.32678
 20
-1.171499999999999
 30
0.0
 10
2.54268
 20
-1.08006
 30
0.0
 10
2.72302
 20
-0.92004
 30
0.0
 10
2.8297
 20
-0.72192
 30
0.0
 10
2.8297
 20
-0.72192
 30
0.0
 10
3.1345
 20
-0.20376
 30
0.0
 10
2.57824
 20
0.20771
 30
0.0
 10
2.72302
 20
0.6903100000000002
 30
0.0
 10
2.72302
 20
0.6903100000000002
 30
0.0
 10
3.88634
 20
2.01873
 30
0.0
 10
4.0489
 20
4.11423
 30
0.0
 10
3.45708
 20
5.63823
 30
0.0
 10
3.45708
 20
5.63823
 30
0.0
 10
3.833
 20
5.24453
 30
0.0
 10
4.12002
 20
4.77717
 30
0.0
 10
4.33592
 20
4.29203
 30
0.0
 10
4.33592
 20
4.29203
 30
0.0
 10
4.42482
 20
4.47237
 30
0.0
 10
4.33592
 20
4.75939
 30
0.0
 10
4.31814
 20
4.95497
 30
0.0
 10
4.31814
 20
4.95497
 30
0.0
 10
4.90742
 20
4.59937
 30
0.0
 10
5.08776
 20
3.756089999999999
 30
0.0
 10
4.99886
 20
3.07537
 30
0.0
 10
4.99886
 20
3.07537
 30
0.0
 10
5.10554
 20
3.12871
 30
0.0
 10
5.06998
 20
3.41573
 30
0.0
 10
5.23
 20
3.48685
 30
0.0
 10
5.23
 20
3.48685
 30
0.0
 10
5.357
 20
3.07537
 30
0.0
 10
5.37478
 20
2.53689
 30
0.0
 10
5.30366
 20
2.087309999999999
 30
0.0
 10
5.30366
 20
2.087309999999999
 30
0.0
 10
5.71514
 20
2.23209
 30
0.0
 10
5.32144
 20
1.04845
 30
0.0
 10
5.1411
 20
0.7080900000000002
 30
0.0
  0
SPLINE
  5
26
330
A
100
AcDbEntity
  8
Ebene 1
 62
     7
100
AcDbSpline
210
0.0
220
0.0
230
1.0
 70
    11
 71
     3
 72
    28
 73
    24
 74
     0
 42
0.0000000001
 43
0.0000000001
 40
0.0
 40
0.0
 40
0.0
 40
0.0
 40
0.1666666666666667
 40
0.1666666666666667
 40
0.1666666666666667
 40
0.1666666666666667
 40
0.3333333333333333
 40
0.3333333333333333
 40
0.3333333333333333
 40
0.3333333333333333
 40
0.5
 40
0.5
 40
0.5
 40
0.5
 40
0.6666666666666666
 40
0.6666666666666666
 40
0.6666666666666666
 40
0.6666666666666666
 40
0.8333333333333332
 40
0.8333333333333332
 40
0.8333333333333332
 40
0.8333333333333332
 40
1.0
 40
1.0
 40
1.0
 40
1.0
 10
3.88634
 20
4.75939
 30
0.0
 10
4.03112
 20
4.63239
 30
0.0
 10
4.1378
 20
4.40125
 30
0.0
 10
4.2267
 20
4.220909999999999
 30
0.0
 10
4.2267
 20
4.220909999999999
 30
0.0
 10
4.2267
 20
3.28873
 30
0.0
 10
4.17336
 20
2.35655
 30
0.0
 10
3.672979999999999
 20
1.58693
 30
0.0
 10
3.672979999999999
 20
1.58693
 30
0.0
 10
3.69076
 20
1.82061
 30
0.0
 10
3.81522
 20
2.05175
 30
0.0
 10
3.744099999999999
 20
2.28543
 30
0.0
 10
3.744099999999999
 20
2.28543
 30
0.0
 10
3.744099999999999
 20
2.28543
 30
0.0
 10
3.69076
 20
2.214309999999999
 30
0.0
 10
3.69076
 20
2.214309999999999
 30
0.0
 10
3.69076
 20
2.214309999999999
 30
0.0
 10
3.672979999999999
 20
2.178749999999999
 30
0.0
 10
3.672979999999999
 20
2.23209
 30
0.0
 10
3.672979999999999
 20
2.24987
 30
0.0
 10
3.672979999999999
 20
2.24987
 30
0.0
 10
3.921899999999999
 20
3.03727
 30
0.0
 10
3.93968
 20
3.91611
 30
0.0
 10
3.88634
 20
4.75939
 30
0.0
  0
SPLINE
  5
27
330
A
100
AcDbEntity
  8
Ebene 1
 62
     7
100
AcDbSpline
210
0.0
220
0.0
230
1.0
 70
    11
 71
     3
 72
    12
 73
     8
 74
     0
 42
0.0000000001
 43
0.0000000001
 40
0.0
 40
0.0
 40
0.0
 40
0.0
 40
0.5
 40
0.5
 40
0.5
 40
0.5
 40
1.0
 40
1.0
 40
1.0
 40
1.0
 10
-4.08671
 20
4.59937
 30
0.0
 10
-4.06131
 20
3.664649999999999
 30
0.0
 10
-3.92415
 20
2.679129999999999
 30
0.0
 10
-3.766669999999999
 20
1.764729999999999
 30
0.0
 10
-3.766669999999999
 20
1.764729999999999
 30
0.0
 10
-4.25943
 20
2.53689
 30
0.0
 10
-4.566769999999999
 20
3.72053
 30
0.0
 10
-4.08671
 20
4.59937
 30
0.0
  0
SPLINE
  5
28
330
A
100
AcDbEntity
  8
Ebene 1
 62
     7
100
AcDbSpline
210
0.0
220
0.0
230
1.0
 70
    11
 71
     3
 72
    12
 73
     8
 74
     0
 42
0.0000000001
 43
0.0000000001
 40
0.0
 40
0.0
 40
0.0
 40
0.0
 40
0.5
 40
0.5
 40
0.5
 40
0.5
 40
1.0
 40
1.0
 40
1.0
 40
1.0
 10
4.54928
 20
4.34791
 30
0.0
 10
5.23
 20
3.397949999999999
 30
0.0
 10
4.640719999999999
 20
2.14319
 30
0.0
 10
3.81522
 20
1.48025
 30
0.0
 10
3.81522
 20
1.48025
 30
0.0
 10
4.33592
 20
2.35655
 30
0.0
 10
4.38926
 20
3.359849999999999
 30
0.0
 10
4.54928
 20
4.34791
 30
0.0
  0
SPLINE
  5
29
330
A
100
AcDbEntity
  8
Ebene 1
 62
     7
100
AcDbSpline
210
0.0
220
0.0
230
1.0
 70
    11
 71
     3
 72
    12
 73
     8
 74
     0
 42
0.0000000001
 43
0.0000000001
 40
0.0
 40
0.0
 40
0.0
 40
0.0
 40
0.5
 40
0.5
 40
0.5
 40
0.5
 40
1.0
 40
1.0
 40
1.0
 40
1.0
 10
-4.74965
 20
4.30981
 30
0.0
 10
-4.73187
 20
3.23539
 30
0.0
 10
-4.269589999999999
 20
2.178749999999999
 30
0.0
 10
-3.766669999999999
 20
1.26435
 30
0.0
 10
-3.766669999999999
 20
1.26435
 30
0.0
 10
-4.72933
 20
1.83839
 30
0.0
 10
-5.23733
 20
3.23539
 30
0.0
 10
-4.74965
 20
4.30981
 30
0.0
  0
SPLINE
  5
2A
330
A
100
AcDbEntity
  8
Ebene 1
 62
     7
100
AcDbSpline
210
0.0
220
0.0
230
1.0
 70
    11
 71
     3
 72
    12
 73
     8
 74
     0
 42
0.0000000001
 43
0.0000000001
 40
0.0
 40
0.0
 40
0.0
 40
0.0
 40
0.5
 40
0.5
 40
0.5
 40
0.5
 40
1.0
 40
1.0
 40
1.0
 40
1.0
 10
5.08776
 20
2.87725
 30
0.0
 10
5.57036
 20
1.962849999999999
 30
0.0
 10
4.58484
 20
1.06623
 30
0.0
 10
3.744099999999999
 20
0.87065
 30
0.0
 10
3.744099999999999
 20
0.87065
 30
0.0
 10
4.26226
 20
1.49803
 30
0.0
 10
4.8363
 20
2.10763
 30
0.0
 10
5.08776
 20
2.87725
 30
0.0
  0
SPLINE
  5
2B
330
A
100
AcDbEntity
  8
Ebene 1
 62
     7
100
AcDbSpline
210
0.0
220
0.0
230
1.0
 70
    11
 71
     3
 72
    16
 73
    12
 74
     0
 42
0.0000000001
 43
0.0000000001
 40
0.0
 40
0.0
 40
0.0
 40
0.0
 40
0.3333333333333333
 40
0.3333333333333333
 40
0.3333333333333333
 40
0.3333333333333333
 40
0.6666666666666666
 40
0.6666666666666666
 40
0.6666666666666666
 40
0.6666666666666666
 40
1.0
 40
1.0
 40
1.0
 40
1.0
 10
-5.12557
 20
2.60801
 30
0.0
 10
-4.80045
 20
2.01873
 30
0.0
 10
-4.39913
 20
1.424369999999999
 30
0.0
 10
-3.820009999999999
 20
1.01289
 30
0.0
 10
-3.820009999999999
 20
1.01289
 30
0.0
 10
-3.748889999999999
 20
0.7969900000000001
 30
0.0
 10
-3.604109999999999
 20
0.60141
 30
0.0
 10
-3.461869999999999
 20
0.4210700000000001
 30
0.0
 10
-3.461869999999999
 20
0.4210700000000001
 30
0.0
 10
-4.39913
 20
0.60141
 30
0.0
 10
-5.35417
 20
1.60471
 30
0.0
 10
-5.12557
 20
2.60801
 30
0.0
  0
SPLINE
  5
2C
330
A
100
AcDbEntity
  8
Ebene 1
 62
     7
100
AcDbSpline
210
0.0
220
0.0
230
1.0
 70
    11
 71
     3
 72
   104
 73
   100
 74
     0
 42
0.0000000001
 43
0.0000000001
 40
0.0
 40
0.0
 40
0.0
 40
0.0
 40
0.04
 40
0.04
 40
0.04
 40
0.04
 40
0.08
 40
0.08
 40
0.08
 40
0.08
 40
0.12
 40
0.12
 40
0.12
 40
0.12
 40
0.16
 40
0.16
 40
0.16
 40
0.16
 40
0.2
 40
0.2
 40
0.2
 40
0.2
 40
0.24
 40
0.24
 40
0.24
 40
0.24
 40
0.28
 40
0.28
 40
0.28
 40
0.28
 40
0.32
 40
0.32
 40
0.32
 40
0.32
 40
0.36
 40
0.36
 40
0.36
 40
0.36
 40
0.4
 40
0.4
 40
0.4
 40
0.4
 40
0.4400000000000001
 40
0.4400000000000001
 40
0.4400000000000001
 40
0.4400000000000001
 40
0.4799999999999999
 40
0.4799999999999999
 40
0.4799999999999999
 40
0.4799999999999999
 40
0.52
 40
0.52
 40
0.52
 40
0.52
 40
0.56
 40
0.56
 40
0.56
 40
0.56
 40
0.6
 40
0.6
 40
0.6
 40
0.6
 40
0.6400000000000001
 40
0.6400000000000001
 40
0.6400000000000001
 40
0.6400000000000001
 40
0.6800000000000001
 40
0.6800000000000001
 40
0.6800000000000001
 40
0.6800000000000001
 40
0.7200000000000001
 40
0.7200000000000001
 40
0.7200000000000001
 40
0.7200000000000001
 40
0.7600000000000002
 40
0.7600000000000002
 40
0.7600000000000002
 40
0.7600000000000002
 40
0.8000000000000001
 40
0.8000000000000001
 40
0.8000000000000001
 40
0.8000000000000001
 40
0.8400000000000002
 40
0.8400000000000002
 40
0.8400000000000002
 40
0.8400000000000002
 40
0.8800000000000002
 40
0.8800000000000002
 40
0.8800000000000002
 40
0.8800000000000002
 40
0.9200000000000002
 40
0.9200000000000002
 40
0.9200000000000002
 40
0.9200000000000002
 40
0.9600000000000004
 40
0.9600000000000004
 40
0.9600000000000004
 40
0.9600000000000004
 40
1.0
 40
1.0
 40
1.0
 40
1.0
 10
3.24118
 20
-2.15702
 30
0.0
 10
2.90082
 20
-2.10368
 30
0.0
 10
2.81192
 20
-1.15372
 30
0.0
 10
2.72302
 20
-1.781099999999999
 30
0.0
 10
2.72302
 20
-1.781099999999999
 30
0.0
 10
2.72302
 20
-1.781099999999999
 30
0.0
 10
2.75858
 20
-2.352599999999999
 30
0.0
 10
2.75858
 20
-2.352599999999999
 30
0.0
 10
2.75858
 20
-2.352599999999999
 30
0.0
 10
2.6138
 20
-2.24592
 30
0.0
 10
2.5249
 20
-1.852219999999999
 30
0.0
 10
2.47156
 20
-2.21036
 30
0.0
 10
2.47156
 20
-2.21036
 30
0.0
 10
2.47156
 20
-2.21036
 30
0.0
 10
2.436
 20
-2.62184
 30
0.0
 10
2.436
 20
-2.62184
 30
0.0
 10
2.436
 20
-2.62184
 30
0.0
 10
2.344559999999999
 20
-2.49738
 30
0.0
 10
2.380119999999999
 20
-2.33482
 30
0.0
 10
2.380119999999999
 20
-2.192579999999999
 30
0.0
 10
2.380119999999999
 20
-2.192579999999999
 30
0.0
 10
2.23788
 20
-1.52964
 30
0.0
 10
2.84748
 20
-0.7752600000000001
 30
0.0
 10
3.06338
 20
-0.5619000000000001
 30
0.0
 10
3.06338
 20
-0.5619000000000001
 30
0.0
 10
3.11672
 20
-0.1301
 30
0.0
 10
2.86526
 20
0.18993
 30
0.0
 10
2.79414
 20
0.5836300000000002
 30
0.0
 10
2.79414
 20
0.5836300000000002
 30
0.0
 10
2.79414
 20
0.5836300000000002
 30
0.0
 10
3.58154
 20
1.764729999999999
 30
0.0
 10
3.58154
 20
1.764729999999999
 30
0.0
 10
3.58154
 20
1.764729999999999
 30
0.0
 10
3.54598
 20
1.40659
 30
0.0
 10
3.25896
 20
1.11957
 30
0.0
 10
3.098939999999999
 20
0.8173100000000001
 30
0.0
 10
3.098939999999999
 20
0.8173100000000001
 30
0.0
 10
3.098939999999999
 20
0.8173100000000001
 30
0.0
 10
3.2234
 20
0.8173100000000001
 30
0.0
 10
3.2234
 20
0.8173100000000001
 30
0.0
 10
3.2234
 20
0.8173100000000001
 30
0.0
 10
3.47486
 20
0.9595499999999999
 30
0.0
 10
3.726319999999999
 20
0.99511
 30
0.0
 10
3.40374
 20
0.7258700000000001
 30
0.0
 10
3.40374
 20
0.7258700000000001
 30
0.0
 10
2.98972
 20
0.5480700000000001
 30
0.0
 10
3.3504
 20
0.29661
 30
0.0
 10
3.6171
 20
0.51251
 30
0.0
 10
3.6171
 20
0.51251
 30
0.0
 10
3.6171
 20
0.51251
 30
0.0
 10
3.921899999999999
 20
0.6547500000000001
 30
0.0
 10
3.921899999999999
 20
0.6547500000000001
 30
0.0
 10
3.921899999999999
 20
0.6547500000000001
 30
0.0
 10
3.81522
 20
0.38551
 30
0.0
 10
3.51042
 20
0.24327
 30
0.0
 10
3.25896
 20
0.15183
 30
0.0
 10
3.25896
 20
0.15183
 30
0.0
 10
3.27674
 20
-0.05898
 30
0.0
 10
3.726319999999999
 20
-0.11232
 30
0.0
 10
3.93968
 20
-0.0412
 30
0.0
 10
3.93968
 20
-0.0412
 30
0.0
 10
3.797439999999999
 20
-0.20376
 30
0.0
 10
3.5282
 20
-0.2571
 30
0.0
 10
3.29452
 20
-0.23932
 30
0.0
 10
3.29452
 20
-0.23932
 30
0.0
 10
3.36818
 20
-0.3637800000000001
 30
0.0
 10
3.58154
 20
-0.4171200000000001
 30
0.0
 10
3.744099999999999
 20
-0.4171200000000001
 30
0.0
 10
3.744099999999999
 20
-0.4171200000000001
 30
0.0
 10
3.88634
 20
-0.39934
 30
0.0
 10
3.904119999999999
 20
-0.4526800000000001
 30
0.0
 10
3.779659999999999
 20
-0.5085600000000001
 30
0.0
 10
3.779659999999999
 20
-0.5085600000000001
 30
0.0
 10
3.59932
 20
-0.5796800000000001
 30
0.0
 10
3.42152
 20
-0.5263399999999999
 30
0.0
 10
3.24118
 20
-0.4907800000000001
 30
0.0
 10
3.24118
 20
-0.4907800000000001
 30
0.0
 10
3.17006
 20
-0.83114
 30
0.0
 10
3.634879999999999
 20
-0.9378199999999999
 30
0.0
 10
3.81522
 20
-1.044499999999999
 30
0.0
 10
3.81522
 20
-1.044499999999999
 30
0.0
 10
3.59932
 20
-1.11816
 30
0.0
 10
3.3504
 20
-1.062279999999999
 30
0.0
 10
3.1345
 20
-0.9911599999999999
 30
0.0
 10
3.1345
 20
-0.9911599999999999
 30
0.0
 10
3.06338
 20
-1.13594
 30
0.0
 10
3.3504
 20
-1.29596
 30
0.0
 10
3.47486
 20
-1.313739999999999
 30
0.0
 10
3.47486
 20
-1.313739999999999
 30
0.0
 10
3.744099999999999
 20
-1.4763
 30
0.0
 10
3.098939999999999
 20
-1.3493
 30
0.0
 10
2.97194
 20
-1.24262
 30
0.0
 10
2.97194
 20
-1.24262
 30
0.0
 10
2.93638
 20
-1.4763
 30
0.0
 10
3.18784
 20
-1.565199999999999
 30
0.0
 10
3.3123
 20
-1.68966
 30
0.0
 10
3.3123
 20
-1.68966
 30
0.0
 10
2.88304
 20
-1.440739999999999
 30
0.0
 10
3.02782
 20
-1.941119999999999
 30
0.0
 10
3.24118
 20
-2.15702
 30
0.0
  0
SPLINE
  5
2D
330
A
100
AcDbEntity
  8
Ebene 1
 62
     7
100
AcDbSpline
210
0.0
220
0.0
230
1.0
 70
    11
 71
     3
 72
   116
 73
   112
 74
     0
 42
0.0000000001
 43
0.0000000001
 40
0.0
 40
0.0
 40
0.0
 40
0.0
 40
0.0357142857142857
 40
0.0357142857142857
 40
0.0357142857142857
 40
0.0357142857142857
 40
0.0714285714285714
 40
0.0714285714285714
 40
0.0714285714285714
 40
0.0714285714285714
 40
0.1071428571428571
 40
0.1071428571428571
 40
0.1071428571428571
 40
0.1071428571428571
 40
0.1428571428571429
 40
0.1428571428571429
 40
0.1428571428571429
 40
0.1428571428571429
 40
0.1785714285714286
 40
0.1785714285714286
 40
0.1785714285714286
 40
0.1785714285714286
 40
0.2142857142857143
 40
0.2142857142857143
 40
0.2142857142857143
 40
0.2142857142857143
 40
0.2499999999999999
 40
0.2499999999999999
 40
0.2499999999999999
 40
0.2499999999999999
 40
0.2857142857142856
 40
0.2857142857142856
 40
0.2857142857142856
 40
0.2857142857142856
 40
0.3214285714285713
 40
0.3214285714285713
 40
0.3214285714285713
 40
0.3214285714285713
 40
0.3571428571428571
 40
0.3571428571428571
 40
0.3571428571428571
 40
0.3571428571428571
 40
0.3928571428571427
 40
0.3928571428571427
 40
0.3928571428571427
 40
0.3928571428571427
 40
0.4285714285714284
 40
0.4285714285714284
 40
0.4285714285714284
 40
0.4285714285714284
 40
0.4642857142857141
 40
0.4642857142857141
 40
0.4642857142857141
 40
0.4642857142857141
 40
0.4999999999999999
 40
0.4999999999999999
 40
0.4999999999999999
 40
0.4999999999999999
 40
0.5357142857142856
 40
0.5357142857142856
 40
0.5357142857142856
 40
0.5357142857142856
 40
0.5714285714285713
 40
0.5714285714285713
 40
0.5714285714285713
 40
0.5714285714285713
 40
0.6071428571428572
 40
0.6071428571428572
 40
0.6071428571428572
 40
0.6071428571428572
 40
0.6428571428571427
 40
0.6428571428571427
 40
0.6428571428571427
 40
0.6428571428571427
 40
0.6785714285714284
 40
0.6785714285714284
 40
0.6785714285714284
 40
0.6785714285714284
 40
0.7142857142857141
 40
0.7142857142857141
 40
0.7142857142857141
 40
0.7142857142857141
 40
0.7499999999999999
 40
0.7499999999999999
 40
0.7499999999999999
 40
0.7499999999999999
 40
0.7857142857142855
 40
0.7857142857142855
 40
0.7857142857142855
 40
0.7857142857142855
 40
0.8214285714285711
 40
0.8214285714285711
 40
0.8214285714285711
 40
0.8214285714285711
 40
0.8571428571428569
 40
0.8571428571428569
 40
0.8571428571428569
 40
0.8571428571428569
 40
0.8928571428571425
 40
0.8928571428571425
 40
0.8928571428571425
 40
0.8928571428571425
 40
0.9285714285714284
 40
0.9285714285714284
 40
0.9285714285714284
 40
0.9285714285714284
 40
0.9642857142857142
 40
0.9642857142857142
 40
0.9642857142857142
 40
0.9642857142857142
 40
1.0
 40
1.0
 40
1.0
 40
1.0
 10
-2.81417
 20
-2.44404
 30
0.0
 10
-2.75575
 20
-2.192579999999999
 30
0.0
 10
-2.63129
 20
-1.905559999999999
 30
0.0
 10
-2.71003
 20
-1.63632
 30
0.0
 10
-2.71003
 20
-1.63632
 30
0.0
 10
-2.81417
 20
-1.68966
 30
0.0
 10
-2.89545
 20
-1.87
 30
0.0
 10
-3.04023
 20
-1.88778
 30
0.0
 10
-3.04023
 20
-1.88778
 30
0.0
 10
-2.948789999999999
 20
-1.743
 30
0.0
 10
-2.87259
 20
-1.60076
 30
0.0
 10
-2.85227
 20
-1.440739999999999
 30
0.0
 10
-2.85227
 20
-1.440739999999999
 30
0.0
 10
-2.94625
 20
-1.36708
 30
0.0
 10
-3.03007
 20
-1.51186
 30
0.0
 10
-3.11897
 20
-1.52964
 30
0.0
 10
-3.11897
 20
-1.52964
 30
0.0
 10
-3.04785
 20
-1.42042
 30
0.0
 10
-2.85989
 20
-1.313739999999999
 30
0.0
 10
-2.92593
 20
-1.171499999999999
 30
0.0
 10
-2.92593
 20
-1.171499999999999
 30
0.0
 10
-3.16215
 20
-1.27818
 30
0.0
 10
-3.44917
 20
-1.2604
 30
0.0
 10
-3.685389999999999
 20
-1.171499999999999
 30
0.0
 10
-3.685389999999999
 20
-1.171499999999999
 30
0.0
 10
-3.685389999999999
 20
-1.171499999999999
 30
0.0
 10
-3.36281
 20
-1.062279999999999
 30
0.0
 10
-3.36281
 20
-1.062279999999999
 30
0.0
 10
-3.36281
 20
-1.062279999999999
 30
0.0
 10
-3.36281
 20
-1.062279999999999
 30
0.0
 10
-3.09611
 20
-0.9022599999999998
 30
0.0
 10
-3.09611
 20
-0.9022599999999998
 30
0.0
 10
-3.09611
 20
-0.9022599999999998
 30
0.0
 10
-2.77099
 20
-0.61524
 30
0.0
 10
-3.95209
 20
-0.9378199999999999
 30
0.0
 10
-3.64983
 20
-0.6685800000000001
 30
0.0
 10
-3.64983
 20
-0.6685800000000001
 30
0.0
 10
-3.53807
 20
-0.6508000000000001
 30
0.0
 10
-3.43139
 20
-0.61524
 30
0.0
 10
-3.32725
 20
-0.5619000000000001
 30
0.0
 10
-3.32725
 20
-0.5619000000000001
 30
0.0
 10
-3.245969999999999
 20
-0.5441200000000001
 30
0.0
 10
-3.16977
 20
-0.346
 30
0.0
 10
-3.29677
 20
-0.38156
 30
0.0
 10
-3.29677
 20
-0.38156
 30
0.0
 10
-3.723489999999999
 20
-0.3637800000000001
 30
0.0
 10
-3.10627
 20
-0.2571
 30
0.0
 10
-3.16723
 20
-0.07676
 30
0.0
 10
-3.16723
 20
-0.07676
 30
0.0
 10
-3.29423
 20
-0.0412
 30
0.0
 10
-3.55077
 20
-0.1301
 30
0.0
 10
-3.667609999999999
 20
0.04515
 30
0.0
 10
-3.667609999999999
 20
0.04515
 30
0.0
 10
-3.51267
 20
0.02737
 30
0.0
 10
-3.13929
 20
0.08071
 30
0.0
 10
-3.418689999999999
 20
0.22549
 30
0.0
 10
-3.418689999999999
 20
0.22549
 30
0.0
 10
-3.31455
 20
0.22549
 30
0.0
 10
-3.202789999999999
 20
0.18993
 30
0.0
 10
-3.10373
 20
0.24327
 30
0.0
 10
-3.10373
 20
0.24327
 30
0.0
 10
-3.05801
 20
0.4388500000000001
 30
0.0
 10
-3.34503
 20
0.40329
 30
0.0
 10
-3.40091
 20
0.5658500000000001
 30
0.0
 10
-3.40091
 20
0.5658500000000001
 30
0.0
 10
-3.47203
 20
0.63697
 30
0.0
 10
-3.51267
 20
0.7080900000000002
 30
0.0
 10
-3.55077
 20
0.7969900000000001
 30
0.0
 10
-3.55077
 20
0.7969900000000001
 30
0.0
 10
-3.728569999999999
 20
0.9773299999999998
 30
0.0
 10
-2.78877
 20
0.31439
 30
0.0
 10
-3.11389
 20
0.7080900000000002
 30
0.0
 10
-3.11389
 20
0.7080900000000002
 30
0.0
 10
-3.11389
 20
0.7080900000000002
 30
0.0
 10
-3.26629
 20
0.8884299999999999
 30
0.0
 10
-3.26629
 20
0.8884299999999999
 30
0.0
 10
-3.26629
 20
0.8884299999999999
 30
0.0
 10
-3.32217
 20
0.9773299999999998
 30
0.0
 10
-3.38567
 20
1.084009999999999
 30
0.0
 10
-3.42631
 20
1.19323
 30
0.0
 10
-3.42631
 20
1.19323
 30
0.0
 10
-3.49489
 20
1.35325
 30
0.0
 10
-3.56347
 20
1.53359
 30
0.0
 10
-3.57871
 20
1.71139
 30
0.0
 10
-3.57871
 20
1.71139
 30
0.0
 10
-3.30947
 20
1.28213
 30
0.0
 10
-2.89799
 20
0.9062099999999999
 30
0.0
 10
-2.67193
 20
0.45663
 30
0.0
 10
-2.67193
 20
0.45663
 30
0.0
 10
-2.67193
 20
0.45663
 30
0.0
 10
-2.69225
 20
0.26105
 30
0.0
 10
-2.69225
 20
0.26105
 30
0.0
 10
-2.69225
 20
0.26105
 30
0.0
 10
-3.16215
 20
-0.32822
 30
0.0
 10
-2.93863
 20
-1.24262
 30
0.0
 10
-2.275689999999999
 20
-1.61854
 30
0.0
 10
-2.275689999999999
 20
-1.61854
 30
0.0
 10
-2.354429999999999
 20
-1.976679999999999
 30
0.0
 10
-2.11567
 20
-2.38816
 30
0.0
 10
-2.34681
 20
-2.6574
 30
0.0
 10
-2.34681
 20
-2.6574
 30
0.0
 10
-2.405229999999999
 20
-2.40848
 30
0.0
 10
-2.32141
 20
-2.06558
 30
0.0
 10
-2.45603
 20
-1.852219999999999
 30
0.0
 10
-2.45603
 20
-1.852219999999999
 30
0.0
 10
-2.53731
 20
-1.88778
 30
0.0
 10
-2.483969999999999
 20
-1.997
 30
0.0
 10
-2.53985
 20
-2.0478
 30
0.0
 10
-2.53985
 20
-2.0478
 30
0.0
 10
-2.61351
 20
-2.192579999999999
 30
0.0
 10
-2.67701
 20
-2.352599999999999
 30
0.0
 10
-2.81417
 20
-2.44404
 30
0.0
  0
SPLINE
  5
2E
330
A
100
AcDbEntity
  8
Ebene 1
 62
     7
100
AcDbSpline
210
0.0
220
0.0
230
1.0
 70
    11
 71
     3
 72
    16
 73
    12
 74
     0
 42
0.0000000001
 43
0.0000000001
 40
0.0
 40
0.0
 40
0.0
 40
0.0
 40
0.3333333333333333
 40
0.3333333333333333
 40
0.3333333333333333
 40
0.3333333333333333
 40
0.6666666666666666
 40
0.6666666666666666
 40
0.6666666666666666
 40
0.6666666666666666
 40
1.0
 40
1.0
 40
1.0
 40
1.0
 10
5.21222
 20
1.640269999999999
 30
0.0
 10
5.32144
 20
0.7969900000000001
 30
0.0
 10
4.5315
 20
0.09849
 30
0.0
 10
3.70854
 20
0.15183
 30
0.0
 10
3.70854
 20
0.15183
 30
0.0
 10
3.76188
 20
0.24327
 30
0.0
 10
3.850779999999999
 20
0.33217
 30
0.0
 10
3.921899999999999
 20
0.40329
 30
0.0
 10
3.921899999999999
 20
0.40329
 30
0.0
 10
4.17336
 20
0.9773299999999998
 30
0.0
 10
4.81852
 20
1.15767
 30
0.0
 10
5.21222
 20
1.640269999999999
 30
0.0
  0
SPLINE
  5
2F
330
A
100
AcDbEntity
  8
Ebene 1
 62
     7
100
AcDbSpline
210
0.0
220
0.0
230
1.0
 70
    11
 71
     3
 72
    20
 73
    16
 74
     0
 42
0.0000000001
 43
0.0000000001
 40
0.0
 40
0.0
 40
0.0
 40
0.0
 40
0.25
 40
0.25
 40
0.25
 40
0.25
 40
0.5
 40
0.5
 40
0.5
 40
0.5
 40
0.75
 40
0.75
 40
0.75
 40
0.75
 40
1.0
 40
1.0
 40
1.0
 40
1.0
 10
-5.19669
 20
1.22879
 30
0.0
 10
-4.86649
 20
0.87065
 30
0.0
 10
-4.44993
 20
0.5836300000000002
 30
0.0
 10
-4.00035
 20
0.4210700000000001
 30
0.0
 10
-4.00035
 20
0.4210700000000001
 30
0.0
 10
-3.98765
 20
0.20771
 30
0.0
 10
-3.76921
 20
0.04515
 30
0.0
 10
-3.695549999999999
 20
-0.1301
 30
0.0
 10
-3.695549999999999
 20
-0.1301
 30
0.0
 10
-4.12735
 20
-0.05898
 30
0.0
 10
-4.576929999999999
 20
0.06293
 30
0.0
 10
-4.90459
 20
0.34995
 30
0.0
 10
-4.90459
 20
0.34995
 30
0.0
 10
-5.036669999999999
 20
0.63697
 30
0.0
 10
-5.11541
 20
0.92399
 30
0.0
 10
-5.19669
 20
1.22879
 30
0.0
  0
SPLINE
  5
30
330
A
100
AcDbEntity
  8
Ebene 1
 62
     7
100
AcDbSpline
210
0.0
220
0.0
230
1.0
 70
    27
 71
     3
 72
    12
 73
     8
 74
     0
 42
0.0000000001
 43
0.0000000001
 40
0.0
 40
0.0
 40
0.0
 40
0.0
 40
0.5
 40
0.5
 40
0.5
 40
0.5
 40
1.0
 40
1.0
 40
1.0
 40
1.0
 10
5.1411
 20
0.7080900000000002
 30
0.0
 10
5.1411
 20
0.7080900000000002
 30
0.0
 10
5.12332
 20
0.6903100000000002
 30
0.0
 10
5.12332
 20
0.6903100000000002
 30
0.0
 10
5.12332
 20
0.6903100000000002
 30
0.0
 10
5.12332
 20
0.6903100000000002
 30
0.0
 10
5.1411
 20
0.7080900000000002
 30
0.0
 10
5.1411
 20
0.7080900000000002
 30
0.0
  0
SPLINE
  5
31
330
A
100
AcDbEntity
  8
Ebene 1
 62
     7
100
AcDbSpline
210
0.0
220
0.0
230
1.0
 70
    11
 71
     3
 72
     8
 73
     4
 74
     0
 42
0.0000000001
 43
0.0000000001
 40
0.0
 40
0.0
 40
0.0
 40
0.0
 40
1.0
 40
1.0
 40
1.0
 40
1.0
 10
5.12332
 20
0.6903100000000002
 30
0.0
 10
5.12332
 20
0.6547500000000001
 30
0.0
 10
5.08776
 20
0.6903100000000002
 30
0.0
 10
5.12332
 20
0.6903100000000002
 30
0.0
  0
SPLINE
  5
32
330
A
100
AcDbEntity
  8
Ebene 1
 62
     7
100
AcDbSpline
210
0.0
220
0.0
230
1.0
 70
    11
 71
     3
 72
   116
 73
   112
 74
     0
 42
0.0000000001
 43
0.0000000001
 40
0.0
 40
0.0
 40
0.0
 40
0.0
 40
0.0357142857142857
 40
0.0357142857142857
 40
0.0357142857142857
 40
0.0357142857142857
 40
0.0714285714285714
 40
0.0714285714285714
 40
0.0714285714285714
 40
0.0714285714285714
 40
0.1071428571428571
 40
0.1071428571428571
 40
0.1071428571428571
 40
0.1071428571428571
 40
0.1428571428571429
 40
0.1428571428571429
 40
0.1428571428571429
 40
0.1428571428571429
 40
0.1785714285714286
 40
0.1785714285714286
 40
0.1785714285714286
 40
0.1785714285714286
 40
0.2142857142857143
 40
0.2142857142857143
 40
0.2142857142857143
 40
0.2142857142857143
 40
0.2499999999999999
 40
0.2499999999999999
 40
0.2499999999999999
 40
0.2499999999999999
 40
0.2857142857142856
 40
0.2857142857142856
 40
0.2857142857142856
 40
0.2857142857142856
 40
0.3214285714285713
 40
0.3214285714285713
 40
0.3214285714285713
 40
0.3214285714285713
 40
0.3571428571428571
 40
0.3571428571428571
 40
0.3571428571428571
 40
0.3571428571428571
 40
0.3928571428571427
 40
0.3928571428571427
 40
0.3928571428571427
 40
0.3928571428571427
 40
0.4285714285714284
 40
0.4285714285714284
 40
0.4285714285714284
 40
0.4285714285714284
 40
0.4642857142857141
 40
0.4642857142857141
 40
0.4642857142857141
 40
0.4642857142857141
 40
0.4999999999999999
 40
0.4999999999999999
 40
0.4999999999999999
 40
0.4999999999999999
 40
0.5357142857142856
 40
0.5357142857142856
 40
0.5357142857142856
 40
0.5357142857142856
 40
0.5714285714285713
 40
0.5714285714285713
 40
0.5714285714285713
 40
0.5714285714285713
 40
0.6071428571428572
 40
0.6071428571428572
 40
0.6071428571428572
 40
0.6071428571428572
 40
0.6428571428571427
 40
0.6428571428571427
 40
0.6428571428571427
 40
0.6428571428571427
 40
0.6785714285714284
 40
0.6785714285714284
 40
0.6785714285714284
 40
0.6785714285714284
 40
0.7142857142857141
 40
0.7142857142857141
 40
0.7142857142857141
 40
0.7142857142857141
 40
0.7499999999999999
 40
0.7499999999999999
 40
0.7499999999999999
 40
0.7499999999999999
 40
0.7857142857142855
 40
0.7857142857142855
 40
0.7857142857142855
 40
0.7857142857142855
 40
0.8214285714285711
 40
0.8214285714285711
 40
0.8214285714285711
 40
0.8214285714285711
 40
0.8571428571428569
 40
0.8571428571428569
 40
0.8571428571428569
 40
0.8571428571428569
 40
0.8928571428571425
 40
0.8928571428571425
 40
0.8928571428571425
 40
0.8928571428571425
 40
0.9285714285714284
 40
0.9285714285714284
 40
0.9285714285714284
 40
0.9285714285714284
 40
0.9642857142857142
 40
0.9642857142857142
 40
0.9642857142857142
 40
0.9642857142857142
 40
1.0
 40
1.0
 40
1.0
 40
1.0
 10
0.5005200000000001
 20
0.6725300000000001
 30
0.0
 10
0.8230999999999999
 20
0.6903100000000002
 30
0.0
 10
1.110119999999999
 20
0.51251
 30
0.0
 10
1.35904
 20
0.33217
 30
0.0
 10
1.35904
 20
0.33217
 30
0.0
 10
2.05754
 20
-0.38156
 30
0.0
 10
2.50712
 20
-1.42042
 30
0.0
 10
2.18454
 20
-2.40848
 30
0.0
 10
2.18454
 20
-2.40848
 30
0.0
 10
2.1312
 20
-2.4796
 30
0.0
 10
2.09564
 20
-2.55072
 30
0.0
 10
2.07786
 20
-2.64216
 30
0.0
 10
2.07786
 20
-2.64216
 30
0.0
 10
1.95086
 20
-2.81996
 30
0.0
 10
2.1312
 20
-2.33482
 30
0.0
 10
2.14898
 20
-2.228139999999999
 30
0.0
 10
2.14898
 20
-2.228139999999999
 30
0.0
 10
2.14898
 20
-2.228139999999999
 30
0.0
 10
2.18454
 20
-1.743
 30
0.0
 10
2.18454
 20
-1.743
 30
0.0
 10
2.18454
 20
-1.743
 30
0.0
 10
1.844179999999999
 20
-2.2637
 30
0.0
 10
1.808619999999999
 20
-3.01554
 30
0.0
 10
1.95086
 20
-3.660699999999999
 30
0.0
 10
1.95086
 20
-3.660699999999999
 30
0.0
 10
1.844179999999999
 20
-3.876599999999999
 30
0.0
 10
1.57494
 20
-3.73436
 30
0.0
 10
1.4327
 20
-3.84104
 30
0.0
 10
1.4327
 20
-3.84104
 30
0.0
 10
1.4327
 20
-3.84104
 30
0.0
 10
1.75528
 20
-3.947719999999999
 30
0.0
 10
1.75528
 20
-3.947719999999999
 30
0.0
 10
1.75528
 20
-3.947719999999999
 30
0.0
 10
1.37682
 20
-3.98328
 30
0.0
 10
1.000899999999999
 20
-4.12806
 30
0.0
 10
0.6783200000000001
 20
-3.85882
 30
0.0
 10
0.6783200000000001
 20
-3.85882
 30
0.0
 10
0.7316600000000001
 20
-4.2703
 30
0.0
 10
0.7494400000000001
 20
-4.68432
 30
0.0
 10
0.8764400000000001
 20
-4.97134
 30
0.0
 10
0.8764400000000001
 20
-4.97134
 30
0.0
 10
0.64276
 20
-4.90022
 30
0.0
 10
0.4827400000000001
 20
-5.4006
 30
0.0
 10
0.32018
 20
-5.02468
 30
0.0
 10
0.32018
 20
-5.02468
 30
0.0
 10
0.10428
 20
-5.13136
 30
0.0
 10
0.00014
 20
-5.04246
 30
0.0
 10
-0.01763
 20
-4.82656
 30
0.0
 10
-0.01763
 20
-4.82656
 30
0.0
 10
-0.03541
 20
-4.97134
 30
0.0
 10
0.01538
 20
-5.20248
 30
0.0
 10
-0.12431
 20
-5.23804
 30
0.0
 10
-0.12431
 20
-5.23804
 30
0.0
 10
-0.3757700000000001
 20
-5.2228
 30
0.0
 10
-0.15987
 20
-4.71988
 30
0.0
 10
-0.34021
 20
-5.07802
 30
0.0
 10
-0.34021
 20
-5.07802
 30
0.0
 10
-0.46467
 20
-4.862119999999999
 30
0.0
 10
-0.46467
 20
-4.82656
 30
0.0
 10
-0.55611
 20
-5.13136
 30
0.0
 10
-0.55611
 20
-5.13136
 30
0.0
 10
-0.5205500000000001
 20
-4.61066
 30
0.0
 10
-0.7923300000000002
 20
-5.0069
 30
0.0
 10
-0.6272300000000001
 20
-4.46842
 30
0.0
 10
-0.6272300000000001
 20
-4.46842
 30
0.0
 10
-0.5916700000000001
 20
-4.50398
 30
0.0
 10
-0.60945
 20
-4.71988
 30
0.0
 10
-0.5383300000000001
 20
-4.62844
 30
0.0
 10
-0.5383300000000001
 20
-4.62844
 30
0.0
 10
-0.5205500000000001
 20
-4.36174
 30
0.0
 10
-0.6450100000000001
 20
-4.0925
 30
0.0
 10
-0.5002300000000001
 20
-3.85882
 30
0.0
 10
-0.5002300000000001
 20
-3.85882
 30
0.0
 10
-0.68057
 20
-3.947719999999999
 30
0.0
 10
-1.21143
 20
-4.2703
 30
0.0
 10
-0.99045
 20
-3.91216
 30
0.0
 10
-0.99045
 20
-3.91216
 30
0.0
 10
-0.99045
 20
-3.91216
 30
0.0
 10
-1.39177
 20
-4.0036
 30
0.0
 10
-1.39177
 20
-4.0036
 30
0.0
 10
-1.39177
 20
-4.0036
 30
0.0
 10
-1.39177
 20
-4.0036
 30
0.0
 10
-1.41971
 20
-3.823259999999999
 30
0.0
 10
-1.41971
 20
-3.823259999999999
 30
0.0
 10
-1.41971
 20
-3.823259999999999
 30
0.0
 10
-1.88453
 20
-3.64292
 30
0.0
 10
-1.68133
 20
-3.01554
 30
0.0
 10
-1.66609
 20
-2.62184
 30
0.0
 10
-1.66609
 20
-2.62184
 30
0.0
 10
-1.810869999999999
 20
-2.33482
 30
0.0
 10
-1.95819
 20
-2.01224
 30
0.0
 10
-1.948029999999999
 20
-1.70744
 30
0.0
 10
-1.948029999999999
 20
-1.70744
 30
0.0
 10
-2.100429999999999
 20
-2.06558
 30
0.0
 10
-1.79055
 20
-2.40848
 30
0.0
 10
-1.82865
 20
-2.7844
 30
0.0
 10
-1.82865
 20
-2.7844
 30
0.0
 10
-1.861669999999999
 20
-3.01554
 30
0.0
 10
-1.97089
 20
-2.76662
 30
0.0
 10
-2.00645
 20
-2.6574
 30
0.0
 10
-2.00645
 20
-2.6574
 30
0.0
 10
-2.29093
 20
-1.852219999999999
 30
0.0
 10
-2.17917
 20
-0.97338
 30
0.0
 10
-1.696569999999999
 20
-0.2571
 30
0.0
 10
-1.696569999999999
 20
-0.2571
 30
0.0
 10
-1.440029999999999
 20
0.06293
 30
0.0
 10
-1.086969999999999
 20
0.27883
 30
0.0
 10
-0.7466100000000001
 20
0.53029
 30
0.0
 10
-0.7466100000000001
 20
0.53029
 30
0.0
 10
-0.26909
 20
0.8173100000000001
 30
0.0
 10
0.12206
 20
0.27883
 30
0.0
 10
0.5005200000000001
 20
0.6725300000000001
 30
0.0
  0
SPLINE
  5
33
330
A
100
AcDbEntity
  8
Ebene 1
 62
     7
100
AcDbSpline
210
0.0
220
0.0
230
1.0
 70
    11
 71
     3
 72
    20
 73
    16
 74
     0
 42
0.0000000001
 43
0.0000000001
 40
0.0
 40
0.0
 40
0.0
 40
0.0
 40
0.25
 40
0.25
 40
0.25
 40
0.25
 40
0.5
 40
0.5
 40
0.5
 40
0.5
 40
0.75
 40
0.75
 40
0.75
 40
0.75
 40
1.0
 40
1.0
 40
1.0
 40
1.0
 10
4.94298
 20
0.3677300000000001
 30
0.0
 10
4.94298
 20
0.3677300000000001
 30
0.0
 10
4.99886
 20
0.34995
 30
0.0
 10
4.99886
 20
0.34995
 30
0.0
 10
4.99886
 20
0.34995
 30
0.0
 10
4.81852
 20
-0.00564
 30
0.0
 10
4.38926
 20
-0.27488
 30
0.0
 10
3.995559999999999
 20
-0.22154
 30
0.0
 10
3.995559999999999
 20
-0.22154
 30
0.0
 10
4.12002
 20
-0.15042
 30
0.0
 10
4.12002
 20
-0.02342
 30
0.0
 10
4.17336
 20
0.08071
 30
0.0
 10
4.17336
 20
0.08071
 30
0.0
 10
4.17336
 20
0.08071
 30
0.0
 10
4.94298
 20
0.3677300000000001
 30
0.0
 10
4.94298
 20
0.3677300000000001
 30
0.0
  0
SPLINE
  5
34
330
A
100
AcDbEntity
  8
Ebene 1
 62
     7
100
AcDbSpline
210
0.0
220
0.0
230
1.0
 70
    11
 71
     3
 72
    12
 73
     8
 74
     0
 42
0.0000000001
 43
0.0000000001
 40
0.0
 40
0.0
 40
0.0
 40
0.0
 40
0.5
 40
0.5
 40
0.5
 40
0.5
 40
1.0
 40
1.0
 40
1.0
 40
1.0
 10
-3.87081
 20
0.31439
 30
0.0
 10
-3.792069999999999
 20
0.27883
 30
0.0
 10
-3.70317
 20
0.22549
 30
0.0
 10
-3.642209999999999
 20
0.17215
 30
0.0
 10
-3.642209999999999
 20
0.17215
 30
0.0
 10
-3.73619
 20
0.15183
 30
0.0
 10
-3.820009999999999
 20
0.24327
 30
0.0
 10
-3.87081
 20
0.31439
 30
0.0
  0
SPLINE
  5
35
330
A
100
AcDbEntity
  8
Ebene 1
100
AcDbSpline
210
0.0
220
0.0
230
1.0
 70
    11
 71
     3
 72
    20
 73
    16
 74
     0
 42
0.0000000001
 43
0.0000000001
 40
0.0
 40
0.0
 40
0.0
 40
0.0
 40
0.25
 40
0.25
 40
0.25
 40
0.25
 40
0.5
 40
0.5
 40
0.5
 40
0.5
 40
0.75
 40
0.75
 40
0.75
 40
0.75
 40
1.0
 40
1.0
 40
1.0
 40
1.0
 10
0.06872
 20
-0.05898
 30
0.0
 10
0.06872
 20
-0.05898
 30
0.0
 10
0.12206
 20
-0.05898
 30
0.0
 10
0.12206
 20
-0.05898
 30
0.0
 10
0.12206
 20
-0.05898
 30
0.0
 10
0.3024
 20
-0.5974600000000001
 30
0.0
 10
0.12206
 20
-1.20706
 30
0.0
 10
0.17794
 20
-1.743
 30
0.0
 10
0.17794
 20
-1.743
 30
0.0
 10
0.14238
 20
-1.72522
 30
0.0
 10
0.10428
 20
-1.72522
 30
0.0
 10
0.06872
 20
-1.70744
 30
0.0
 10
0.06872
 20
-1.70744
 30
0.0
 10
0.12206
 20
-1.15372
 30
0.0
 10
0.12206
 20
-0.5796800000000001
 30
0.0
 10
0.06872
 20
-0.05898
 30
0.0
  0
SPLINE
  5
36
330
A
100
AcDbEntity
  8
Ebene 1
 62
     7
100
AcDbSpline
210
0.0
220
0.0
230
1.0
 70
    11
 71
     3
 72
    20
 73
    16
 74
     0
 42
0.0000000001
 43
0.0000000001
 40
0.0
 40
0.0
 40
0.0
 40
0.0
 40
0.25
 40
0.25
 40
0.25
 40
0.25
 40
0.5
 40
0.5
 40
0.5
 40
0.5
 40
0.75
 40
0.75
 40
0.75
 40
0.75
 40
1.0
 40
1.0
 40
1.0
 40
1.0
 10
-4.89189
 20
-0.09454
 30
0.0
 10
-4.48803
 20
-0.27488
 30
0.0
 10
-4.01813
 20
-0.32822
 30
0.0
 10
-3.642209999999999
 20
-0.5441200000000001
 30
0.0
 10
-3.642209999999999
 20
-0.5441200000000001
 30
0.0
 10
-3.76413
 20
-0.5974600000000001
 30
0.0
 10
-3.896209999999999
 20
-0.6508000000000001
 30
0.0
 10
-4.01305
 20
-0.5619000000000001
 30
0.0
 10
-4.01305
 20
-0.5619000000000001
 30
0.0
 10
-4.01305
 20
-0.5619000000000001
 30
0.0
 10
-4.07147
 20
-0.6685800000000001
 30
0.0
 10
-4.07147
 20
-0.6685800000000001
 30
0.0
 10
-4.07147
 20
-0.6685800000000001
 30
0.0
 10
-4.47787
 20
-0.7574800000000001
 30
0.0
 10
-4.76489
 20
-0.4349000000000001
 30
0.0
 10
-4.89189
 20
-0.09454
 30
0.0
  0
SPLINE
  5
37
330
A
100
AcDbEntity
  8
Ebene 1
 62
     7
100
AcDbSpline
210
0.0
220
0.0
230
1.0
 70
    11
 71
     3
 72
    20
 73
    16
 74
     0
 42
0.0000000001
 43
0.0000000001
 40
0.0
 40
0.0
 40
0.0
 40
0.0
 40
0.25
 40
0.25
 40
0.25
 40
0.25
 40
0.5
 40
0.5
 40
0.5
 40
0.5
 40
0.75
 40
0.75
 40
0.75
 40
0.75
 40
1.0
 40
1.0
 40
1.0
 40
1.0
 10
4.85408
 20
-0.27488
 30
0.0
 10
4.85408
 20
-0.27488
 30
0.0
 10
4.94298
 20
-0.29266
 30
0.0
 10
4.94298
 20
-0.29266
 30
0.0
 10
4.94298
 20
-0.29266
 30
0.0
 10
4.765179999999999
 20
-0.7041400000000002
 30
0.0
 10
4.24448
 20
-0.84892
 30
0.0
 10
3.850779999999999
 20
-0.6685800000000001
 30
0.0
 10
3.850779999999999
 20
-0.6685800000000001
 30
0.0
 10
3.850779999999999
 20
-0.6685800000000001
 30
0.0
 10
4.24448
 20
-0.3637800000000001
 30
0.0
 10
4.24448
 20
-0.3637800000000001
 30
0.0
 10
4.24448
 20
-0.3637800000000001
 30
0.0
 10
4.4426
 20
-0.39934
 30
0.0
 10
4.67628
 20
-0.32822
 30
0.0
 10
4.85408
 20
-0.27488
 30
0.0
  0
SPLINE
  5
38
330
A
100
AcDbEntity
  8
Ebene 1
100
AcDbSpline
210
0.0
220
0.0
230
1.0
 70
    11
 71
     3
 72
    44
 73
    40
 74
     0
 42
0.0000000001
 43
0.0000000001
 40
0.0
 40
0.0
 40
0.0
 40
0.0
 40
0.1
 40
0.1
 40
0.1
 40
0.1
 40
0.2
 40
0.2
 40
0.2
 40
0.2
 40
0.3
 40
0.3
 40
0.3
 40
0.3
 40
0.4
 40
0.4
 40
0.4
 40
0.4
 40
0.5
 40
0.5
 40
0.5
 40
0.5
 40
0.6
 40
0.6
 40
0.6
 40
0.6
 40
0.7
 40
0.7
 40
0.7
 40
0.7
 40
0.8
 40
0.8
 40
0.8
 40
0.8
 40
0.9
 40
0.9
 40
0.9
 40
0.9
 40
1.0
 40
1.0
 40
1.0
 40
1.0
 10
-1.30795
 20
-0.4349000000000001
 30
0.0
 10
-1.30795
 20
-0.4349000000000001
 30
0.0
 10
-1.23683
 20
-0.4526800000000001
 30
0.0
 10
-1.23683
 20
-0.4526800000000001
 30
0.0
 10
-1.23683
 20
-0.4526800000000001
 30
0.0
 10
-1.36383
 20
-0.83114
 30
0.0
 10
-1.23429
 20
-1.313739999999999
 30
0.0
 10
-0.8456699999999999
 20
-1.4763
 30
0.0
 10
-0.8456699999999999
 20
-1.4763
 30
0.0
 10
-0.8456699999999999
 20
-1.4763
 30
0.0
 10
-1.033629999999999
 20
-1.440739999999999
 30
0.0
 10
-1.033629999999999
 20
-1.440739999999999
 30
0.0
 10
-1.033629999999999
 20
-1.440739999999999
 30
0.0
 10
-1.08443
 20
-1.52964
 30
0.0
 10
-1.10983
 20
-1.671879999999999
 30
0.0
 10
-1.231749999999999
 20
-1.671879999999999
 30
0.0
 10
-1.231749999999999
 20
-1.671879999999999
 30
0.0
 10
-1.099669999999999
 20
-1.40264
 30
0.0
 10
-1.32319
 20
-1.15372
 30
0.0
 10
-1.41463
 20
-0.92004
 30
0.0
 10
-1.41463
 20
-0.92004
 30
0.0
 10
-1.41463
 20
-0.92004
 30
0.0
 10
-1.50607
 20
-1.24262
 30
0.0
 10
-1.50607
 20
-1.24262
 30
0.0
 10
-1.50607
 20
-1.24262
 30
0.0
 10
-1.56195
 20
-1.42042
 30
0.0
 10
-1.51877
 20
-1.61854
 30
0.0
 10
-1.34351
 20
-1.671879999999999
 30
0.0
 10
-1.34351
 20
-1.671879999999999
 30
0.0
 10
-1.35367
 20
-1.70744
 30
0.0
 10
-1.396849999999999
 20
-1.68966
 30
0.0
 10
-1.41463
 20
-1.671879999999999
 30
0.0
 10
-1.41463
 20
-1.671879999999999
 30
0.0
 10
-1.53401
 20
-1.60076
 30
0.0
 10
-1.49083
 20
-1.79888
 30
0.0
 10
-1.58989
 20
-1.76332
 30
0.0
 10
-1.58989
 20
-1.76332
 30
0.0
 10
-1.51623
 20
-1.36708
 30
0.0
 10
-1.699109999999999
 20
-0.7574800000000001
 30
0.0
 10
-1.30795
 20
-0.4349000000000001
 30
0.0
  0
SPLINE
  5
39
330
A
100
AcDbEntity
  8
Ebene 1
100
AcDbSpline
210
0.0
220
0.0
230
1.0
 70
    11
 71
     3
 72
    36
 73
    32
 74
     0
 42
0.0000000001
 43
0.0000000001
 40
0.0
 40
0.0
 40
0.0
 40
0.0
 40
0.125
 40
0.125
 40
0.125
 40
0.125
 40
0.25
 40
0.25
 40
0.25
 40
0.25
 40
0.375
 40
0.375
 40
0.375
 40
0.375
 40
0.5
 40
0.5
 40
0.5
 40
0.5
 40
0.625
 40
0.625
 40
0.625
 40
0.625
 40
0.75
 40
0.75
 40
0.75
 40
0.75
 40
0.875
 40
0.875
 40
0.875
 40
0.875
 40
1.0
 40
1.0
 40
1.0
 40
1.0
 10
1.5216
 20
-0.5263399999999999
 30
0.0
 10
1.86196
 20
-0.7397000000000001
 30
0.0
 10
1.86196
 20
-1.33152
 30
0.0
 10
1.71718
 20
-1.671879999999999
 30
0.0
 10
1.71718
 20
-1.671879999999999
 30
0.0
 10
1.6994
 20
-1.743
 30
0.0
 10
1.808619999999999
 20
-1.76332
 30
0.0
 10
1.77306
 20
-1.83444
 30
0.0
 10
1.77306
 20
-1.83444
 30
0.0
 10
1.681619999999999
 20
-1.852219999999999
 30
0.0
 10
1.62828
 20
-1.70744
 30
0.0
 10
1.66384
 20
-1.63632
 30
0.0
 10
1.66384
 20
-1.63632
 30
0.0
 10
1.71718
 20
-1.4763
 30
0.0
 10
1.73496
 20
-1.27818
 30
0.0
 10
1.681619999999999
 20
-1.11816
 30
0.0
 10
1.681619999999999
 20
-1.11816
 30
0.0
 10
1.6105
 20
-0.9378199999999999
 30
0.0
 10
1.592719999999999
 20
-1.2604
 30
0.0
 10
1.5216
 20
-1.313739999999999
 30
0.0
 10
1.5216
 20
-1.313739999999999
 30
0.0
 10
1.4327
 20
-1.42042
 30
0.0
 10
1.35904
 20
-1.547419999999999
 30
0.0
 10
1.32348
 20
-1.68966
 30
0.0
 10
1.32348
 20
-1.68966
 30
0.0
 10
1.18124
 20
-1.68966
 30
0.0
 10
1.341259999999999
 20
-1.4763
 30
0.0
 10
1.19902
 20
-1.4763
 30
0.0
 10
1.19902
 20
-1.4763
 30
0.0
 10
1.468259999999999
 20
-1.24262
 30
0.0
 10
1.62828
 20
-0.8844799999999999
 30
0.0
 10
1.5216
 20
-0.5263399999999999
 30
0.0
  0
SPLINE
  5
3A
330
A
100
AcDbEntity
  8
Ebene 1
 62
     7
100
AcDbSpline
210
0.0
220
0.0
230
1.0
 70
    11
 71
     3
 72
    28
 73
    24
 74
     0
 42
0.0000000001
 43
0.0000000001
 40
0.0
 40
0.0
 40
0.0
 40
0.0
 40
0.1666666666666667
 40
0.1666666666666667
 40
0.1666666666666667
 40
0.1666666666666667
 40
0.3333333333333333
 40
0.3333333333333333
 40
0.3333333333333333
 40
0.3333333333333333
 40
0.5
 40
0.5
 40
0.5
 40
0.5
 40
0.6666666666666666
 40
0.6666666666666666
 40
0.6666666666666666
 40
0.6666666666666666
 40
0.8333333333333332
 40
0.8333333333333332
 40
0.8333333333333332
 40
0.8333333333333332
 40
1.0
 40
1.0
 40
1.0
 40
1.0
 10
-3.76413
 20
-0.8666999999999999
 30
0.0
 10
-3.672689999999999
 20
-0.8844799999999999
 30
0.0
 10
-3.586329999999999
 20
-0.92004
 30
0.0
 10
-3.51267
 20
-0.9556
 30
0.0
 10
-3.51267
 20
-0.9556
 30
0.0
 10
-3.57617
 20
-1.08006
 30
0.0
 10
-3.759049999999999
 20
-1.08006
 30
0.0
 10
-3.883509999999999
 20
-1.062279999999999
 30
0.0
 10
-3.883509999999999
 20
-1.062279999999999
 30
0.0
 10
-3.93177
 20
-1.15372
 30
0.0
 10
-3.786989999999999
 20
-1.171499999999999
 30
0.0
 10
-3.78445
 20
-1.22484
 30
0.0
 10
-3.78445
 20
-1.22484
 30
0.0
 10
-3.94193
 20
-1.24262
 30
0.0
 10
-4.10195
 20
-1.2604
 30
0.0
 10
-4.25943
 20
-1.2604
 30
0.0
 10
-4.25943
 20
-1.2604
 30
0.0
 10
-4.37373
 20
-1.171499999999999
 30
0.0
 10
-4.46771
 20
-1.044499999999999
 30
0.0
 10
-4.54645
 20
-0.92004
 30
0.0
 10
-4.54645
 20
-0.92004
 30
0.0
 10
-4.28483
 20
-0.92004
 30
0.0
 10
-4.00289
 20
-0.9378199999999999
 30
0.0
 10
-3.76413
 20
-0.8666999999999999
 30
0.0
  0
SPLINE
  5
3B
330
A
100
AcDbEntity
  8
Ebene 1
 62
     7
100
AcDbSpline
210
0.0
220
0.0
230
1.0
 70
    11
 71
     3
 72
    28
 73
    24
 74
     0
 42
0.0000000001
 43
0.0000000001
 40
0.0
 40
0.0
 40
0.0
 40
0.0
 40
0.1666666666666667
 40
0.1666666666666667
 40
0.1666666666666667
 40
0.1666666666666667
 40
0.3333333333333333
 40
0.3333333333333333
 40
0.3333333333333333
 40
0.3333333333333333
 40
0.5
 40
0.5
 40
0.5
 40
0.5
 40
0.6666666666666666
 40
0.6666666666666666
 40
0.6666666666666666
 40
0.6666666666666666
 40
0.8333333333333332
 40
0.8333333333333332
 40
0.8333333333333332
 40
0.8333333333333332
 40
1.0
 40
1.0
 40
1.0
 40
1.0
 10
4.0489
 20
-0.9556
 30
0.0
 10
4.0489
 20
-0.9556
 30
0.0
 10
4.58484
 20
-0.97338
 30
0.0
 10
4.58484
 20
-0.97338
 30
0.0
 10
4.58484
 20
-0.97338
 30
0.0
 10
4.58484
 20
-0.97338
 30
0.0
 10
4.78296
 20
-0.97338
 30
0.0
 10
4.78296
 20
-0.97338
 30
0.0
 10
4.78296
 20
-0.97338
 30
0.0
 10
4.640719999999999
 20
-1.38486
 30
0.0
 10
4.10224
 20
-1.654099999999999
 30
0.0
 10
3.726319999999999
 20
-1.45852
 30
0.0
 10
3.726319999999999
 20
-1.45852
 30
0.0
 10
3.726319999999999
 20
-1.45852
 30
0.0
 10
3.921899999999999
 20
-1.33152
 30
0.0
 10
3.921899999999999
 20
-1.33152
 30
0.0
 10
3.921899999999999
 20
-1.33152
 30
0.0
 10
3.93968
 20
-1.20706
 30
0.0
 10
3.634879999999999
 20
-1.29596
 30
0.0
 10
3.56376
 20
-1.189279999999999
 30
0.0
 10
3.56376
 20
-1.189279999999999
 30
0.0
 10
3.76188
 20
-1.13594
 30
0.0
 10
3.93968
 20
-1.11816
 30
0.0
 10
4.0489
 20
-0.9556
 30
0.0
  0
SPLINE
  5
3C
330
A
100
AcDbEntity
  8
Ebene 1
 62
     7
100
AcDbSpline
210
0.0
220
0.0
230
1.0
 70
    11
 71
     3
 72
    12
 73
     8
 74
     0
 42
0.0000000001
 43
0.0000000001
 40
0.0
 40
0.0
 40
0.0
 40
0.0
 40
0.5
 40
0.5
 40
0.5
 40
0.5
 40
1.0
 40
1.0
 40
1.0
 40
1.0
 10
-4.42707
 20
-1.36708
 30
0.0
 10
-4.12481
 20
-1.440739999999999
 30
0.0
 10
-3.792069999999999
 20
-1.3493
 30
0.0
 10
-3.51267
 20
-1.40264
 30
0.0
 10
-3.51267
 20
-1.40264
 30
0.0
 10
-3.76921
 20
-1.547419999999999
 30
0.0
 10
-4.24419
 20
-1.72522
 30
0.0
 10
-4.42707
 20
-1.36708
 30
0.0
  0
SPLINE
  5
3D
330
A
100
AcDbEntity
  8
Ebene 1
 62
     7
100
AcDbSpline
210
0.0
220
0.0
230
1.0
 70
    11
 71
     3
 72
    20
 73
    16
 74
     0
 42
0.0000000001
 43
0.0000000001
 40
0.0
 40
0.0
 40
0.0
 40
0.0
 40
0.25
 40
0.25
 40
0.25
 40
0.25
 40
0.5
 40
0.5
 40
0.5
 40
0.5
 40
0.75
 40
0.75
 40
0.75
 40
0.75
 40
1.0
 40
1.0
 40
1.0
 40
1.0
 10
3.38596
 20
-1.51186
 30
0.0
 10
3.76188
 20
-1.68966
 30
0.0
 10
4.17336
 20
-1.72522
 30
0.0
 10
4.602619999999999
 20
-1.671879999999999
 30
0.0
 10
4.602619999999999
 20
-1.671879999999999
 30
0.0
 10
4.602619999999999
 20
-2.352599999999999
 30
0.0
 10
3.672979999999999
 20
-2.33482
 30
0.0
 10
3.38596
 20
-1.852219999999999
 30
0.0
 10
3.38596
 20
-1.852219999999999
 30
0.0
 10
3.47486
 20
-1.79888
 30
0.0
 10
3.70854
 20
-1.905559999999999
 30
0.0
 10
3.69076
 20
-1.72522
 30
0.0
 10
3.69076
 20
-1.72522
 30
0.0
 10
3.69076
 20
-1.72522
 30
0.0
 10
3.38596
 20
-1.51186
 30
0.0
 10
3.38596
 20
-1.51186
 30
0.0
  0
SPLINE
  5
3E
330
A
100
AcDbEntity
  8
Ebene 1
 62
     7
100
AcDbSpline
210
0.0
220
0.0
230
1.0
 70
    11
 71
     3
 72
    24
 73
    20
 74
     0
 42
0.0000000001
 43
0.0000000001
 40
0.0
 40
0.0
 40
0.0
 40
0.0
 40
0.2
 40
0.2
 40
0.2
 40
0.2
 40
0.4
 40
0.4
 40
0.4
 40
0.4
 40
0.6000000000000001
 40
0.6000000000000001
 40
0.6000000000000001
 40
0.6000000000000001
 40
0.8
 40
0.8
 40
0.8
 40
0.8
 40
1.0
 40
1.0
 40
1.0
 40
1.0
 10
-3.45933
 20
-1.58298
 30
0.0
 10
-3.38059
 20
-1.58298
 30
0.0
 10
-3.52029
 20
-1.671879999999999
 30
0.0
 10
-3.46949
 20
-1.72522
 30
0.0
 10
-3.46949
 20
-1.72522
 30
0.0
 10
-3.46949
 20
-1.72522
 30
0.0
 10
-3.28407
 20
-1.70744
 30
0.0
 10
-3.28407
 20
-1.70744
 30
0.0
 10
-3.28407
 20
-1.70744
 30
0.0
 10
-3.57617
 20
-2.01224
 30
0.0
 10
-4.317849999999999
 20
-2.37038
 30
0.0
 10
-4.45755
 20
-1.743
 30
0.0
 10
-4.45755
 20
-1.743
 30
0.0
 10
-4.45755
 20
-1.743
 30
0.0
 10
-4.02575
 20
-1.72522
 30
0.0
 10
-4.02575
 20
-1.72522
 30
0.0
 10
-4.02575
 20
-1.72522
 30
0.0
 10
-3.830169999999999
 20
-1.70744
 30
0.0
 10
-3.62697
 20
-1.671879999999999
 30
0.0
 10
-3.45933
 20
-1.58298
 30
0.0
  0
SPLINE
  5
3F
330
A
100
AcDbEntity
  8
Ebene 1
 62
     7
100
AcDbSpline
210
0.0
220
0.0
230
1.0
 70
    11
 71
     3
 72
    20
 73
    16
 74
     0
 42
0.0000000001
 43
0.0000000001
 40
0.0
 40
0.0
 40
0.0
 40
0.0
 40
0.25
 40
0.25
 40
0.25
 40
0.25
 40
0.5
 40
0.5
 40
0.5
 40
0.5
 40
0.75
 40
0.75
 40
0.75
 40
0.75
 40
1.0
 40
1.0
 40
1.0
 40
1.0
 10
3.17006
 20
-1.83444
 30
0.0
 10
3.45708
 20
-2.192579999999999
 30
0.0
 10
3.904119999999999
 20
-2.46182
 30
0.0
 10
4.3537
 20
-2.37038
 30
0.0
 10
4.3537
 20
-2.37038
 30
0.0
 10
4.084459999999999
 20
-2.6574
 30
0.0
 10
3.58154
 20
-2.692959999999999
 30
0.0
 10
3.36818
 20
-2.352599999999999
 30
0.0
 10
3.36818
 20
-2.352599999999999
 30
0.0
 10
3.40374
 20
-2.29926
 30
0.0
 10
3.56376
 20
-2.352599999999999
 30
0.0
 10
3.5282
 20
-2.24592
 30
0.0
 10
3.5282
 20
-2.24592
 30
0.0
 10
3.3504
 20
-2.1748
 30
0.0
 10
3.25896
 20
-1.976679999999999
 30
0.0
 10
3.17006
 20
-1.83444
 30
0.0
  0
SPLINE
  5
40
330
A
100
AcDbEntity
  8
Ebene 1
 62
     7
100
AcDbSpline
210
0.0
220
0.0
230
1.0
 70
    11
 71
     3
 72
    20
 73
    16
 74
     0
 42
0.0000000001
 43
0.0000000001
 40
0.0
 40
0.0
 40
0.0
 40
0.0
 40
0.25
 40
0.25
 40
0.25
 40
0.25
 40
0.5
 40
0.5
 40
0.5
 40
0.5
 40
0.75
 40
0.75
 40
0.75
 40
0.75
 40
1.0
 40
1.0
 40
1.0
 40
1.0
 10
-3.33487
 20
-1.976679999999999
 30
0.0
 10
-3.32725
 20
-1.976679999999999
 30
0.0
 10
-3.29423
 20
-1.976679999999999
 30
0.0
 10
-3.30185
 20
-1.997
 30
0.0
 10
-3.30185
 20
-1.997
 30
0.0
 10
-3.42885
 20
-2.2637
 30
0.0
 10
-3.647289999999999
 20
-2.55072
 30
0.0
 10
-3.92923
 20
-2.692959999999999
 30
0.0
 10
-3.92923
 20
-2.692959999999999
 30
0.0
 10
-4.02575
 20
-2.67518
 30
0.0
 10
-4.12735
 20
-2.62184
 30
0.0
 10
-4.193389999999999
 20
-2.55072
 30
0.0
 10
-4.193389999999999
 20
-2.55072
 30
0.0
 10
-3.911449999999999
 20
-2.352599999999999
 30
0.0
 10
-3.56855
 20
-2.24592
 30
0.0
 10
-3.33487
 20
-1.976679999999999
 30
0.0
  0
SPLINE
  5
41
330
A
100
AcDbEntity
  8
Ebene 1
 62
     7
100
AcDbSpline
210
0.0
220
0.0
230
1.0
 70
    11
 71
     3
 72
    12
 73
     8
 74
     0
 42
0.0000000001
 43
0.0000000001
 40
0.0
 40
0.0
 40
0.0
 40
0.0
 40
0.5
 40
0.5
 40
0.5
 40
0.5
 40
1.0
 40
1.0
 40
1.0
 40
1.0
 10
-2.92085
 20
-2.0478
 30
0.0
 10
-2.97165
 20
-2.44404
 30
0.0
 10
-3.29169
 20
-3.24922
 30
0.0
 10
-3.847949999999999
 20
-3.05364
 30
0.0
 10
-3.847949999999999
 20
-3.05364
 30
0.0
 10
-3.847949999999999
 20
-3.05364
 30
0.0
 10
-2.92085
 20
-2.0478
 30
0.0
 10
-2.92085
 20
-2.0478
 30
0.0
  0
SPLINE
  5
42
330
A
100
AcDbEntity
  8
Ebene 1
100
AcDbSpline
210
0.0
220
0.0
230
1.0
 70
    11
 71
     3
 72
    24
 73
    20
 74
     0
 42
0.0000000001
 43
0.0000000001
 40
0.0
 40
0.0
 40
0.0
 40
0.0
 40
0.2
 40
0.2
 40
0.2
 40
0.2
 40
0.4
 40
0.4
 40
0.4
 40
0.4
 40
0.6000000000000001
 40
0.6000000000000001
 40
0.6000000000000001
 40
0.6000000000000001
 40
0.8
 40
0.8
 40
0.8
 40
0.8
 40
1.0
 40
1.0
 40
1.0
 40
1.0
 10
-1.18349
 20
-2.13924
 30
0.0
 10
-1.02601
 20
-2.13924
 30
0.0
 10
-0.9294899999999998
 20
-2.28148
 30
0.0
 10
-0.81773
 20
-2.38816
 30
0.0
 10
-0.81773
 20
-2.38816
 30
0.0
 10
-0.81773
 20
-2.38816
 30
0.0
 10
-0.6627900000000002
 20
-2.568499999999999
 30
0.0
 10
-0.6627900000000002
 20
-2.568499999999999
 30
0.0
 10
-0.6627900000000002
 20
-2.568499999999999
 30
0.0
 10
-0.5916700000000001
 20
-2.60406
 30
0.0
 10
-0.55611
 20
-2.71074
 30
0.0
 10
-0.6627900000000002
 20
-2.64216
 30
0.0
 10
-0.6627900000000002
 20
-2.64216
 30
0.0
 10
-0.8659899999999998
 20
-2.40848
 30
0.0
 10
-1.13269
 20
-2.192579999999999
 30
0.0
 10
-1.42733
 20
-2.38816
 30
0.0
 10
-1.42733
 20
-2.38816
 30
0.0
 10
-1.41463
 20
-2.2637
 30
0.0
 10
-1.23429
 20
-2.24592
 30
0.0
 10
-1.18349
 20
-2.13924
 30
0.0
  0
SPLINE
  5
43
330
A
100
AcDbEntity
  8
Ebene 1
 62
     7
100
AcDbSpline
210
0.0
220
0.0
230
1.0
 70
    11
 71
     3
 72
    20
 73
    16
 74
     0
 42
0.0000000001
 43
0.0000000001
 40
0.0
 40
0.0
 40
0.0
 40
0.0
 40
0.25
 40
0.25
 40
0.25
 40
0.25
 40
0.5
 40
0.5
 40
0.5
 40
0.5
 40
0.75
 40
0.75
 40
0.75
 40
0.75
 40
1.0
 40
1.0
 40
1.0
 40
1.0
 10
2.88304
 20
-2.15702
 30
0.0
 10
3.18784
 20
-2.38816
 30
0.0
 10
3.3504
 20
-2.89108
 30
0.0
 10
3.76188
 20
-2.96474
 30
0.0
 10
3.76188
 20
-2.96474
 30
0.0
 10
3.49264
 20
-3.30256
 30
0.0
 10
2.84748
 20
-3.033319999999999
 30
0.0
 10
2.86526
 20
-2.60406
 30
0.0
 10
2.86526
 20
-2.60406
 30
0.0
 10
2.918599999999999
 20
-2.58628
 30
0.0
 10
3.0456
 20
-2.67518
 30
0.0
 10
3.02782
 20
-2.568499999999999
 30
0.0
 10
3.02782
 20
-2.568499999999999
 30
0.0
 10
2.93638
 20
-2.46182
 30
0.0
 10
2.88304
 20
-2.29926
 30
0.0
 10
2.88304
 20
-2.15702
 30
0.0
  0
SPLINE
  5
44
330
A
100
AcDbEntity
  8
Ebene 1
 62
     7
100
AcDbSpline
210
0.0
220
0.0
230
1.0
 70
    11
 71
     3
 72
     8
 73
     4
 74
     0
 42
0.0000000001
 43
0.0000000001
 40
0.0
 40
0.0
 40
0.0
 40
0.0
 40
1.0
 40
1.0
 40
1.0
 40
1.0
 10
3.24118
 20
-2.15702
 30
0.0
 10
3.27674
 20
-2.15702
 30
0.0
 10
3.24118
 20
-2.192579999999999
 30
0.0
 10
3.24118
 20
-2.15702
 30
0.0
  0
SPLINE
  5
45
330
A
100
AcDbEntity
  8
Ebene 1
100
AcDbSpline
210
0.0
220
0.0
230
1.0
 70
    11
 71
     3
 72
    24
 73
    20
 74
     0
 42
0.0000000001
 43
0.0000000001
 40
0.0
 40
0.0
 40
0.0
 40
0.0
 40
0.2
 40
0.2
 40
0.2
 40
0.2
 40
0.4
 40
0.4
 40
0.4
 40
0.4
 40
0.6000000000000001
 40
0.6000000000000001
 40
0.6000000000000001
 40
0.6000000000000001
 40
0.8
 40
0.8
 40
0.8
 40
0.8
 40
1.0
 40
1.0
 40
1.0
 40
1.0
 10
1.50382
 20
-2.24592
 30
0.0
 10
1.64606
 20
-2.21036
 30
0.0
 10
1.64606
 20
-2.31958
 30
0.0
 10
1.681619999999999
 20
-2.40848
 30
0.0
 10
1.681619999999999
 20
-2.40848
 30
0.0
 10
1.681619999999999
 20
-2.40848
 30
0.0
 10
1.73496
 20
-2.53294
 30
0.0
 10
1.73496
 20
-2.53294
 30
0.0
 10
1.73496
 20
-2.53294
 30
0.0
 10
1.5216
 20
-2.38816
 30
0.0
 10
1.27014
 20
-2.44404
 30
0.0
 10
1.0898
 20
-2.60406
 30
0.0
 10
1.0898
 20
-2.60406
 30
0.0
 10
1.03646
 20
-2.51516
 30
0.0
 10
1.18124
 20
-2.44404
 30
0.0
 10
1.252359999999999
 20
-2.42626
 30
0.0
 10
1.252359999999999
 20
-2.42626
 30
0.0
 10
1.32348
 20
-2.352599999999999
 30
0.0
 10
1.41238
 20
-2.28148
 30
0.0
 10
1.50382
 20
-2.24592
 30
0.0
  0
SPLINE
  5
46
330
A
100
AcDbEntity
  8
Ebene 1
 62
     7
100
AcDbSpline
210
0.0
220
0.0
230
1.0
 70
    11
 71
     3
 72
    24
 73
    20
 74
     0
 42
0.0000000001
 43
0.0000000001
 40
0.0
 40
0.0
 40
0.0
 40
0.0
 40
0.2
 40
0.2
 40
0.2
 40
0.2
 40
0.4
 40
0.4
 40
0.4
 40
0.4
 40
0.6000000000000001
 40
0.6000000000000001
 40
0.6000000000000001
 40
0.6000000000000001
 40
0.8
 40
0.8
 40
0.8
 40
0.8
 40
1.0
 40
1.0
 40
1.0
 40
1.0
 10
2.56046
 20
-2.40848
 30
0.0
 10
2.59602
 20
-2.40848
 30
0.0
 10
2.6138
 20
-2.42626
 30
0.0
 10
2.63158
 20
-2.44404
 30
0.0
 10
2.63158
 20
-2.44404
 30
0.0
 10
2.68492
 20
-2.80218
 30
0.0
 10
2.84748
 20
-3.12476
 30
0.0
 10
3.08116
 20
-3.41178
 30
0.0
 10
3.08116
 20
-3.41178
 30
0.0
 10
2.59602
 20
-3.62514
 30
0.0
 10
2.23788
 20
-3.07142
 30
0.0
 10
2.29122
 20
-2.62184
 30
0.0
 10
2.29122
 20
-2.62184
 30
0.0
 10
2.36234
 20
-2.64216
 30
0.0
 10
2.436
 20
-2.83774
 30
0.0
 10
2.54268
 20
-2.76662
 30
0.0
 10
2.54268
 20
-2.76662
 30
0.0
 10
2.50712
 20
-2.64216
 30
0.0
 10
2.5249
 20
-2.51516
 30
0.0
 10
2.56046
 20
-2.40848
 30
0.0
  0
SPLINE
  5
47
330
A
100
AcDbEntity
  8
Ebene 1
 62
     7
100
AcDbSpline
210
0.0
220
0.0
230
1.0
 70
    11
 71
     3
 72
     8
 73
     4
 74
     0
 42
0.0000000001
 43
0.0000000001
 40
0.0
 40
0.0
 40
0.0
 40
0.0
 40
1.0
 40
1.0
 40
1.0
 40
1.0
 10
-2.81417
 20
-2.44404
 30
0.0
 10
-2.81163
 20
-2.4796
 30
0.0
 10
-2.84719
 20
-2.44404
 30
0.0
 10
-2.81417
 20
-2.44404
 30
0.0
  0
SPLINE
  5
48
330
A
100
AcDbEntity
  8
Ebene 1
 62
     7
100
AcDbSpline
210
0.0
220
0.0
230
1.0
 70
    11
 71
     3
 72
    12
 73
     8
 74
     0
 42
0.0000000001
 43
0.0000000001
 40
0.0
 40
0.0
 40
0.0
 40
0.0
 40
0.5
 40
0.5
 40
0.5
 40
0.5
 40
1.0
 40
1.0
 40
1.0
 40
1.0
 10
-2.58049
 20
-2.44404
 30
0.0
 10
-2.61859
 20
-2.80218
 30
0.0
 10
-2.84719
 20
-3.21366
 30
0.0
 10
-3.23835
 20
-3.32034
 30
0.0
 10
-3.23835
 20
-3.32034
 30
0.0
 10
-3.02499
 20
-3.033319999999999
 30
0.0
 10
-2.83449
 20
-2.692959999999999
 30
0.0
 10
-2.58049
 20
-2.44404
 30
0.0
  0
SPLINE
  5
49
330
A
100
AcDbEntity
  8
Ebene 1
 62
     7
100
AcDbSpline
210
0.0
220
0.0
230
1.0
 70
    11
 71
     3
 72
    16
 73
    12
 74
     0
 42
0.0000000001
 43
0.0000000001
 40
0.0
 40
0.0
 40
0.0
 40
0.0
 40
0.3333333333333333
 40
0.3333333333333333
 40
0.3333333333333333
 40
0.3333333333333333
 40
0.6666666666666666
 40
0.6666666666666666
 40
0.6666666666666666
 40
0.6666666666666666
 40
1.0
 40
1.0
 40
1.0
 40
1.0
 10
-2.22235
 20
-2.67518
 30
0.0
 10
-2.03439
 20
-2.92664
 30
0.0
 10
-2.29093
 20
-3.3559
 30
0.0
 10
-2.59319
 20
-3.42956
 30
0.0
 10
-2.59319
 20
-3.42956
 30
0.0
 10
-2.46619
 20
-3.21366
 30
0.0
 10
-2.486509999999999
 20
-2.908859999999999
 30
0.0
 10
-2.26045
 20
-2.76662
 30
0.0
 10
-2.26045
 20
-2.76662
 30
0.0
 10
-2.26045
 20
-2.76662
 30
0.0
 10
-2.22235
 20
-2.67518
 30
0.0
 10
-2.22235
 20
-2.67518
 30
0.0
  0
SPLINE
  5
4A
330
A
100
AcDbEntity
  8
Ebene 1
100
AcDbSpline
210
0.0
220
0.0
230
1.0
 70
    11
 71
     3
 72
    16
 73
    12
 74
     0
 42
0.0000000001
 43
0.0000000001
 40
0.0
 40
0.0
 40
0.0
 40
0.0
 40
0.3333333333333333
 40
0.3333333333333333
 40
0.3333333333333333
 40
0.3333333333333333
 40
0.6666666666666666
 40
0.6666666666666666
 40
0.6666666666666666
 40
0.6666666666666666
 40
1.0
 40
1.0
 40
1.0
 40
1.0
 10
-0.35799
 20
-2.74884
 30
0.0
 10
-0.23353
 20
-2.692959999999999
 30
0.0
 10
-0.07097
 20
-2.83774
 30
0.0
 10
-0.17765
 20
-2.94442
 30
0.0
 10
-0.17765
 20
-2.94442
 30
0.0
 10
-0.17765
 20
-2.94442
 30
0.0
 10
-0.19797
 20
-2.92664
 30
0.0
 10
-0.19797
 20
-2.92664
 30
0.0
 10
-0.19797
 20
-2.92664
 30
0.0
 10
-0.14209
 20
-2.7844
 30
0.0
 10
-0.39355
 20
-2.83774
 30
0.0
 10
-0.35799
 20
-2.74884
 30
0.0
  0
SPLINE
  5
4B
330
A
100
AcDbEntity
  8
Ebene 1
100
AcDbSpline
210
0.0
220
0.0
230
1.0
 70
    11
 71
     3
 72
    20
 73
    16
 74
     0
 42
0.0000000001
 43
0.0000000001
 40
0.0
 40
0.0
 40
0.0
 40
0.0
 40
0.25
 40
0.25
 40
0.25
 40
0.25
 40
0.5
 40
0.5
 40
0.5
 40
0.5
 40
0.75
 40
0.75
 40
0.75
 40
0.75
 40
1.0
 40
1.0
 40
1.0
 40
1.0
 10
0.3913
 20
-2.76662
 30
0.0
 10
0.3913
 20
-2.76662
 30
0.0
 10
0.5005200000000001
 20
-2.7844
 30
0.0
 10
0.5005200000000001
 20
-2.7844
 30
0.0
 10
0.5005200000000001
 20
-2.7844
 30
0.0
 10
0.53354
 20
-2.7844
 30
0.0
 10
0.5894200000000001
 20
-2.76662
 30
0.0
 10
0.5894200000000001
 20
-2.81996
 30
0.0
 10
0.5894200000000001
 20
-2.81996
 30
0.0
 10
0.5005200000000001
 20
-2.81996
 30
0.0
 10
0.4090800000000002
 20
-2.80218
 30
0.0
 10
0.37352
 20
-2.89108
 30
0.0
 10
0.37352
 20
-2.89108
 30
0.0
 10
0.26684
 20
-2.908859999999999
 30
0.0
 10
0.33796
 20
-2.7844
 30
0.0
 10
0.3913
 20
-2.76662
 30
0.0
  0
SPLINE
  5
4C
330
A
100
AcDbEntity
  8
Ebene 1
100
AcDbSpline
210
0.0
220
0.0
230
1.0
 70
    11
 71
     3
 72
    36
 73
    32
 74
     0
 42
0.0000000001
 43
0.0000000001
 40
0.0
 40
0.0
 40
0.0
 40
0.0
 40
0.125
 40
0.125
 40
0.125
 40
0.125
 40
0.25
 40
0.25
 40
0.25
 40
0.25
 40
0.375
 40
0.375
 40
0.375
 40
0.375
 40
0.5
 40
0.5
 40
0.5
 40
0.5
 40
0.625
 40
0.625
 40
0.625
 40
0.625
 40
0.75
 40
0.75
 40
0.75
 40
0.75
 40
0.875
 40
0.875
 40
0.875
 40
0.875
 40
1.0
 40
1.0
 40
1.0
 40
1.0
 10
1.3946
 20
-2.81996
 30
0.0
 10
1.3946
 20
-2.81996
 30
0.0
 10
1.681619999999999
 20
-2.89108
 30
0.0
 10
1.681619999999999
 20
-2.89108
 30
0.0
 10
1.681619999999999
 20
-2.89108
 30
0.0
 10
1.6994
 20
-2.96474
 30
0.0
 10
1.57494
 20
-2.89108
 30
0.0
 10
1.55716
 20
-2.94442
 30
0.0
 10
1.55716
 20
-2.94442
 30
0.0
 10
1.53938
 20
-3.05364
 30
0.0
 10
1.53938
 20
-3.16032
 30
0.0
 10
1.48604
 20
-3.24922
 30
0.0
 10
1.48604
 20
-3.24922
 30
0.0
 10
1.48604
 20
-3.24922
 30
0.0
 10
1.50382
 20
-3.46512
 30
0.0
 10
1.50382
 20
-3.46512
 30
0.0
 10
1.50382
 20
-3.46512
 30
0.0
 10
1.37682
 20
-3.62514
 30
0.0
 10
1.14568
 20
-3.6099
 30
0.0
 10
0.9653399999999999
 20
-3.64292
 30
0.0
 10
0.9653399999999999
 20
-3.64292
 30
0.0
 10
0.9653399999999999
 20
-3.64292
 30
0.0
 10
0.37352
 20
-3.30256
 30
0.0
 10
0.37352
 20
-3.30256
 30
0.0
 10
0.37352
 20
-3.30256
 30
0.0
 10
0.37352
 20
-3.30256
 30
0.0
 10
0.33796
 20
-3.19588
 30
0.0
 10
0.33796
 20
-3.19588
 30
0.0
 10
0.33796
 20
-3.19588
 30
0.0
 10
0.7138800000000001
 20
-3.287319999999999
 30
0.0
 10
1.01868
 20
-2.8733
 30
0.0
 10
1.3946
 20
-2.81996
 30
0.0
  0
SPLINE
  5
4D
330
A
100
AcDbEntity
  8
Ebene 1
100
AcDbSpline
210
0.0
220
0.0
230
1.0
 70
    11
 71
     3
 72
    24
 73
    20
 74
     0
 42
0.0000000001
 43
0.0000000001
 40
0.0
 40
0.0
 40
0.0
 40
0.0
 40
0.2
 40
0.2
 40
0.2
 40
0.2
 40
0.4
 40
0.4
 40
0.4
 40
0.4
 40
0.6000000000000001
 40
0.6000000000000001
 40
0.6000000000000001
 40
0.6000000000000001
 40
0.8
 40
0.8
 40
0.8
 40
0.8
 40
1.0
 40
1.0
 40
1.0
 40
1.0
 10
-0.05319
 20
-2.83774
 30
0.0
 10
0.21096
 20
-2.80218
 30
0.0
 10
0.00014
 20
-3.12476
 30
0.0
 10
0.16016
 20
-3.23144
 30
0.0
 10
0.16016
 20
-3.23144
 30
0.0
 10
0.16016
 20
-3.23144
 30
0.0
 10
0.16016
 20
-3.287319999999999
 30
0.0
 10
0.16016
 20
-3.287319999999999
 30
0.0
 10
0.16016
 20
-3.287319999999999
 30
0.0
 10
0.16016
 20
-3.287319999999999
 30
0.0
 10
-0.10907
 20
-3.33812
 30
0.0
 10
-0.10907
 20
-3.33812
 30
0.0
 10
-0.10907
 20
-3.33812
 30
0.0
 10
-0.12431
 20
-3.32034
 30
0.0
 10
-0.12431
 20
-3.30256
 30
0.0
 10
-0.12431
 20
-3.287319999999999
 30
0.0
 10
-0.12431
 20
-3.287319999999999
 30
0.0
 10
0.00014
 20
-3.16032
 30
0.0
 10
0.01538
 20
-2.97998
 30
0.0
 10
-0.05319
 20
-2.83774
 30
0.0
  0
SPLINE
  5
4E
330
A
100
AcDbEntity
  8
Ebene 1
100
AcDbSpline
210
0.0
220
0.0
230
1.0
 70
    11
 71
     3
 72
    40
 73
    36
 74
     0
 42
0.0000000001
 43
0.0000000001
 40
0.0
 40
0.0
 40
0.0
 40
0.0
 40
0.1111111111111111
 40
0.1111111111111111
 40
0.1111111111111111
 40
0.1111111111111111
 40
0.2222222222222222
 40
0.2222222222222222
 40
0.2222222222222222
 40
0.2222222222222222
 40
0.3333333333333333
 40
0.3333333333333333
 40
0.3333333333333333
 40
0.3333333333333333
 40
0.4444444444444445
 40
0.4444444444444445
 40
0.4444444444444445
 40
0.4444444444444445
 40
0.5555555555555556
 40
0.5555555555555556
 40
0.5555555555555556
 40
0.5555555555555556
 40
0.6666666666666668
 40
0.6666666666666668
 40
0.6666666666666668
 40
0.6666666666666668
 40
0.7777777777777779
 40
0.7777777777777779
 40
0.7777777777777779
 40
0.7777777777777779
 40
0.8888888888888891
 40
0.8888888888888891
 40
0.8888888888888891
 40
0.8888888888888891
 40
1.0
 40
1.0
 40
1.0
 40
1.0
 10
-1.32573
 20
-2.85552
 30
0.0
 10
-0.9167899999999999
 20
-2.76662
 30
0.0
 10
-0.68057
 20
-3.14254
 30
0.0
 10
-0.3224300000000001
 20
-3.23144
 30
0.0
 10
-0.3224300000000001
 20
-3.23144
 30
0.0
 10
-0.3224300000000001
 20
-3.23144
 30
0.0
 10
-0.21575
 20
-3.16032
 30
0.0
 10
-0.21575
 20
-3.16032
 30
0.0
 10
-0.21575
 20
-3.16032
 30
0.0
 10
-0.19797
 20
-3.16032
 30
0.0
 10
-0.17765
 20
-3.1781
 30
0.0
 10
-0.17765
 20
-3.19588
 30
0.0
 10
-0.17765
 20
-3.19588
 30
0.0
 10
-0.17765
 20
-3.19588
 30
0.0
 10
-0.8786900000000001
 20
-3.678479999999999
 30
0.0
 10
-0.8786900000000001
 20
-3.678479999999999
 30
0.0
 10
-0.8786900000000001
 20
-3.678479999999999
 30
0.0
 10
-1.15809
 20
-3.73436
 30
0.0
 10
-1.61783
 20
-3.46512
 30
0.0
 10
-1.34351
 20
-3.1781
 30
0.0
 10
-1.34351
 20
-3.1781
 30
0.0
 10
-1.34351
 20
-3.1781
 30
0.0
 10
-1.34351
 20
-2.99776
 30
0.0
 10
-1.34351
 20
-2.99776
 30
0.0
 10
-1.34351
 20
-2.99776
 30
0.0
 10
-1.20635
 20
-2.80218
 30
0.0
 10
-1.51877
 20
-3.10698
 30
0.0
 10
-1.50099
 20
-2.96474
 30
0.0
 10
-1.50099
 20
-2.96474
 30
0.0
 10
-1.50099
 20
-2.96474
 30
0.0
 10
-1.43241
 20
-2.908859999999999
 30
0.0
 10
-1.43241
 20
-2.908859999999999
 30
0.0
 10
-1.43241
 20
-2.908859999999999
 30
0.0
 10
-1.43241
 20
-2.908859999999999
 30
0.0
 10
-1.32573
 20
-2.85552
 30
0.0
 10
-1.32573
 20
-2.85552
 30
0.0
  0
SPLINE
  5
4F
330
A
100
AcDbEntity
  8
Ebene 1
 62
     7
100
AcDbSpline
210
0.0
220
0.0
230
1.0
 70
    11
 71
     3
 72
     8
 73
     4
 74
     0
 42
0.0000000001
 43
0.0000000001
 40
0.0
 40
0.0
 40
0.0
 40
0.0
 40
1.0
 40
1.0
 40
1.0
 40
1.0
 10
-3.19009
 20
-2.96474
 30
0.0
 10
-3.19263
 20
-2.92664
 30
0.0
 10
-3.15707
 20
-2.96474
 30
0.0
 10
-3.19009
 20
-2.96474
 30
0.0
  0
SPLINE
  5
50
330
A
100
AcDbEntity
  8
Ebene 1
 62
     7
100
AcDbSpline
210
0.0
220
0.0
230
1.0
 70
    27
 71
     3
 72
    12
 73
     8
 74
     0
 42
0.0000000001
 43
0.0000000001
 40
0.0
 40
0.0
 40
0.0
 40
0.0
 40
0.5
 40
0.5
 40
0.5
 40
0.5
 40
1.0
 40
1.0
 40
1.0
 40
1.0
 10
-3.19009
 20
-2.96474
 30
0.0
 10
-3.19009
 20
-2.96474
 30
0.0
 10
-3.20787
 20
-2.97998
 30
0.0
 10
-3.20787
 20
-2.97998
 30
0.0
 10
-3.20787
 20
-2.97998
 30
0.0
 10
-3.20787
 20
-2.97998
 30
0.0
 10
-3.19009
 20
-2.96474
 30
0.0
 10
-3.19009
 20
-2.96474
 30
0.0
  0
SPLINE
  5
51
330
A
100
AcDbEntity
  8
Ebene 1
 62
     7
100
AcDbSpline
210
0.0
220
0.0
230
1.0
 70
    11
 71
     3
 72
    12
 73
     8
 74
     0
 42
0.0000000001
 43
0.0000000001
 40
0.0
 40
0.0
 40
0.0
 40
0.0
 40
0.5
 40
0.5
 40
0.5
 40
0.5
 40
1.0
 40
1.0
 40
1.0
 40
1.0
 10
-3.20787
 20
-2.97998
 30
0.0
 10
-3.202789999999999
 20
-2.99776
 30
0.0
 10
-3.22057
 20
-3.033319999999999
 30
0.0
 10
-3.24343
 20
-3.033319999999999
 30
0.0
 10
-3.24343
 20
-3.033319999999999
 30
0.0
 10
-3.24851
 20
-3.01554
 30
0.0
 10
-3.23073
 20
-2.97998
 30
0.0
 10
-3.20787
 20
-2.97998
 30
0.0
  0
SPLINE
  5
52
330
A
100
AcDbEntity
  8
Ebene 1
 62
     7
100
AcDbSpline
210
0.0
220
0.0
230
1.0
 70
    27
 71
     3
 72
    12
 73
     8
 74
     0
 42
0.0000000001
 43
0.0000000001
 40
0.0
 40
0.0
 40
0.0
 40
0.0
 40
0.5
 40
0.5
 40
0.5
 40
0.5
 40
1.0
 40
1.0
 40
1.0
 40
1.0
 10
-3.24343
 20
-3.033319999999999
 30
0.0
 10
-3.24343
 20
-3.033319999999999
 30
0.0
 10
-3.26121
 20
-3.05364
 30
0.0
 10
-3.26121
 20
-3.05364
 30
0.0
 10
-3.26121
 20
-3.05364
 30
0.0
 10
-3.26121
 20
-3.05364
 30
0.0
 10
-3.24343
 20
-3.033319999999999
 30
0.0
 10
-3.24343
 20
-3.033319999999999
 30
0.0
  0
SPLINE
  5
53
330
A
100
AcDbEntity
  8
Ebene 1
 62
     7
100
AcDbSpline
210
0.0
220
0.0
230
1.0
 70
    27
 71
     3
 72
    12
 73
     8
 74
     0
 42
0.0000000001
 43
0.0000000001
 40
0.0
 40
0.0
 40
0.0
 40
0.0
 40
0.5
 40
0.5
 40
0.5
 40
0.5
 40
1.0
 40
1.0
 40
1.0
 40
1.0
 10
-3.26121
 20
-3.05364
 30
0.0
 10
-3.26121
 20
-3.05364
 30
0.0
 10
-3.27899
 20
-3.07142
 30
0.0
 10
-3.27899
 20
-3.07142
 30
0.0
 10
-3.27899
 20
-3.07142
 30
0.0
 10
-3.27899
 20
-3.07142
 30
0.0
 10
-3.26121
 20
-3.05364
 30
0.0
 10
-3.26121
 20
-3.05364
 30
0.0
  0
SPLINE
  5
54
330
A
100
AcDbEntity
  8
Ebene 1
 62
     7
100
AcDbSpline
210
0.0
220
0.0
230
1.0
 70
    11
 71
     3
 72
    12
 73
     8
 74
     0
 42
0.0000000001
 43
0.0000000001
 40
0.0
 40
0.0
 40
0.0
 40
0.0
 40
0.5
 40
0.5
 40
0.5
 40
0.5
 40
1.0
 40
1.0
 40
1.0
 40
1.0
 10
-0.9320299999999999
 20
-3.24922
 30
0.0
 10
-0.89647
 20
-3.24922
 30
0.0
 10
-0.8304300000000001
 20
-3.24922
 30
0.0
 10
-0.8456699999999999
 20
-3.30256
 30
0.0
 10
-0.8456699999999999
 20
-3.30256
 30
0.0
 10
-0.8786900000000001
 20
-3.30256
 30
0.0
 10
-0.9396499999999999
 20
-3.287319999999999
 30
0.0
 10
-0.9320299999999999
 20
-3.24922
 30
0.0
  0
SPLINE
  5
55
330
A
100
AcDbEntity
  8
Ebene 1
 62
     7
100
AcDbSpline
210
0.0
220
0.0
230
1.0
 70
    11
 71
     3
 72
     8
 73
     4
 74
     0
 42
0.0000000001
 43
0.0000000001
 40
0.0
 40
0.0
 40
0.0
 40
0.0
 40
1.0
 40
1.0
 40
1.0
 40
1.0
 10
0.8942200000000001
 20
-3.267
 30
0.0
 10
1.000899999999999
 20
-3.24922
 30
0.0
 10
0.8942200000000001
 20
-3.3559
 30
0.0
 10
0.8942200000000001
 20
-3.267
 30
0.0
  0
SPLINE
  5
56
330
A
100
AcDbEntity
  8
Ebene 1
100
AcDbSpline
210
0.0
220
0.0
230
1.0
 70
    11
 71
     3
 72
    24
 73
    20
 74
     0
 42
0.0000000001
 43
0.0000000001
 40
0.0
 40
0.0
 40
0.0
 40
0.0
 40
0.2
 40
0.2
 40
0.2
 40
0.2
 40
0.4
 40
0.4
 40
0.4
 40
0.4
 40
0.6000000000000001
 40
0.6000000000000001
 40
0.6000000000000001
 40
0.6000000000000001
 40
0.8
 40
0.8
 40
0.8
 40
0.8
 40
1.0
 40
1.0
 40
1.0
 40
1.0
 10
0.0865
 20
-3.42956
 30
0.0
 10
0.0865
 20
-3.42956
 30
0.0
 10
0.19572
 20
-3.42956
 30
0.0
 10
0.19572
 20
-3.42956
 30
0.0
 10
0.19572
 20
-3.42956
 30
0.0
 10
0.3557400000000001
 20
-3.660699999999999
 30
0.0
 10
0.5005200000000001
 20
-3.9655
 30
0.0
 10
0.3913
 20
-4.25506
 30
0.0
 10
0.3913
 20
-4.25506
 30
0.0
 10
0.26684
 20
-4.28808
 30
0.0
 10
0.19572
 20
-4.14584
 30
0.0
 10
0.12206
 20
-4.0925
 30
0.0
 10
0.12206
 20
-4.0925
 30
0.0
 10
0.01538
 20
-4.14584
 30
0.0
 10
-0.05319
 20
-4.30586
 30
0.0
 10
-0.19797
 20
-4.25506
 30
0.0
 10
-0.19797
 20
-4.25506
 30
0.0
 10
-0.26909
 20
-3.947719999999999
 30
0.0
 10
-0.15987
 20
-3.58958
 30
0.0
 10
0.0865
 20
-3.42956
 30
0.0
  0
SPLINE
  5
57
330
A
100
AcDbEntity
  8
Ebene 1
 62
     7
100
AcDbSpline
210
0.0
220
0.0
230
1.0
 70
    11
 71
     3
 72
    12
 73
     8
 74
     0
 42
0.0000000001
 43
0.0000000001
 40
0.0
 40
0.0
 40
0.0
 40
0.0
 40
0.5
 40
0.5
 40
0.5
 40
0.5
 40
1.0
 40
1.0
 40
1.0
 40
1.0
 10
-0.7542300000000001
 20
-4.90022
 30
0.0
 10
-0.7059700000000002
 20
-4.93324
 30
0.0
 10
-0.7212100000000001
 20
-5.04246
 30
0.0
 10
-0.7212100000000001
 20
-5.13136
 30
0.0
 10
-0.7212100000000001
 20
-5.13136
 30
0.0
 10
-0.82027
 20
-5.11358
 30
0.0
 10
-0.7923300000000002
 20
-4.95102
 30
0.0
 10
-0.7542300000000001
 20
-4.90022
 30
0.0
  0
SPLINE
  5
58
330
A
100
AcDbEntity
  8
Ebene 1
 62
     7
100
AcDbSpline
210
0.0
220
0.0
230
1.0
 70
    11
 71
     3
 72
    12
 73
     8
 74
     0
 42
0.0000000001
 43
0.0000000001
 40
0.0
 40
0.0
 40
0.0
 40
0.0
 40
0.5
 40
0.5
 40
0.5
 40
0.5
 40
1.0
 40
1.0
 40
1.0
 40
1.0
 10
0.6783200000000001
 20
-5.06024
 30
0.0
 10
0.8230999999999999
 20
-5.06024
 30
0.0
 10
0.78754
 20
-5.29392
 30
0.0
 10
0.7316600000000001
 20
-5.36504
 30
0.0
 10
0.7316600000000001
 20
-5.36504
 30
0.0
 10
0.6605400000000001
 20
-5.29392
 30
0.0
 10
0.6961000000000001
 20
-5.16692
 30
0.0
 10
0.6783200000000001
 20
-5.06024
 30
0.0
  0
SPLINE
  5
59
330
A
100
AcDbEntity
  8
Ebene 1
 62
     7
100
AcDbSpline
210
0.0
220
0.0
230
1.0
 70
    11
 71
     3
 72
    12
 73
     8
 74
     0
 42
0.0000000001
 43
0.0000000001
 40
0.0
 40
0.0
 40
0.0
 40
0.0
 40
0.5
 40
0.5
 40
0.5
 40
0.5
 40
1.0
 40
1.0
 40
1.0
 40
1.0
 10
0.26684
 20
-5.11358
 30
0.0
 10
0.32018
 20
-5.1847
 30
0.0
 10
0.3913
 20
-5.32948
 30
0.0
 10
0.3557400000000001
 20
-5.41838
 30
0.0
 10
0.3557400000000001
 20
-5.41838
 30
0.0
 10
0.21096
 20
-5.41838
 30
0.0
 10
0.2846199999999999
 20
-5.20248
 30
0.0
 10
0.26684
 20
-5.11358
 30
0.0
  0
SPLINE
  5
5A
330
A
100
AcDbEntity
  8
Ebene 1
 62
     7
100
AcDbSpline
210
0.0
220
0.0
230
1.0
 70
    11
 71
     3
 72
    12
 73
     8
 74
     0
 42
0.0000000001
 43
0.0000000001
 40
0.0
 40
0.0
 40
0.0
 40
0.0
 40
0.5
 40
0.5
 40
0.5
 40
0.5
 40
1.0
 40
1.0
 40
1.0
 40
1.0
 10
-0.4113300000000001
 20
-5.14914
 30
0.0
 10
-0.3224300000000001
 20
-5.2228
 30
0.0
 10
-0.28687
 20
-5.43616
 30
0.0
 10
-0.35799
 20
-5.52506
 30
0.0
 10
-0.35799
 20
-5.52506
 30
0.0
 10
-0.4113300000000001
 20
-5.41838
 30
0.0
 10
-0.43165
 20
-5.25582
 30
0.0
 10
-0.4113300000000001
 20
-5.14914
 30
0.0
  0
SPLINE
  5
5B
330
A
100
AcDbEntity
  8
Ebene 1
 62
     7
100
AcDbSpline
210
0.0
220
0.0
230
1.0
 70
    11
 71
     3
 72
    12
 73
     8
 74
     0
 42
0.0000000001
 43
0.0000000001
 40
0.0
 40
0.0
 40
0.0
 40
0.0
 40
0.5
 40
0.5
 40
0.5
 40
0.5
 40
1.0
 40
1.0
 40
1.0
 40
1.0
 10
0.06872
 20
-5.14914
 30
0.0
 10
0.14238
 20
-5.1847
 30
0.0
 10
0.16016
 20
-5.36504
 30
0.0
 10
0.12206
 20
-5.43616
 30
0.0
 10
0.12206
 20
-5.43616
 30
0.0
 10
0.06872
 20
-5.36504
 30
0.0
 10
0.03316
 20
-5.23804
 30
0.0
 10
0.06872
 20
-5.14914
 30
0.0
  0
ENDSEC
  0
SECTION
  2
OBJECTS
  0
DICTIONARY
  5
19
330
0
100
AcDbDictionary
281
     1
  3
ACAD_COLOR
350
5F
  3
ACAD_GROUP
350
1A
  3
ACAD_LAYOUT
350
1E
  3
ACAD_MATERIAL
350
5E
  3
ACAD_MLINESTYLE
350
1B
  3
ACAD_PLOTSETTINGS
350
22
  3
ACAD_PLOTSTYLENAME
350
1F
  3
ACAD_TABLESTYLE
350
60
  3
ACAD_WIPEOUT_VARS
350
23
  3
ACDBHEADERROUNDTRIPXREC
350
69
  3
AcDbVariableDictionary
350
64
  0
DICTIONARY
  5
5F
102
{ACAD_REACTORS
330
19
102
}
330
19
100
AcDbDictionary
281
     1
  0
DICTIONARY
  5
1A
102
{ACAD_REACTORS
330
19
102
}
330
19
100
AcDbDictionary
281
     1
  0
DICTIONARY
  5
1E
102
{ACAD_REACTORS
330
19
102
}
330
19
100
AcDbDictionary
281
     1
  3
Layout1
350
21
  3
Model
350
20
  0
DICTIONARY
  5
5E
102
{ACAD_REACTORS
330
19
102
}
330
19
100
AcDbDictionary
281
     1
  0
DICTIONARY
  5
1B
102
{ACAD_REACTORS
330
19
102
}
330
19
100
AcDbDictionary
281
     1
  3
Standard
350
1C
  0
DICTIONARY
  5
22
102
{ACAD_REACTORS
330
19
102
}
330
19
100
AcDbDictionary
281
     1
  0
ACDBDICTIONARYWDFLT
  5
1F
102
{ACAD_REACTORS
330
19
102
}
330
19
100
AcDbDictionary
281
     1
  3
Normal
350
1D
100
AcDbDictionaryWithDefault
340
1D
  0
DICTIONARY
  5
60
102
{ACAD_REACTORS
330
19
102
}
330
19
100
AcDbDictionary
281
     1
  3
Standard
350
61
  0
WIPEOUTVARIABLES
  5
23
330
19
100
AcDbWipeoutVariables
 70
     1
  0
DICTIONARY
  5
69
102
{ACAD_REACTORS
330
19
102
}
330
19
100
AcDbDictionary
281
     1
  0
DICTIONARY
  5
64
102
{ACAD_REACTORS
330
19
102
}
330
19
100
AcDbDictionary
281
     1
  3
CTABLESTYLE
350
65
  3
DIMASSOC
350
66
  3
PROJECTNAME
350
67
  0
LAYOUT
  5
21
102
{ACAD_XDICTIONARY
360
6C
102
}
102
{ACAD_REACTORS
330
1E
102
}
330
1E
100
AcDbPlotSettings
  1

  2

  4

  6

 40
0.0
 41
0.0
 42
0.0
 43
0.0
 44
0.0
 45
0.0
 46
0.0
 47
0.0
 48
0.0
 49
0.0
140
0.0
141
0.0
142
1.0
143
1.0
 70
     0
 72
     0
 73
     0
 74
     0
  7

 75
     0
147
1.0
148
0.0
149
0.0
100
AcDbLayout
  1
Layout1
 70
     0
 71
     1
 10
0.0
 20
0.0
 11
12.0
 21
9.0
 12
0.0
 22
0.0
 32
0.0
 14
1.000000000000000E+20
 24
1.000000000000000E+20
 34
1.000000000000000E+20
 15
-1.000000000000000E+20
 25
-1.000000000000000E+20
 35
-1.000000000000000E+20
146
0.0
 13
0.0
 23
0.0
 33
0.0
 16
1.0
 26
0.0
 36
0.0
 17
0.0
 27
1.0
 37
0.0
 76
     0
330
B
  0
LAYOUT
  5
20
102
{ACAD_XDICTIONARY
360
6A
102
}
102
{ACAD_REACTORS
330
1E
102
}
330
1E
100
AcDbPlotSettings
  1

  2

  4

  6

 40
0.0
 41
0.0
 42
0.0
 43
0.0
 44
0.0
 45
0.0
 46
0.0
 47
0.0
 48
0.0
 49
0.0
140
0.0
141
0.0
142
1.0
143
1.0
 70
  1024
 72
     0
 73
     0
 74
     0
  7

 75
     0
147
1.0
148
0.0
149
0.0
100
AcDbLayout
  1
Model
 70
     0
 71
     0
 10
0.0
 20
0.0
 11
0.0
 21
0.0
 12
0.0
 22
0.0
 32
0.0
 14
0.0
 24
0.0
 34
0.0
 15
0.0
 25
0.0
 35
0.0
146
0.0
 13
0.0
 23
0.0
 33
0.0
 16
0.0
 26
0.0
 36
0.0
 17
0.0
 27
0.0
 37
0.0
 76
     0
330
A
  0
MLINESTYLE
  5
1C
102
{ACAD_REACTORS
330
1B
102
}
330
1B
100
AcDbMlineStyle
  2
STANDARD
 70
     0
  3

 62
     0
 51
90.0
 52
90.0
 71
     2
 49
0.5
 62
   256
  6
BYLAYER
 49
-0.5
 62
   256
  6
BYLAYER
  0
ACDBPLACEHOLDER
  5
1D
102
{ACAD_REACTORS
330
1F
102
}
330
1F
  0
TABLESTYLE
  5
61
102
{ACAD_REACTORS
330
60
102
}
330
60
100
AcDbTableStyle
  3
Standard
 70
     0
 71
     0
 40
0.06
 41
0.06
280
     0
281
     0
  7
Standard
140
0.18
170
     2
 62
     0
 63
     7
283
     0
274
    -2
284
     1
 64
     0
275
    -2
285
     1
 65
     0
276
    -2
286
     1
 66
     0
277
    -2
287
     1
 67
     0
278
    -2
288
     1
 68
     0
279
    -2
289
     1
 69
     0
  7
Standard
140
0.25
170
     5
 62
     0
 63
     7
283
     0
274
    -2
284
     1
 64
     0
275
    -2
285
     1
 65
     0
276
    -2
286
     1
 66
     0
277
    -2
287
     1
 67
     0
278
    -2
288
     1
 68
     0
279
    -2
289
     1
 69
     0
  7
Standard
140
0.18
170
     5
 62
     0
 63
     7
283
     0
274
    -2
284
     1
 64
     0
275
    -2
285
     1
 65
     0
276
    -2
286
     1
 66
     0
277
    -2
287
     1
 67
     0
278
    -2
288
     1
 68
     0
279
    -2
289
     1
 69
     0
  0
DICTIONARYVAR
  5
65
102
{ACAD_REACTORS
330
64
102
}
330
64
100
DictionaryVariables
280
     0
  1
STANDARD
  0
DICTIONARYVAR
  5
66
102
{ACAD_REACTORS
330
64
102
}
330
64
100
DictionaryVariables
280
     0
  1
1
  0
DICTIONARYVAR
  5
67
102
{ACAD_REACTORS
330
64
102
}
330
64
100
DictionaryVariables
280
     0
  1

  0
DICTIONARY
  5
6C
330
21
100
AcDbDictionary
280
     1
281
     1
  3
ACAD_XREC_ROUNDTRIP
360
6D
  0
DICTIONARY
  5
6A
330
20
100
AcDbDictionary
280
     1
281
     1
  3
ACAD_XREC_ROUNDTRIP
360
6B
  0
XRECORD
  5
6D
102
{ACAD_REACTORS
330
6C
102
}
330
6C
100
AcDbXrecord
280
     1
102
SHADEPLOT
 70
     0
102
SHADEPLOTRESLEVEL
 70
     2
102
SHADEPLOTCUSTOMDPI
 70
   300
  0
XRECORD
  5
6B
102
{ACAD_REACTORS
330
6A
102
}
330
6A
100
AcDbXrecord
280
     1
102
SHADEPLOT
 70
     0
102
SHADEPLOTRESLEVEL
 70
     2
102
SHADEPLOTCUSTOMDPI
 70
   300
  0
ENDSEC
  0
EOF
