  0
SECTION
  2
HEADER
  9
$ACADVER
  1
AC1006
  9
$DWGCODEPAGE
  3
ansi_1252
  9
$INSBASE
 10
0.0
 20
0.0
 30
0.0
  9
$EXTMIN
 10
0.0392205155286848
 20
0.022531204305939
  9
$EXTMAX
 10
10.06209441731385
 20
14.30556049240854
  9
$LIMMIN
 10
0.0
 20
0.0
  9
$LIMMAX
 10
420.0
 20
297.0
  9
$ORTHOMODE
 70
     0
  9
$REGENMODE
 70
     1
  9
$FILLMODE
 70
     1
  9
$QTEXTMODE
 70
     0
  9
$MIRRTEXT
 70
     0
  9
$DRAGMODE
 70
     2
  9
$LTSCALE
 40
1.0
  9
$OSMODE
 70
    37
  9
$ATTMODE
 70
     1
  9
$TEXTSIZE
 40
2.5
  9
$TRACEWID
 40
1.0
  9
$TEXTSTYLE
  7
STANDARD
  9
$CLAYER
  8
3
  9
$CELTYPE
  6
BYLAYER
  9
$CECOLOR
 62
     1
  9
$DIMSCALE
 40
1.0
  9
$DIMASZ
 40
2.5
  9
$DIMEXO
 40
0.625
  9
$DIMDLI
 40
3.75
  9
$DIMRND
 40
0.0
  9
$DIMDLE
 40
0.0
  9
$DIMEXE
 40
1.25
  9
$DIMTP
 40
0.0
  9
$DIMTM
 40
0.0
  9
$DIMTXT
 40
2.5
  9
$DIMCEN
 40
2.5
  9
$DIMTSZ
 40
0.0
  9
$DIMTOL
 70
     0
  9
$DIMLIM
 70
     0
  9
$DIMTIH
 70
     0
  9
$DIMTOH
 70
     0
  9
$DIMSE1
 70
     0
  9
$DIMSE2
 70
     0
  9
$DIMTAD
 70
     1
  9
$DIMZIN
 70
     8
  9
$DIMBLK
  1

  9
$DIMASO
 70
     1
  9
$DIMSHO
 70
     1
  9
$DIMPOST
  1

  9
$DIMAPOST
  1

  9
$DIMALT
 70
     0
  9
$DIMALTD
 70
     3
  9
$DIMALTF
 40
0.03937007874016
  9
$DIMLFAC
 40
1.0
  9
$DIMTOFL
 70
     1
  9
$DIMTVP
 40
0.0
  9
$DIMTIX
 70
     0
  9
$DIMSOXD
 70
     0
  9
$DIMSAH
 70
     0
  9
$DIMBLK1
  1

  9
$DIMBLK2
  1

  9
$LUNITS
 70
     2
  9
$LUPREC
 70
     4
  9
$SKETCHINC
 40
1.0
  9
$FILLETRAD
 40
0.0
  9
$AUNITS
 70
     0
  9
$AUPREC
 70
     0
  9
$MENU
  1
.
  9
$ELEVATION
 40
0.0
  9
$THICKNESS
 40
0.0
  9
$LIMCHECK
 70
     0
  9
$CHAMFERA
 40
0.0
  9
$CHAMFERB
 40
0.0
  9
$SKPOLY
 70
     0
  9
$TDCREATE
 40
2453353.508792454
  9
$TDUPDATE
 40
2305814.020500741
  9
$TDINDWG
 40
19526816.11509317
  9
$TDUSRTIMER
 40
19526816.11508159
  9
$USRTIMER
 70
     1
  9
$ANGBASE
 50
0.0
  9
$ANGDIR
 70
     0
  9
$PDMODE
 70
     0
  9
$PDSIZE
 40
0.0
  9
$PLINEWID
 40
0.0
  9
$COORDS
 70
     1
  9
$SPLFRAME
 70
     0
  9
$SPLINETYPE
 70
     6
  9
$SPLINESEGS
 70
     8
  9
$ATTDIA
 70
     0
  9
$ATTREQ
 70
     1
  9
$HANDLING
 70
     1
  9
$HANDSEED
  5
A93
  9
$SURFTAB1
 70
     6
  9
$SURFTAB2
 70
     6
  9
$SURFTYPE
 70
     6
  9
$SURFU
 70
     6
  9
$SURFV
 70
     6
  9
$UCSNAME
  2

  9
$UCSORG
 10
0.0
 20
0.0
 30
0.0
  9
$UCSXDIR
 10
1.0
 20
0.0
 30
0.0
  9
$UCSYDIR
 10
0.0
 20
1.0
 30
0.0
  9
$USERI1
 70
     0
  9
$USERI2
 70
     0
  9
$USERI3
 70
     0
  9
$USERI4
 70
     0
  9
$USERI5
 70
     0
  9
$USERR1
 40
0.0
  9
$USERR2
 40
0.0
  9
$USERR3
 40
0.0
  9
$USERR4
 40
0.0
  9
$USERR5
 40
0.0
  9
$WORLDVIEW
 70
     1
  0
ENDSEC
  0
SECTION
  2
TABLES
  0
TABLE
  2
VPORT
 70
     1
  0
VPORT
  2
*ACTIVE
 70
     0
 10
0.0
 20
0.0
 11
1.0
 21
1.0
 12
4.478762871030677
 22
7.242886747202504
 13
0.0
 23
0.0
 14
10.0
 24
10.0
 15
1.0
 25
1.0
 16
0.0
 26
0.0
 36
1.0
 17
0.0
 27
0.0
 37
0.0
 40
15.04596022175076
 41
1.664827586206897
 42
50.0
 43
0.0
 44
0.0
 50
0.0
 51
0.0
 71
    16
 72
  1000
 73
     1
 74
     1
 75
     0
 76
     0
 77
     0
 78
     0
  0
ENDTAB
  0
TABLE
  2
LTYPE
 70
     1
  0
LTYPE
  2
CONTINUOUS
 70
     0
  3
Solid line
 72
    65
 73
     0
 40
0.0
  0
ENDTAB
  0
TABLE
  2
LAYER
 70
     4
  0
LAYER
  2
0
 70
     0
 62
     7
  6
CONTINUOUS
  0
LAYER
  2
1
 70
     0
 62
     7
  6
CONTINUOUS
  0
LAYER
  2
2
 70
     0
 62
     7
  6
CONTINUOUS
  0
LAYER
  2
3
 70
     0
 62
     7
  6
CONTINUOUS
  0
ENDTAB
  0
TABLE
  2
STYLE
 70
     1
  0
STYLE
  2
STANDARD
 70
     0
 40
0.0
 41
1.0
 50
0.0
 71
     0
 42
2.5
  3
txt
  4

  0
ENDTAB
  0
TABLE
  2
VIEW
 70
     0
  0
ENDTAB
  0
TABLE
  2
UCS
 70
     0
  0
ENDTAB
  0
ENDSEC
  0
SECTION
  2
BLOCKS
  0
ENDSEC
  0
SECTION
  2
ENTITIES
  0
ARC
  5
9CB
  8
1
 62
     2
 10
7.498475259314736
 20
6.994301072572339
 30
0.0
 40
5.465789283216033
 50
116.3648816199546
 51
163.0369875839015
  0
ARC
  5
9CC
  8
1
 62
     2
 10
2.507898704763461
 20
6.943571119020004
 30
0.0
 40
5.572530211697392
 50
17.18392183660791
 51
62.61368352399823
  0
ARC
  5
9CD
  8
1
 62
     2
 10
7.156862818878277
 20
8.181788583272903
 30
0.0
 40
0.7886360331358958
 50
31.16568631549371
 51
119.4728181420954
  0
LINE
  5
9CE
  8
1
 62
     2
 10
5.256562173542497
 20
7.775172594120947
 30
0.0
 11
6.768845533620268
 21
8.868366604404747
 31
0.0
  0
POLYLINE
  5
9CF
  8
1
 62
     2
 66
     1
 10
0.0
 20
0.0
 30
0.0
  0
VERTEX
  5
A80
  8
1
 62
     2
 10
6.725607591943855
 20
6.317328045496255
 30
0.0
  0
VERTEX
  5
A81
  8
1
 62
     2
 10
6.725607591943855
 20
6.490279812201916
 30
0.0
  0
VERTEX
  5
A82
  8
1
 62
     2
 10
7.258875539286307
 20
6.720882167809464
 30
0.0
  0
VERTEX
  5
A83
  8
1
 62
     2
 10
7.359764069864611
 20
7.110023642897199
 30
0.0
  0
VERTEX
  5
A84
  8
1
 62
     2
 10
7.848325823418504
 20
7.874687696370964
 30
0.0
  0
SEQEND
  5
A7F
  8
1
 62
     2
  0
ARC
  5
9D0
  8
1
 62
     2
 10
2.988514132585359
 20
6.956142900444219
 30
0.0
 40
5.096285297540458
 50
356.2414674742716
 51
13.71945694652554
  0
ARC
  5
9D1
  8
1
 62
     2
 10
17.84177889411144
 20
4.897190066340973
 30
0.0
 40
10.42758823568404
 50
161.7379324354824
 51
163.4088469003071
  0
POLYLINE
  5
9D2
  8
1
 62
     2
 66
     1
 10
0.0
 20
0.0
 30
0.0
  0
VERTEX
  5
A86
  8
1
 62
     2
 10
5.046483835596706
 20
4.988848630218681
 30
0.0
  0
VERTEX
  5
A87
  8
1
 62
     2
 10
5.284342869396682
 20
5.380505975840592
 30
0.0
  0
VERTEX
  5
A88
  8
1
 62
     2
 10
5.60142110835706
 20
5.049015089654743
 30
0.0
  0
SEQEND
  5
A85
  8
1
 62
     2
  0
ARC
  5
9D3
  8
1
 62
     2
 10
6.120139536398128
 20
5.72161742521961
 30
0.0
 40
0.8493896098944874
 50
232.3601895279532
 51
44.53458417577698
  0
ARC
  5
9D4
  8
1
 62
     2
 10
5.044551438037758
 20
7.755917804408767
 30
0.0
 40
0.2128832987721684
 50
5.189359396711211
 51
91.29261025104756
  0
ARC
  5
9D5
  8
1
 62
     2
 10
5.049043741423896
 20
7.758896638660665
 30
0.0
 40
0.2100560272396187
 50
92.5360650430228
 51
174.3121881130221
  0
LINE
  5
9D6
  8
1
 62
     2
 10
4.840021888271862
 20
7.77971488749626
 30
0.0
 11
3.324376853845373
 21
8.86836660440475
 31
0.0
  0
POLYLINE
  5
9D7
  8
1
 62
     2
 66
     1
 10
0.0
 20
0.0
 30
0.0
  0
VERTEX
  5
A8A
  8
1
 62
     2
 10
5.046517359338471
 20
4.988793371038834
 30
0.0
  0
VERTEX
  5
A8B
  8
1
 62
     2
 10
4.808879518068959
 20
5.380505975840592
 30
0.0
  0
VERTEX
  5
A8C
  8
1
 62
     2
 10
4.491801279108582
 20
5.049015089654743
 30
0.0
  0
SEQEND
  5
A89
  8
1
 62
     2
  0
ARC
  5
9D8
  8
1
 62
     2
 10
3.973082851067516
 20
5.72161742521961
 30
0.0
 40
0.8493896098944872
 50
135.4654158242229
 51
307.6398104720467
  0
ARC
  5
9D9
  8
1
 62
     2
 10
2.938046010556411
 20
8.19826489301602
 30
0.0
 40
0.7734906748516501
 50
60.03544686104907
 51
149.6608465346035
  0
POLYLINE
  5
9DA
  8
1
 62
     2
 66
     1
 10
0.0
 20
0.0
 30
0.0
  0
VERTEX
  5
A8E
  8
1
 62
     2
 10
3.367614795521789
 20
6.317328045496255
 30
0.0
  0
VERTEX
  5
A8F
  8
1
 62
     2
 10
3.367614795521789
 20
6.490279812201916
 30
0.0
  0
VERTEX
  5
A90
  8
1
 62
     2
 10
2.834346848179334
 20
6.720882167809464
 30
0.0
  0
VERTEX
  5
A91
  8
1
 62
     2
 10
2.733458317601034
 20
7.110023642897199
 30
0.0
  0
VERTEX
  5
A92
  8
1
 62
     2
 10
2.245483954743523
 20
7.876315538798603
 30
0.0
  0
SEQEND
  5
A8D
  8
1
 62
     2
  0
ARC
  5
9DB
  8
1
 62
     2
 10
6.59672131938344
 20
7.007379223608621
 30
0.0
 40
4.565552806260212
 50
165.3143429487613
 51
183.8846952937816
  0
ARC
  5
9DC
  8
1
 62
     2
 10
2.755864424743225
 20
8.143206719590019
 30
0.0
 40
0.5759506285623389
 50
177.8494984791011
 51
207.6062345866872
  0
ARC
  5
9DD
  8
1
 62
     2
 10
7.595005453559594
 20
6.90740507679795
 30
0.0
 40
5.557291306135253
 50
182.1587743386077
 51
242.9845492475057
  0
ARC
  5
9DE
  8
1
 62
     2
 10
2.371158868674371
 20
6.993454733791038
 30
0.0
 40
5.714759508717929
 50
298.1890789745468
 51
356.2739226525326
  0
CIRCLE
  5
9DF
  8
1
 62
     2
 10
5.061986593378269
 20
13.88351264206166
 30
0.0
 40
0.1317374724925982
  0
ARC
  5
9E1
  8
2
 62
     6
 10
7.56930006912301
 20
6.943665694044732
 30
0.0
 40
6.046474664696939
 50
117.178655081235
 51
242.7122675624664
  0
ARC
  5
9E2
  8
2
 62
     6
 10
7.61223714526754
 20
6.917710673917509
 30
0.0
 40
6.534563133475553
 50
115.4231083133758
 51
244.418739871645
  0
ARC
  5
9E3
  8
2
 62
     6
 10
7.465444813619438
 20
6.922999511409255
 30
0.0
 40
6.932148049012855
 50
112.5342861947882
 51
247.2990788969383
  0
ARC
  5
9E4
  8
2
 62
     6
 10
2.541066916264973
 20
6.947863989944511
 30
0.0
 40
6.03741309149346
 50
296.9803640487426
 51
62.90614799442401
  0
ARC
  5
9E5
  8
2
 62
     6
 10
2.583352732483099
 20
6.973488872975981
 30
0.0
 40
6.489881569580238
 50
294.5590627654845
 51
65.28422739503299
  0
ARC
  5
9E6
  8
2
 62
     6
 10
2.529882041264268
 20
6.948147501078052
 30
0.0
 40
6.98828911004984
 50
293.2164970403562
 51
66.67049746469566
  0
ARC
  5
9E8
  8
3
 62
     4
 10
7.327816807340493
 20
6.946875666302811
 30
0.0
 40
7.289186313939925
 50
111.9549926447032
 51
251.7955003974159
  0
ARC
  5
9E9
  8
3
 62
     4
 10
5.052358072711527
 20
13.83843805664095
 30
0.0
 40
0.4684974755578127
 50
344.1995371415213
 51
196.2378330973249
  0
ARC
  5
9EA
  8
3
 62
     4
 10
2.769845498251769
 20
6.949586180578312
 30
0.0
 40
7.292870304430574
 50
288.2243328701571
 51
67.98855243489014
  0
ENDSEC
  0
EOF
