  0
SECTION
  2
HEADER
  9
$ACADVER
  1
AC1015
  9
$ACADMAINTVER
 70
    20
  9
$DWGCODEPAGE
  3
ANSI_1252
  9
$INSBASE
 10
0.0
 20
0.0
 30
0.0
  9
$EXTMIN
 10
-243.6259485922528
 20
-186.2917061568473
 30
0.0
  9
$EXTMAX
 10
630.731391650851
 20
145.3928362230822
 30
0.0
  9
$LIMMIN
 10
0.0
 20
0.0
  9
$LIMMAX
 10
12.0
 20
9.0
  9
$ORTHOMODE
 70
     0
  9
$REGENMODE
 70
     1
  9
$FILLMODE
 70
     1
  9
$QTEXTMODE
 70
     0
  9
$MIRRTEXT
 70
     1
  9
$LTSCALE
 40
1.0
  9
$ATTMODE
 70
     1
  9
$TEXTSIZE
 40
0.2
  9
$TRACEWID
 40
0.05
  9
$TEXTSTYLE
  7
STANDARD
  9
$CLAYER
  8
0
  9
$CELTYPE
  6
ByLayer
  9
$CECOLOR
 62
   256
  9
$CELTSCALE
 40
1.0
  9
$DISPSILH
 70
     0
  9
$DIMSCALE
 40
1.0
  9
$DIMASZ
 40
0.18
  9
$DIMEXO
 40
0.0625
  9
$DIMDLI
 40
0.38
  9
$DIMRND
 40
0.0
  9
$DIMDLE
 40
0.0
  9
$DIMEXE
 40
0.18
  9
$DIMTP
 40
0.0
  9
$DIMTM
 40
0.0
  9
$DIMTXT
 40
0.18
  9
$DIMCEN
 40
0.09
  9
$DIMTSZ
 40
0.0
  9
$DIMTOL
 70
     0
  9
$DIMLIM
 70
     0
  9
$DIMTIH
 70
     1
  9
$DIMTOH
 70
     1
  9
$DIMSE1
 70
     0
  9
$DIMSE2
 70
     0
  9
$DIMTAD
 70
     0
  9
$DIMZIN
 70
     0
  9
$DIMBLK
  1

  9
$DIMASO
 70
     1
  9
$DIMSHO
 70
     1
  9
$DIMPOST
  1

  9
$DIMAPOST
  1

  9
$DIMALT
 70
     0
  9
$DIMALTD
 70
     2
  9
$DIMALTF
 40
25.4
  9
$DIMLFAC
 40
1.0
  9
$DIMTOFL
 70
     0
  9
$DIMTVP
 40
0.0
  9
$DIMTIX
 70
     0
  9
$DIMSOXD
 70
     0
  9
$DIMSAH
 70
     0
  9
$DIMBLK1
  1

  9
$DIMBLK2
  1

  9
$DIMSTYLE
  2
STANDARD
  9
$DIMCLRD
 70
     0
  9
$DIMCLRE
 70
     0
  9
$DIMCLRT
 70
     0
  9
$DIMTFAC
 40
1.0
  9
$DIMGAP
 40
0.09
  9
$DIMJUST
 70
     0
  9
$DIMSD1
 70
     0
  9
$DIMSD2
 70
     0
  9
$DIMTOLJ
 70
     1
  9
$DIMTZIN
 70
     0
  9
$DIMALTZ
 70
     0
  9
$DIMALTTZ
 70
     0
  9
$DIMUPT
 70
     0
  9
$DIMDEC
 70
     4
  9
$DIMTDEC
 70
     4
  9
$DIMALTU
 70
     2
  9
$DIMALTTD
 70
     2
  9
$DIMTXSTY
  7
STANDARD
  9
$DIMAUNIT
 70
     0
  9
$DIMADEC
 70
     0
  9
$DIMALTRND
 40
0.0
  9
$DIMAZIN
 70
     0
  9
$DIMDSEP
 70
    46
  9
$DIMATFIT
 70
     3
  9
$DIMFRAC
 70
     0
  9
$DIMLDRBLK
  1

  9
$DIMLUNIT
 70
     2
  9
$DIMLWD
 70
    -2
  9
$DIMLWE
 70
    -2
  9
$DIMTMOVE
 70
     0
  9
$LUNITS
 70
     2
  9
$LUPREC
 70
     4
  9
$SKETCHINC
 40
0.1
  9
$FILLETRAD
 40
0.5
  9
$AUNITS
 70
     0
  9
$AUPREC
 70
     0
  9
$MENU
  1
.
  9
$ELEVATION
 40
0.0
  9
$PELEVATION
 40
0.0
  9
$THICKNESS
 40
0.0
  9
$LIMCHECK
 70
     0
  9
$CHAMFERA
 40
0.5
  9
$CHAMFERB
 40
0.5
  9
$CHAMFERC
 40
0.0
  9
$CHAMFERD
 40
0.0
  9
$SKPOLY
 70
     0
  9
$TDCREATE
 40
2454910.458333334
  9
$TDUCREATE
 40
2454910.666666667
  9
$TDUPDATE
 40
2456235.775693901
  9
$TDUUPDATE
 40
2456235.984027234
  9
$TDINDWG
 40
0.0032963773
  9
$TDUSRTIMER
 40
0.0032962616
  9
$USRTIMER
 70
     1
  9
$ANGBASE
 50
0.0
  9
$ANGDIR
 70
     0
  9
$PDMODE
 70
     0
  9
$PDSIZE
 40
0.0
  9
$PLINEWID
 40
0.0
  9
$SPLFRAME
 70
     0
  9
$SPLINETYPE
 70
     6
  9
$SPLINESEGS
 70
     8
  9
$HANDSEED
  5
EE9
  9
$SURFTAB1
 70
     6
  9
$SURFTAB2
 70
     6
  9
$SURFTYPE
 70
     6
  9
$SURFU
 70
     6
  9
$SURFV
 70
     6
  9
$UCSBASE
  2

  9
$UCSNAME
  2

  9
$UCSORG
 10
0.0
 20
0.0
 30
0.0
  9
$UCSXDIR
 10
1.0
 20
0.0
 30
0.0
  9
$UCSYDIR
 10
0.0
 20
1.0
 30
0.0
  9
$UCSORTHOREF
  2

  9
$UCSORTHOVIEW
 70
     0
  9
$UCSORGTOP
 10
0.0
 20
0.0
 30
0.0
  9
$UCSORGBOTTOM
 10
0.0
 20
0.0
 30
0.0
  9
$UCSORGLEFT
 10
0.0
 20
0.0
 30
0.0
  9
$UCSORGRIGHT
 10
0.0
 20
0.0
 30
0.0
  9
$UCSORGFRONT
 10
0.0
 20
0.0
 30
0.0
  9
$UCSORGBACK
 10
0.0
 20
0.0
 30
0.0
  9
$PUCSBASE
  2

  9
$PUCSNAME
  2

  9
$PUCSORG
 10
0.0
 20
0.0
 30
0.0
  9
$PUCSXDIR
 10
1.0
 20
0.0
 30
0.0
  9
$PUCSYDIR
 10
0.0
 20
1.0
 30
0.0
  9
$PUCSORTHOREF
  2

  9
$PUCSORTHOVIEW
 70
     0
  9
$PUCSORGTOP
 10
0.0
 20
0.0
 30
0.0
  9
$PUCSORGBOTTOM
 10
0.0
 20
0.0
 30
0.0
  9
$PUCSORGLEFT
 10
0.0
 20
0.0
 30
0.0
  9
$PUCSORGRIGHT
 10
0.0
 20
0.0
 30
0.0
  9
$PUCSORGFRONT
 10
0.0
 20
0.0
 30
0.0
  9
$PUCSORGBACK
 10
0.0
 20
0.0
 30
0.0
  9
$USERI1
 70
     0
  9
$USERI2
 70
     0
  9
$USERI3
 70
     0
  9
$USERI4
 70
     0
  9
$USERI5
 70
     0
  9
$USERR1
 40
0.0
  9
$USERR2
 40
0.0
  9
$USERR3
 40
0.0
  9
$USERR4
 40
0.0
  9
$USERR5
 40
0.0
  9
$WORLDVIEW
 70
     1
  9
$SHADEDGE
 70
     3
  9
$SHADEDIF
 70
    70
  9
$TILEMODE
 70
     1
  9
$MAXACTVP
 70
    64
  9
$PINSBASE
 10
0.0
 20
0.0
 30
0.0
  9
$PLIMCHECK
 70
     0
  9
$PEXTMIN
 10
1.000000000000000E+20
 20
1.000000000000000E+20
 30
1.000000000000000E+20
  9
$PEXTMAX
 10
-1.000000000000000E+20
 20
-1.000000000000000E+20
 30
-1.000000000000000E+20
  9
$PLIMMIN
 10
0.0
 20
0.0
  9
$PLIMMAX
 10
12.0
 20
9.0
  9
$UNITMODE
 70
     0
  9
$VISRETAIN
 70
     1
  9
$PLINEGEN
 70
     0
  9
$PSLTSCALE
 70
     1
  9
$TREEDEPTH
 70
  3020
  9
$CMLSTYLE
  2
Standard
  9
$CMLJUST
 70
     0
  9
$CMLSCALE
 40
1.0
  9
$PROXYGRAPHICS
 70
     1
  9
$MEASUREMENT
 70
     0
  9
$CELWEIGHT
370
    -1
  9
$ENDCAPS
280
     0
  9
$JOINSTYLE
280
     0
  9
$LWDISPLAY
290
     0
  9
$INSUNITS
 70
     0
  9
$HYPERLINKBASE
  1

  9
$STYLESHEET
  1

  9
$XEDIT
290
     1
  9
$CEPSNTYPE
380
     0
  9
$PSTYLEMODE
290
     1
  9
$FINGERPRINTGUID
  2
{AFF847B2-8044-413D-82B7-11FF15AAD65A}
  9
$VERSIONGUID
  2
{8442477D-A1AE-4FC1-AF13-F9C15AD69653}
  9
$EXTNAMES
290
     1
  9
$PSVPSCALE
 40
0.0
  9
$OLESTARTUP
290
     0
  0
ENDSEC
  0
SECTION
  2
CLASSES
  0
CLASS
  1
ACDBDICTIONARYWDFLT
  2
AcDbDictionaryWithDefault
  3
ObjectDBX Classes
 90
        0
280
     0
281
     0
  0
CLASS
  1
MATERIAL
  2
AcDbMaterial
  3
ObjectDBX Classes
 90
     1153
280
     0
281
     0
  0
CLASS
  1
VISUALSTYLE
  2
AcDbVisualStyle
  3
ObjectDBX Classes
 90
     4095
280
     0
281
     0
  0
CLASS
  1
SCALE
  2
AcDbScale
  3
ObjectDBX Classes
 90
     1153
280
     0
281
     0
  0
CLASS
  1
TABLESTYLE
  2
AcDbTableStyle
  3
ObjectDBX Classes
 90
     4095
280
     0
281
     0
  0
CLASS
  1
MLEADERSTYLE
  2
AcDbMLeaderStyle
  3
ACDB_MLEADERSTYLE_CLASS
 90
     4095
280
     0
281
     0
  0
CLASS
  1
ACDBSECTIONVIEWSTYLE
  2
AcDbSectionViewStyle
  3
ObjectDBX Classes
 90
     1025
280
     0
281
     0
  0
CLASS
  1
ACDBDETAILVIEWSTYLE
  2
AcDbDetailViewStyle
  3
ObjectDBX Classes
 90
     1025
280
     0
281
     0
  0
CLASS
  1
SOLID_BACKGROUND
  2
AcDbSolidBackground
  3
SCENEOE
 90
    36863
280
     0
281
     0
  0
CLASS
  1
NPOCOLLECTION
  2
AcDbImpNonPersistentObjectsCollection
  3
ObjectDBX Classes
 90
    33921
280
     0
281
     0
  0
CLASS
  1
DICTIONARYVAR
  2
AcDbDictionaryVar
  3
ObjectDBX Classes
 90
        0
280
     0
281
     0
  0
CLASS
  1
CELLSTYLEMAP
  2
AcDbCellStyleMap
  3
ObjectDBX Classes
 90
     1152
280
     0
281
     0
  0
CLASS
  1
ACDBPLACEHOLDER
  2
AcDbPlaceHolder
  3
ObjectDBX Classes
 90
        0
280
     0
281
     0
  0
CLASS
  1
LAYOUT
  2
AcDbLayout
  3
ObjectDBX Classes
 90
        0
280
     0
281
     0
  0
ENDSEC
  0
SECTION
  2
TABLES
  0
TABLE
  2
VPORT
  5
CD7
330
0
100
AcDbSymbolTable
 70
     1
  0
VPORT
  5
D43
330
CD7
100
AcDbSymbolTableRecord
100
AcDbViewportTableRecord
  2
*ACTIVE
 70
     0
 10
0.0
 20
0.0
 11
1.0
 21
1.0
 12
-11.27400307632978
 22
0.8087787549471414
 13
0.0
 23
0.0
 14
0.5
 24
0.5
 15
0.5
 25
0.5
 16
-0.0000000000000213
 26
0.0
 36
98.98696502999904
 17
20.00450283288956
 27
20.00709533691406
 37
0.0
 40
6.90838282153615
 41
1.625
 42
50.0
 43
0.0
 44
0.0
 50
0.0
 51
0.0
 71
     0
 72
   100
 73
     1
 74
     3
 75
     0
 76
     0
 77
     0
 78
     0
281
     0
 65
     1
110
0.0
120
0.0
130
0.0
111
1.0
121
0.0
131
0.0
112
0.0
122
1.0
132
0.0
 79
     0
146
0.0
1001
ACAD_NAV_VCDISPLAY
1070
     3
  0
ENDTAB
  0
TABLE
  2
LTYPE
  5
CD4
330
0
100
AcDbSymbolTable
 70
     3
  0
LTYPE
  5
D29
330
CD4
100
AcDbSymbolTableRecord
100
AcDbLinetypeTableRecord
  2
ByBlock
 70
     0
  3

 72
    65
 73
     0
 40
0.0
  0
LTYPE
  5
D2A
330
CD4
100
AcDbSymbolTableRecord
100
AcDbLinetypeTableRecord
  2
ByLayer
 70
     0
  3

 72
    65
 73
     0
 40
0.0
  0
LTYPE
  5
D2B
330
CD4
100
AcDbSymbolTableRecord
100
AcDbLinetypeTableRecord
  2
CONTINUOUS
 70
     0
  3
Solid line
 72
    65
 73
     0
 40
0.0
  0
LTYPE
  5
D37
330
CD4
100
AcDbSymbolTableRecord
100
AcDbLinetypeTableRecord
  2
PHANTOM2
 70
     0
  3
Phantom (.5x) ___ _ _ ___ _ _ ___ _ _ ___ _ _
 72
    65
 73
     6
 40
1.25
 49
0.625
 74
     0
 49
-0.125
 74
     0
 49
0.125
 74
     0
 49
-0.125
 74
     0
 49
0.125
 74
     0
 49
-0.125
 74
     0
  0
LTYPE
  5
D44
330
CD4
100
AcDbSymbolTableRecord
100
AcDbLinetypeTableRecord
  2
CONTINUOUS2
 70
     0
  3
Solid Line
 72
    65
 73
     0
 40
0.0
  0
ENDTAB
  0
TABLE
  2
LAYER
  5
CD1
330
0
100
AcDbSymbolTable
 70
     2
  0
LAYER
  5
D23
102
{ACAD_XDICTIONARY
360
D50
102
}
330
CD1
100
AcDbSymbolTableRecord
100
AcDbLayerTableRecord
  2
0
 70
     0
 62
     7
  6
CONTINUOUS
370
    -3
390
CDE
  0
LAYER
  5
D45
102
{ACAD_XDICTIONARY
360
D52
102
}
330
CD1
100
AcDbSymbolTableRecord
100
AcDbLayerTableRecord
  2
KONTUR
 70
     0
 62
    20
  6
CONTINUOUS
370
    -3
390
CDE
  0
ENDTAB
  0
TABLE
  2
STYLE
  5
CD2
330
0
100
AcDbSymbolTable
 70
     2
  0
STYLE
  5
D24
330
CD2
100
AcDbSymbolTableRecord
100
AcDbTextStyleTableRecord
  2
STANDARD
 70
     0
 40
0.0
 41
1.0
 50
0.0
 71
     0
 42
0.2
  3
txt
  4

  0
STYLE
  5
D28
330
CD2
100
AcDbSymbolTableRecord
100
AcDbTextStyleTableRecord
  2
Annotative
 70
     0
 40
0.0
 41
1.0
 50
0.0
 71
     0
 42
0.2
  3
txt
  4

1001
AcadAnnotative
1000
AnnotativeData
1002
{
1070
     1
1070
     1
1002
}
  0
ENDTAB
  0
TABLE
  2
VIEW
  5
CD5
330
0
100
AcDbSymbolTable
 70
     0
  0
ENDTAB
  0
TABLE
  2
UCS
  5
CD6
330
0
100
AcDbSymbolTable
 70
     0
  0
ENDTAB
  0
TABLE
  2
APPID
  5
CD8
330
0
100
AcDbSymbolTable
 70
     4
  0
APPID
  5
D25
330
CD8
100
AcDbSymbolTableRecord
100
AcDbRegAppTableRecord
  2
ACAD
 70
     0
  0
APPID
  5
D2C
330
CD8
100
AcDbSymbolTableRecord
100
AcDbRegAppTableRecord
  2
AcadAnnotative
 70
     0
  0
APPID
  5
D5B
330
CD8
100
AcDbSymbolTableRecord
100
AcDbRegAppTableRecord
  2
ACAD_NAV_VCDISPLAY
 70
     0
  0
APPID
  5
D93
330
CD8
100
AcDbSymbolTableRecord
100
AcDbRegAppTableRecord
  2
ACAD_MLEADERVER
 70
     0
  0
ENDTAB
  0
TABLE
  2
DIMSTYLE
  5
CD9
330
0
100
AcDbSymbolTable
 70
     2
100
AcDbDimStyleTable
 71
     0
  0
DIMSTYLE
105
D26
330
CD9
100
AcDbSymbolTableRecord
100
AcDbDimStyleTableRecord
  2
STANDARD
 70
     0
279
     2
340
D24
  0
DIMSTYLE
105
D27
330
CD9
100
AcDbSymbolTableRecord
100
AcDbDimStyleTableRecord
  2
Annotative
 70
     0
340
D24
1001
AcadAnnotative
1000
AnnotativeData
1002
{
1070
     1
1070
     1
1002
}
  0
ENDTAB
  0
TABLE
  2
BLOCK_RECORD
  5
CD0
330
0
100
AcDbSymbolTable
 70
     2
  0
BLOCK_RECORD
  5
D3F
330
CD0
100
AcDbSymbolTableRecord
100
AcDbBlockTableRecord
  2
*Model_Space
340
D42
  0
BLOCK_RECORD
  5
D3B
330
CD0
100
AcDbSymbolTableRecord
100
AcDbBlockTableRecord
  2
*Paper_Space
340
D3E
  0
BLOCK_RECORD
  5
D47
330
CD0
100
AcDbSymbolTableRecord
100
AcDbBlockTableRecord
  2
$MODEL_SPACE
340
0
  0
BLOCK_RECORD
  5
D49
330
CD0
100
AcDbSymbolTableRecord
100
AcDbBlockTableRecord
  2
$PAPER_SPACE
340
0
  0
ENDTAB
  0
ENDSEC
  0
SECTION
  2
BLOCKS
  0
BLOCK
  5
D40
330
D3F
100
AcDbEntity
  8
0
100
AcDbBlockBegin
  2
*Model_Space
 70
     0
 10
0.0
 20
0.0
 30
0.0
  3
*Model_Space
  1

  0
ENDBLK
  5
D41
330
D3F
100
AcDbEntity
  8
0
100
AcDbBlockEnd
  0
BLOCK
  5
D3C
330
D3B
100
AcDbEntity
 67
     1
  8
0
100
AcDbBlockBegin
  2
*Paper_Space
 70
     0
 10
0.0
 20
0.0
 30
0.0
  3
*Paper_Space
  1

  0
ENDBLK
  5
D3D
330
D3B
100
AcDbEntity
 67
     1
  8
0
100
AcDbBlockEnd
  0
BLOCK
  5
D48
330
D47
100
AcDbEntity
  8
0
100
AcDbBlockBegin
  2
$MODEL_SPACE
 70
     0
 10
0.0
 20
0.0
 30
0.0
  3
$MODEL_SPACE
  1

  0
ENDBLK
  5
21
330
D47
100
AcDbEntity
  8
0
100
AcDbBlockEnd
  0
BLOCK
  5
D4A
330
D49
100
AcDbEntity
  8
0
100
AcDbBlockBegin
  2
$PAPER_SPACE
 70
     0
 10
0.0
 20
0.0
 30
0.0
  3
$PAPER_SPACE
  1

  0
ENDBLK
  5
1D
330
D49
100
AcDbEntity
  8
0
100
AcDbBlockEnd
  0
ENDSEC
  0
SECTION
  2
ENTITIES
  0
LWPOLYLINE
  5
41
330
D3F
100
AcDbEntity
  8
KONTUR
100
AcDbPolyline
 90
        6
 70
     0
 43
0.0
 10
-194.6353903277782
 20
-184.3807768263674
 42
-0.1436856180175312
 10
-191.524092213777
 20
-178.8721536717848
 42
0.0474738467555032
 10
-176.4208512503663
 20
-161.898275855138
 42
0.1470498166674339
 10
-163.998748095956
 20
-128.6772237327795
 42
-0.1658206731766624
 10
-160.2773927580701
 20
-119.737880952973
 10
-133.7816306693165
 20
-89.71790175478329
  0
LWPOLYLINE
  5
42
330
D3F
100
AcDbEntity
  8
KONTUR
100
AcDbPolyline
 90
       27
 70
     1
 43
0.0
 10
-209.5280896394572
 20
-180.9213784119321
 42
-0.1091231839260841
 10
-205.341843805958
 20
-184.2745871792759
 10
-136.2570592841979
 20
-184.9597896978035
 10
-136.1643616963997
 20
-175.6136581448205
 10
-133.1645092440539
 20
-175.6434115336429
 10
-133.2572068318465
 20
-184.989543086626
 10
-58.9534345828408
 20
-185.7265090080433
 42
0.1228025042210146
 10
-62.41699045323057
 20
-181.2834632673087
 42
0.0464006571578585
 10
-81.35868068022379
 20
-169.699974125404
 42
-0.115316369291397
 10
-101.1370244714171
 20
-154.1615809892083
 42
-0.0483505557106955
 10
-113.7397845388766
 20
-137.6302164270696
 42
-0.0822090685574832
 10
-132.7117522232482
 20
-96.41652470923611
 42
-0.0545004097643247
 10
-133.948566531661
 20
-86.34722061046119
 42
-0.0620473477614384
 10
-160.7184693397753
 20
-72.42251881272586
 10
-161.1303067327681
 20
-80.21050272007792
 10
-164.1261208888012
 20
-80.05208068087156
 10
-163.6137859099936
 20
-70.36365355392181
 42
-0.0456874255494962
 10
-180.2884346065418
 20
-55.62029643312881
 42
0.0201215640892991
 10
-178.2158471271698
 20
-79.96040273405907
 42
0.0238580161602181
 10
-172.5893634863051
 20
-105.8128269941735
 42
-0.0824557987737808
 10
-170.3628559499334
 20
-133.3159522324228
 42
-0.2207427828018861
 10
-197.0402483892388
 20
-174.0796573105248
 42
-0.1745781814001999
 10
-209.0440734572642
 20
-174.9044954821968
 42
0.0982796477034906
 10
-213.9463006343199
 20
-170.756960147279
 10
-226.2555574263269
 20
-162.9672323003203
 42
0.8820237788298371
 10
-227.8648914193089
 20
-164.9194454023998
 10
-220.2285237510081
 20
-173.0158296961144
 42
0.0894023853470677
  0
LWPOLYLINE
  5
43
330
D3F
100
AcDbEntity
  8
KONTUR
100
AcDbPolyline
 90
        5
 70
     0
 43
0.0
 10
-175.8587266239098
 20
-60.08686760590013
 42
0.0600989604779499
 10
-170.6005166228105
 20
-93.85563276484665
 42
-0.0170143674548674
 10
-165.1012130209259
 20
-119.1320584930282
 42
-0.0563786882471264
 10
-160.82973843982
 20
-112.8440581165135
 10
-136.557801893492
 20
-85.34369682176309
  0
LWPOLYLINE
  5
44
330
D3F
100
AcDbEntity
  8
KONTUR
100
AcDbPolyline
 90
        6
 70
     0
 43
0.0
 10
-210.0490765401533
 20
144.0471040414057
 42
0.1436856180175312
 10
-206.9377784261535
 20
138.5384808868235
 42
-0.0474738467555032
 10
-191.8345374627399
 20
121.5646030701766
 42
-0.1470498166674339
 10
-179.4124343083269
 20
88.34355094781731
 42
0.1658206731766624
 10
-175.6910789704451
 20
79.40420816801219
 10
-149.1953168816929
 20
49.38422896982394
  0
LWPOLYLINE
  5
45
330
D3F
100
AcDbEntity
  8
KONTUR
100
AcDbPolyline
 90
       27
 70
     1
 43
0.0
 10
-224.9417758518308
 20
140.5877056269707
 42
0.1091231839260841
 10
-220.7555300183304
 20
143.940914394315
 10
-151.6707454965688
 20
144.6261169128427
 10
-151.5780479087734
 20
135.2799853598594
 10
-148.5781954564248
 20
135.3097387486819
 10
-148.6708930442229
 20
144.6558703016652
 10
-74.36712079521453
 20
145.3928362230822
 42
-0.1228025042210146
 10
-77.83067666560568
 20
140.9497904823474
 42
-0.0464006571578585
 10
-96.77236689259743
 20
129.3663013404447
 42
0.115316369291397
 10
-116.5507106837881
 20
113.8279082042467
 42
0.0483505557106955
 10
-129.1534707512502
 20
97.296543642108
 42
0.0822090685574832
 10
-148.1254384356218
 20
56.08285192427479
 42
0.0545004097643247
 10
-149.3622527440347
 20
46.01354782550012
 42
0.0620473477614384
 10
-176.1321555521489
 20
32.08884602776428
 10
-176.543992945139
 20
39.8768299351166
 10
-179.5398071011722
 20
39.71840789591008
 10
-179.0274721223645
 20
30.02998076896057
 42
0.0456874255494962
 10
-195.7021208189155
 20
15.286623648168
 42
-0.0201215640892991
 10
-193.6295333395463
 20
39.62672994909963
 42
-0.0238580161602181
 10
-188.0030496986815
 20
65.47915420921239
 42
0.0824557987737808
 10
-185.7765421623043
 20
92.98227944746182
 42
0.2207427828018861
 10
-212.4539346016125
 20
133.7459845255628
 42
0.1745781814001999
 10
-224.4577596696406
 20
134.5708226972381
 42
-0.0982796477034906
 10
-229.3599868466964
 20
130.4232873623173
 10
-241.6692436386992
 20
122.6335595153592
 42
-0.8820237788298371
 10
-243.2785776316757
 20
124.5857726174415
 10
-235.6422099633817
 20
132.6821569111531
 42
-0.0894023853470677
  0
LWPOLYLINE
  5
46
330
D3F
100
AcDbEntity
  8
KONTUR
100
AcDbPolyline
 90
        5
 70
     0
 43
0.0
 10
-191.2724128362835
 20
19.75319482093897
 42
-0.0600989604779499
 10
-186.0142028351842
 20
53.52195997988781
 42
0.0170143674548674
 10
-180.5148992332995
 20
78.79838570806723
 42
0.0563786882471264
 10
-176.2434246521937
 20
72.51038533155469
 10
-151.9714881058671
 20
45.01002403680169
  0
LWPOLYLINE
  5
47
330
D3F
100
AcDbEntity
  8
KONTUR
100
AcDbPolyline
 90
       13
 70
     1
 43
0.0
 10
-236.8219472669881
 20
-158.9890367430776
 42
-0.0377479484612495
 10
-242.1104291202352
 20
-45.61957426621973
 42
-0.0228978130502962
 10
-238.0465054261834
 20
7.753802444443678
 42
-0.0212883749859165
 10
-228.5148665938869
 20
63.5193502924088
 42
-0.5098471833843346
 10
-225.8607462182209
 20
64.23051970368388
 42
-0.261044403948444
 10
-224.3349565023927
 20
59.32565623496873
 42
0.0001761244197605
 10
-232.3476279794825
 20
-27.63435325018376
 42
0.0474816097355139
 10
-233.3179168372399
 20
-115.8826860548186
 42
-0.1505760897941613
 10
-149.8966310863851
 20
37.82580315611861
 42
-0.9787721309441772
 10
-145.8241393384758
 20
33.839594697916
 42
0.104332580826239
 10
-220.5030924410608
 20
-89.25287297179513
 42
0.0781206534210341
 10
-230.5167825510878
 20
-146.7992360857383
 42
0.0702193333232324
 10
-229.8160141578144
 20
-151.503388657473
  0
LWPOLYLINE
  5
48
330
D3F
100
AcDbEntity
  8
KONTUR
100
AcDbPolyline
 90
       13
 70
     1
 43
0.0
 10
-41.8844232529666
 20
-185.4348287917058
 42
0.0377479484612495
 10
-55.3382163168301
 20
-72.74233341247165
 42
0.0228978130502962
 10
-68.13636228509207
 20
-20.76695196063058
 42
0.0212883749859165
 10
-86.72152070734606
 20
32.66749715258268
 42
0.5098471833843346
 10
-89.45652079283531
 20
32.93186703065942
 42
0.261044403948444
 10
-90.15372851571527
 20
27.84269997751383
 42
-0.0001761244197605
 10
-67.92958819733548
 20
-56.6104452627146
 42
-0.0474816097355139
 10
-52.43951171910421
 20
-143.4940871866318
 42
0.1505760897941613
 10
-160.0350398349002
 20
-5.622360928789632
 42
0.9787721309441772
 10
-163.3954653721352
 20
-10.22481539545514
 42
-0.104332580826239
 10
-69.46485680532191
 20
-119.3382536502612
 42
-0.0781206534210341
 10
-50.11095808975119
 20
-174.4498177885508
 42
-0.0702193333232324
 10
-50.02746268844514
 20
-179.2051470386797
  0
LWPOLYLINE
  5
49
330
D3F
100
AcDbEntity
  8
KONTUR
100
AcDbPolyline
 90
       34
 70
     1
 43
0.0
 10
-145.578224313149
 20
-2.09535259152723
 42
0.0663264665486665
 10
-143.9257003725144
 20
0.5022399080871054
 42
0.075381406803761
 10
-142.7703519653273
 20
7.61493218657192
 42
-0.0911851353372624
 10
-136.0707987629762
 20
36.8383260895383
 42
-0.1126156727401755
 10
-121.8144871738708
 20
56.66678627571357
 42
0.1602149314761692
 10
-117.9201577654777
 20
62.60488882031427
 42
0.0364822305346738
 10
-115.25361398903
 20
78.91759775120644
 42
-0.0416787611507571
 10
-110.5892211605173
 20
105.1550267425489
 10
-108.4640533739434
 20
106.7564664326764
 10
-105.4629635767323
 20
105.0237864303954
 42
0.0449842990423476
 10
-108.6378737674191
 20
90.99308355925286
 42
-0.0010470891084263
 10
-111.1003920578644
 20
73.56969917651847
 42
-0.0426188463336278
 10
-113.8357112924088
 20
62.32259852556388
 42
-0.003966711589667
 10
-92.9625162216493
 20
72.95838629686392
 42
0.0308076726305407
 10
-75.94688910570926
 20
81.75436723899125
 42
0.0512219663589762
 10
-61.71376321771323
 20
91.55808724554256
 10
-55.59837029659653
 20
90.81307509739128
 42
-0.0416312431759674
 10
-76.87757356885869
 20
76.33002947587215
 10
-104.4817717148253
 20
61.77439007882054
 42
0.1589684744301967
 10
-128.5223768080806
 20
39.22763111553815
 42
0.0700949839821332
 10
-134.9742250949961
 20
22.06162352774521
 42
0.0508808842157097
 10
-136.6882736395168
 20
9.186600145547458
 42
0.0677822565897115
 10
-136.0051204161344
 20
3.943572583409121
 10
-131.913886223955
 20
-4.209081015816167
 42
0.037178005441913
 10
-129.6905627414152
 20
-6.80403669303223
 42
0.1856490664589895
 10
-128.7595453999092
 20
-7.220848094440597
 42
-0.0827114821241428
 10
-123.16808635124
 20
-8.164909331005944
 10
-108.6380782311768
 20
-12.67836042499534
 42
-0.6346676699181215
 10
-108.5859592169248
 20
-14.40342333175084
 42
-0.1377535534019318
 10
-110.9391052581227
 20
-14.96801143190167
 10
-122.2961621543252
 20
-14.35947868020949
 42
-0.0748665059609595
 10
-127.5447709697688
 20
-13.27921266928048
 10
-135.4899694514877
 20
-10.84702345292076
 42
0.114792941313952
 10
-138.2521893305045
 20
-10.63029852586042
  0
LWPOLYLINE
  5
4A
330
D3F
100
AcDbEntity
  8
KONTUR
100
AcDbPolyline
 90
       14
 70
     1
 43
0.0
 10
-233.7115029669567
 20
119.7756695439362
 10
-239.030797777549
 20
119.7756695439362
 10
-239.030797777549
 20
115.6420706752252
 10
-241.9851856642408
 20
115.6420706752252
 10
-241.947529373713
 20
115.5393997788367
 42
0.2322976229055629
 10
-238.6014623492584
 20
112.3414745644196
 42
0.1543409236892071
 10
-225.8215435846541
 20
112.3414745644262
 42
0.2322976229055563
 10
-222.4754765601969
 20
115.5393997788367
 10
-222.4378202696719
 20
115.6420706752252
 10
-225.3922081563581
 20
115.6420706752252
 10
-225.3922081563608
 20
119.7756695439362
 10
-230.7115029669532
 20
119.7756695439362
 10
-230.7115029669532
 20
115.6420706752252
 10
-233.7115029669567
 20
115.6420706752252
  0
LWPOLYLINE
  5
4B
330
D3F
100
AcDbEntity
  8
KONTUR
100
AcDbPolyline
 90
       15
 70
     1
 43
0.0
 10
-230.7115029669532
 20
102.4685776272897
 10
-233.7115029669567
 20
102.4685776272897
 10
-233.7115029669567
 20
106.6021764959998
 10
-239.030797777549
 20
106.6021764959998
 10
-239.030797777549
 20
102.4685776272897
 10
-241.9851856642408
 20
102.4685776272897
 10
-241.947529373713
 20
102.3659067309
 42
0.2226419672577412
 10
-237.9161194724771
 20
98.69440344643676
 42
0.0728670579986828
 10
-232.2115029669536
 20
97.79901081088295
 42
0.0728670579986828
 10
-226.5068864614328
 20
98.69440344643676
 42
0.2226419672577412
 10
-222.4754765601969
 20
102.3659067309
 10
-222.4378202696719
 20
102.4685776272897
 10
-225.3922081563581
 20
102.4685776272897
 10
-225.3922081563608
 20
106.6021764959998
 10
-230.7115029669532
 20
106.6021764959998
  0
LWPOLYLINE
  5
4C
330
D3F
100
AcDbEntity
  8
KONTUR
100
AcDbPolyline
 90
       15
 70
     1
 43
0.0
 10
-230.7115029669532
 20
88.98533676564037
 10
-233.7115029669567
 20
88.98533676564037
 10
-233.7115029669567
 20
93.11893563435161
 10
-239.030797777549
 20
93.11893563435161
 10
-239.030797777549
 20
88.98533676564037
 10
-241.9851856642408
 20
88.98533676564037
 10
-241.947529373713
 20
88.88266586925201
 42
0.181368391451888
 10
-237.9704799552345
 20
84.98036897217676
 42
0.0867637555056726
 10
-232.2115029669536
 20
83.82079766151509
 42
0.0867637555056693
 10
-226.4525259786781
 20
84.98036897217676
 42
0.181368391451888
 10
-222.4754765601969
 20
88.88266586925201
 10
-222.4378202696719
 20
88.98533676564037
 10
-225.3922081563581
 20
88.98533676564037
 10
-225.3922081563608
 20
93.11893563435161
 10
-230.7115029669532
 20
93.11893563435161
  0
LWPOLYLINE
  5
4D
330
D3F
100
AcDbEntity
  8
KONTUR
100
AcDbPolyline
 90
       15
 70
     1
 43
0.0
 10
-230.7115029669532
 20
74.52872151408294
 10
-233.7115029669567
 20
74.52872151408294
 10
-233.7115029669567
 20
78.66232038279363
 10
-239.030797777549
 20
78.66232038279363
 10
-239.030797777549
 20
74.52872151408294
 10
-241.9851856642408
 20
74.52872151408294
 10
-241.947529373713
 20
74.42605061769407
 42
0.181368391451888
 10
-237.9704799552345
 20
70.52375372061641
 42
0.0867637555056726
 10
-232.2115029669536
 20
69.36418240995681
 42
0.0867637555056693
 10
-226.4525259786781
 20
70.52375372061641
 42
0.181368391451888
 10
-222.4754765601969
 20
74.42605061769407
 10
-222.4378202696719
 20
74.52872151408294
 10
-225.3922081563581
 20
74.52872151408294
 10
-225.3922081563608
 20
78.66232038279363
 10
-230.7115029669532
 20
78.66232038279363
  0
LWPOLYLINE
  5
4E
330
D3F
100
AcDbEntity
  8
KONTUR
100
AcDbPolyline
 90
       13
 70
     1
 43
0.0
 10
-208.0626255703251
 20
105.8926061556232
 42
-0.1173287551771608
 10
-214.7495071602766
 20
107.4962670820131
 42
-0.1995921338903101
 10
-217.8363082676068
 20
111.8543182920778
 10
-214.881920380915
 20
111.8543182920778
 10
-214.881920380915
 20
115.9879171607891
 10
-209.5626255703254
 20
115.9879171607891
 10
-209.5626255703254
 20
111.8543182920778
 10
-206.5626255703219
 20
111.8543182920778
 10
-206.5626255703219
 20
115.9879171607891
 10
-201.2433307597297
 20
115.9879171607891
 10
-201.2433307597297
 20
111.8543182920778
 10
-198.2889428730378
 20
111.8543182920778
 42
-0.1995921338903071
 10
-201.3757439803681
 20
107.4962670820131
 42
-0.1173287551771608
  0
LWPOLYLINE
  5
4F
330
D3F
100
AcDbEntity
  8
KONTUR
100
AcDbPolyline
 90
       13
 70
     1
 43
0.0
 10
-202.8692389048941
 20
95.48956077993954
 10
-205.8692389048963
 20
95.48956077993954
 10
-205.8692389048963
 20
99.62315964865084
 10
-211.1885337154886
 20
99.62315964865084
 10
-211.1885337154886
 20
95.48956077993954
 10
-214.1429216021804
 20
95.48956077993954
 42
0.1863895152227561
 10
-210.1282158931727
 20
91.48459298647319
 42
0.0867637555056726
 10
-204.3692389048931
 20
90.32502167581384
 42
0.0867637555056693
 10
-198.6102619166191
 20
91.48459298647319
 42
0.1863895152227572
 10
-194.59555620761
 20
95.48956077993954
 10
-197.5499440943018
 20
95.48956077993954
 10
-197.5499440943018
 20
99.62315964865084
 10
-202.8692389048941
 20
99.62315964865084
  0
LWPOLYLINE
  5
50
330
D3F
100
AcDbEntity
  8
KONTUR
100
AcDbPolyline
 90
       13
 70
     1
 43
0.0
 10
-202.7433674675868
 20
79.26337974926386
 10
-205.7433674675876
 20
79.26337974926386
 10
-205.7433674675876
 20
83.39697861797517
 10
-211.0626622781827
 20
83.39697861797517
 10
-211.0626622781827
 20
79.26337974926386
 10
-214.0170501648744
 20
79.26337974926386
 42
0.1863895152227561
 10
-210.0023444558681
 20
75.25841195579786
 42
0.0867637555056726
 10
-204.2433674675872
 20
74.09884064513789
 42
0.0867637555056693
 10
-198.484390479309
 20
75.25841195579786
 42
0.1863895152227572
 10
-194.4696847703028
 20
79.26337974926386
 10
-197.4240726569945
 20
79.26337974926386
 10
-197.4240726569945
 20
83.39697861797517
 10
-202.7433674675868
 20
83.39697861797517
  0
LWPOLYLINE
  5
51
330
D3F
100
AcDbEntity
  8
KONTUR
100
AcDbPolyline
 90
       13
 70
     1
 43
0.0
 10
-207.4039171966144
 20
57.66538244508319
 42
-0.1173287551771608
 10
-214.0907987865659
 20
59.26904337147192
 42
-0.1995921338903101
 10
-217.1775998939016
 20
63.62709458153787
 10
-214.2232120072071
 20
63.62709458153787
 10
-214.2232120072071
 20
67.76069345024885
 10
-208.903917196612
 20
67.76069345024885
 10
-208.903917196612
 20
63.62709458153787
 10
-205.903917196614
 20
63.62709458153787
 10
-205.903917196614
 20
67.76069345024885
 10
-200.5846223860204
 20
67.76069345024885
 10
-200.5846223860204
 20
63.62709458153787
 10
-197.6302344993299
 20
63.62709458153787
 42
-0.1995921338903071
 10
-200.7170356066601
 20
59.26904337147192
 42
-0.1173287551771608
  0
LWPOLYLINE
  5
52
330
D3F
100
AcDbEntity
  8
KONTUR
100
AcDbPolyline
 90
       13
 70
     1
 43
0.0
 10
-208.5699409435523
 20
41.17906226723692
 42
-0.1173287551771608
 10
-215.2568225335038
 20
42.7827231936235
 42
-0.1995955241110523
 10
-218.3436236408367
 20
47.14077440368973
 10
-215.389235754145
 20
47.14077440368973
 10
-215.389235754145
 20
51.27437327240267
 10
-210.0699409435526
 20
51.27437327240267
 10
-210.0699409435526
 20
47.14077440368973
 10
-207.0699409435519
 20
47.14077440368973
 10
-207.0699409435519
 20
51.27437327240267
 10
-201.7506461329568
 20
51.27437327240267
 10
-201.7506461329568
 20
47.14077440368973
 10
-198.796258246265
 20
47.14077440368973
 42
-0.1995921338903071
 10
-201.8830593535979
 20
42.7827231936235
 42
-0.1173287551771608
  0
LWPOLYLINE
  5
53
330
D3F
100
AcDbEntity
  8
KONTUR
100
AcDbPolyline
 90
       13
 70
     1
 43
0.0
 10
-209.8366294290654
 20
24.26145725591382
 42
-0.1173287551771608
 10
-216.523511019017
 20
25.86511818230025
 42
-0.1995947169393328
 10
-219.6103121263499
 20
30.22316939236305
 10
-216.6559242396582
 20
30.22316939236305
 10
-216.6559242396582
 20
34.3567682610765
 10
-211.3366294290631
 20
34.3567682610765
 10
-211.3366294290631
 20
30.22316939236305
 10
-208.3366294290651
 20
30.22316939236305
 10
-208.3366294290651
 20
34.3567682610765
 10
-203.01733461847
 20
34.3567682610765
 10
-203.01733461847
 20
30.22316939236305
 10
-200.0629467317783
 20
30.22316939236305
 42
-0.1995904056892593
 10
-203.1497478391111
 20
25.86511818230025
 42
-0.1173287551771608
  0
LWPOLYLINE
  5
54
330
D3F
100
AcDbEntity
  8
KONTUR
100
AcDbPolyline
 90
       13
 70
     1
 43
0.0
 10
-211.0526340618208
 20
9.188649570207218
 42
-0.1173287551771608
 10
-217.7395156517751
 20
10.7923104965938
 42
-0.2002779531569785
 10
-220.8263167591066
 20
15.15036170665893
 10
-217.871928872419
 20
15.15036170665893
 10
-217.871928872419
 20
19.2839605753704
 10
-212.5526340618212
 20
19.2839605753704
 10
-212.5526340618212
 20
15.15036170665893
 10
-209.5526340618204
 20
15.15036170665893
 10
-209.5526340618204
 20
19.2839605753704
 10
-204.2333392512267
 20
19.2839605753704
 10
-204.2333392512267
 20
15.15036170665893
 10
-201.2789513645377
 20
15.15036170665893
 42
-0.199588619187384
 10
-204.3657524718678
 20
10.7923104965938
 42
-0.1173287551771608
  0
LWPOLYLINE
  5
55
330
D3F
100
AcDbEntity
  8
KONTUR
100
AcDbPolyline
 90
       13
 70
     1
 43
0.0
 10
-211.0692133766543
 20
-0.9822622858314673
 10
-214.0692133766524
 20
-0.9822622858314673
 10
-214.0692133766524
 20
3.151336582879494
 10
-219.3885081872461
 20
3.151336582879494
 10
-219.3885081872461
 20
-0.9822622858314673
 10
-222.3428960739365
 20
-0.9822622858314673
 42
0.2258072266680172
 10
-219.4692301606705
 20
-5.555293494480352
 42
0.1452655741732197
 10
-212.5692133766521
 20
-7.560181342068275
 42
0.1452655741732197
 10
-205.6691965926377
 20
-5.555293494480352
 42
0.2258072266680172
 10
-202.7955306793675
 20
-0.9822622858314673
 10
-205.7499185660593
 20
-0.9822622858314673
 10
-205.7499185660593
 20
3.151336582879494
 10
-211.0692133766543
 20
3.151336582879494
  0
LWPOLYLINE
  5
56
330
D3F
100
AcDbEntity
  8
KONTUR
100
AcDbPolyline
 90
       13
 70
     1
 43
0.0
 10
-211.8242809925713
 20
-18.70367128043892
 10
-214.824280992572
 20
-18.70367128043892
 10
-214.824280992572
 20
-14.57007241172727
 10
-220.1435758031671
 20
-14.57007241172727
 10
-220.1435758031671
 20
-18.70367128043892
 10
-223.0979636898561
 20
-18.70367128043892
 42
0.2258072266680172
 10
-220.2242977765914
 20
-23.27670248908721
 42
0.1452655741732197
 10
-213.3242809925716
 20
-25.28159033667523
 42
0.1452655741732197
 10
-206.4242642085573
 20
-23.27670248908721
 42
0.2258072266680172
 10
-203.5505982952872
 20
-18.70367128043892
 10
-206.5049861819789
 20
-18.70367128043892
 10
-206.5049861819789
 20
-14.57007241172727
 10
-211.8242809925713
 20
-14.57007241172727
  0
LWPOLYLINE
  5
57
330
D3F
100
AcDbEntity
  8
KONTUR
100
AcDbPolyline
 90
       13
 70
     1
 43
0.0
 10
-196.4850851441142
 20
-88.25668433591957
 42
-0.1685545056520827
 10
-203.9573158874683
 20
-85.76310301546545
 42
-0.2231706464089564
 10
-206.2587678413988
 20
-81.04856142243992
 10
-203.3043799547097
 20
-81.04856142243992
 10
-203.304379954707
 20
-75.25028928299502
 10
-197.9850851441173
 20
-75.25028928299502
 10
-197.9850851441173
 20
-81.04856142243992
 10
-194.9850851441139
 20
-81.04856142243992
 10
-194.9850851441139
 20
-75.25028928299502
 10
-189.6657903335202
 20
-75.25028928299502
 10
-189.6657903335202
 20
-81.04856142243992
 10
-186.7114024468298
 20
-81.04856142243992
 42
-0.2231706464089564
 10
-189.0128544007616
 20
-85.76310301546545
 42
-0.1685545056520827
  0
LWPOLYLINE
  5
58
330
D3F
100
AcDbEntity
  8
KONTUR
100
AcDbPolyline
 90
       13
 70
     1
 43
0.0
 10
-197.9764525417575
 20
-108.8779324041291
 42
-0.1685545056520827
 10
-205.4486832851101
 20
-106.3843510836747
 42
-0.2231706464089564
 10
-207.750135239042
 20
-101.6698094906499
 10
-204.7957473523516
 20
-101.6698094906499
 10
-204.7957473523516
 20
-95.87153735120727
 10
-199.4764525417579
 20
-95.87153735120727
 10
-199.4764525417579
 20
-101.6698094906499
 10
-196.4764525417544
 20
-101.6698094906499
 10
-196.4764525417544
 20
-95.87153735120727
 10
-191.1571577311648
 20
-95.87153735120727
 10
-191.1571577311648
 20
-101.6698094906499
 10
-188.2027698444703
 20
-101.6698094906499
 42
-0.2231706464089564
 10
-190.5042217984049
 20
-106.3843510836747
 42
-0.1685545056520827
  0
LWPOLYLINE
  5
59
330
D3F
100
AcDbEntity
  8
KONTUR
100
AcDbPolyline
 90
       13
 70
     1
 43
0.0
 10
-202.8031308050802
 20
-129.7938883669928
 42
-0.1685545056520827
 10
-210.2753615484328
 20
-127.3003070465387
 42
-0.2231706464089564
 10
-212.5768135023647
 20
-122.5857654535136
 10
-209.6224256156742
 20
-122.5857654535136
 10
-209.6224256156742
 20
-116.7874933140713
 10
-204.3031308050806
 20
-116.7874933140713
 10
-204.3031308050806
 20
-122.5857654535136
 10
-201.3031308050798
 20
-122.5857654535136
 10
-201.3031308050798
 20
-116.7874933140713
 10
-195.9838359944847
 20
-116.7874933140713
 10
-195.9838359944847
 20
-122.5857654535136
 10
-193.0294481077943
 20
-122.5857654535136
 42
-0.2231706464089564
 10
-195.3309000617289
 20
-127.3003070465387
 42
-0.1685545056520827
  0
LWPOLYLINE
  5
5A
330
D3F
100
AcDbEntity
  8
KONTUR
100
AcDbPolyline
 90
       13
 70
     1
 43
0.0
 10
-205.8671458110007
 20
-150.5090302414657
 42
-0.1685545056520827
 10
-213.3393765543532
 20
-148.0154489210096
 42
-0.2231706464089564
 10
-215.6408285082878
 20
-143.3009073279867
 10
-212.6864406215988
 20
-143.3009073279867
 10
-212.6864406215961
 20
-137.5026351885414
 10
-207.3671458110037
 20
-137.5026351885414
 10
-207.3671458110037
 20
-143.3009073279867
 10
-204.3671458110003
 20
-143.3009073279867
 10
-204.3671458110003
 20
-137.5026351885414
 10
-199.047851000408
 20
-137.5026351885414
 10
-199.047851000408
 20
-143.3009073279867
 10
-196.0934631137161
 20
-143.3009073279867
 42
-0.2231706464089564
 10
-198.394915067648
 20
-148.0154489210096
 42
-0.1685545056520827
  0
LWPOLYLINE
  5
5B
330
D3F
100
AcDbEntity
  8
KONTUR
100
AcDbPolyline
 90
       13
 70
     1
 43
0.0
 10
-168.2259638320385
 20
-26.62028378587448
 10
-171.2259638320392
 20
-26.62028378587448
 10
-171.2259638320392
 20
-20.82201164643239
 10
-176.5452586426343
 20
-20.82201164643239
 10
-176.5452586426343
 20
-26.62028378587448
 10
-179.4996465293261
 20
-26.62028378587448
 42
0.3472891685504102
 10
-175.658371667563
 20
-31.82462946989713
 42
0.0956549510589343
 10
-169.7259638320388
 20
-32.73721363908727
 42
0.0956549510589343
 10
-163.7935559965175
 20
-31.82462946989713
 42
0.3472891685504102
 10
-159.9522811347543
 20
-26.62028378587448
 10
-162.9066690214447
 20
-26.62028378587448
 10
-162.9066690214447
 20
-20.82201164643239
 10
-168.2259638320385
 20
-20.82201164643239
  0
LWPOLYLINE
  5
5C
330
D3F
100
AcDbEntity
  8
KONTUR
100
AcDbPolyline
 90
       13
 70
     1
 43
0.0
 10
-150.6052072846606
 20
-43.18427902518864
 10
-153.6052072846614
 20
-43.18427902518864
 10
-153.6052072846614
 20
-37.38600688574545
 10
-158.924502095251
 20
-37.38600688574545
 10
-158.924502095251
 20
-43.18427902518864
 10
-161.8788899819455
 20
-43.18427902518864
 42
0.3472891685504102
 10
-158.0376151201823
 20
-48.38862470920908
 42
0.0956549510589343
 10
-152.1052072846583
 20
-49.30120887840092
 42
0.0956549510589343
 10
-146.1727994491342
 20
-48.38862470920908
 42
0.3472891685504102
 10
-142.3315245873711
 20
-43.18427902518864
 10
-145.2859124740656
 20
-43.18427902518864
 10
-145.2859124740656
 20
-37.38600688574545
 10
-150.6052072846606
 20
-37.38600688574545
  0
LWPOLYLINE
  5
5D
330
D3F
100
AcDbEntity
  8
KONTUR
100
AcDbPolyline
 90
       13
 70
     1
 43
0.0
 10
-133.1060671208217
 20
-59.46168463011337
 10
-136.1060671208224
 20
-59.46168463011337
 10
-136.1060671208224
 20
-53.66341249066848
 10
-141.4253619314148
 20
-53.66341249066848
 10
-141.4253619314148
 20
-59.46168463011337
 10
-144.3797498181094
 20
-59.46168463011337
 42
0.3472891685504102
 10
-140.5384749563434
 20
-64.66603031413382
 42
0.0956549510589343
 10
-134.6060671208248
 20
-65.57861448332599
 42
0.0956549510589343
 10
-128.673659285298
 20
-64.66603031413382
 42
0.3472891685504102
 10
-124.8323844235349
 20
-59.46168463011337
 10
-127.7867723102266
 20
-59.46168463011337
 10
-127.786772310228
 20
-53.66341249066848
 10
-133.1060671208217
 20
-53.66341249066848
  0
LWPOLYLINE
  5
5E
330
D3F
100
AcDbEntity
  8
KONTUR
100
AcDbPolyline
 90
       13
 70
     1
 43
0.0
 10
-117.4050200497888
 20
-75.92452047101431
 10
-120.4050200497923
 20
-75.92452047101431
 10
-120.4050200497923
 20
-70.12624833157147
 10
-125.7243148603846
 20
-70.12624833157147
 10
-125.7243148603846
 20
-75.92452047101431
 10
-128.6787027470764
 20
-75.92452047101431
 42
0.3472891685504102
 10
-124.8374278853133
 20
-81.12886615503459
 42
0.0956549510589343
 10
-118.9050200497919
 20
-82.04145032422694
 42
0.0956549510589343
 10
-112.9726122142679
 20
-81.12886615503459
 42
0.3472891685504102
 10
-109.1313373525075
 20
-75.92452047101431
 10
-112.0857252391965
 20
-75.92452047101431
 10
-112.0857252391978
 20
-70.12624833157147
 10
-117.4050200497888
 20
-70.12624833157147
  0
LWPOLYLINE
  5
5F
330
D3F
100
AcDbEntity
  8
KONTUR
100
AcDbPolyline
 90
       13
 70
     1
 43
0.0
 10
-107.4454009630822
 20
-95.39437997633163
 10
-110.4454009630857
 20
-95.39437997633163
 10
-110.4454009630857
 20
-89.59610783688818
 10
-115.764695773678
 20
-89.59610783688818
 10
-115.764695773678
 20
-95.39437997633163
 10
-118.7190836603671
 20
-95.39437997633163
 42
0.3472891685504102
 10
-114.8778087986067
 20
-100.5987256603543
 42
0.0956549510589343
 10
-108.9454009630826
 20
-101.5113098295442
 42
0.0956549510589343
 10
-103.0129931275585
 20
-100.5987256603543
 42
0.3472891685504102
 10
-99.17171826579815
 20
-95.39437997633163
 10
-102.1261061524885
 20
-95.39437997633163
 10
-102.1261061524885
 20
-89.59610783688818
 10
-107.4454009630822
 20
-89.59610783688818
  0
LWPOLYLINE
  5
60
330
D3F
100
AcDbEntity
  8
KONTUR
100
AcDbPolyline
 90
       13
 70
     1
 43
0.0
 10
-93.6102673315565
 20
-113.1100073979977
 10
-96.61026733155729
 20
-113.1100073979977
 10
-96.61026733155729
 20
-107.3117352585549
 10
-101.9295621421509
 20
-107.3117352585549
 10
-101.9295621421509
 20
-113.1100073979977
 10
-104.8839500288413
 20
-113.1100073979977
 42
0.3472891685504102
 10
-101.042675167081
 20
-118.3143530820212
 42
0.0956549510589343
 10
-95.11026733155688
 20
-119.2269372512108
 42
0.0956549510589343
 10
-89.17785949603558
 20
-118.3143530820212
 42
0.3472891685504102
 10
-85.33658463426972
 20
-113.1100073979977
 10
-88.29097252096145
 20
-113.1100073979977
 10
-88.29097252096145
 20
-107.3117352585549
 10
-93.6102673315565
 20
-107.3117352585549
  0
LWPOLYLINE
  5
61
330
D3F
100
AcDbEntity
  8
KONTUR
100
AcDbPolyline
 90
        8
 70
     1
 43
0.0
 10
-92.50134716762117
 20
-129.5308833694364
 10
-92.50134716761982
 20
-140.1859820769311
 42
0.1847849843948839
 10
-78.86275754643569
 20
-140.1859820769311
 10
-78.86275754643569
 20
-129.5308833694364
 10
-84.18205235702533
 20
-129.5308833694364
 10
-84.18205235702533
 20
-135.3291555088792
 10
-87.18205235702599
 20
-135.3291555088792
 10
-87.18205235702599
 20
-129.5308833694364
  0
LWPOLYLINE
  5
62
330
D3F
100
AcDbEntity
  8
KONTUR
100
AcDbPolyline
 90
        8
 70
     1
 43
0.0
 10
-79.3239956395964
 20
-150.2971996612093
 10
-79.3239956395964
 20
-161.3636784891927
 42
0.2532056100497879
 10
-65.6854060184068
 20
-161.3636784891927
 10
-65.6854060184068
 20
-150.2971996612093
 10
-71.00470082900049
 20
-150.2971996612093
 10
-71.00470082900049
 20
-156.0954718006521
 10
-74.00470082900395
 20
-156.0954718006521
 10
-74.00470082900395
 20
-150.2971996612093
  0
LWPOLYLINE
  5
63
330
D3F
100
AcDbEntity
  8
KONTUR
100
AcDbPolyline
 90
       13
 70
     1
 43
0.0
 10
-92.49506694863631
 20
-26.21654901728444
 10
-95.49506694863698
 20
-26.21654901728444
 10
-95.49506694863698
 20
-20.99522508298286
 10
-100.8143617592293
 20
-20.99522508298286
 10
-100.8143617592293
 20
-26.21654901728444
 10
-103.7687496459211
 20
-26.21654901728444
 42
0.3472891685504102
 10
-99.92747478416074
 20
-31.42089470130702
 42
0.0956549510589343
 10
-93.99506694863664
 20
-32.33347887049689
 42
0.0956549510589343
 10
-88.06265911311536
 20
-31.42089470130702
 42
0.3472891685504102
 10
-84.22138425134942
 20
-26.21654901728444
 10
-87.17577213804117
 20
-26.21654901728444
 10
-87.17577213804117
 20
-20.99522508298286
 10
-92.49506694863631
 20
-20.99522508298286
  0
LWPOLYLINE
  5
64
330
D3F
100
AcDbEntity
  8
KONTUR
100
AcDbPolyline
 90
       13
 70
     1
 43
0.0
 10
-88.35938625951019
 20
-43.84505382064186
 10
-91.35938625951094
 20
-43.84505382064186
 10
-91.35938625951094
 20
-38.62372988634105
 10
-96.6786810701047
 20
-38.62372988634105
 10
-96.6786810701047
 20
-43.84505382064186
 10
-99.63306895679503
 20
-43.84505382064186
 42
0.3472891685504102
 10
-95.79179409503197
 20
-49.04939950466513
 42
0.0956549510589343
 10
-89.85938625951067
 20
-49.96198367385407
 42
0.0956549510589343
 10
-83.92697842398522
 20
-49.04939950466513
 42
0.3472891685504102
 10
-80.08570356222481
 20
-43.84505382064186
 10
-83.04009144891518
 20
-43.84505382064186
 10
-83.04009144891518
 20
-38.62372988634105
 10
-88.35938625951019
 20
-38.62372988634105
  0
LWPOLYLINE
  5
65
330
D3F
100
AcDbEntity
  8
KONTUR
100
AcDbPolyline
 90
       13
 70
     1
 43
0.0
 10
-109.8135265302814
 20
11.29979463315257
 10
-112.8135265302794
 20
11.29979463315257
 10
-112.8135265302794
 20
16.52111856745603
 10
-118.1328213408758
 20
16.52111856745603
 10
-118.1328213408758
 20
11.29979463315257
 10
-121.0872092275663
 20
11.29979463315257
 42
0.3472891685504102
 10
-117.2459343658031
 20
6.095448949131707
 42
0.0956549510589343
 10
-111.3135265302791
 20
5.182864779941994
 42
0.0956549510589343
 10
-105.3811186947577
 20
6.095448949131707
 42
0.3472891685504102
 10
-101.5398438329945
 20
11.29979463315257
 10
-104.4942317196891
 20
11.29979463315257
 10
-104.4942317196891
 20
16.52111856745603
 10
-109.8135265302814
 20
16.52111856745603
  0
LWPOLYLINE
  5
66
330
D3F
100
AcDbEntity
  8
KONTUR
100
AcDbPolyline
 90
       13
 70
     1
 43
0.0
 10
-109.8135265302814
 20
30.32528507689335
 10
-112.8135265302794
 20
30.32528507689335
 10
-112.8135265302794
 20
35.54660901119476
 10
-118.1328213408758
 20
35.54660901119476
 10
-118.1328213408758
 20
30.32528507689335
 10
-121.0872092275663
 20
30.32528507689335
 42
0.3472891685504102
 10
-117.2459343658031
 20
25.12093939287027
 42
0.0956549510589343
 10
-111.3135265302791
 20
24.20835522368142
 42
0.0956549510589343
 10
-105.3811186947577
 20
25.12093939287027
 42
0.3472891685504102
 10
-101.5398438329945
 20
30.32528507689335
 10
-104.4942317196891
 20
30.32528507689335
 10
-104.4942317196891
 20
35.54660901119476
 10
-109.8135265302814
 20
35.54660901119476
  0
LWPOLYLINE
  5
67
330
D3F
100
AcDbEntity
  8
KONTUR
100
AcDbPolyline
 90
       13
 70
     1
 43
0.0
 10
-98.67169720039052
 20
48.28451046341652
 10
-101.6716972003912
 20
48.28451046341652
 10
-101.6716972003912
 20
53.505834397717
 10
-106.9909920109863
 20
53.505834397717
 10
-106.9909920109863
 20
48.28451046341652
 10
-109.9453798976768
 20
48.28451046341652
 42
0.3472891685504102
 10
-106.1041050359122
 20
43.0801647793937
 42
0.0956549510589343
 10
-100.1716972003908
 20
42.1675806102034
 42
0.0956549510589343
 10
-94.23928936486957
 20
43.0801647793937
 42
0.3472891685504102
 10
-90.39801450310372
 20
48.28451046341652
 10
-93.3524023897969
 20
48.28451046341652
 10
-93.3524023897969
 20
53.505834397717
 10
-98.67169720039052
 20
53.505834397717
  0
LWPOLYLINE
  5
68
330
D3F
100
AcDbEntity
  8
KONTUR
100
AcDbPolyline
 90
       13
 70
     1
 43
0.0
 10
-73.00880220496647
 20
43.97332017313956
 10
-76.00880220496718
 20
43.97332017313956
 10
-76.00880220496718
 20
49.19464410744268
 10
-81.32809701556368
 20
49.19464410744268
 10
-81.32809701556368
 20
43.97332017313956
 10
-84.28248490225405
 20
43.97332017313956
 42
0.3472891685504102
 10
-80.44121004049094
 20
38.76897448911888
 42
0.0956549510589343
 10
-74.50880220496955
 20
37.85639031992932
 42
0.0956549510589343
 10
-68.57639436944545
 20
38.76897448911888
 42
0.3472891685504102
 10
-64.73511950768233
 20
43.97332017313956
 10
-67.68950739437688
 20
43.97332017313956
 10
-67.68950739437688
 20
49.19464410744268
 10
-73.00880220496647
 20
49.19464410744268
  0
LWPOLYLINE
  5
69
330
D3F
100
AcDbEntity
  8
KONTUR
100
AcDbPolyline
 90
       13
 70
     1
 43
0.0
 10
-75.27379337383878
 20
60.21181831713858
 10
-78.27379337383677
 20
60.21181831713858
 10
-78.27379337383677
 20
65.43314225144041
 10
-83.59308818443182
 20
65.43314225144041
 10
-83.59308818443182
 20
60.21181831713858
 10
-86.54747607112355
 20
60.21181831713858
 42
0.3472891685504102
 10
-82.70620120936049
 20
55.00747263311635
 42
0.0956549510589343
 10
-76.7737933738391
 20
54.09488846392631
 42
0.0956549510589343
 10
-70.84138553831781
 20
55.00747263311635
 42
0.3472891685504102
 10
-67.00011067655182
 20
60.21181831713858
 10
-69.95449856324092
 20
60.21181831713858
 10
-69.95449856324367
 20
65.43314225144041
 10
-75.27379337383878
 20
65.43314225144041
  0
LWPOLYLINE
  5
6A
330
D3F
100
AcDbEntity
  8
KONTUR
100
AcDbPolyline
 90
       13
 70
     1
 43
0.0
 10
-50.19673533821016
 20
-20.51870541787274
 10
-53.19673533821084
 20
-20.51870541787274
 10
-53.19673533821084
 20
-15.29738148356877
 10
-58.51603014880593
 20
-15.29738148356877
 10
-58.51603014880593
 20
-20.51870541787274
 10
-61.47041803549638
 20
-20.51870541787274
 42
0.3472891685504102
 10
-57.62914317373317
 20
-25.72305110189326
 42
0.0956549510589343
 10
-51.69673533821043
 20
-26.63563527108298
 42
0.0956549510589343
 10
-45.76432750268778
 20
-25.72305110189326
 42
0.3472891685504102
 10
-41.92305264092342
 20
-20.51870541787274
 10
-44.87744052761643
 20
-20.51870541787274
 10
-44.87744052761643
 20
-15.29738148356877
 10
-50.19673533821016
 20
-15.29738148356877
  0
LWPOLYLINE
  5
6B
330
D3F
100
AcDbEntity
  8
KONTUR
100
AcDbPolyline
 90
       13
 70
     1
 43
0.0
 10
-51.93305124870644
 20
-9.419542388282678
 42
-0.1487101683475403
 10
-58.5120813023191
 20
-7.511263987415688
 42
-0.2129968687924884
 10
-61.70673394599093
 20
-1.766996550187343
 10
-58.75234605930049
 20
-1.766996550187343
 10
-58.75234605930049
 20
4.031275589258228
 10
-53.43305124870684
 20
4.031275589258228
 10
-53.43305124870684
 20
-1.766996550187343
 10
-50.43305124870608
 20
-1.766996550187343
 10
-50.43305124870608
 20
4.031275589258228
 10
-45.11375643811375
 20
4.031275589258228
 10
-45.11375643811375
 20
-1.766996550187343
 10
-42.15936855142195
 20
-1.766996550187343
 42
-0.2129968687924884
 10
-45.35402119509254
 20
-7.511263987415688
 42
-0.1487101683475403
  0
LWPOLYLINE
  5
6C
330
D3F
100
AcDbEntity
  8
KONTUR
100
AcDbPolyline
 90
       13
 70
     1
 43
0.0
 10
-51.93305124870644
 20
27.261788395358
 42
-0.1487101683475403
 10
-58.5120813023191
 20
29.17006679622662
 42
-0.2129968687924884
 10
-61.70673394599093
 20
34.91433423345597
 10
-58.75234605930049
 20
34.91433423345597
 10
-58.75234605930049
 20
40.71260637289881
 10
-53.43305124870684
 20
40.71260637289881
 10
-53.43305124870684
 20
34.91433423345597
 10
-50.43305124870608
 20
34.91433423345597
 10
-50.43305124870608
 20
40.71260637289881
 10
-45.11375643811375
 20
40.71260637289881
 10
-45.11375643811375
 20
34.91433423345597
 10
-42.15936855142195
 20
34.91433423345597
 42
-0.2129968687924884
 10
-45.35402119509254
 20
29.17006679622662
 42
-0.1487101683475403
  0
LWPOLYLINE
  5
6D
330
D3F
100
AcDbEntity
  8
KONTUR
100
AcDbPolyline
 90
       13
 70
     1
 43
0.0
 10
-51.93305124870644
 20
46.98914650534928
 42
-0.1487101683475403
 10
-58.5120813023191
 20
48.89742490621535
 42
-0.2129968687924884
 10
-61.70673394599093
 20
54.64169234344726
 10
-58.75234605930049
 20
54.64169234344726
 10
-58.75234605930049
 20
60.43996448288968
 10
-53.43305124870684
 20
60.43996448288968
 10
-53.43305124870684
 20
54.64169234344726
 10
-50.43305124870608
 20
54.64169234344726
 10
-50.43305124870608
 20
60.43996448288968
 10
-45.11375643811375
 20
60.43996448288968
 10
-45.11375643811375
 20
54.64169234344726
 10
-42.15936855142195
 20
54.64169234344726
 42
-0.2129968687924884
 10
-45.35402119509254
 20
48.89742490621535
 42
-0.1487101683475403
  0
LWPOLYLINE
  5
6E
330
D3F
100
AcDbEntity
  8
KONTUR
100
AcDbPolyline
 90
       13
 70
     1
 43
0.0
 10
-51.69673533821043
 20
10.09474184221962
 42
-0.1059097187435892
 10
-57.87391007585296
 20
11.6223720010347
 42
-0.2623599013346166
 10
-61.47041803549638
 20
17.32879589770495
 10
-58.51603014880593
 20
17.32879589770495
 10
-58.51603014880593
 20
22.55011983200643
 10
-53.19673533821084
 20
22.55011983200643
 10
-53.19673533821084
 20
17.32879589770495
 10
-50.19673533821016
 20
17.32879589770495
 10
-50.19673533821016
 20
22.55011983200643
 10
-44.87744052761643
 20
22.55011983200643
 10
-44.87744052761643
 20
17.32879589770495
 10
-41.92305264092342
 20
17.32879589770495
 42
-0.2623599013346166
 10
-45.5195606005708
 20
11.6223720010347
 42
-0.1059097187435892
  0
LWPOLYLINE
  5
6F
330
D3F
100
AcDbEntity
  8
KONTUR
100
AcDbPolyline
 90
       13
 70
     1
 43
0.0
 10
-80.82408129755556
 20
92.68468249965303
 42
-0.1059097187435892
 10
-87.00125603519937
 20
94.21231265846964
 42
-0.2623599013346166
 10
-90.59776399484013
 20
99.91873655513717
 10
-87.64337610814829
 20
99.91873655513717
 10
-87.64337610814829
 20
105.1400604894415
 10
-82.32408129755865
 20
105.1400604894415
 10
-82.32408129755865
 20
99.91873655513717
 10
-79.32408129755521
 20
99.91873655513717
 10
-79.32408129755521
 20
105.1400604894415
 10
-74.00478648696284
 20
105.1400604894415
 10
-74.00478648696284
 20
99.91873655513717
 10
-71.05039860027106
 20
99.91873655513717
 42
-0.2623599013346166
 10
-74.64690655991444
 20
94.21231265846964
 42
-0.1059097187435892
  0
LWPOLYLINE
  5
70
330
D3F
100
AcDbEntity
  8
KONTUR
100
AcDbPolyline
 90
       13
 70
     1
 43
0.0
 10
-80.2812145915675
 20
112.2166864632821
 42
-0.1059097187435892
 10
-86.45838932921131
 20
113.7443166220981
 42
-0.2623599013346166
 10
-90.05489728885747
 20
119.4507405187657
 10
-87.10050940216293
 20
119.4507405187657
 10
-87.10050940216293
 20
124.6720644530699
 10
-81.78121459157056
 20
124.6720644530699
 10
-81.78121459157056
 20
119.4507405187657
 10
-78.78121459156981
 20
119.4507405187657
 10
-78.78121459156981
 20
124.6720644530699
 10
-73.46191978097746
 20
124.6720644530699
 10
-73.46191978097746
 20
119.4507405187657
 10
-70.50753189428298
 20
119.4507405187657
 42
-0.2623599013346166
 10
-74.10403985392908
 20
113.7443166220981
 42
-0.1059097187435892
  0
LWPOLYLINE
  5
71
330
D3F
100
AcDbEntity
  8
KONTUR
100
AcDbPolyline
 90
       13
 70
     1
 43
0.0
 10
-52.52290823996293
 20
132.1824262155555
 42
-0.1059097187435892
 10
-58.700082977604
 20
133.7100563743739
 42
-0.2623599013346166
 10
-62.29659093725015
 20
139.4164802710426
 10
-59.34220305056111
 20
139.4164802710426
 10
-59.34220305055842
 20
144.6378042053431
 10
-54.02290823996605
 20
144.6378042053431
 10
-54.02290823996605
 20
139.4164802710426
 10
-51.02290823996257
 20
139.4164802710426
 10
-51.02290823996257
 20
144.6378042053431
 10
-45.70361342936755
 20
144.6378042053431
 10
-45.70361342936755
 20
139.4164802710426
 10
-42.74922554267578
 20
139.4164802710426
 42
-0.2623599013346166
 10
-46.34573350232487
 20
133.7100563743739
 42
-0.1059097187435892
  0
LWPOLYLINE
  5
72
330
D3F
100
AcDbEntity
  8
KONTUR
100
AcDbPolyline
 90
       13
 70
     1
 43
0.0
 10
-50.43305124870608
 20
74.48502764727942
 10
-53.43305124870684
 20
74.48502764727942
 10
-53.43305124870684
 20
80.2832997867244
 10
-58.75234605930049
 20
80.2832997867244
 10
-58.75234605930049
 20
74.48502764727942
 10
-61.70673394599093
 20
74.48502764727942
 42
0.1566344208398497
 10
-58.64109337454845
 20
68.2865890478167
 42
0.2048623275952475
 10
-51.93305124870644
 20
65.28262266216867
 42
0.2048623275952475
 10
-45.22500912286595
 20
68.2865890478167
 42
0.1566344208398497
 10
-42.15936855142195
 20
74.48502764727942
 10
-45.11375643811375
 20
74.48502764727942
 10
-45.11375643811375
 20
80.2832997867244
 10
-50.43305124870608
 20
80.2832997867244
  0
LWPOLYLINE
  5
73
330
D3F
100
AcDbEntity
  8
KONTUR
100
AcDbPolyline
 90
       13
 70
     1
 43
0.0
 10
-50.43305124870608
 20
103.342318823057
 10
-53.43305124870684
 20
103.342318823057
 10
-53.43305124870684
 20
109.1405909625
 10
-58.75234605930049
 20
109.1405909625
 10
-58.75234605930049
 20
103.342318823057
 10
-61.70673394599093
 20
103.342318823057
 42
0.1566344208398497
 10
-58.64109337454845
 20
97.14388022359479
 42
0.2048623275952475
 10
-51.93305124870644
 20
94.13991383794394
 42
0.2048623275952475
 10
-45.22500912286595
 20
97.14388022359479
 42
0.1566344208398497
 10
-42.15936855142195
 20
103.342318823057
 10
-45.11375643811375
 20
103.342318823057
 10
-45.11375643811375
 20
109.1405909625
 10
-50.43305124870608
 20
109.1405909625
  0
LWPOLYLINE
  5
74
330
D3F
100
AcDbEntity
  8
KONTUR
100
AcDbPolyline
 90
       13
 70
     1
 43
0.0
 10
-51.23564645509162
 20
121.6744702948382
 10
-54.23564645509242
 20
121.6744702948382
 10
-54.23564645509242
 20
126.8957942291396
 10
-59.55494126568744
 20
126.8957942291396
 10
-59.55494126568744
 20
121.6744702948382
 10
-62.50932915237779
 20
121.6744702948382
 42
0.1835680491968502
 10
-59.1765499188794
 20
115.4610972423242
 42
0.1551971567103339
 10
-52.73564645509194
 20
113.4022190230812
 42
0.1551971567103339
 10
-46.29474299130635
 20
115.4610972423242
 42
0.1835680491968502
 10
-42.96196375780765
 20
121.6744702948382
 10
-45.91635164449683
 20
121.6744702948382
 10
-45.91635164449806
 20
126.8957942291396
 10
-51.23564645509162
 20
126.8957942291396
  0
LWPOLYLINE
  5
75
330
D3F
100
AcDbEntity
  8
KONTUR
100
AcDbPolyline
 90
       13
 70
     1
 43
0.0
 10
40.4425078878753
 20
-169.9055826308117
 42
-0.1487101683475403
 10
38.53422948700963
 20
-176.4846126844247
 42
-0.2129968687924884
 10
32.78996204977651
 20
-179.6792653280967
 10
32.78996204977651
 20
-176.7248774414056
 10
26.9916899103329
 20
-176.7248774414056
 10
26.9916899103329
 20
-171.4055826308123
 10
32.78996204977651
 20
-171.4055826308123
 10
32.78996204977651
 20
-168.4055826308115
 10
26.9916899103329
 20
-168.4055826308115
 10
26.9916899103329
 20
-163.0862878202175
 10
32.78996204977651
 20
-163.0862878202175
 10
32.78996204977651
 20
-160.1318999335261
 42
-0.2129968687924884
 10
38.53422948700963
 20
-163.3265525771982
 42
-0.1487101683475403
  0
LWPOLYLINE
  5
76
330
D3F
100
AcDbEntity
  8
KONTUR
100
AcDbPolyline
 90
       13
 70
     1
 43
0.0
 10
63.00255689355519
 20
-169.9055826308117
 42
-0.1487101683475403
 10
61.09427849268669
 20
-176.4846126844247
 42
-0.2129968687924884
 10
55.35001105545767
 20
-179.6792653280967
 10
55.35001105545767
 20
-176.7248774414056
 10
49.55173891601409
 20
-176.7248774414056
 10
49.55173891601409
 20
-171.4055826308123
 10
55.35001105545767
 20
-171.4055826308123
 10
55.35001105545767
 20
-168.4055826308115
 10
49.55173891601409
 20
-168.4055826308115
 10
49.55173891601409
 20
-163.0862878202175
 10
55.35001105545767
 20
-163.0862878202175
 10
55.35001105545767
 20
-160.1318999335261
 42
-0.2129968687924884
 10
61.09427849268669
 20
-163.3265525771982
 42
-0.1487101683475403
  0
LWPOLYLINE
  5
77
330
D3F
100
AcDbEntity
  8
KONTUR
100
AcDbPolyline
 90
       14
 70
     1
 43
0.0
 10
81.92813905877219
 20
-169.9055826308117
 42
-0.125137781217779
 10
80.10419723800806
 20
-176.6477592165614
 42
-0.1887003821773173
 10
75.56096645209237
 20
-179.6792653280967
 10
75.56096645209237
 20
-176.7248774414056
 10
70.56449696032166
 20
-176.7248774414056
 10
70.56449696032166
 20
-171.4055826308123
 10
75.56096645209237
 20
-171.4055826308123
 10
75.56096645209237
 20
-169.9055826308117
 10
75.56096645209237
 20
-168.4055826308115
 10
70.56449696032166
 20
-168.4055826308115
 10
70.56449696032166
 20
-163.0862878202175
 10
75.56096645209237
 20
-163.0862878202175
 10
75.56096645209237
 20
-160.1318999335261
 42
-0.1887003821773173
 10
80.10419723800806
 20
-163.1634060450612
 42
-0.125137781217779
  0
LWPOLYLINE
  5
78
330
D3F
100
AcDbEntity
  8
KONTUR
100
AcDbPolyline
 90
       14
 70
     1
 43
0.0
 10
102.1637708726292
 20
-169.9055826308117
 42
-0.125137781217779
 10
100.3398290518691
 20
-176.6477592165614
 42
-0.1887003821773173
 10
95.79659826595195
 20
-179.6792653280967
 10
95.79659826595195
 20
-176.7248774414056
 10
90.80012877417876
 20
-176.7248774414056
 10
90.80012877417876
 20
-171.4055826308123
 10
95.79659826595195
 20
-171.4055826308123
 10
95.79659826595195
 20
-169.9055826308117
 10
95.79659826595195
 20
-168.4055826308115
 10
90.80012877417876
 20
-168.4055826308115
 10
90.80012877417876
 20
-163.0862878202175
 10
95.79659826595195
 20
-163.0862878202175
 10
95.79659826595195
 20
-160.1318999335261
 42
-0.1887003821773173
 10
100.3398290518691
 20
-163.1634060450612
 42
-0.125137781217779
  0
LWPOLYLINE
  5
79
330
D3F
100
AcDbEntity
  8
KONTUR
100
AcDbPolyline
 90
       13
 70
     1
 43
0.0
 10
140.8719515267644
 20
-169.9055826308117
 42
-0.0964676439401628
 10
139.4537594754536
 20
-177.4843197834585
 42
-0.2491175113098786
 10
136.3279392003558
 20
-179.6792653280967
 10
136.3279392003558
 20
-176.7248774414056
 10
131.7908128932758
 20
-176.7248774414056
 10
131.7908128932758
 20
-171.4055826308123
 10
136.3279392003558
 20
-171.4055826308123
 10
136.3279392003558
 20
-168.4055826308115
 10
131.7908128932758
 20
-168.4055826308115
 10
131.7908128932758
 20
-163.0862878202175
 10
136.3279392003558
 20
-163.0862878202175
 10
136.3279392003558
 20
-160.1318999335261
 42
-0.2491175113098786
 10
139.4537594754536
 20
-162.3268454781622
 42
-0.0964676439401628
  0
LWPOLYLINE
  5
7A
330
D3F
100
AcDbEntity
  8
KONTUR
100
AcDbPolyline
 90
       14
 70
     1
 43
0.0
 10
122.6800336131733
 20
-169.9055826308117
 42
-0.125137781217779
 10
120.8560917924094
 20
-176.6477592165614
 42
-0.1887003821773173
 10
116.3128610064935
 20
-179.6792653280967
 10
116.3128610064935
 20
-176.7248774414056
 10
111.3163915147228
 20
-176.7248774414056
 10
111.3163915147228
 20
-171.4055826308123
 10
116.3128610064935
 20
-171.4055826308123
 10
116.3128610064935
 20
-169.9055826308117
 10
116.3128610064935
 20
-168.4055826308115
 10
111.3163915147228
 20
-168.4055826308115
 10
111.3163915147228
 20
-163.0862878202175
 10
116.3128610064935
 20
-163.0862878202175
 10
116.3128610064935
 20
-160.1318999335261
 42
-0.1887003821773173
 10
120.8560917924094
 20
-163.1634060450612
 42
-0.125137781217779
  0
LWPOLYLINE
  5
7B
330
D3F
100
AcDbEntity
  8
KONTUR
100
AcDbPolyline
 90
       13
 70
     1
 43
0.0
 10
157.6264283363028
 20
-169.9055826308117
 42
-0.0936668610398555
 10
155.9451031814277
 20
-177.9287103408738
 42
-0.259560608163643
 10
153.8522478624658
 20
-179.6792653280967
 10
153.8522478624658
 20
-176.7248774414056
 10
149.3151215553832
 20
-176.7248774414056
 10
149.3151215553832
 20
-171.4055826308123
 10
153.8522478624658
 20
-171.4055826308123
 10
153.8522478624658
 20
-168.4055826308115
 10
149.3151215553832
 20
-168.4055826308115
 10
149.3151215553832
 20
-163.0862878202175
 10
153.8522478624658
 20
-163.0862878202175
 10
153.8522478624658
 20
-160.1318999335261
 42
-0.259560608163643
 10
155.9451031814277
 20
-161.8824549207496
 42
-0.0936668610398555
  0
LWPOLYLINE
  5
7C
330
D3F
100
AcDbEntity
  8
KONTUR
100
AcDbPolyline
 90
       13
 70
     1
 43
0.0
 10
52.6391858260929
 20
-155.7183810860425
 42
-0.1487101683475403
 10
46.06015577247897
 20
-153.8101026851768
 42
-0.2129968687924884
 10
42.86550312880567
 20
-148.0658352479473
 10
45.81989101550038
 20
-148.0658352479473
 10
45.81989101550038
 20
-142.4576364447871
 10
51.13918582609276
 20
-142.4576364447871
 10
51.13918582609276
 20
-148.0658352479473
 10
54.1391858260933
 20
-148.0658352479473
 10
54.1391858260933
 20
-142.4576364447871
 10
59.45848063668712
 20
-142.4576364447871
 10
59.45848063668712
 20
-148.0658352479473
 10
62.41286852338003
 20
-148.0658352479473
 42
-0.2129968687924884
 10
59.21821587970573
 20
-153.8101026851768
 42
-0.1487101683475403
  0
LWPOLYLINE
  5
7D
330
D3F
100
AcDbEntity
  8
KONTUR
100
AcDbPolyline
 90
       13
 70
     1
 43
0.0
 10
82.91558668054818
 20
-155.7183810860425
 42
-0.1487101683475403
 10
76.33655662693567
 20
-153.8101026851768
 42
-0.2129968687924884
 10
73.14190398326369
 20
-148.0658352479473
 10
76.09629186995551
 20
-148.0658352479473
 10
76.09629186995551
 20
-142.9013677966005
 10
81.41558668054793
 20
-142.9013677966005
 10
81.41558668054793
 20
-148.0658352479473
 10
84.41558668055131
 20
-148.0658352479473
 10
84.41558668055131
 20
-142.9013677966005
 10
89.73488149114359
 20
-142.9013677966005
 10
89.73488149114359
 20
-148.0658352479473
 10
92.68926937783541
 20
-148.0658352479473
 42
-0.2129968687924884
 10
89.49461673416221
 20
-153.8101026851768
 42
-0.1487101683475403
  0
LWPOLYLINE
  5
7E
330
D3F
100
AcDbEntity
  8
KONTUR
100
AcDbPolyline
 90
       13
 70
     1
 43
0.0
 10
113.1069154057081
 20
-155.7183810860425
 42
-0.1487101683475403
 10
106.5278853520938
 20
-153.8101026851768
 42
-0.2129968687924884
 10
103.3332327084223
 20
-148.0658352479473
 10
106.2876205951129
 20
-148.0658352479473
 10
106.2876205951129
 20
-142.984520850759
 10
111.6069154057077
 20
-142.984520850759
 10
111.6069154057077
 20
-148.0658352479473
 10
114.6069154057086
 20
-148.0658352479473
 10
114.6069154057086
 20
-142.984520850759
 10
119.9262102163024
 20
-142.984520850759
 10
119.9262102163024
 20
-148.0658352479473
 10
122.8805981029952
 20
-148.0658352479473
 42
-0.2129968687924884
 10
119.6859454593234
 20
-153.8101026851768
 42
-0.1487101683475403
  0
LWPOLYLINE
  5
7F
330
D3F
100
AcDbEntity
  8
KONTUR
100
AcDbPolyline
 90
       13
 70
     1
 43
0.0
 10
141.3595750612264
 20
-155.7183810860425
 42
-0.1487101683475403
 10
134.7805450076109
 20
-153.8101026851768
 42
-0.2129968687924884
 10
131.5858923639395
 20
-148.0658352479473
 10
134.5402802506295
 20
-148.0658352479473
 10
134.5402802506295
 20
-143.1893618255285
 10
139.8595750612232
 20
-143.1893618255285
 10
139.8595750612232
 20
-148.0658352479473
 10
142.8595750612241
 20
-148.0658352479473
 10
142.8595750612241
 20
-143.1893618255285
 10
148.1788698718191
 20
-143.1893618255285
 10
148.1788698718191
 20
-148.0658352479473
 10
151.1332577585109
 20
-148.0658352479473
 42
-0.2129968687924884
 10
147.9386051148378
 20
-153.8101026851768
 42
-0.1487101683475403
  0
LWPOLYLINE
  5
80
330
D3F
100
AcDbEntity
  8
KONTUR
100
AcDbPolyline
 90
       13
 70
     1
 43
0.0
 10
69.5037440605088
 20
-133.2979961353533
 42
-0.1487101683475403
 10
62.92471400689607
 20
-131.3897177344873
 42
-0.2129968687924884
 10
59.73006136322688
 20
-125.6454502972581
 10
62.68444924991605
 20
-125.6454502972581
 10
62.68444924991605
 20
-119.8471781578126
 10
68.00374406050832
 20
-119.8471781578126
 10
68.00374406050832
 20
-125.6454502972581
 10
71.00374406051191
 20
-125.6454502972581
 10
71.00374406051191
 20
-119.8471781578126
 10
76.32303887110424
 20
-119.8471781578126
 10
76.32303887110424
 20
-125.6454502972581
 10
79.27742675779587
 20
-125.6454502972581
 42
-0.2129968687924884
 10
76.08277411412263
 20
-131.3897177344873
 42
-0.1487101683475403
  0
LWPOLYLINE
  5
81
330
D3F
100
AcDbEntity
  8
KONTUR
100
AcDbPolyline
 90
       13
 70
     1
 43
0.0
 10
98.08187190990262
 20
-134.0187586403626
 42
-0.1487101683475403
 10
91.50284185628832
 20
-132.1104802394969
 42
-0.2129968687924884
 10
88.30818921261803
 20
-126.3662128022673
 10
91.26257709931252
 20
-126.3662128022673
 10
91.26257709931252
 20
-120.5679406628224
 10
96.58187190990474
 20
-120.5679406628224
 10
96.58187190990474
 20
-126.3662128022673
 10
99.58187190990299
 20
-126.3662128022673
 10
99.58187190990299
 20
-120.5679406628224
 10
104.9011667204967
 20
-120.5679406628224
 10
104.9011667204967
 20
-126.3662128022673
 10
107.8555546071871
 20
-126.3662128022673
 42
-0.2129968687924884
 10
104.6609019635177
 20
-132.1104802394969
 42
-0.1487101683475403
  0
LWPOLYLINE
  5
82
330
D3F
100
AcDbEntity
  8
KONTUR
100
AcDbPolyline
 90
       13
 70
     1
 43
0.0
 10
127.4821514055705
 20
-134.4863790298812
 42
-0.1487101683475403
 10
120.9031213519579
 20
-132.5781006290154
 42
-0.2129968687924884
 10
117.7084687082859
 20
-126.8338331917836
 10
120.6628565949765
 20
-126.8338331917836
 10
120.6628565949765
 20
-121.035561052341
 10
125.9821514055701
 20
-121.035561052341
 10
125.9821514055701
 20
-126.8338331917836
 10
128.9821514055709
 20
-126.8338331917836
 10
128.9821514055709
 20
-121.035561052341
 10
134.3014462161658
 20
-121.035561052341
 10
134.3014462161658
 20
-126.8338331917836
 10
137.2558341028577
 20
-126.8338331917836
 42
-0.2129968687924884
 10
134.0611814591819
 20
-132.5781006290154
 42
-0.1487101683475403
  0
LWPOLYLINE
  5
83
330
D3F
100
AcDbEntity
  8
KONTUR
100
AcDbPolyline
 90
       13
 70
     1
 43
0.0
 10
82.24925105060597
 20
-112.263598122926
 42
-0.1487101683475403
 10
75.67022099699332
 20
-110.3553197220597
 42
-0.2129968687924884
 10
72.47556835332139
 20
-104.6110522848275
 10
75.42995624000912
 20
-104.6110522848275
 10
75.42995624001202
 20
-98.81278014538521
 10
80.74925105060694
 20
-98.81278014538521
 10
80.74925105060694
 20
-104.6110522848275
 10
83.74925105060654
 20
-104.6110522848275
 10
83.74925105060654
 20
-98.81278014538521
 10
89.06854586120131
 20
-98.81278014538521
 10
89.06854586120131
 20
-104.6110522848275
 10
92.02293374789167
 20
-104.6110522848275
 42
-0.2129968687924884
 10
88.82828110421991
 20
-110.3553197220597
 42
-0.1487101683475403
  0
LWPOLYLINE
  5
84
330
D3F
100
AcDbEntity
  8
KONTUR
100
AcDbPolyline
 90
       13
 70
     1
 43
0.0
 10
107.9192088563543
 20
-112.6211455078808
 42
-0.1487101683475403
 10
101.3401788027389
 20
-110.7128671070142
 42
-0.2129968687924884
 10
98.14552615906976
 20
-104.9685996697827
 10
101.0999140457574
 20
-104.9685996697827
 10
101.0999140457603
 20
-99.17032753033993
 10
106.419208856354
 20
-99.17032753033993
 10
106.419208856354
 20
-104.9685996697827
 10
109.4192088563548
 20
-104.9685996697827
 10
109.4192088563548
 20
-99.17032753033993
 10
114.7385036669499
 20
-99.17032753033993
 10
114.7385036669499
 20
-104.9685996697827
 10
117.6928915536404
 20
-104.9685996697827
 42
-0.2129968687924884
 10
114.4982389099687
 20
-110.7128671070142
 42
-0.1487101683475403
  0
LWPOLYLINE
  5
85
330
D3F
100
AcDbEntity
  8
KONTUR
100
AcDbPolyline
 90
       13
 70
     1
 43
0.0
 10
133.9469240564655
 20
-113.1574594200339
 42
-0.1487101683475403
 10
127.3678940028544
 20
-111.2491810191676
 42
-0.2129968687924884
 10
124.1732413591812
 20
-105.5049135819359
 10
127.1276292458729
 20
-105.5049135819359
 10
127.1276292458729
 20
-99.70664144249345
 10
132.4469240564653
 20
-99.70664144249345
 10
132.4469240564653
 20
-105.5049135819359
 10
135.4469240564686
 20
-105.5049135819359
 10
135.4469240564686
 20
-99.70664144249345
 10
140.7662188670625
 20
-99.70664144249345
 10
140.7662188670625
 20
-105.5049135819359
 10
143.7206067537529
 20
-105.5049135819359
 42
-0.2129968687924884
 10
140.5259541100811
 20
-111.2491810191676
 42
-0.1487101683475403
  0
LWPOLYLINE
  5
86
330
D3F
100
AcDbEntity
  8
KONTUR
100
AcDbPolyline
 90
       13
 70
     1
 43
0.0
 10
102.0710427036807
 20
-91.38911479060601
 42
-0.1487101683475403
 10
95.49201265006795
 20
-89.48083638973733
 42
-0.2129968687924884
 10
92.29736000639347
 20
-83.73656895250837
 10
95.2517478930863
 20
-83.73656895250837
 10
95.2517478930863
 20
-77.93829681306519
 10
100.5710427036802
 20
-77.93829681306519
 10
100.5710427036802
 20
-83.73656895250837
 10
103.571042703681
 20
-83.73656895250837
 10
103.571042703681
 20
-77.93829681306519
 10
108.8903375142733
 20
-77.93829681306519
 10
108.8903375142759
 20
-83.73656895250837
 10
111.844725400965
 20
-83.73656895250837
 42
-0.2129968687924884
 10
108.6500727572945
 20
-89.48083638973733
 42
-0.1487101683475403
  0
LWPOLYLINE
  5
87
330
D3F
100
AcDbEntity
  8
KONTUR
100
AcDbPolyline
 90
       13
 70
     1
 43
0.0
 10
127.0568486509769
 20
-91.62617085641489
 42
-0.1487101683475403
 10
120.477818597363
 20
-89.71789245554765
 42
-0.2129968687924884
 10
117.2831659536923
 20
-83.97362501831683
 10
120.2375538403843
 20
-83.97362501831683
 10
120.2375538403843
 20
-78.17535287887372
 10
125.5568486509791
 20
-78.17535287887372
 10
125.5568486509791
 20
-83.97362501831683
 10
128.55684865098
 20
-83.97362501831683
 10
128.55684865098
 20
-78.17535287887372
 10
133.8761434615724
 20
-78.17535287887372
 10
133.8761434615724
 20
-83.97362501831683
 10
136.8305313482641
 20
-83.97362501831683
 42
-0.2129968687924884
 10
133.6358787045925
 20
-89.71789245554765
 42
-0.1487101683475403
  0
LWPOLYLINE
  5
88
330
D3F
100
AcDbEntity
  8
KONTUR
100
AcDbPolyline
 90
       25
 70
     1
 43
0.0
 10
-13.5699985563189
 20
37.73850541992636
 42
-0.4541208637816425
 10
-11.58733394185296
 20
39.02395091584561
 42
-0.2765428892329079
 10
-9.274839382979152
 20
36.37627550210451
 42
0.0167369517146348
 10
-5.255724864674448
 20
5.878449009294484
 42
0.2721776999744527
 10
9.305255016109093
 20
-11.74881671306053
 42
0.2635786168937948
 10
32.17107450080139
 20
-7.791211408862423
 42
0.0313048619400213
 10
50.43807819301594
 20
9.205982223228431
 42
-0.0831245704349191
 10
64.2816929861257
 20
18.71477937677809
 42
-0.1162515998641346
 10
69.13591331512418
 20
19.55971615395822
 42
-0.5760821986238487
 10
71.09738410187856
 20
15.2648744645371
 42
0.0121196107827199
 10
66.33825888551547
 20
8.165626812184726
 10
50.15731700958358
 20
-21.73220607186852
 42
0.1379131307845268
 10
41.43555674332531
 20
-60.37713836979202
 42
0.1507653844872583
 10
48.14288193162665
 20
-78.67219318287607
 42
0.3415848249858679
 10
59.95657161110437
 20
-81.83766179212371
 42
0.0780854159269818
 10
74.34975805187281
 20
-72.96608085235757
 42
-0.0343405852193632
 10
80.55070289655366
 20
-68.3533254961371
 42
-0.329135287355075
 10
87.09323882589314
 20
-68.77930128843249
 10
42.41644183204389
 20
-128.0516393524286
 10
35.11033248825978
 20
-122.5446258849552
 10
33.30458100422937
 20
-124.9403014844331
 10
40.61069034801223
 20
-130.4473149519068
 10
-1.482275959721263
 20
-186.2917061568473
 10
-9.385937011858104
 20
-140.2888427668633
 42
-0.0449663802798107
 10
-17.97031982808787
 20
-33.58098964118737
 42
-0.0260173852007323
  0
LWPOLYLINE
  5
89
330
D3F
100
AcDbEntity
  8
KONTUR
100
AcDbPolyline
 90
        4
 70
     0
 43
0.0
 10
-9.274839382979152
 20
36.37627550210451
 10
-9.274839382979152
 20
-57.036148251158
 42
0.0432622143257914
 10
-1.575264804690675
 20
-142.5107740580898
 42
-0.1531511563931888
 10
67.04992951205241
 20
19.4799589826394
  0
LWPOLYLINE
  5
8A
330
D3F
100
AcDbEntity
  8
KONTUR
100
AcDbPolyline
 90
        5
 70
     0
 43
0.0
 10
5.172289145752323
 20
-177.4631495202815
 42
-0.0622497125277072
 10
4.342270302682301
 20
-174.6713659888729
 42
-0.0240742492610973
 10
3.48273496978296
 20
-166.4883459404004
 42
-0.043784571473012
 10
4.226066810658458
 20
-139.6014776238038
 42
-0.1296470938661831
 10
68.67480143450035
 20
11.74409001100346
  0
LWPOLYLINE
  5
8B
330
D3F
100
AcDbEntity
  8
KONTUR
100
AcDbPolyline
 90
       25
 70
     1
 43
0.0
 10
170.0065062557867
 20
143.1387376885632
 42
0.4541208637816425
 10
167.9431372466134
 20
144.2901878300894
 42
0.2765428892329079
 10
165.8108874804735
 20
141.4953126779321
 42
-0.0167369517146348
 10
163.8184025179288
 20
110.7983957973943
 42
-0.2721776999744527
 10
150.4555981829955
 20
92.24635838255963
 42
-0.2635786168937948
 10
127.3780349734471
 20
94.68242421903488
 42
-0.0313048619400213
 10
108.0264745206196
 20
110.4337772815118
 42
0.0831245704349191
 10
93.58406423624888
 20
119.0058061560078
 42
0.1162515998641346
 10
88.6845768665203
 20
119.5277225034787
 42
0.5760821986238487
 10
87.01156293278922
 20
115.1125150154843
 42
-0.0121196107827199
 10
92.22996657170089
 20
108.3437002362329
 10
110.3535791271569
 20
79.5819555204676
 42
-0.1379131307845268
 10
121.613087345925
 20
41.59875700948697
 42
-0.1507653844872583
 10
116.1309119030907
 20
22.90001389104753
 42
-0.3415848249858679
 10
104.5525443436183
 20
18.959853993672
 42
-0.0780854159269818
 10
89.60392665077064
 20
26.85970167338167
 42
0.0343405852193632
 10
83.11137605272685
 20
31.05207757195365
 42
0.329135287355075
 10
76.61135964901268
 20
30.19416235833492
 10
125.1118891842551
 20
-25.99235634502581
 10
132.0376299716349
 20
-20.01401664070472
 10
133.9979294800503
 20
-22.28496926842018
 10
127.0721886926702
 20
-28.26330897273822
 10
172.7677464094719
 20
-81.20034559725112
 10
177.6104088532865
 20
-34.77535320565363
 42
0.0449663802798107
 10
179.1158865463067
 20
72.2666529598788
 42
0.0260173852007323
  0
LWPOLYLINE
  5
8C
330
D3F
100
AcDbEntity
  8
KONTUR
100
AcDbPolyline
 90
        4
 70
     0
 43
0.0
 10
165.8108874804735
 20
141.4953126779321
 10
171.9913193740402
 20
48.28757065471151
 42
-0.0432622143257914
 10
169.9638603922088
 20
-37.50919219563767
 42
0.1531511563931888
 10
90.77126690318616
 20
119.5861547200681
  0
LWPOLYLINE
  5
8D
330
D3F
100
AcDbEntity
  8
KONTUR
100
AcDbPolyline
 90
        5
 70
     0
 43
0.0
 10
165.5436400912241
 20
-72.83141872872608
 42
0.0622497125277072
 10
166.1871278823204
 20
-69.99083603695272
 42
0.0240742492610973
 10
166.5033679314339
 20
-61.76887700436587
 42
0.043784571473012
 10
163.9827530981613
 20
-34.99010311603991
 42
0.1296470938661831
 10
89.66178245253789
 20
111.7597301363637
  0
LWPOLYLINE
  5
8E
330
D3F
100
AcDbEntity
  8
KONTUR
100
AcDbPolyline
 90
       34
 70
     1
 43
0.0
 10
172.4553711609668
 20
-94.3934277615733
 42
-0.0663264665486665
 10
169.7613063707186
 20
-92.90334820853926
 42
-0.075381406803761
 10
165.3431718344982
 20
-87.21078212545434
 42
0.0911851353372624
 10
145.476138566253
 20
-64.75656752245538
 42
0.1126156727401755
 10
123.469532127464
 20
-54.1679166863663
 42
-0.1602149314761692
 10
117.2084617902306
 20
-50.8174149920701
 42
-0.0364822305346738
 10
107.0608806515625
 20
-37.76975139241421
 42
0.0416787611507571
 10
90.40974260484587
 20
-16.96353015251261
 10
87.77735568388235
 20
-16.57431774195615
 10
85.97133476647508
 20
-19.53185191878612
 42
-0.0449842990423476
 10
95.47328166537557
 20
-30.33248536815812
 42
0.0010470891084263
 10
105.9732091430644
 20
-44.45303219335591
 42
0.0426188463336278
 10
113.7571189678202
 20
-53.01982810592501
 42
0.003966711589667
 10
90.33942617235998
 20
-53.66938034822244
 42
-0.0308076726305407
 10
71.18935467804774
 20
-54.0884372007498
 42
-0.0512219663589762
 10
54.00027632916585
 20
-52.29111028933957
 10
48.98704898004956
 20
-55.87170035616055
 42
0.0416312431759674
 10
74.6022852218077
 20
-58.40601972361936
 10
105.8060453551527
 20
-57.97736242533106
 42
-0.1589684744301967
 10
137.7047377276848
 20
-66.27076087956577
 42
-0.0700949839821332
 10
151.5844110793428
 20
-78.25628675342071
 42
-0.0508808842157097
 10
159.250589033657
 20
-88.74122380987879
 42
-0.0677822565897115
 10
161.1596949318613
 20
-93.67187802746531
 10
161.4686209282583
 20
-102.7882656153744
 42
-0.037178005441913
 10
160.7581603282901
 20
-106.1307509198448
 42
-0.1856490664589895
 10
160.1401203834187
 20
-106.9422628797567
 42
0.0827114821241428
 10
155.6821949774759
 20
-110.4469122183305
 10
145.083672848109
 20
-121.363125179801
 42
0.6346676699181215
 10
145.8634083325683
 20
-122.9027910520585
 42
0.1377535534019318
 10
148.1998082684864
 20
-122.2724805306
 10
157.8808910205376
 20
-116.3034194485389
 42
0.0748665059609595
 10
161.9725915929131
 20
-112.8432380113935
 10
167.7851455002119
 20
-106.9055667193083
 42
-0.114792941313952
 10
170.1068566136912
 20
-105.393453674737
  0
LWPOLYLINE
  5
8F
330
D3F
100
AcDbEntity
  8
KONTUR
100
AcDbPolyline
 90
       10
 70
     1
 43
0.0
 10
180.3798062508362
 20
-121.022768626568
 42
-0.4142135623730808
 10
178.1298062508326
 20
-123.2727686265687
 10
174.43212782378
 20
-123.2727686265687
 42
-0.4142135623730808
 10
172.1821278237804
 20
-121.022768626568
 10
172.1821278237804
 20
-116.5877646418813
 10
174.7809670373079
 20
-116.5877646418813
 10
174.7809670373079
 20
-119.9028952712876
 10
177.7809670373085
 20
-119.9028952712876
 10
177.7809670373085
 20
-116.5877646418813
 10
180.3798062508362
 20
-116.5877646418813
  0
LWPOLYLINE
  5
90
330
D3F
100
AcDbEntity
  8
KONTUR
100
AcDbPolyline
 90
       10
 70
     1
 43
0.0
 10
180.3798062508362
 20
-132.0447435726942
 42
-0.4142135623730808
 10
178.1298062508326
 20
-134.2947435726944
 10
174.43212782378
 20
-134.2947435726944
 42
-0.4142135623730808
 10
172.1821278237804
 20
-132.0447435726942
 10
172.1821278237804
 20
-127.6097395880067
 10
174.7809670373079
 20
-127.6097395880067
 10
174.7809670373079
 20
-130.9248702174153
 10
177.7809670373085
 20
-130.9248702174153
 10
177.7809670373085
 20
-127.6097395880067
 10
180.3798062508362
 20
-127.6097395880067
  0
LWPOLYLINE
  5
91
330
D3F
100
AcDbEntity
  8
KONTUR
100
AcDbPolyline
 90
       10
 70
     1
 43
0.0
 10
180.3798062508362
 20
-143.2273640573106
 42
-0.4142135623730808
 10
178.1298062508326
 20
-145.4773640573113
 10
174.43212782378
 20
-145.4773640573113
 42
-0.4142135623730808
 10
172.1821278237804
 20
-143.2273640573106
 10
172.1821278237804
 20
-138.7923600726235
 10
174.7809670373079
 20
-138.7923600726235
 10
174.7809670373079
 20
-142.1074907020298
 10
177.7809670373085
 20
-142.1074907020298
 10
177.7809670373085
 20
-138.7923600726235
 10
180.3798062508362
 20
-138.7923600726235
  0
LWPOLYLINE
  5
92
330
D3F
100
AcDbEntity
  8
KONTUR
100
AcDbPolyline
 90
       10
 70
     1
 43
0.0
 10
180.3798062508362
 20
-155.6172479446568
 42
-0.4142135623730808
 10
178.1298062508326
 20
-157.8672479446577
 10
174.43212782378
 20
-157.8672479446577
 42
-0.4142135623730808
 10
172.1821278237804
 20
-155.6172479446568
 10
172.1821278237804
 20
-151.1822439599696
 10
174.7809670373079
 20
-151.1822439599696
 10
174.7809670373079
 20
-154.4973745893785
 10
177.7809670373085
 20
-154.4973745893785
 10
177.7809670373085
 20
-151.1822439599696
 10
180.3798062508362
 20
-151.1822439599696
  0
LWPOLYLINE
  5
93
330
D3F
100
AcDbEntity
  8
KONTUR
100
AcDbPolyline
 90
       10
 70
     1
 43
0.0
 10
180.3798062508362
 20
-168.6455796204128
 42
-0.4142135623730808
 10
178.1298062508326
 20
-170.8955796204137
 10
174.43212782378
 20
-170.8955796204137
 42
-0.4142135623730808
 10
172.1821278237804
 20
-168.6455796204128
 10
172.1821278237804
 20
-164.2105756357263
 10
174.7809670373079
 20
-164.2105756357263
 10
174.7809670373079
 20
-167.5257062651351
 10
177.7809670373085
 20
-167.5257062651351
 10
177.7809670373085
 20
-164.2105756357263
 10
180.3798062508362
 20
-164.2105756357263
  0
LWPOLYLINE
  5
94
330
D3F
100
AcDbEntity
  8
KONTUR
100
AcDbPolyline
 90
       10
 70
     1
 43
0.0
 10
180.3798062508362
 20
-182.1112225586663
 42
-0.4142135623730808
 10
178.1298062508326
 20
-184.3612225586642
 10
174.43212782378
 20
-184.3612225586642
 42
-0.4142135623730808
 10
172.1821278237804
 20
-182.1112225586663
 10
172.1821278237804
 20
-177.6762185739794
 10
174.7809670373079
 20
-177.6762185739794
 10
174.7809670373079
 20
-180.9913492033849
 10
177.7809670373085
 20
-180.9913492033849
 10
177.7809670373085
 20
-177.6762185739794
 10
180.3798062508362
 20
-177.6762185739794
  0
LWPOLYLINE
  5
95
330
D3F
100
AcDbEntity
  8
KONTUR
100
AcDbPolyline
 90
       44
 70
     1
 43
0.0
 10
128.0795686821345
 20
106.0463510197693
 42
-0.2884436785081736
 10
124.8842672456744
 20
108.8824474827848
 42
-0.1909685853303172
 10
125.2124563582843
 20
112.3578797173253
 42
-0.1808593187834536
 10
126.9518062702603
 20
114.0972296293016
 42
0.1398295885958712
 10
129.1681945867898
 20
115.8086275682767
 42
0.2521955257136922
 10
129.6913201589967
 20
122.8133104423379
 42
0.2452544064365909
 10
128.1648326500608
 20
123.7613102924913
 10
128.9695439777322
 20
129.4354186353803
 10
123.0289888670089
 20
130.2779178795575
 10
122.2242775393347
 20
124.6038095366693
 42
-0.2506262592493735
 10
119.9308636396984
 20
126.487571983195
 42
-0.1883861154061714
 10
119.6894689400491
 20
130.8099472728244
 42
-0.3087789481283599
 10
124.3496211877763
 20
134.5070732165952
 10
129.2530691949383
 20
134.8592026138972
 42
0.502106756190596
 10
130.7070737386156
 20
137.3776123579793
 42
-0.0113256275997558
 10
129.6875571862783
 20
139.1434668257806
 42
-0.1976138357903213
 10
129.2810982412045
 20
142.6581217934917
 10
136.9528299173664
 20
142.6581217934917
 10
136.9528299173664
 20
123.2620861500427
 10
139.9528299173685
 20
123.2620861500427
 10
139.9528299173685
 20
142.6581217934917
 10
147.6245615935303
 20
142.6581217934917
 42
-0.1976138357903213
 10
147.2181026484539
 20
139.1434668257806
 42
-0.0113256275997558
 10
146.1985860961194
 20
137.3776123579793
 42
0.502106756190596
 10
147.6525906397966
 20
134.8592026138972
 10
152.5560386469584
 20
134.5070732165952
 42
-0.3087789481283599
 10
157.2161908946858
 20
130.8099472728244
 42
-0.1883861154061714
 10
156.9747961950391
 20
126.487571983195
 42
-0.2506262592493735
 10
154.6813822954003
 20
124.6038095366693
 10
153.8766709677256
 20
130.2779178795575
 10
147.9361158570028
 20
129.4354186353803
 10
148.7408271846742
 20
123.7613102924913
 42
0.2452544064365909
 10
147.2143396757381
 20
122.8133104423379
 42
0.2521955257136922
 10
147.7374652479454
 20
115.8086275682767
 42
0.1398295885958712
 10
149.9538535644731
 20
114.0972296293016
 42
-0.1808593187834536
 10
151.6932034764477
 20
112.3578797173253
 42
-0.1909685853303172
 10
152.0213925890606
 20
108.8824474827848
 42
-0.2884436785081736
 10
148.8260911525993
 20
106.0463510197693
 10
148.8260911525993
 20
112.0318380608604
 10
142.8260911525978
 20
112.0318380608604
 10
142.8260911525978
 20
106.0210509336355
 10
134.0795686821358
 20
106.0210509336355
 10
134.0795686821358
 20
112.0318380608604
 10
128.0795686821345
 20
112.0318380608604
  0
LWPOLYLINE
  5
96
330
D3F
100
AcDbEntity
  8
KONTUR
100
AcDbPolyline
 90
       69
 70
     1
 43
0.0
 10
21.30346166542288
 20
62.09223569264048
 42
-0.236596361543746
 10
26.85496815054028
 20
65.08173362649259
 42
-0.5767579291999727
 10
27.19639631880151
 20
64.52958451179672
 10
25.40713898012646
 20
61.19514904738323
 10
30.29290580925362
 20
60.12709329199037
 42
-0.2193241909619672
 10
35.56667528027553
 20
62.74743873638192
 42
-0.5767579291999727
 10
35.90810344853976
 20
62.19528962168647
 10
34.32529555026111
 20
59.24559050614345
 10
38.94302022129842
 20
58.23613025472136
 42
-0.2023393061872493
 10
43.91841280128111
 20
60.50959741223294
 42
-0.5767579291999727
 10
44.25984096954413
 20
59.95744829753715
 10
42.87495197646914
 20
57.37658814233506
 10
47.42006010513571
 20
56.38300227025286
 42
-0.1914984008361353
 10
52.1923370601944
 20
58.44437157692479
 42
-0.5767579291999727
 10
52.53376522845577
 20
57.89222246223139
 10
51.27206375715206
 20
55.54093288499337
 10
55.58444104908661
 20
54.59822326597699
 42
-0.1798588987565295
 10
60.12802679932596
 20
56.44063733913782
 42
-0.5767579291999727
 10
60.46945496758731
 20
55.888488224442
 10
59.33691950001424
 20
53.77791064225269
 10
59.8631235866846
 20
53.66287950733834
 42
0.0345319918919168
 10
63.84029965185664
 20
53.06158899733117
 42
-0.1902862620044119
 10
67.7931696212502
 20
56.39047799953861
 42
-0.581298435551306
 10
68.27913530888648
 20
55.95621715492453
 42
0.08912149209369
 10
68.18027410238184
 20
53.03332025355459
 42
0.0479531550552104
 10
73.68510741461637
 20
53.94326740318518
 42
-0.0867146461345419
 10
75.23642505723867
 20
57.98897582412192
 42
-0.5230454663956705
 10
75.85104436940827
 20
58.0307211320327
 42
0.1085612190848441
 10
78.626612607661
 20
55.78744155498942
 42
0.4522541555337197
 10
80.55511715300767
 20
71.22683948417042
 42
0.0832529617495526
 10
69.7422295302666
 20
78.42629611705223
 10
43.07799302249038
 20
91.3734666860077
 42
-0.0696277884940719
 10
21.48457934235983
 20
105.8647188926547
 42
-0.1985005360738874
 10
16.41737475771097
 20
116.386965837398
 42
-0.1752291331977167
 10
19.85275175165664
 20
128.8832541068432
 42
-0.1632496306576212
 10
42.04241529909515
 20
142.2505212471652
 42
-0.064900647825758
 10
74.35043828155539
 20
144.9727216283991
 42
-0.0676752677786938
 10
108.7066539886286
 20
138.9259421202174
 42
-0.2156471056153555
 10
109.791854395501
 20
137.7751978923106
 42
-0.4019648561347901
 10
108.9473602697069
 20
136.3124911597388
 42
-0.0552217058781258
 10
98.94097289111901
 20
135.411861563044
 42
-0.032851896500578
 10
86.39746517094426
 20
136.1827810158426
 42
0.0480929937614055
 10
60.29477997597555
 20
136.7408988697271
 42
0.058012338663029
 10
44.25269179321829
 20
133.4638946859189
 42
0.1247528182650855
 10
32.15570420456153
 20
125.9023192205549
 42
0.3716429388541405
 10
31.03412124099835
 20
115.3982434214659
 42
0.0969118768439197
 10
43.53428241009228
 20
106.2812221870959
 10
82.82783688891198
 20
88.73834962417063
 42
-0.0606867068828565
 10
90.02806808392534
 20
83.67039847092906
 42
-0.0749162012144227
 10
96.64353331907012
 20
75.80250736013849
 42
-0.1895902970932408
 10
99.21827503424916
 20
58.71212928433251
 42
-0.1789198446002719
 10
89.06047486129706
 20
43.82687954007704
 42
-0.1799469768037048
 10
63.42298261263028
 20
36.95733419608698
 42
-0.0298471537404739
 10
36.3821159550238
 20
41.15376538981945
 42
0.0179111726893865
 10
10.00807700841272
 20
45.89361845173721
 42
0.0355149004438582
 10
1.810566784215588
 20
46.4766213170034
 10
2.137995667208009
 20
53.42824686554684
 10
10.83750230437453
 20
53.01849094286357
 10
10.97864898233918
 20
56.01516870587184
 10
2.279142345171472
 20
56.42492462855267
 10
2.737246656083975
 20
66.1509133762315
 10
4.950091256327162
 20
65.66717326055766
 42
-0.2383651820092512
 10
10.52854591856567
 20
68.69532468478841
 42
-0.5767579291999727
 10
10.86997408682703
 20
68.143175570088
 10
9.059323661121219
 20
64.76887224176389
 10
13.01752793596261
 20
63.90358681070785
 42
-0.2229097330204564
 10
18.35111187533788
 20
66.59927445393234
 42
-0.5767579291999727
 10
18.69254004359899
 20
66.04712533923157
 10
17.06726825151755
 20
63.01829109293314
  0
LWPOLYLINE
  5
97
330
D3F
100
AcDbEntity
  8
KONTUR
100
AcDbPolyline
 90
       19
 70
     1
 43
0.0
 10
3.792741376233273
 20
17.87114703367176
 10
5.288382953963285
 20
15.63654001178146
 42
0.2327557386060541
 10
10.2328929533116
 20
12.78182583264647
 42
0.1027063606940544
 10
14.84424954135579
 20
13.42444664759691
 42
-0.1536962753004436
 10
22.93773809397687
 20
13.73339195014606
 42
-0.0631731776225791
 10
28.40668343484068
 20
11.46595397671586
 42
0.2030079380082422
 10
35.5686480919374
 20
10.61226839478495
 42
0.1095490610196198
 10
39.08262569416733
 20
12.53270597732994
 10
30.66724859175248
 20
16.3189950912114
 10
31.89817214115161
 20
19.05483631751156
 10
40.5914979258386
 20
15.14349112390123
 42
0.0239575433258335
 10
40.6277478122823
 20
15.52514143074118
 42
0.1662401908577182
 10
39.54812199448868
 20
19.41853151120961
 42
0.0756457725066923
 10
34.37404898474032
 20
24.2321296169329
 42
0.0766020855033271
 10
27.07839748546398
 20
27.80980320690535
 42
0.1132071171723588
 10
12.73443757804816
 20
27.80980320690535
 42
0.2389875431636486
 10
3.534822778260952
 20
20.86038155157209
 10
12.45892762395541
 20
21.76607469483071
 10
12.76183686055478
 20
18.78140620496742
  0
LWPOLYLINE
  5
98
330
D3F
100
AcDbEntity
  8
KONTUR
100
AcDbPolyline
 90
       19
 70
     1
 43
0.0
 10
88.97937278562574
 20
-44.86361812290801
 10
86.50831136948715
 20
-45.92393305206449
 42
-0.2327557386060541
 10
80.80661108231538
 20
-45.62697175250288
 42
-0.1027063606940544
 10
77.28821037536261
 20
-42.57763943883304
 42
0.1536962753004436
 10
70.66719180014891
 20
-37.91265099531914
 42
0.0631731776225791
 10
64.84526448897
 20
-36.83756937606688
 42
-0.2030079380082422
 10
58.37275365493142
 20
-33.65494147988606
 42
-0.1095490610196198
 10
56.47048765843276
 20
-30.1310936999691
 10
65.59083322085019
 20
-31.53603279186171
 10
66.04757927527657
 20
-28.57100614075493
 10
56.6260008625621
 20
-27.11966378439965
 42
-0.0239575433258335
 10
56.80335070733757
 20
-26.77978432997984
 42
-0.1662401908577182
 10
59.82842584243415
 20
-24.10153888712788
 42
-0.0756457725066923
 10
66.78904674307768
 20
-22.88026295141306
 42
-0.0766020855033271
 10
74.85655041078996
 20
-23.85065652450413
 42
-0.1132071171723588
 10
86.88893762877265
 20
-31.65903943404572
 42
-0.2389875431636486
 10
90.82296858025737
 20
-42.49651027741314
 10
83.83004006793887
 20
-36.87878136011724
 10
81.95118960910116
 20
-39.21756757380303
  0
LWPOLYLINE
  5
99
330
D3F
100
AcDbEntity
  8
KONTUR
100
AcDbPolyline
 90
       17
 70
     1
 43
0.0
 10
-12.58905175147708
 20
58.39083820735206
 10
-12.58905175147708
 20
51.27178850717223
 42
-0.1229338618286196
 10
-14.66689291967798
 20
52.389781527997
 42
0.2219635910138588
 10
-17.11431474767468
 20
53.12183332944184
 42
-0.58952116779302
 10
-18.0669703349712
 20
54.07448891673189
 42
0.1549009300323093
 10
-17.97351270730478
 20
56.5561180003923
 42
-0.4383089237523178
 10
-17.28629822638582
 20
58.12680486891057
 42
0.4175489214995558
 10
-16.25395560805139
 20
59.31366155916961
 42
0.4908225133648449
 10
-17.31291415719959
 20
60.02996109479363
 42
-0.3820537844723525
 10
-18.01285589273388
 20
60.50304759265276
 42
-0.2889242245926
 10
-17.29038489835253
 20
62.32563042299574
 42
-0.221558066878463
 10
-10.31611492099191
 20
64.24742138123841
 42
-0.2778982241343241
 10
-5.681767982305593
 20
60.51593792823254
 42
-0.1705155436967881
 10
-5.699497372981845
 20
56.03276662926768
 42
-0.1388778711167501
 10
-8.566593122150273
 20
52.14234297399491
 42
-0.0884377394665518
 10
-9.589051751476837
 20
51.73908580327372
 10
-9.589051751476837
 20
58.39083820735206
  0
LWPOLYLINE
  5
9A
330
D3F
100
AcDbEntity
  8
KONTUR
100
AcDbPolyline
 90
       17
 70
     1
 43
0.0
 10
-10.21431085855732
 20
80.53861803487738
 10
-10.21431085855732
 20
73.41956833469879
 42
0.1229338618286196
 10
-8.13646969035399
 20
74.53756135552154
 42
-0.2219635910138588
 10
-5.68904786235452
 20
75.26961315696801
 42
0.58952116779302
 10
-4.736392275063245
 20
76.2222687442582
 42
-0.1549009300323093
 10
-4.82984990272984
 20
78.7038978279186
 42
0.4383089237523178
 10
-5.517064383648545
 20
80.27458469643717
 42
-0.4175489214995558
 10
-6.549407001982928
 20
81.46144138669345
 42
-0.4908225133648449
 10
-5.490448452832254
 20
82.17774092232014
 42
0.3820537844723525
 10
-4.790506717295194
 20
82.65082742017808
 42
0.2889242245926
 10
-5.512977711682339
 20
84.473410250522
 42
0.221558066878463
 10
-12.48724768904152
 20
86.39520120876438
 42
0.2778982241343241
 10
-17.12159462772911
 20
82.66371775575837
 42
0.1705155436967881
 10
-17.10386523705281
 20
78.18054645679393
 42
0.1388778711167501
 10
-14.23676948788404
 20
74.2901228015215
 42
0.0884377394665518
 10
-13.21431085855808
 20
73.88686563079909
 10
-13.21431085855808
 20
80.53861803487738
  0
LWPOLYLINE
  5
9B
330
D3F
100
AcDbEntity
  8
KONTUR
100
AcDbPolyline
 90
       16
 70
     1
 43
0.0
 10
27.04502398961163
 20
85.48644329816221
 42
0.2889242245925923
 10
26.32255299522976
 20
87.30902612850826
 42
0.0744308137219393
 10
23.88583354241822
 20
88.37344349844883
 42
0.177746110997788
 10
18.16474008372744
 20
87.56176794293068
 42
0.3426576313997525
 10
15.7598676406733
 20
81.40252341552812
 42
0.2632860970083477
 10
19.66110288509055
 20
76.95406922198739
 10
19.66110288509055
 20
83.37423391286227
 10
22.66110288508849
 20
83.37423391286227
 10
22.66110288508849
 20
76.65068945665433
 42
0.0651847911289886
 10
23.69906101655236
 20
77.3731772335079
 42
-0.2219635910138609
 10
26.14648284455217
 20
78.10522903495189
 42
0.5895211677930199
 10
27.09913843184021
 20
79.05788462224447
 42
-0.1549009300323103
 10
27.00568080417673
 20
81.5395137059024
 42
0.4383089237523023
 10
26.31846632326074
 20
83.11020057442352
 42
-0.4175489214995327
 10
25.28612370492512
 20
84.29705726467989
 42
-0.4908225133648008
 10
26.34508225407426
 20
85.01335680030368
 42
0.3820537844723925
  0
LWPOLYLINE
  5
9C
330
D3F
100
AcDbEntity
  8
KONTUR
100
AcDbPolyline
 90
       16
 70
     1
 43
0.0
 10
35.79347006113567
 20
79.02212271847256
 42
-0.2889242245925923
 10
36.51594105552025
 20
80.84470554881562
 42
-0.0744308137219393
 10
38.95266050832903
 20
81.90912291875571
 42
-0.177746110997788
 10
44.67375396702245
 20
81.09744736323804
 42
-0.3426576313997525
 10
47.07862641007403
 20
74.93820283583585
 42
-0.2632860970083477
 10
43.17739116565937
 20
70.48974864229475
 10
43.17739116565937
 20
76.90991333317223
 10
40.17739116565905
 20
76.90991333317223
 10
40.17739116565905
 20
70.18636887696437
 42
-0.0651847911289886
 10
39.13943303419467
 20
70.9088566538156
 42
0.2219635910138609
 10
36.69201120619792
 20
71.64090845525951
 42
-0.5895211677930199
 10
35.73935561890714
 20
72.59356404255203
 42
0.1549009300323103
 10
35.83281324657058
 20
75.07519312621013
 42
-0.4383089237523023
 10
36.52002772748931
 20
76.64587999473036
 42
0.4175489214995327
 10
37.55237034582221
 20
77.83273668498821
 42
0.4908225133648008
 10
36.49341179667315
 20
78.54903622061172
 42
-0.3820537844723925
  0
LWPOLYLINE
  5
9D
330
D3F
100
AcDbEntity
  8
KONTUR
100
AcDbPolyline
 90
       17
 70
     1
 43
0.0
 10
-9.703559907647793
 20
100.9647527709358
 10
-5.472548798540785
 20
93.85945751473014
 10
-2.444641758535063
 20
95.14080519140467
 42
-0.2028805274726648
 10
5.907681424973411
 20
95.14080519140467
 10
10.38282567187992
 20
93.39064298580513
 42
0.3283938789260599
 10
13.36364782571916
 20
94.18935187470413
 42
0.1752051598401496
 10
15.00896643545228
 20
102.011669328764
 42
0.4682859370555396
 10
12.33806629444272
 20
103.2531684309987
 10
8.460467641656286
 20
101.2744983365504
 42
-0.2403964444529599
 10
4.15177704548747
 20
101.2744983365504
 42
-0.037308675834716
 10
-3.090700754736658
 20
105.5649093198828
 42
0.1410332454913661
 10
-12.12930332357454
 20
109.0299662315118
 42
0.3942176839379335
 10
-18.0658124972109
 20
103.590552722942
 42
0.1301615941388477
 10
-15.90852918581394
 20
96.69688867017487
 42
0.0984312151613612
 10
-12.43177396497555
 20
92.87219211234178
 42
0.2527922246439767
 10
-8.261387342330827
 20
92.67927868443996
 10
-12.28117245847446
 20
99.42985422776818
  0
LWPOLYLINE
  5
9E
330
D3F
100
AcDbEntity
  8
KONTUR
100
AcDbPolyline
 90
       17
 70
     1
 43
0.0
 10
58.00818536330013
 20
117.9993959163027
 10
65.48592068605319
 20
121.5307058894001
 10
67.28211820464824
 20
118.77684543803
 42
0.2028805274726648
 10
74.21069195427193
 20
114.1124946409977
 10
78.90037368388513
 20
113.0651794776107
 42
-0.3283938789260599
 10
80.92704187103974
 20
110.7379810199796
 42
-0.1752051598401496
 10
77.92352766653277
 20
103.3302400618385
 42
-0.4682859370555396
 10
75.01459857002925
 20
103.7919316208051
 10
72.90296849805677
 20
107.5987577389616
 42
0.2403964444529599
 10
69.32874371005488
 20
110.0049438951792
 42
0.037308675834716
 10
60.92485153342482
 20
110.4904409355386
 42
-0.1410332454913661
 10
51.49192326565784
 20
112.6636459634522
 42
-0.3942176839379335
 10
49.60499808992651
 20
120.4910895989632
 42
-0.1301615941388477
 10
55.24431099796305
 20
125.0049156128116
 42
-0.0984312151613612
 10
60.26431327441741
 20
126.2360564534561
 42
-0.2527922246439767
 10
63.83154199941021
 20
124.0671352016404
 10
56.72711982284073
 20
120.7121198390516
  0
LWPOLYLINE
  5
9F
330
D3F
100
AcDbEntity
  8
KONTUR
100
AcDbPolyline
 90
       15
 70
     1
 43
0.0
 10
-9.328421421213008
 20
124.0837930951173
 10
-13.20235842531964
 20
122.7834348183022
 10
-13.29056586802532
 20
123.1126294760805
 42
-0.2436789730604294
 10
-12.76722850951908
 20
126.2069510255904
 42
-0.2235327340013518
 10
-9.246099156591284
 20
127.5483269414328
 42
-0.1624446610320122
 10
-4.823057608809953
 20
125.8465948515614
 42
0.1362547263557255
 10
-0.1455476363593391
 20
123.3028437291721
 42
-0.1552814714108782
 10
5.294432656248481
 20
119.577936525193
 42
-0.1999778389584162
 10
5.935920904498807
 20
117.9341398792715
 42
-0.3625320163695174
 10
5.030688039320416
 20
117.0289070140919
 42
-0.1535992993683972
 10
-3.209914624931933
 20
119.0092427206032
 42
0.1826366098734893
 10
-4.747016614027081
 20
119.2336641414204
 42
0.0219393880912325
 10
-6.823012667899945
 20
118.677402675296
 42
-0.2648407247041019
 10
-11.60090770584293
 20
120.1564913486206
 10
-8.373763243705376
 20
121.2397418009036
  0
LWPOLYLINE
  5
A0
330
D3F
100
AcDbEntity
  8
KONTUR
100
AcDbPolyline
 90
       15
 70
     1
 43
0.0
 10
-10.85148462748912
 20
138.4932178240826
 10
-10.85148462748912
 20
142.6909150277675
 42
0.2475903658103603
 10
-13.83934285485535
 20
141.6710688873903
 42
0.1996146525492317
 10
-14.51129399792582
 20
139.8977771635818
 42
0.1101767839906042
 10
-13.64374063855191
 20
136.6021790826987
 42
0.3285157039414932
 10
-7.879315101751458
 20
133.5171112075226
 42
-0.0394277341991031
 10
-4.647037323593075
 20
133.4703362710703
 42
0.1585773574051681
 10
4.605331041382633
 20
135.6137934348424
 42
0.2710028189944088
 10
5.214382648230731
 20
137.0270012651954
 42
0.353678762842403
 10
3.583973408780387
 20
138.5272743916321
 42
0.1238847931220862
 10
-0.2046888311906514
 20
137.9756339492889
 42
-0.3022646933856028
 10
-3.81770708321784
 20
138.4395140635573
 42
0.0047759737116738
 10
-6.024990146878842
 20
140.6467971272202
 42
0.0446044768322343
 10
-7.851484627489682
 20
142.0288713535923
 10
-7.851484627489682
 20
138.4932178240826
  0
LWPOLYLINE
  5
A1
330
D3F
100
AcDbEntity
  8
KONTUR
100
AcDbPolyline
 90
       46
 70
     1
 43
0.0
 10
209.288020223019
 20
-6.777890592677323
 42
-0.211086161368725
 10
211.5407238386747
 20
3.73919018644554
 10
216.2864717323566
 20
10.28831934722886
 42
-0.0247414472238859
 10
210.5406668284991
 20
21.94582420810968
 42
-0.0799899176382926
 10
204.4323960157373
 20
44.74220122772979
 42
-0.1108173526828155
 10
206.6376282833027
 20
63.25280194130036
 42
-0.1569622418110604
 10
216.5822244250953
 20
76.31549112629148
 42
-0.121419317504622
 10
236.3652864051519
 20
83.92187107658898
 42
-0.1028074907903842
 10
251.7234832429563
 20
82.69852162417377
 10
260.2556475762826
 20
80.20453188285941
 10
260.2556475762826
 20
91.60554288342998
 42
-0.4152358384918121
 10
262.0347376568793
 20
93.86782185651474
 42
-0.3974280466280888
 10
264.307891581947
 20
92.2491496721811
 42
0.2254175819560019
 10
268.6173202996848
 20
87.24943346376935
 42
0.239784922011916
 10
273.7986090894979
 20
88.63775561075099
 42
0.1265063616272193
 10
278.0575912598794
 20
95.31021386520141
 42
-0.1537314837263488
 10
280.0709879765867
 20
98.32529959774129
 42
-0.1831742370521507
 10
281.871696984589
 20
98.83085900553474
 42
-0.4938763281722886
 10
283.4168539972421
 20
96.36221806246233
 42
0.0829890425091028
 10
282.2960651127921
 20
89.69059951055227
 42
-0.3099869998660655
 10
281.8155841806381
 20
88.99133039945329
 10
278.2097890332139
 20
87.6028034915005
 42
0.50876198445481
 10
276.984507225418
 20
79.71795933235523
 42
0.196702256104567
 10
279.3479894793307
 20
78.62854465521104
 42
-0.5011955651380428
 10
280.0246682016021
 20
77.63545176403553
 42
-0.4792263642983189
 10
260.2090011875919
 20
70.49342309776327
 42
0.0600526885496228
 10
247.3311967606288
 20
76.00800754050988
 42
0.2946471530562973
 10
220.2622814833297
 20
65.66398972709214
 42
0.2951888645550555
 10
218.1978278142118
 20
42.55677702921565
 42
0.0325377986906438
 10
239.2461604236434
 20
14.30301724090859
 42
-0.0351702579820327
 10
256.9399331146614
 20
-10.24864390051805
 42
-0.0677983841216635
 10
264.4487809091196
 20
-26.86670159681469
 42
-0.0114597643980371
 10
271.0549161323862
 20
-51.52113389171522
 42
-0.0741662387620019
 10
272.6078949717449
 20
-65.10061877089217
 42
-0.2871963191597216
 10
267.7161751723461
 20
-73.9070825151075
 42
-0.4021035605509705
 10
257.9703969191776
 20
-70.07520606026486
 42
0.0076574836019431
 10
249.7931216592262
 20
-52.31744709065333
 42
0.0101707388637272
 10
237.5965021314618
 20
-25.88208445277648
 42
0.0375837172689823
 10
222.7092634416462
 20
-0.09663065761616
 42
-0.0066296198633969
 10
220.7790003430883
 20
2.804369524607935
 42
0.4157454787027505
 10
217.6580938731677
 20
3.466087402227429
 42
0.0938689101982243
 10
216.3241059834592
 20
2.182186339545879
 42
0.0847416992258546
 10
212.9514623094207
 20
-3.65940385971723
 42
0.1360688483905049
 10
212.1011028407581
 20
-8.949507299995161
 10
212.4810505590462
 20
-12.35546085701928
 42
-0.9273504260674412
 10
210.8642476048813
 20
-12.66045126606236
  0
LWPOLYLINE
  5
A2
330
D3F
100
AcDbEntity
  8
KONTUR
100
AcDbPolyline
 90
       10
 70
     1
 43
0.0
 10
223.4086319087114
 20
-24.37449133012112
 42
-0.3789698419768674
 10
215.9642046207854
 20
-30.96317231089252
 10
213.2266487694328
 20
-30.96317231089252
 42
-0.3789698419768676
 10
205.7822214815061
 20
-24.37449133012112
 10
205.6561820156998
 20
-23.34489398955701
 10
213.0954266951111
 20
-23.34489398955701
 10
213.0954266951111
 20
-27.00134743323892
 10
216.0954266951092
 20
-27.00134743323892
 10
216.0954266951092
 20
-23.34489398955701
 10
223.5346713745181
 20
-23.34489398955701
  0
LWPOLYLINE
  5
A3
330
D3F
100
AcDbEntity
  8
KONTUR
100
AcDbPolyline
 90
       10
 70
     1
 43
0.0
 10
221.5881722444358
 20
-62.16880274828426
 42
-0.3835984995008864
 10
215.4746831502393
 20
-55.74492703866134
 10
215.4746831502393
 20
-55.2301283683783
 10
221.6390494973925
 20
-55.2301283683783
 10
221.6390494973925
 20
-58.88658181206064
 10
224.6390494973931
 20
-58.88658181206064
 10
224.6390494973931
 20
-55.2301283683783
 10
230.8034158445435
 20
-55.2301283683783
 10
230.8034158445435
 20
-55.74492703866134
 42
-0.3835984995008864
 10
224.6899267503471
 20
-62.16880274828426
  0
LWPOLYLINE
  5
A4
330
D3F
100
AcDbEntity
  8
KONTUR
100
AcDbPolyline
 90
       10
 70
     1
 43
0.0
 10
236.0954330145204
 20
-90.18981595980443
 10
233.3578771631633
 20
-90.18981595980443
 42
-0.307215751721128
 10
225.2193333190316
 20
-85.01463176210581
 10
224.8410805824091
 20
-83.8418241881726
 10
233.2266550888397
 20
-83.8418241881726
 10
233.2266550888397
 20
-87.49827763185409
 10
236.2266550888417
 20
-87.49827763185409
 10
236.2266550888417
 20
-83.8418241881726
 10
244.6122295952747
 20
-83.8418241881726
 10
244.233976858651
 20
-85.01463176210581
 42
-0.307215751721128
  0
LWPOLYLINE
  5
A5
330
D3F
100
AcDbEntity
  8
KONTUR
100
AcDbPolyline
 90
       10
 70
     1
 43
0.0
 10
229.9914197999262
 20
-76.77991716049205
 10
227.253863948572
 20
-76.77991716049205
 42
-0.307215751721128
 10
219.1153201044376
 20
-71.60473296279256
 10
218.7370673678152
 20
-70.43192538885929
 10
227.1226418742454
 20
-70.43192538885929
 10
227.1226418742454
 20
-74.08837883254147
 10
230.122641874249
 20
-74.08837883254147
 10
230.122641874249
 20
-70.43192538885929
 10
238.5082163806806
 20
-70.43192538885929
 10
238.129963644057
 20
-71.60473296279256
 42
-0.307215751721128
  0
LWPOLYLINE
  5
A6
330
D3F
100
AcDbEntity
  8
KONTUR
100
AcDbPolyline
 90
       10
 70
     1
 43
0.0
 10
218.8763884107231
 20
-45.31873938215779
 42
-0.3654881799906833
 10
212.3532532479795
 20
-38.67974828606937
 10
212.3532532479795
 20
-38.16494961578609
 10
218.9272656636796
 20
-38.16494961578609
 10
218.9272656636796
 20
-41.82140305946885
 10
221.9272656636803
 20
-41.82140305946885
 10
221.9272656636803
 20
-38.16494961578609
 10
228.5012780793786
 20
-38.16494961578609
 10
228.5012780793786
 20
-38.67974828606937
 42
-0.3654881799906833
 10
221.9781429166353
 20
-45.31873938215779
  0
LWPOLYLINE
  5
A7
330
D3F
100
AcDbEntity
  8
KONTUR
100
AcDbPolyline
 90
       91
 70
     1
 43
0.0
 10
292.3857330905714
 20
-124.4040948827516
 42
0.1426370317871032
 10
287.0749986541116
 20
-122.5799306172022
 10
287.0749986541116
 20
-128.4134528458965
 10
284.0749986541104
 20
-128.4134528458965
 10
284.0749986541104
 20
-122.8907636777922
 42
0.0626466607487147
 10
281.7463899897676
 20
-123.8184442652674
 42
0.299127334353154
 10
278.6794420312684
 20
-129.8617895104603
 42
-0.1386221182305085
 10
276.4607933888153
 20
-135.0352998078839
 42
0.1797644420242188
 10
275.1833754566929
 20
-138.9351216003286
 42
-0.1226512895396377
 10
274.8657402281346
 20
-140.1205524115907
 42
0.4106641901204358
 10
275.8840087476706
 20
-144.7862283347061
 42
0.1370856572005499
 10
280.2386648526093
 20
-146.2693266274022
 42
-0.166346580123887
 10
281.7349750245692
 20
-146.8033890071679
 42
0.1126392167516034
 10
285.7057257843508
 20
-148.4565447970195
 42
-0.0339828054815095
 10
289.1166582983204
 20
-149.1490372340964
 42
-0.1020156183729078
 10
298.3394955052511
 20
-153.8521126951405
 42
-0.4373389568288422
 10
298.5442662812878
 20
-156.7171248974166
 42
-0.1052241426907722
 10
294.303604209688
 20
-159.6678976273265
 42
-0.0150539254959408
 10
274.4454522916922
 20
-167.327644635794
 10
255.9527141073215
 20
-173.8283060837696
 42
-0.0981126536050735
 10
244.3115474344314
 20
-175.464959910314
 42
-0.2598942356177417
 10
229.9455253658944
 20
-166.6884911999136
 42
-0.0952945166979981
 10
225.5325783302756
 20
-156.18872952199
 42
-0.2184819214573671
 10
229.1782866160133
 20
-137.3344870852758
 42
-0.0299792085486743
 10
235.5955022729694
 20
-130.3381966408539
 42
0.0680773411992851
 10
240.7576986821071
 20
-123.2934023932473
 42
0.2533979322656432
 10
242.2290106026119
 20
-111.8033368820313
 42
0.112830364562184
 10
238.350780325328
 20
-106.29165255085
 42
0.0010703567016648
 10
242.2647029801977
 20
-104.7168783549239
 42
-0.0755741350788794
 10
248.6032990594515
 20
-102.7574318233644
 42
0.0071635578094875
 10
259.4274731496376
 20
-101.2171647716689
 42
0.059731080467932
 10
271.03219010813
 20
-97.90080380421906
 42
0.1656348206641578
 10
275.0416219674087
 20
-94.16168525437198
 42
0.6978074359056831
 10
274.7610560978633
 20
-93.84597422873602
 42
-0.0789111648939101
 10
257.759103769251
 20
-97.58976455656965
 42
0.0188215899903594
 10
246.3809925320889
 20
-98.62994030475674
 42
0.0184770848180959
 10
238.0122072855303
 20
-100.6919153819922
 42
-0.048656864010908
 10
233.0354254678287
 20
-101.228672640225
 42
-0.0584913101549149
 10
229.5120160948568
 20
-100.6919153819922
 42
0.0730915148276327
 10
216.3297142224836
 20
-95.13737049997891
 42
0.053145938996953
 10
207.4241263359837
 20
-93.62394090157104
 42
0.5577614494707836
 10
205.8150637864536
 20
-95.60510222910099
 42
-0.3085483532953817
 10
205.8150637864536
 20
-97.53972292131518
 42
0.203809570520888
 10
205.2958928092053
 20
-100.9791133338723
 42
0.1998196346598348
 10
206.7937247410965
 20
-102.8936087095561
 42
-0.3822032502755891
 10
210.3546555300405
 20
-100.3436585600587
 42
0.2022639930415862
 10
211.6204190719062
 20
-104.0028285644394
 42
-0.095277790454717
 10
213.5845964696655
 20
-102.0386511666781
 42
-0.2899321903321972
 10
215.6463729406421
 20
-102.0386511666781
 42
-0.0893329539440232
 10
222.6077703682806
 20
-107.8582667158815
 42
-0.1309352083441033
 10
223.9368858268128
 20
-111.6394774224483
 42
-0.2304188200503483
 10
219.5409391435983
 20
-115.1783204863631
 42
-0.1458479087817569
 10
211.5200728003932
 20
-115.1783204863631
 42
-0.0035468937377506
 10
208.8088045706139
 20
-114.4518383537298
 42
0.686381230621339
 10
207.3890171603509
 20
-116.0636853909364
 42
-0.0138329804074876
 10
208.2782642671875
 20
-118.050526141366
 42
0.240421072099803
 10
209.7656633641456
 20
-119.4000514032653
 42
0.0446434227240815
 10
216.3890106016926
 20
-120.8917464463306
 42
-0.0905578554786932
 10
231.0901961151645
 20
-126.4445351867905
 10
224.9231615540473
 20
-135.461783279368
 42
0.191146425217088
 10
220.8999522880498
 20
-159.6145826657894
 42
0.2311256051519571
 10
233.1214592527018
 20
-178.6628361757032
 42
0.0861761607954347
 10
251.2274634710554
 20
-184.1048782393935
 42
0.0771201732291354
 10
277.4774481739143
 20
-183.0158530380163
 42
-0.0675210547111452
 10
346.7367834046477
 20
-173.0750446800117
 10
347.0063857526211
 20
-176.980481001739
 42
-0.0232388580536207
 10
372.155145116214
 20
-174.9797873440699
 42
-0.0651045246336319
 10
392.4178510599007
 20
-176.6592903880219
 10
393.4247917165171
 20
-172.1421628770205
 10
377.2822144297171
 20
-168.5437217586263
 10
377.934941941886
 20
-165.6155915028395
 10
394.0775192286875
 20
-169.2140326212336
 10
395.4607291979235
 20
-163.008964065822
 42
0.0417827547166604
 10
348.4513239848122
 20
-154.6226659132585
 42
0.0667182060809743
 10
311.5832371373206
 20
-155.560971798122
 10
311.5832371373206
 20
-164.2582549646922
 10
308.5832371373198
 20
-164.2582549646922
 10
308.5832371373198
 20
-156.0748542403622
 42
0.0028576645509737
 10
307.0240416921629
 20
-156.3687836662301
 42
-0.6353256967210729
 10
305.9360187677242
 20
-154.9501549655683
 10
307.7264256745781
 20
-151.4918478193369
 42
0.3125024630597562
 10
307.6735988654211
 20
-150.0330433408805
 42
0.4728817700653389
 10
306.3424498142802
 20
-150.0797961266527
 42
-0.2476407716419563
 10
303.421523594315
 20
-150.6208460179718
 42
-0.0642446605580648
 10
295.8917991877024
 20
-147.3425029887576
 42
-0.0521802313740634
 10
293.3554118990109
 20
-145.1403540128843
 42
0.1288429360822761
 10
287.4788202717834
 20
-141.5095687044375
 42
-0.3224758527219666
 10
286.2823156199077
 20
-139.9104655083382
 42
-0.2844559257846347
 10
287.1883108941791
 20
-138.479709605223
 42
0.0097533916288612
 10
292.2300348917662
 20
-135.4408766282391
 42
0.2734705687331437
 10
294.8014308315904
 20
-129.1986961893907
 42
0.1977947837156672
  0
LWPOLYLINE
  5
A8
330
D3F
100
AcDbEntity
  8
KONTUR
100
AcDbPolyline
 90
        4
 70
     1
 43
0.0
 10
233.2949432943168
 20
-106.8213026172385
 42
0.4611863204235568
 10
228.4295068599088
 20
-104.8185651299529
 42
0.4071969475260496
 10
228.0962517126932
 20
-105.8120067009
 42
0.3824527019910478
 10
232.8322740995678
 20
-107.7614740719536
 42
0.4071969475260607
  0
LWPOLYLINE
  5
A9
330
D3F
100
AcDbEntity
  8
KONTUR
100
AcDbPolyline
 90
       10
 70
     1
 43
0.0
 10
278.9403191888737
 20
-113.1402065163843
 42
-0.3835984995008864
 10
272.8268300946806
 20
-106.7163308067616
 10
272.8268300946806
 20
-106.2015321364785
 10
278.9911964418312
 20
-106.2015321364785
 10
278.9911964418312
 20
-109.85798558016
 10
281.9911964418322
 20
-109.85798558016
 10
281.9911964418322
 20
-106.2015321364785
 10
288.1555627889855
 20
-106.2015321364785
 10
288.1555627889855
 20
-106.7163308067616
 42
-0.3835984995008864
 10
282.0420736947913
 20
-113.1402065163843
  0
LWPOLYLINE
  5
AA
330
D3F
100
AcDbEntity
  8
KONTUR
100
AcDbPolyline
 90
       10
 70
     1
 43
0.0
 10
257.3916487582565
 20
-119.2494752129276
 42
-0.3835984995008864
 10
251.27815966406
 20
-112.8255995033024
 10
251.27815966406
 20
-112.3108008330194
 10
257.4425260112131
 20
-112.3108008330194
 10
257.4425260112131
 20
-115.9672542767037
 10
260.442526011217
 20
-115.9672542767037
 10
260.442526011217
 20
-112.3108008330194
 10
266.6068923583671
 20
-112.3108008330194
 10
266.6068923583671
 20
-112.8255995033024
 42
-0.3835984995008864
 10
260.493403264169
 20
-119.2494752129276
  0
LWPOLYLINE
  5
AB
330
D3F
100
AcDbEntity
  8
KONTUR
100
AcDbPolyline
 90
       35
 70
     1
 43
0.0
 10
240.8463035106596
 20
-132.6751744262263
 42
0.3405753056111655
 10
240.1850361708929
 20
-137.7772130025341
 42
-0.0470100538698904
 10
242.4089837988357
 20
-142.5798584334805
 42
-0.2549057221404128
 10
240.8780912142968
 20
-152.0985536193608
 42
0.0004220745383218
 10
238.8037944616816
 20
-154.7834221439994
 42
0.4946746553576677
 10
239.71242885478
 20
-158.1744918645402
 42
-0.1334772389879295
 10
241.9143135745978
 20
-159.8680062150538
 42
0.2013639027016664
 10
245.816559584933
 20
-162.1209689995648
 42
-0.0853599664155879
 10
256.1473007976414
 20
-165.276982819369
 42
0.2685353352466928
 10
266.7192894250101
 20
-164.5168451452106
 42
-0.0223551834660548
 10
271.5319446514062
 20
-161.7382573547327
 42
0.3659613268898888
 10
275.090247896067
 20
-153.7285190147475
 42
0.2838846924766685
 10
271.9592665468899
 20
-150.6670151312718
 42
0.6881325470619131
 10
271.1314563167519
 20
-151.6901453665982
 42
-0.116629562721929
 10
271.7437387440456
 20
-154.8776145155176
 42
-0.2882110289065074
 10
270.211573339582
 20
-157.5314028416498
 42
-0.4595075983884647
 10
268.7677366254759
 20
-157.144527960101
 42
-0.1357854585578085
 10
268.2227229892325
 20
-154.108305583997
 42
0.6406196487101477
 10
267.3146880026558
 20
-153.5840513400641
 42
0.2666654889349211
 10
265.202616901663
 20
-158.14486020053
 42
-0.4273434855884656
 10
263.1289514285817
 20
-160.7162934294637
 42
-0.4192698559116029
 10
261.6882816493995
 20
-158.8718346106527
 42
-0.0140194208799421
 10
262.2161860236352
 20
-155.4364688474507
 42
0.4472565801521319
 10
261.5121335408568
 20
-154.7095614468723
 42
0.2756812276781392
 10
259.0763395867047
 20
-156.1158677419906
 42
-0.1190673423810909
 10
256.9775504424006
 20
-157.9863134391579
 42
-0.5479560448044089
 10
255.7849695232967
 20
-157.2237281820648
 42
0.3286484853271516
 10
252.98692941456
 20
-152.9201222950664
 42
-0.3235957771887473
 10
251.3828439397634
 20
-151.0118620729846
 42
-0.180569908640691
 10
252.3930166128308
 20
-147.4335783101847
 42
-0.0128463050213178
 10
257.798500210857
 20
-140.7496209392814
 42
0.1542866278985641
 10
260.6503891157629
 20
-134.7558169386413
 42
0.1371339918572217
 10
260.2010455981503
 20
-129.829329456041
 42
0.122109295518264
 10
257.0864461618957
 20
-125.7947048912049
 42
0.214998965873958
 10
252.6434652708605
 20
-125.0707595756199
 42
0.1674337173810943
  0
LWPOLYLINE
  5
AC
330
D3F
100
AcDbEntity
  8
KONTUR
100
AcDbPolyline
 90
        4
 70
     1
 43
0.0
 10
244.1430993794114
 20
-134.7866428142559
 10
254.0975540639608
 20
-129.410828762686
 10
255.5230846799581
 20
-132.0504996631705
 10
245.5686299954045
 20
-137.4263137147405
  0
LWPOLYLINE
  5
AD
330
D3F
100
AcDbEntity
  8
KONTUR
100
AcDbPolyline
 90
       35
 70
     1
 43
0.0
 10
581.5209584599021
 20
-125.2995723933102
 42
-0.3405753056111655
 10
584.8656937007105
 20
-129.2086411184272
 42
0.0470100538698904
 10
585.6314728109106
 20
-134.4455226849293
 42
0.2549057221404128
 10
592.1204006829731
 20
-141.5759508080057
 42
-0.0004220745383218
 10
595.3255853243357
 20
-142.6886131230179
 42
-0.4946746553576677
 10
596.4201530807032
 20
-146.0243127103018
 42
0.1334772389879295
 10
595.5034718370605
 20
-148.6465222122905
 42
-0.2013639027016664
 10
593.4695068211677
 20
-152.6672623863991
 42
0.0853599664155879
 10
586.5483921577825
 20
-160.960802586519
 42
-0.2685353352466928
 10
577.2829034998725
 20
-166.1081779129352
 42
0.0223551834660548
 10
571.7342129612982
 20
-166.4151530662588
 42
-0.3659613268898888
 10
564.3736863294317
 20
-161.6569939729223
 42
-0.2838846924766685
 10
565.3197056344348
 20
-157.3813773259353
 42
-0.6881325470619131
 10
566.5723811202025
 20
-157.7849481164051
 42
0.116629562721929
 10
567.8036353397292
 20
-160.7880902031159
 42
0.2882110289065074
 10
570.5380076238465
 20
-162.1713224751547
 42
0.4595075983884647
 10
571.5349696630396
 20
-161.0575885197664
 42
0.1357854585578085
 10
570.330149230728
 20
-158.2178536894129
 42
-0.6406196487101477
 10
570.8034436850014
 20
-157.2822456471845
 42
-0.2666654889349211
 10
575.0665292457117
 20
-159.9445610491254
 42
0.4273434855884656
 10
578.2091278039668
 20
-160.9626139194402
 42
0.4192698559116029
 10
578.4060306710631
 20
-158.6304932090412
 42
0.0140194208799421
 10
576.084726898774
 20
-156.0436090307121
 42
-0.4472565801521319
 10
576.2764044484052
 20
-155.0499571880186
 42
-0.2756812276781392
 10
579.0847225662623
 20
-154.8945901011676
 42
0.1190673423810909
 10
581.8648587616255
 20
-155.3121134101486
 42
0.5479560448044089
 10
582.4459568776261
 20
-154.021334380829
 42
-0.3286484853271516
 10
582.4337532617172
 20
-148.8881187071557
 42
0.3235957771887473
 10
582.7325445212331
 20
-146.413190209427
 42
0.180569908640691
 10
579.92935505646
 20
-143.9705088259629
 42
0.0128463050213178
 10
571.7478864618882
 20
-141.3326857271566
 42
-0.1542866278985641
 10
566.0815554444217
 20
-137.875569945966
 42
-0.1371339918572217
 10
563.762533776654
 20
-133.5058643474781
 42
-0.122109295518264
 10
564.1624697565672
 20
-128.4246266794048
 42
-0.214998965873958
 10
567.4855626656889
 20
-125.3879789330559
 42
-0.1674337173810943
  0
LWPOLYLINE
  5
AE
330
D3F
100
AcDbEntity
  8
KONTUR
100
AcDbPolyline
 90
        4
 70
     1
 43
0.0
 10
579.9163976117224
 20
-128.8706431344697
 10
568.6427137792804
 20
-129.8164748478174
 10
568.8935245498962
 20
-132.8059721228379
 10
580.1672083823393
 20
-131.8601404094902
  0
LWPOLYLINE
  5
AF
330
D3F
100
AcDbEntity
  8
KONTUR
100
AcDbPolyline
 90
       12
 70
     1
 43
0.0
 10
395.2427144899994
 20
-98.95435043098016
 10
392.2427144899975
 20
-98.95435043098016
 10
392.2427144899975
 20
-107.7655383394187
 10
388.3492440160734
 20
-107.7655383394187
 42
-0.2400278801089052
 10
385.9229253104592
 20
-74.02407965186338
 10
386.9993342569463
 20
-74.02407965186338
 10
386.9993342569463
 20
-82.56058653549604
 10
400.4860947230484
 20
-82.56058653549604
 10
400.4860947230484
 20
-74.02407965186338
 10
401.5625036695375
 20
-74.02407965186338
 42
-0.2400278801089025
 10
399.1361849639207
 20
-107.7655383394187
 10
395.2427144899994
 20
-107.7655383394187
  0
LWPOLYLINE
  5
B0
330
D3F
100
AcDbEntity
  8
KONTUR
100
AcDbPolyline
 90
        9
 70
     1
 43
0.0
 10
217.6152625966239
 20
93.85700233435215
 10
215.9354822305658
 20
93.85700233435215
 42
-0.376454231063796
 10
207.8669579357837
 20
100.3146037469078
 10
216.1152625966234
 20
100.3146037469078
 10
216.1152625966234
 20
96.65815030322523
 10
219.1152625966243
 20
96.65815030322523
 10
219.1152625966243
 20
100.3146037469078
 10
227.3635672574641
 20
100.3146037469078
 42
-0.376454231063796
 10
219.2950429626816
 20
93.85700233435215
  0
LWPOLYLINE
  5
B1
330
D3F
100
AcDbEntity
  8
KONTUR
100
AcDbPolyline
 90
       12
 70
     1
 43
0.0
 10
275.9225323944382
 20
48.46683787001362
 10
274.2684481152067
 20
48.46683787001362
 42
-0.3217078548981224
 10
266.2915133125981
 20
55.10150456181114
 10
266.1836728036955
 20
55.79068611568445
 10
274.4225323944377
 20
55.79068611568445
 10
274.4225323944377
 20
52.13423267200264
 10
275.9225323944382
 20
52.13423267200264
 10
277.4225323944386
 20
52.13423267200264
 10
277.4225323944386
 20
55.79068611568445
 10
285.6613919851865
 20
55.79068611568445
 10
285.5535514762813
 20
55.10150456181114
 42
-0.3217078548981224
 10
277.5766166736758
 20
48.46683787001362
  0
LWPOLYLINE
  5
B2
330
D3F
100
AcDbEntity
  8
KONTUR
100
AcDbPolyline
 90
        9
 70
     1
 43
0.0
 10
283.1195747660165
 20
32.25702572139977
 10
281.568697513061
 20
32.25702572139977
 42
-0.3640713404245029
 10
274.2528654764724
 20
39.5835080274957
 10
281.6195747660161
 20
39.5835080274957
 10
281.6195747660161
 20
35.92705458381593
 10
284.6195747660196
 20
35.92705458381593
 10
284.6195747660196
 20
39.5835080274957
 10
291.986284055562
 20
39.5835080274957
 42
-0.3640713404245029
 10
284.6704520189731
 20
32.25702572139977
  0
LWPOLYLINE
  5
B3
330
D3F
100
AcDbEntity
  8
KONTUR
100
AcDbPolyline
 90
        9
 70
     1
 43
0.0
 10
246.8173720847677
 20
95.36464828451716
 10
243.817372084767
 20
95.36464828451716
 10
243.817372084767
 20
99.02110172819991
 10
235.3085454676496
 20
99.02110172819991
 42
0.3531022722552856
 10
243.6375917187094
 20
91.80846098759118
 10
245.3173720847646
 20
91.80846098759118
 10
246.997152450828
 20
91.80846098759118
 42
0.3531022722552856
 10
255.3261987018835
 20
99.02110172819991
 10
246.8173720847677
 20
99.02110172819991
  0
LWPOLYLINE
  5
B4
330
D3F
100
AcDbEntity
  8
KONTUR
100
AcDbPolyline
 90
      175
 70
     1
 43
0.0
 10
342.7325685059784
 20
118.2389214377731
 42
0.0355826468240096
 10
342.4960185024999
 20
122.8374858174698
 42
0.0006649067430951
 10
342.4215864512
 20
122.8003227975085
 42
-0.0094116034710234
 10
336.1991400563198
 20
120.3532325820517
 42
-0.1518847713638157
 10
332.9960253596723
 20
113.499912079992
 42
-0.7158326378598714
 10
332.3450315141246
 20
113.7831865507207
 42
0.0887566698658755
 10
331.8670263579871
 20
118.8065657571762
 42
-0.0068589866197488
 10
327.2356231063259
 20
117.2910109348592
 42
-0.2729313860472661
 10
322.5216512098926
 20
110.2668057058303
 42
-0.5608878358395884
 10
321.9847424598924
 20
110.6151160324088
 42
0.0430012664048792
 10
321.687205091303
 20
115.6579127958461
 42
-0.0057274559303779
 10
317.7532089684913
 20
114.6176344491552
 42
-0.297131999058059
 10
312.3677493405842
 20
108.201388754385
 42
-0.5986079812346834
 10
311.8996320938435
 20
108.6681227454511
 42
0.0779024396655368
 10
312.5475173492548
 20
113.3877500480591
 42
-0.000898198703347
 10
311.9240624924233
 20
113.2515053517294
 42
-0.0088964314003465
 10
307.5583581152669
 20
112.2904566820085
 42
-0.3480267315189919
 10
302.0903793231036
 20
106.4454797343047
 42
-0.5487656740272954
 10
301.6751905471561
 20
106.9228106097746
 42
0.0776737966932898
 10
302.2657235492591
 20
111.3411028293031
 42
-0.0118181317196866
 10
296.3797748788219
 20
110.5569321528193
 10
298.3216581195486
 20
114.6997015621417
 10
295.605271252428
 20
115.9729817308897
 10
292.9117383107707
 20
110.2266599955356
 42
-0.0080227000385304
 10
288.8889956514162
 20
109.9646667703465
 42
-0.2169922672681309
 10
282.8445107812252
 20
105.2593170441725
 42
-0.6699365775962525
 10
282.4390361423634
 20
105.8220583339812
 42
0.0749981448061664
 10
284.1606088211467
 20
109.8220034014681
 42
-0.0109522967405685
 10
278.6578862862801
 20
109.8801680533152
 42
-0.195446158515853
 10
272.362448730111
 20
105.9697638536766
 42
-0.6373579538916382
 10
271.9753661339312
 20
106.5286711385154
 42
0.0250287273287951
 10
273.8456162356326
 20
110.1289574936095
 42
-0.0106482310834828
 10
268.5180197830539
 20
110.6211724950464
 42
-0.2007518095510343
 10
262.8947092020692
 20
107.0262711423304
 42
-0.646815615802491
 10
262.5112421567721
 20
107.5927206173651
 42
0.0724945994184104
 10
264.0756641395959
 20
111.2076421174419
 42
-0.0094819394479124
 10
259.3784009051761
 20
112.0045659973103
 42
-0.3073572702189063
 10
253.7926217817513
 20
108.9409811749773
 42
-0.551405086124178
 10
253.5063750810366
 20
109.5069766927394
 42
0.0540801236184048
 10
255.0682764989115
 20
112.8986645024139
 42
-0.0091992377887618
 10
250.5789062579631
 20
113.9994714283737
 42
-0.2456798177667582
 10
245.5419455359947
 20
111.0528693098074
 42
-0.599886728910751
 10
245.2030898540844
 20
111.6212279362849
 42
0.0361929436010313
 10
246.6997149348542
 20
114.5624586889879
 42
-0.0051906135522254
 10
242.2421890029653
 20
115.2759430154365
 42
-0.1945008487573007
 10
237.126914715646
 20
112.8542139304597
 42
-0.601675728634183
 10
236.783135226291
 20
113.420691272997
 42
0.0352072324738911
 10
238.0976734334016
 20
116.0249082991325
 42
-0.0049586952438041
 10
233.8696827505348
 20
116.8748596663788
 42
-0.2044625581211737
 10
228.4596957760494
 20
114.5092693585229
 42
-0.5950163691026833
 10
228.1401294335156
 20
115.0857778565329
 42
0.0703396107380417
 10
229.4055021845807
 20
117.8676047896628
 42
-0.0051304229245693
 10
225.0710416436834
 20
118.9264681320342
 42
-0.2213206686955363
 10
219.784557282649
 20
116.7831124874756
 42
-0.5764735248305588
 10
219.4880316565554
 20
117.3604392397201
 42
0.0689071740736725
 10
220.7466727217968
 20
120.0775305243469
 42
-0.0043971167331437
 10
217.0706024747971
 20
121.1315494556348
 42
-0.3306244497661993
 10
211.3825330641895
 20
118.8961250338861
 42
-0.5110210936842414
 10
211.1674040733031
 20
119.4645871865285
 42
0.0774016246538909
 10
212.5634951286955
 20
122.5201971158628
 42
-0.0032966842780311
 10
209.8385719695817
 20
123.4120674295487
 10
212.6824895296456
 20
132.6687350166453
 10
220.6280610291861
 20
130.2276243145822
 10
221.5091050092588
 20
133.0953344647149
 10
213.5635335097185
 20
135.5364451667779
 10
215.6014517579558
 20
142.1696655028756
 42
0.1128732028915341
 10
260.5065117307366
 20
139.7799034348506
 10
260.5065117307366
 20
136.5286335570243
 42
0.0313645532878035
 10
295.8294904548804
 20
138.5411538263706
 42
-0.0058336936537095
 10
323.8044485728366
 20
142.6093809534394
 42
-0.0743352270185131
 10
353.6768197543024
 20
142.6093809534394
 42
-0.1385072031286407
 10
379.4007521149347
 20
132.0701375584939
 42
-0.2095916001374349
 10
389.2076957770782
 20
112.3716556363873
 42
-0.1899820175846348
 10
381.3338930916359
 20
82.98622396554089
 42
-0.0386365593004543
 10
374.7593989467107
 20
75.46147605287171
 42
0.0222236917137283
 10
389.9618454935842
 20
70.79592535026901
 42
0.2745257583393012
 10
391.7158020251927
 20
71.2658965864731
 42
-0.6451925304172283
 10
392.4472640874311
 20
71.18812220366755
 42
0.0902828644063668
 10
392.985816600549
 20
70.35939545814859
 42
0.4874271941749811
 10
393.3035420363122
 20
70.35939545814859
 42
-0.0953102299311783
 10
394.1808077718773
 20
71.23666119371486
 42
-0.4150927767656817
 10
394.9361442670591
 20
71.16934326636275
 42
-0.1082638845229285
 10
395.6356751515016
 20
69.86272207052502
 42
0.6346455240371184
 10
396.4473145920051
 20
69.81771305799998
 42
-0.0733796782255249
 10
397.1114311126949
 20
70.86332917174584
 42
-0.6786399441001655
 10
398.1801601883058
 20
70.64090753060444
 42
-0.0797758475845982
 10
398.6691342644315
 20
67.63515057728898
 42
0.1765274682318616
 10
399.0321158154239
 20
66.94291606281211
 42
-0.1209694764732356
 10
400.0880194786621
 20
65.11403727018586
 42
-0.1176955382901726
 10
400.2250522747064
 20
62.93460125897428
 42
-0.1933751500133162
 10
397.7407326493042
 20
59.89270173710065
 42
-0.6598416321508476
 10
397.3368823594213
 20
60.12586481067626
 42
0.059734806407559
 10
397.3368823594213
 20
62.35707274065021
 42
0.2049342306281328
 10
397.1831754045565
 20
62.62330099595939
 42
0.0798608901698692
 10
391.006399907594
 20
65.86686515532711
 42
0.1055205869050502
 10
385.2036219985135
 20
66.53065391593904
 42
0.1325174534865698
 10
379.3390643986846
 20
64.324113259466
 42
0.3232014313255747
 10
378.3499308928403
 20
61.36136799976234
 42
0.1830871169057187
 10
384.27953536856
 20
53.80185638920429
 42
0.1142965446471563
 10
397.4237472553162
 20
49.50605288238989
 42
0.1440460205133524
 10
399.2301181042784
 20
49.86818335942408
 42
0.226706540573536
 10
400.823988945442
 20
52.00470125371499
 42
-0.6227285539467779
 10
401.5371437910665
 20
52.19579051867643
 42
-0.1381313093992853
 10
402.9637529676324
 20
49.19776902891789
 42
0.178862778449636
 10
403.1653412175744
 20
48.84860793780962
 42
0.0159683827544252
 10
404.3850150825198
 20
47.89950682742087
 42
-0.5088778356701936
 10
404.3850150825198
 20
44.84764078385913
 10
402.1516902360823
 20
43.22152307330202
 42
0.2489537399647502
 10
401.8313764924852
 20
41.01515938135418
 42
-0.1435686928339608
 10
402.0547093951954
 20
37.21025650305566
 42
-0.3411158386088778
 10
397.6271149457211
 20
33.58005758006996
 42
-0.5970401296554523
 10
397.5246116586913
 20
33.75759848114859
 42
0.146577612993164
 10
398.3557473560601
 20
36.85943913171801
 42
0.2523166843853032
 10
397.0624758899551
 20
39.09945101899879
 42
0.0146425535281254
 10
394.7689304425975
 20
40.42363010042897
 42
0.0650685739300694
 10
388.418688945398
 20
42.84555417735248
 42
-0.0609404336457518
 10
378.6289125496455
 20
46.48735371647089
 10
369.7773826764244
 20
51.07160215562797
 42
-0.1609520016910186
 10
346.5287441788953
 20
48.03320460943581
 42
-0.8673839786255324
 10
346.5639360055351
 20
48.77484296668024
 42
0.0491626788824215
 10
354.0330450933395
 20
50.23165290017232
 42
0.2598896560199944
 10
358.0634781764802
 20
54.26208598331237
 42
0.4812493332255955
 10
355.7625297064241
 20
56.7215206183227
 42
-0.0513915754896346
 10
338.0116181352317
 20
57.60491821551003
 42
-0.099465706459048
 10
331.229341696355
 20
60.19515660786294
 42
-0.7793620509484473
 10
331.4556066548754
 20
60.88635042244797
 42
0.0246902133978458
 10
339.4483476431561
 20
60.72446128893708
 42
0.2030343176490849
 10
345.2859671656807
 20
64.44932238795274
 42
0.4065659907834894
 10
344.460046593485
 20
68.20299972797315
 42
-0.0417260111466402
 10
335.3545834828236
 20
75.3898830360807
 42
-0.4635420700861696
 10
335.377163222955
 20
76.10528127555042
 42
-0.2041526842352879
 10
336.066271724109
 20
76.24284132244707
 42
-0.0049139552462733
 10
344.8957381686052
 20
71.92135867427902
 42
0.2540999151076538
 10
348.1805991298523
 20
71.92135867427902
 42
0.0554441255528049
 10
351.8556221976287
 20
73.92696801321
 42
0.2401549936322931
 10
353.1923231641378
 20
77.29043133042146
 42
0.2369645098295572
 10
352.1312740551086
 20
79.12822229658047
 42
-0.0878643365640978
 10
341.2129453250844
 20
90.046551026607
 42
-0.4465457177587643
 10
341.3255158646781
 20
90.87744781747565
 42
-0.3079886864899027
 10
342.1921141612283
 20
90.7974567123658
 42
-0.0044797428251366
 10
351.2579760672673
 20
84.0151536698767
 42
0.2555213363689148
 10
357.2197653475358
 20
82.91887188807754
 42
0.1691840277526209
 10
359.92448041767
 20
84.91911640770879
 42
0.351413980741626
 10
359.8915138323972
 20
85.81701248309816
 42
-0.0558576623532384
 10
355.791928101648
 20
90.87898047514901
 42
-0.1581432765970307
 10
354.5726639412968
 20
94.79182446981992
 42
-0.713932078050441
 10
355.9869767548001
 20
95.30530515085557
 42
0.0715687296778333
 10
361.5000976939114
 20
89.40571044033886
 42
0.2581176310524618
 10
364.522866861364
 20
88.73261293173696
 42
0.1434379212581258
 10
366.3784958961522
 20
89.98276944515191
 42
0.3882159195041565
 10
366.3784958961522
 20
91.84507017998445
 42
-0.0600954790725193
 10
363.2620260456602
 20
95.9846347084192
 42
-0.2313762134829442
 10
362.9664659849569
 20
98.45397078984483
 42
-0.5378452612507677
 10
364.3780153827553
 20
98.62782032570819
 42
0.1593586172104757
 10
373.4020319133223
 20
92.03525227807009
 42
0.2954599167481278
 10
375.7656711586705
 20
92.66324854327235
 42
0.1845779316184834
 10
377.8271992483102
 20
97.95500935051425
 42
-0.3449959559213775
 10
374.1946458938577
 20
104.8148213173401
 42
-0.5311888140063197
 10
374.7628804372878
 20
105.0664043465704
 42
0.637887769940293
 10
378.1853765182556
 20
107.2885118611079
 42
0.0302247282739025
 10
377.5526108637261
 20
110.392189208406
 42
0.2742991302233602
 10
375.910439104267
 20
111.9967565592798
 42
-0.1408541714314582
 10
369.4726707688544
 20
115.6678722669903
 42
-0.5812188028743806
 10
369.6529643672861
 20
116.2941164315184
 42
0.0698201788880193
 10
373.991675232157
 20
118.0114946211709
 42
0.0496534404487211
 10
370.1154384641422
 20
122.8090519801722
 42
-0.1994015234653575
 10
363.0500236324459
 20
120.9265013503011
 42
-0.5840134094476938
 10
362.8074934964236
 20
121.5330330048438
 42
0.0457743159284359
 10
365.0422113125167
 20
124.9048945565012
 42
0.0462172793424459
 10
359.3718381606444
 20
125.974837744854
 42
-0.177799959488502
 10
354.2177124749878
 20
121.6612612177566
 42
-0.6644534386208636
 10
353.7500758835325
 20
122.1705519152365
 42
0.1156012179762865
 10
354.5375570980394
 20
126.0559014504553
 42
0.0561026721207982
 10
347.6440229226954
 20
124.853533676804
 42
-0.2078494465848283
 10
343.3202136510248
 20
117.9226891978256
 42
-0.6109395662435863
  0
LWPOLYLINE
  5
B5
330
D3F
100
AcDbEntity
  8
KONTUR
100
AcDbPolyline
 90
       79
 70
     1
 43
0.0
 10
294.2678302749996
 20
81.19020412489996
 10
287.304754346956
 20
77.6788177546804
 42
0.0430307156469869
 10
313.3151977315413
 20
32.26880154716997
 42
0.075594506356468
 10
333.9978338312241
 20
8.369418788448939
 10
344.6529233942049
 20
11.79353715032999
 10
345.5707731271409
 20
8.937394319909714
 10
336.7475421865167
 20
6.10196183515373
 42
0.0112960146997191
 10
340.5282746143238
 20
3.227661399629567
 42
0.0306528911505895
 10
373.4889656085631
 20
-16.40340459473216
 42
-0.0905994518443846
 10
391.184180348088
 20
-28.55423805106459
 42
-0.2925139893660819
 10
395.205899209092
 20
-46.71977594988717
 42
-0.1822694712228101
 10
383.8227816325833
 20
-61.79876068839439
 42
-0.0952813454485791
 10
375.52574929076
 20
-64.85094683240226
 42
-0.132473036552742
 10
373.6378456485267
 20
-50.95640985526497
 42
0.8290622109840731
 10
372.376390245387
 20
-50.54573193689007
 42
0.1847244448984959
 10
370.4604948654907
 20
-64.56938036155818
 42
0.0094965378030985
 10
366.9094051260689
 20
-64.49130762782454
 42
-0.0828355016794377
 10
365.1547195461877
 20
-47.70964420178862
 42
0.7799553278582266
 10
363.906625987638
 20
-47.31381649232091
 42
0.2250810426082345
 10
361.9910351599331
 20
-64.60601465176958
 42
0.0096755906804125
 10
358.3807347506091
 20
-64.8554343139537
 42
-0.1155346178073173
 10
352.9663147160039
 20
-41.04403807656426
 42
0.8927125835033697
 10
351.3386171833636
 20
-40.84824853795232
 42
0.1641213260183362
 10
353.6313764281768
 20
-65.59546889369025
 42
0.0752891914706316
 10
349.5861532092281
 20
-67.58788036972195
 42
-0.1839442890175859
 10
337.8566054291253
 20
-46.47150200025154
 42
0.8808805498682252
 10
336.5175787728735
 20
-46.49389016192514
 42
0.2430921747214794
 10
345.9216300322187
 20
-70.94565249525314
 42
0.0974841707844365
 10
343.9034162657739
 20
-73.86132969880046
 42
-0.100428487581775
 10
323.797130033047
 20
-53.86574578832519
 42
0.9222271196020775
 10
322.620874400664
 20
-54.5192195669366
 42
0.1295204034331228
 10
342.7229715534438
 20
-79.18395933013231
 42
0.056917322648317
 10
342.8147416118963
 20
-83.87997808324673
 42
-0.1356879765154189
 10
324.3899829487663
 20
-72.29297843836127
 42
0.8879263126191716
 10
323.6632053544274
 20
-72.8130328417858
 42
0.2054856473512087
 10
343.8934470017729
 20
-88.61001493704151
 42
0.0121166878028362
 10
346.9351497497424
 20
-99.90582186008557
 42
0.1051088914588408
 10
349.2048543533084
 20
-105.3941153845884
 42
-0.0177284373376289
 10
352.2073598658088
 20
-111.3340135070597
 42
0.0716073231347894
 10
354.2450005988945
 20
-114.3382481515018
 42
0.4811938921428535
 10
356.4539333894606
 20
-114.2493188204968
 42
-0.5346120017147477
 10
358.6871265451335
 20
-114.0186781602831
 42
0.0897727879825169
 10
359.8613900902694
 20
-115.1463271629429
 42
0.2949372574776273
 10
361.2188940167653
 20
-115.1463271629429
 42
0.3577009239473078
 10
362.4065666279261
 20
-111.602885390429
 42
-0.2747626859627011
 10
362.6489556254901
 20
-110.289039185057
 42
0.1333075904314848
 10
363.3953103504335
 20
-108.8614842353396
 42
0.4086271805410724
 10
363.0609605116072
 20
-108.3271895389486
 42
0.1211622423727416
 10
359.5817792442664
 20
-108.3458174369774
 42
-0.0913783626620401
 10
354.8067536800293
 20
-98.90986506787189
 42
-0.0745963650653792
 10
354.3543582812287
 20
-94.03492807595455
 42
-0.125238099848244
 10
355.759829000606
 20
-87.75147247258113
 42
-0.4079763871381942
 10
360.2492179403978
 20
-86.54854433165537
 42
-0.1387172197198061
 10
365.9085919101802
 20
-91.08104439722248
 42
-0.0614425729006053
 10
368.9494135812399
 20
-96.34790202825048
 42
-0.1775530829499739
 10
367.4275783947742
 20
-98.48740521085993
 42
0.5004447197360289
 10
367.4275783947742
 20
-99.35204249858886
 42
0.2158161178278371
 10
370.0135021251767
 20
-99.35204249858886
 42
-0.120932112708149
 10
370.8279572396248
 20
-99.47683043080768
 42
0.3151527933589188
 10
372.6286340308092
 20
-98.96613668232753
 42
0.0366498052257888
 10
373.8216791872308
 20
-96.8831058809452
 42
0.2233400371044443
 10
373.7380235489589
 20
-94.58431731562395
 42
-0.0087134513042373
 10
371.3323704900364
 20
-90.15106072872839
 42
-0.0014834093853103
 10
369.0559388669908
 20
-85.57633732753703
 42
0.0028409625473537
 10
364.8454047156372
 20
-75.60199884891824
 42
-0.0935899127039166
 10
363.8837506824598
 20
-71.28234652637766
 42
-0.0701070880596092
 10
374.3490839726953
 20
-70.70090008388124
 42
0.1456252707829224
 10
385.0022772726632
 20
-67.57419253437447
 42
0.1262938901816226
 10
400.5280288247641
 20
-51.92770326031052
 42
0.2010002998466094
 10
403.473008467208
 20
-36.61442059472833
 42
0.1519898913092208
 10
387.8638255905637
 20
-8.185973029550766
 42
0.0486034608962526
 10
367.0973523083044
 20
9.057064321235714
 42
-0.0260081537125968
 10
342.9571539736798
 20
29.46567725455242
 42
-0.0546591367202471
 10
327.0255941981377
 20
47.03101875022187
 10
330.6529271376636
 20
50.25542040644871
 42
-0.0805092065539929
 10
302.2287522710703
 20
85.20479096558275
 10
296.9465030897736
 20
82.54102311772488
 10
304.3789675631398
 20
67.8024529337599
 10
301.7002947483606
 20
66.4516339409343
  0
LWPOLYLINE
  5
B6
330
D3F
100
AcDbEntity
  8
KONTUR
100
AcDbPolyline
 90
        4
 70
     1
 43
0.0
 10
272.2295429745524
 20
72.58578574200254
 10
264.0360007756925
 20
78.27513417770498
 10
265.7470641441967
 20
80.73933022286146
 10
273.9406063430581
 20
75.04998178715706
  0
LWPOLYLINE
  5
B7
330
D3F
100
AcDbEntity
  8
KONTUR
100
AcDbPolyline
 90
        4
 70
     1
 43
0.0
 10
218.7738205876633
 20
35.51384506787818
 10
222.4480423007102
 20
24.77504572938361
 10
219.6095845037866
 20
23.803882851645
 10
215.9353627907427
 20
34.54268219014153
  0
LWPOLYLINE
  5
B8
330
D3F
100
AcDbEntity
  8
KONTUR
100
AcDbPolyline
 90
        4
 70
     1
 43
0.0
 10
252.6808484331848
 20
-33.05712472252135
 10
248.1459536473254
 20
-19.80280069693495
 10
250.9844114442493
 20
-18.83163781919899
 10
255.5193062301085
 20
-32.08596184478273
  0
LWPOLYLINE
  5
B9
330
D3F
100
AcDbEntity
  8
KONTUR
100
AcDbPolyline
 90
        4
 70
     1
 43
0.0
 10
238.9791698000441
 20
-115.4582398232191
 10
230.9902841743648
 20
-121.4315576489429
 10
229.1938174197706
 20
-119.0289117741529
 10
237.1827030454541
 20
-113.0555939484298
  0
LWPOLYLINE
  5
BA
330
D3F
100
AcDbEntity
  8
KONTUR
100
AcDbPolyline
 90
        4
 70
     1
 43
0.0
 10
257.2396020933659
 20
-177.8954054676558
 10
268.5892196222902
 20
-177.8065326580558
 10
268.6127103041965
 20
-180.8064406879561
 10
257.2630927752775
 20
-180.8953134975577
  0
LWPOLYLINE
  5
BB
330
D3F
100
AcDbEntity
  8
KONTUR
100
AcDbPolyline
 90
        4
 70
     1
 43
0.0
 10
333.014904515432
 20
-167.4183840322642
 10
319.0066803599107
 20
-167.5280749742763
 10
318.9831896780018
 20
-164.5281669443738
 10
332.9914138335234
 20
-164.4184760023612
  0
LWPOLYLINE
  5
BC
330
D3F
100
AcDbEntity
  8
KONTUR
100
AcDbPolyline
 90
        4
 70
     1
 43
0.0
 10
350.3149817513382
 20
-72.34012926359153
 10
359.9501981143717
 20
-74.92187770696389
 10
359.1737409790639
 20
-77.81965518583274
 10
349.5385246160302
 20
-75.23790674245782
  0
LWPOLYLINE
  5
BD
330
D3F
100
AcDbEntity
  8
KONTUR
100
AcDbPolyline
 90
        4
 70
     1
 43
0.0
 10
388.0759367518014
 20
-19.36887933778115
 10
380.9851681703492
 20
-10.5064464125992
 10
383.3276685787519
 20
-8.632228752708982
 10
390.4184371602038
 20
-17.49466167789383
  0
LWPOLYLINE
  5
BE
330
D3F
100
AcDbEntity
  8
KONTUR
100
AcDbPolyline
 90
        4
 70
     1
 43
0.0
 10
332.9690725332276
 20
33.68673253606696
 10
341.7208278651388
 20
22.74830693160374
 10
339.3783274567347
 20
20.87408927171873
 10
330.626572124822
 20
31.81251487617937
  0
LWPOLYLINE
  5
BF
330
D3F
100
AcDbEntity
  8
KONTUR
100
AcDbPolyline
 90
        4
 70
     1
 43
0.0
 10
363.5185316052792
 20
67.70770573762499
 10
371.8652729734546
 20
73.16982326840866
 10
373.5079969737566
 20
70.65955279317217
 10
365.1612556055797
 20
65.19743526238696
  0
LWPOLYLINE
  5
C0
330
D3F
100
AcDbEntity
  8
KONTUR
100
AcDbPolyline
 90
        4
 70
     1
 43
0.0
 10
349.197770911988
 20
131.1644536405484
 10
337.8648038759711
 20
131.7854001677811
 10
338.0289312105235
 20
134.78090717296
 10
349.3618982465367
 20
134.1599606457235
  0
LWPOLYLINE
  5
C1
330
D3F
100
AcDbEntity
  8
KONTUR
100
AcDbPolyline
 90
        4
 70
     1
 43
0.0
 10
272.9156494748742
 20
125.4458537798922
 10
286.9033228200832
 20
124.6794527870912
 10
286.7391954855318
 20
121.6839457819152
 10
272.7515221403256
 20
122.450346774717
  0
LWPOLYLINE
  5
C2
330
D3F
100
AcDbEntity
  8
KONTUR
100
AcDbPolyline
 90
       46
 70
     1
 43
0.0
 10
278.6216390674684
 20
-81.30153945854775
 42
0.211086161368725
 10
286.4096794742593
 20
-88.71976622219003
 10
294.0208996759038
 20
-91.45518993288627
 42
0.0247414472238859
 10
295.8443653995673
 20
-104.3232382048373
 42
0.0799899176382926
 10
303.6459971093848
 20
-126.5969967607497
 42
0.1108173526828155
 10
315.8997686135064
 20
-140.6451451104758
 42
0.1569622418110604
 10
331.4764535464675
 20
-145.8312542171504
 42
0.121419317504622
 10
352.105314071574
 20
-140.9653862893602
 42
0.1028074907903842
 10
364.1027358657317
 20
-131.2993289605112
 10
369.7453096507457
 20
-124.4306191747278
 10
376.1706308949646
 20
-133.8485965979172
 42
0.4152358384918121
 10
378.915238312449
 20
-134.7147361887612
 42
0.3974280466280888
 10
379.8807687879249
 20
-132.0965155509411
 42
-0.2254175819560019
 10
380.6229239881215
 20
-125.537739468716
 42
-0.239784922011916
 10
385.6854291139723
 20
-123.7645407325507
 42
-0.1265063616272193
 10
392.9640542899096
 20
-126.8761711465316
 42
0.1537314837263488
 10
396.3264770812216
 20
-128.2321288471555
 42
0.1831742370521507
 10
398.0989004553583
 20
-127.6349198141383
 42
0.4938763281722886
 10
397.9840372002185
 20
-124.7248502733556
 42
-0.0829890425091028
 10
393.2982372459766
 20
-119.8453071989972
 42
0.3099869998660655
 10
392.5072383384342
 20
-119.5384522753374
 10
388.7460781458214
 20
-120.4235735239663
 42
-0.50876198445481
 10
383.2902169872919
 20
-114.6007166700341
 42
-0.196702256104567
 10
384.6286406795286
 20
-112.3687904339358
 42
0.5011955651380428
 10
384.6279393450561
 20
-111.1670720427095
 42
0.4792263642983189
 10
364.2338415700443
 20
-116.434899737617
 42
-0.0600526885496228
 10
356.7038168401223
 20
-128.2479101922847
 42
-0.2946471530562973
 10
328.5135036878183
 20
-134.9584335093445
 42
-0.2951888645550555
 10
313.7854902966418
 20
-117.0338451133368
 42
-0.0325377986906438
 10
315.2496795964961
 20
-81.83209235148103
 42
0.0351702579820327
 10
316.0291930819028
 20
-51.5790591883271
 42
0.0677983841216635
 10
312.8664735520757
 20
-33.61966493424821
 42
0.0114597643980371
 10
304.4289573356182
 20
-9.530447959239296
 42
0.0741662387620019
 10
298.0587649879149
 20
2.562310299838017
 42
0.2871963191597216
 10
289.0547858488417
 20
7.080173283283258
 42
0.4021035605509705
 10
283.1636870361239
 20
-1.577680128733391
 42
-0.0076574836019431
 10
286.4165487493437
 20
-20.85525064408621
 42
-0.0101707388637272
 10
291.2396481921273
 20
-49.56628750216818
 42
-0.0375837172689823
 10
293.4738488420765
 20
-79.25682220071583
 42
0.0066296198633969
 10
293.5142561197523
 20
-82.74108466770213
 42
-0.4157454787027505
 10
291.3091116167259
 20
-85.04657061741074
 42
-0.0938689101982243
 10
289.4835766180687
 20
-84.73778655479817
 42
-0.0847416992258546
 10
283.4053809578419
 20
-81.81298930983844
 42
-0.1360688483905049
 10
279.7215602603325
 20
-77.92226049592869
 10
278.115912593383
 20
-74.89459217346288
 42
0.9273504260674412
 10
276.6084432054731
 20
-75.55383946145065
  0
LWPOLYLINE
  5
C3
330
D3F
100
AcDbEntity
  8
KONTUR
100
AcDbPolyline
 90
        4
 70
     1
 43
0.0
 10
375.3427943906683
 20
-111.3888544032757
 10
371.7807678236284
 20
-120.7062996605899
 10
374.5829760989736
 20
-121.7775740332859
 10
378.1450026660132
 20
-112.4601287759714
  0
LWPOLYLINE
  5
C4
330
D3F
100
AcDbEntity
  8
KONTUR
100
AcDbPolyline
 90
        4
 70
     1
 43
0.0
 10
310.2920796320593
 20
-110.8913097885992
 10
307.2751104892267
 20
-99.94966395169228
 10
304.3830367146866
 20
-100.747103154774
 10
307.4000058575167
 20
-111.6887489916803
  0
LWPOLYLINE
  5
C5
330
D3F
100
AcDbEntity
  8
KONTUR
100
AcDbPolyline
 90
        4
 70
     1
 43
0.0
 10
299.6566293032867
 20
-35.13808126586926
 10
303.3803124948408
 20
-48.64276784434797
 10
306.2723862693847
 20
-47.84532864126661
 10
302.5487030778282
 20
-34.3406420627874
  0
LWPOLYLINE
  5
C6
330
D3F
100
AcDbEntity
  8
KONTUR
100
AcDbPolyline
 90
       94
 70
     1
 43
0.0
 10
596.3161611537876
 20
-126.4445351867905
 42
-0.0905578554786931
 10
611.0173466672567
 20
-120.8917464463306
 42
0.0446434227240815
 10
617.6406939048064
 20
-119.4000514032653
 42
0.2404210720998031
 10
619.1280930017613
 20
-118.050526141366
 42
-0.0138329804074876
 10
620.0173401086011
 20
-116.0636853909364
 42
0.686381230621339
 10
618.5975526983355
 20
-114.4518383537298
 42
-0.0035468937377506
 10
615.8862844685589
 20
-115.1783204863631
 42
-0.1458479087817569
 10
607.8654181253532
 20
-115.1783204863631
 42
-0.2304188200503483
 10
603.4694714421369
 20
-111.6394774224483
 42
-0.1309352083441033
 10
604.7985869006712
 20
-107.8582667158815
 42
-0.0893329539440231
 10
611.7599843283076
 20
-102.0386511666781
 42
-0.2899321903321972
 10
613.8217607992864
 20
-102.0386511666781
 42
-0.095277790454718
 10
615.7859381970456
 20
-104.0028285644394
 42
0.2022639930415862
 10
617.0517017389113
 20
-100.3436585600587
 42
-0.3822032502755891
 10
620.6126325278559
 20
-102.8936087095561
 42
0.1998196346598348
 10
622.110464459744
 20
-100.9791133338723
 42
0.203809570520888
 10
621.5912934824957
 20
-97.53972292131518
 42
-0.3085483532953815
 10
621.5912934824957
 20
-95.60510222910099
 42
0.5577614494707839
 10
619.9822309329672
 20
-93.62394090157104
 42
0.053145938996953
 10
611.0766430464686
 20
-95.13737049997891
 42
0.0730915148276326
 10
597.8943411740965
 20
-100.6919153819922
 42
-0.0584913101549149
 10
594.3709318011189
 20
-101.228672640225
 42
-0.0486568640109078
 10
589.3941499834217
 20
-100.6919153819922
 42
0.0184770848180959
 10
581.0253647368661
 20
-98.62994030475674
 42
0.0188215899903594
 10
569.6472534997012
 20
-97.58976455656965
 42
-0.0789111648939105
 10
552.6453011710889
 20
-93.84597422873602
 42
0.6978074359056186
 10
552.3647353015434
 20
-94.16168525437198
 42
0.165634820664156
 10
556.3741671608262
 20
-97.90080380421906
 42
0.0597310804679317
 10
567.9788841193117
 20
-101.2171647716689
 42
0.0071635578094875
 10
578.8030582094977
 20
-102.7574318233644
 42
-0.0755741350788793
 10
585.1416542887514
 20
-104.7168783549239
 42
0.0010703567016645
 10
589.0555769436214
 20
-106.29165255085
 42
0.1128303645621838
 10
585.1773466663373
 20
-111.8033368820313
 42
0.2533979322656432
 10
586.6486585868405
 20
-123.2934023932473
 42
0.0680773411992851
 10
591.8108549959795
 20
-130.3381966408539
 42
-0.0299792085486744
 10
598.228070652939
 20
-137.3344870852758
 42
-0.2184819214573671
 10
601.8737789386765
 20
-156.18872952199
 42
-0.0952945166979984
 10
597.4608319030551
 20
-166.6884911999136
 42
-0.2598942356177418
 10
583.0948098345209
 20
-175.464959910314
 42
-0.0981126536050735
 10
571.453643161629
 20
-173.8283060837696
 10
564.4454632798639
 20
-171.3647550226081
 10
564.5381910384355
 20
-171.0186903163417
 42
0.4155776377733594
 10
563.6770401912245
 20
-169.4567845274207
 42
-0.0973394401466627
 10
558.4401416738694
 20
-165.7401921217289
 42
-0.2394799796259957
 10
556.8886681620114
 20
-159.9500141488669
 42
0.0177711097180847
 10
557.352361334466
 20
-153.4159375699653
 42
-0.1853025168819087
 10
559.4593654740236
 20
-149.4954364962066
 42
0.1080634715736348
 10
562.8132595696668
 20
-145.8743821668984
 42
-0.0118734097501094
 10
563.674950679788
 20
-144.2574680859488
 42
0.4548584773387641
 10
562.1832572277289
 20
-140.9987166192767
 42
-0.1930533104605109
 10
558.8184557923369
 20
-136.9040089759634
 42
0.2464035502293313
 10
553.6283869285756
 20
-132.6826609647587
 42
-0.3061589361136694
 10
549.6874342218961
 20
-129.2731227083504
 42
0.2129773407241942
 10
545.6599672791821
 20
-123.8184442652674
 42
0.0626466607487147
 10
543.3313586148387
 20
-122.8907636777922
 10
543.3313586148387
 20
-128.4134528458965
 10
540.3313586148406
 20
-128.4134528458965
 10
540.3313586148406
 20
-122.5799306172022
 42
0.1426370317871023
 10
535.02062417838
 20
-124.4040948827516
 42
0.1977947837156672
 10
532.6049264373615
 20
-129.1986961893907
 42
0.2734705687331437
 10
535.1763223771833
 20
-135.4408766282391
 42
0.1050154134555592
 10
539.5371867609761
 20
-137.6470964718268
 42
-0.0895363580193376
 10
542.828805757758
 20
-138.9707859478898
 42
0.069955709889785
 10
549.0265159054636
 20
-141.0636067165851
 42
-0.0571596840522001
 10
553.2819377942338
 20
-142.1438633774709
 42
-0.4062684988805171
 10
554.520665082288
 20
-144.2894019771044
 42
-0.113369967626398
 10
552.5576051493163
 20
-148.8597085140045
 42
0.2203043241164758
 10
552.0448610910286
 20
-152.9298191231575
 42
-0.1554151511628579
 10
552.0448610910286
 20
-160.801876184073
 42
-0.3871927112322913
 10
550.977043023797
 20
-161.4183812326346
 42
-0.0232861994726287
 10
548.3553905096938
 20
-160.7159115586462
 42
0.5469254930237626
 10
547.1147995326679
 20
-161.7452420648542
 42
0.2031472012748002
 10
548.3075295580408
 20
-163.8111110685124
 42
-0.6740823137191684
 10
547.9752515335028
 20
-165.0511895383205
 10
546.8585553512834
 20
-165.0394960736447
 42
0.0201650619791725
 10
518.8231201316334
 20
-156.0748542403622
 10
518.8231201316334
 20
-164.2582549646922
 10
515.8231201316304
 20
-164.2582549646922
 10
515.8231201316304
 20
-155.560971798122
 42
0.0667182060809743
 10
478.9550332841413
 20
-154.6226659132585
 42
0.0417827547166604
 10
431.9456280710313
 20
-163.008964065822
 10
433.3288380402631
 20
-169.2140326212336
 10
449.4714153270647
 20
-165.6155915028395
 10
450.1241428392362
 20
-168.5437217586263
 10
433.9815655524374
 20
-172.1421628770205
 10
434.9885062090497
 20
-176.6592903880219
 42
-0.0651045246336319
 10
455.2512121527384
 20
-174.9797873440699
 42
-0.0232388580536207
 10
480.399971516328
 20
-176.980481001739
 10
480.6695738643019
 20
-173.0750446800117
 42
-0.0675210547111453
 10
549.9289090950367
 20
-183.0158530380163
 42
0.0771201732291354
 10
576.1788937978967
 20
-184.1048782393935
 42
0.0861761607954347
 10
594.2848980162472
 20
-178.6628361757032
 42
0.2311256051519571
 10
606.5064049808998
 20
-159.6145826657894
 42
0.1911464252170879
 10
602.4831957149018
 20
-135.461783279368
  0
LWPOLYLINE
  5
C7
330
D3F
100
AcDbEntity
  8
KONTUR
100
AcDbPolyline
 90
        4
 70
     1
 43
0.0
 10
594.1114139746351
 20
-106.8213026172385
 42
-0.4611863204235568
 10
598.9768504090416
 20
-104.8185651299529
 42
-0.4071969475260496
 10
599.3101055562591
 20
-105.8120067009
 42
-0.3824527019910478
 10
594.5740831693816
 20
-107.7614740719536
 42
-0.4071969475260607
  0
LWPOLYLINE
  5
C8
330
D3F
100
AcDbEntity
  8
KONTUR
100
AcDbPolyline
 90
        4
 70
     1
 43
0.0
 10
588.427187468905
 20
-115.4582398232191
 10
596.4160730945885
 20
-121.4315576489429
 10
598.2125398491817
 20
-119.0289117741529
 10
590.2236542234994
 20
-113.0555939484298
  0
LWPOLYLINE
  5
C9
330
D3F
100
AcDbEntity
  8
KONTUR
100
AcDbPolyline
 90
        4
 70
     1
 43
0.0
 10
570.1667551755835
 20
-177.8954054676558
 10
558.8171376466641
 20
-177.8065326580558
 10
558.7936469647528
 20
-180.8064406879561
 10
570.1432644936715
 20
-180.8953134975577
  0
LWPOLYLINE
  5
CA
330
D3F
100
AcDbEntity
  8
KONTUR
100
AcDbPolyline
 90
        4
 70
     1
 43
0.0
 10
494.3914527535212
 20
-167.4183840322642
 10
508.399676909041
 20
-167.5280749742763
 10
508.4231675909506
 20
-164.5281669443738
 10
494.4149434354304
 20
-164.4184760023612
  0
LWPOLYLINE
  5
CB
330
D3F
100
AcDbEntity
  8
KONTUR
100
AcDbPolyline
 90
       79
 70
     1
 43
0.0
 10
628.7049071964246
 20
134.9344676436166
 10
630.731391650851
 20
127.404021350296
 42
-0.0430307156469869
 10
579.5468790018754
 20
116.5063884919498
 42
-0.075594506356468
 10
547.9450219759235
 20
115.9823991874847
 10
543.3915532531447
 20
126.2059720826147
 10
540.6510803314382
 20
124.9853951020795
 10
544.421701487132
 20
116.5194930410222
 42
-0.0112960146997191
 10
539.7586366753391
 20
117.4202523014872
 42
-0.0306528911505895
 10
503.1501700966749
 20
128.8922215156771
 42
0.0905994518443846
 10
482.2955380101255
 20
133.976284742677
 42
0.2925139893660819
 10
466.0766168283319
 20
124.8599485570598
 42
0.1822694712228101
 10
462.4302530220782
 20
106.3220096884249
 42
0.0952813454485791
 10
465.6884616633637
 20
98.10369706423992
 42
0.132473036552742
 10
477.3017015244232
 20
105.9621318893786
 42
-0.8290622109840731
 10
478.4489205126554
 20
105.2959377136475
 42
-0.1847244448984959
 10
469.2759591565076
 20
94.51678421237369
 42
-0.0094965378030985
 10
471.7021185199659
 20
91.92254358508264
 42
0.0828355016794377
 10
485.378035321314
 20
101.8054808241671
 42
-0.7799553278582266
 10
486.5052777083461
 20
101.1393414188211
 42
-0.2250810426082345
 10
474.8963624648585
 20
88.18084257542688
 42
-0.0096755906804125
 10
477.1179552821238
 20
85.32409537490101
 42
0.1155346178073173
 10
498.4729148405762
 20
97.16741574301179
 42
-0.8927125835033697
 10
499.7042190281619
 20
96.08500048128247
 42
-0.1641213260183362
 10
479.7334975563306
 20
81.29135508250895
 42
-0.0752891914706316
 10
480.9462184672811
 20
76.9482176942731
 42
0.1839442890175859
 10
504.5039548338589
 20
82.28832854061948
 42
-0.8808805498682252
 10
505.3801762942973
 20
81.27554546009653
 42
-0.2430921747214794
 10
480.8875982944122
 20
71.97831553858089
 42
-0.0974841707844365
 10
480.0606198200374
 20
68.53005989764014
 42
0.100428487581775
 10
508.3690047395282
 20
66.88037349015999
 42
-0.9222271196020775
 10
508.6663950162065
 20
65.56806090720249
 42
-0.1295204034331228
 10
476.881309225114
 20
64.10108484101034
 42
-0.056917322648317
 10
473.3206013066091
 20
61.03801889456082
 42
0.1356879765154189
 10
494.2415426386316
 20
55.0343111778977
 42
-0.8879263126191716
 10
494.3386319920336
 20
54.1459216734518
 42
-0.2054856473512087
 10
469.0764231323063
 20
58.68774112774516
 42
-0.0121166878028362
 10
458.6303890832082
 20
53.42204247564566
 42
-0.1051088914588408
 10
453.026955720388
 20
51.45367783792488
 42
0.0177284373376289
 10
446.5983279927939
 20
49.73025838872399
 42
-0.0716073231347894
 10
443.0007837628697
 20
49.24540679312173
 42
-0.4811938921428535
 10
441.5940684303977
 20
50.95082300992055
 42
0.5346120017147477
 10
440.2767799960372
 20
52.7688158496739
 42
-0.0897727879825169
 10
438.6534104022318
 20
52.89193493242911
 42
-0.2949372574776273
 10
437.748183867124
 20
53.90355829642991
 42
-0.3577009239473078
 10
439.5968088872327
 20
57.15150093162506
 42
0.2747626859627011
 10
440.4142655030009
 20
58.20824544135681
 42
-0.1333075904314848
 10
440.9803985534534
 20
59.71637404300134
 42
-0.4086271805410724
 10
441.6015145058935
 20
59.82349832101656
 42
-0.1211622423727416
 10
443.907660901249
 20
57.21836145459585
 42
0.0913783626620401
 10
454.1235501182653
 20
59.95216352439769
 42
0.0745963650653792
 10
458.0580657938078
 20
62.8657967667441
 42
0.125238099848244
 10
461.8033375431626
 20
68.10317223410251
 42
0.4079763871381942
 10
459.7061032541391
 20
72.25085321290049
 42
0.1387172197198061
 10
452.5545965338169
 20
73.44585204279446
 42
0.0614425729006053
 10
446.6019738254343
 20
72.19979079537728
 42
0.1775530829499739
 10
446.0224058413711
 20
69.63901803017228
 42
-0.5004447197360289
 10
445.3780708493455
 20
69.06245055156822
 42
-0.2158161178278371
 10
443.6536951530173
 20
70.98950270378916
 42
0.120932112708149
 10
443.017597715525
 20
71.51322897914437
 42
-0.3151527933589188
 10
442.19742278786
 20
73.19565523282591
 42
-0.0366498052257888
 10
442.9541546642049
 20
75.47375332818578
 42
-0.2233400371044443
 10
444.7230154964198
 20
76.94431733227739
 42
0.0087134513042373
 10
449.6308811718479
 20
78.10784005105247
 42
0.0014834093853103
 10
454.5580001705271
 20
79.46199421681078
 42
-0.0028409625473537
 10
464.7986785323858
 20
82.97547292242525
 42
0.0935899127039166
 10
468.658981151026
 20
85.13932096692258
 42
0.0701070880596092
 10
462.1136648440372
 20
93.32590238303721
 42
-0.1456252707829224
 10
457.3398275660992
 20
103.3497392347805
 42
-0.1262938901816226
 10
458.6466612313317
 20
125.3532338125134
 42
-0.2010002998466094
 10
468.0944429695942
 20
137.7592384601236
 42
-0.1519898913092208
 10
499.6882582458241
 20
145.0841314514279
 42
-0.0486034608962526
 10
526.3856558729568
 20
141.1069830254675
 42
0.0260081537125968
 10
557.6917736203346
 20
136.7266121411205
 42
0.0546591367202471
 10
581.40528183184
 20
136.5674045914128
 10
581.389312833348
 20
141.4206566233952
 42
0.0805092065539929
 10
626.3880166677775
 20
143.5440672166047
 10
627.9253251735203
 20
137.8314060049846
 10
611.9858162039645
 20
133.5419966021703
 10
612.7653982268725
 20
130.6450582408008
  0
LWPOLYLINE
  5
CC
330
D3F
100
AcDbEntity
  8
KONTUR
100
AcDbPolyline
 90
        4
 70
     1
 43
0.0
 10
476.9187966368626
 20
74.32239706198399
 10
468.5697890595234
 20
79.78104999661908
 10
466.9281070315352
 20
77.27009796222984
 10
475.2771146088811
 20
71.811445027595
  0
LWPOLYLINE
  5
CD
330
D3F
100
AcDbEntity
  8
KONTUR
100
AcDbPolyline
 90
        4
 70
     1
 43
0.0
 10
491.2132198125406
 20
137.7850830067544
 10
502.5459281627432
 20
138.4107329714879
 10
502.3805576250703
 20
141.4061716013524
 10
491.0478492748689
 20
140.7805216366156
  0
LWPOLYLINE
  5
CE
330
D3F
100
AcDbEntity
  8
KONTUR
100
AcDbPolyline
 90
        4
 70
     1
 43
0.0
 10
567.4977080551398
 20
132.0981428033163
 10
553.5103539919564
 20
131.3259366098864
 10
553.6757245296268
 20
128.3304979800225
 10
567.6630785928092
 20
129.1027041734544
  0
LWPOLYLINE
  5
CF
330
D3F
100
AcDbEntity
  8
KONTUR
100
AcDbPolyline
 90
       45
 70
     1
 43
0.0
 10
232.1192549159951
 20
64.67001784881154
 42
0.1720265259877194
 10
226.1778818847384
 20
62.03991829248451
 42
0.2271894650014021
 10
222.6406155120108
 20
48.83866046954586
 42
0.0801355920853116
 10
225.0471536337737
 20
43.74506279052073
 42
0.0160521051078767
 10
228.3222778398329
 20
39.7830495646611
 42
0.2302088393533435
 10
239.7553292093614
 20
35.46861717818007
 42
-0.0795131157704258
 10
243.1701877672185
 20
35.33167250747758
 42
-0.344461524399081
 10
245.6894446163119
 20
31.95076317874552
 42
-0.0489251200250048
 10
245.6894446163119
 20
29.10518292321942
 42
0.4154377454017923
 10
247.7362911608736
 20
26.32423611470054
 42
-0.3518440122205639
 10
249.9383207816537
 20
22.51020893173524
 42
0.4699585474168457
 10
252.6229983270267
 20
19.82553138636547
 42
-0.3810363400032083
 10
258.2472751588193
 20
17.38866698198613
 42
0.2712107604455259
 10
260.9369105913601
 20
15.57962694027584
 42
0.0077715909676239
 10
265.1208829247333
 20
15.22570099399057
 42
-0.2896757617730138
 10
265.9229199914819
 20
14.55638666092525
 42
-0.3423224598180466
 10
265.1944855195948
 20
12.90896525192728
 42
0.1813828793845019
 10
261.9968456504242
 20
8.459781106029254
 42
0.5861020149165032
 10
262.40077585559
 20
7.954294791748267
 42
-0.0145563579204483
 10
267.4770062727079
 20
10.30414989025793
 42
-0.8102212447225372
 10
269.2326427324226
 20
7.82779318110839
 42
-0.139998155265542
 10
263.8554999508432
 20
4.723298348692381
 42
0.1346030147211284
 10
261.1000336408361
 20
2.983018809421267
 42
0.5068229434109343
 10
261.3399371937371
 20
2.087686561058731
 42
0.1507855484001714
 10
265.3100849260563
 20
2.465309607618209
 42
-0.3467409504945916
 10
266.8412973310182
 20
2.137517492687052
 42
-0.3906146395836959
 10
266.0846523714484
 20
-0.3903628002586146
 42
-0.0748459408894737
 10
262.4110883537193
 20
-2.218275953378721
 42
-0.0092387722621671
 10
259.7078051593477
 20
-3.090203972580653
 42
0.6099169759590523
 10
259.3882738626421
 20
-4.282711006508264
 42
0.3918567115376281
 10
266.1319189039214
 20
-4.833241420698769
 42
0.0642056214533329
 10
272.3720947379149
 20
1.605036860559948
 42
0.2115017991749574
 10
274.8046691591122
 20
9.529010082799914
 42
0.0087853507729326
 10
274.4679672316031
 20
16.21427347259771
 42
0.2384652815600762
 10
271.8622583932591
 20
20.72749357034149
 42
-0.1368373873780986
 10
268.9767307698959
 20
23.61302119370751
 42
-0.1824273143768664
 10
267.7093972799008
 20
28.34277416850702
 42
0.2955531157668183
 10
266.0437327427661
 20
31.22778977518385
 42
-0.088999169353165
 10
261.041905755859
 20
35.77849758547029
 42
-0.2340570430475208
 10
259.9868683390043
 20
38.93506143064883
 42
0.0653143858057285
 10
258.9836021148672
 20
45.31791728355685
 42
0.077879992807858
 10
257.5373093491095
 20
48.94156088328952
 42
-0.0454225981314692
 10
255.0775641831757
 20
54.07425757278438
 42
0.107869671601915
 10
251.6084176757821
 20
57.29720484749734
 42
0.0005941752670928
 10
245.0491996594304
 20
61.39212360638325
 42
0.1744654674299856
  0
LWPOLYLINE
  5
D0
330
D3F
100
AcDbEntity
  8
KONTUR
100
AcDbPolyline
 90
        4
 70
     1
 43
0.0
 10
229.8590191665373
 20
45.90634192368646
 10
231.6157572299366
 20
59.48091914994418
 10
234.5909465345597
 20
59.09588849962296
 10
232.8342084711545
 20
45.52131127336497
  0
LWPOLYLINE
  5
D1
330
D3F
100
AcDbEntity
  8
KONTUR
100
AcDbPolyline
 90
       45
 70
     1
 43
0.0
 10
348.1196171805316
 20
-33.06111717526459
 42
-0.1720265259877194
 10
344.04139559882
 20
-38.1193229740786
 42
-0.2271894650014021
 10
330.3744478232783
 20
-38.1193229740786
 42
-0.0801355920853116
 10
326.0772681750602
 20
-34.47646556289553
 42
-0.0160521051078767
 10
323.0979217957052
 20
-30.28749402815576
 42
-0.2302088393533435
 10
321.889591565896
 20
-18.12735716661056
 42
0.0795131157704258
 10
322.6411436027977
 20
-14.79341320354997
 42
0.344461524399081
 10
320.0274676178827
 20
-11.48495422591367
 42
0.0489251200250048
 10
317.2788481582922
 20
-10.74846386141665
 42
-0.4154377454017923
 10
315.1224226825409
 20
-8.051599924112068
 42
0.3518440122205639
 10
312.0082825280889
 20
-4.937459769655347
 42
-0.4699585474168457
 10
310.1099288304558
 20
-1.649414714623333
 42
0.3810363400032083
 10
309.2117685261003
 20
4.413926449591855
 42
-0.2712107604455259
 10
308.1604989033428
 20
7.480128793333548
 42
-0.0077715909676239
 10
308.9015244152907
 20
11.61313850207318
 42
0.2896757617730138
 10
308.4625988828324
 20
12.56107811504471
 42
0.3423224598180466
 10
306.6827792826639
 20
12.28384848184608
 42
-0.1813828793845019
 10
301.5575873127052
 20
10.34669914116925
 42
-0.5861020149165032
 10
301.1738698568952
 20
10.86769524353337
 42
0.0145563579204483
 10
304.7574806938587
 20
15.16277005089476
 42
0.8102212447225372
 10
302.819895945439
 20
17.49951292770036
 42
0.139998155265542
 10
298.4294772491205
 20
13.10909423138265
 42
-0.1346030147211284
 10
296.0353291380064
 20
10.89793564764153
 42
-0.5068229434109343
 10
295.2325962046828
 20
11.36139372278063
 42
-0.1507855484001714
 10
296.6249019029516
 20
15.09852591529007
 42
0.3467409504945916
 10
296.704585965988
 20
16.66240236495429
 42
0.3906146395836959
 10
294.0670069793471
 20
16.58580302072934
 42
0.0748459408894737
 10
291.3505901253419
 20
13.51051139830125
 42
0.0092387722621671
 10
289.8087111579213
 20
11.12501192241097
 42
-0.6099169759590523
 10
288.5741370307243
 20
11.12501192241097
 42
-0.3918567115376281
 10
289.7877492555973
 20
17.78136058721371
 42
-0.0642056214533329
 10
297.6217248749257
 20
22.14255854899204
 42
-0.2115017991749574
 10
305.9052918459438
 20
22.44136982399732
 42
-0.0087853507729326
 10
312.2756155383354
 20
20.38586724964907
 42
-0.2384652815600762
 10
315.9606443171155
 20
16.70083847086806
 42
0.1368373873780986
 10
318.0010204669014
 20
13.16680331289332
 42
0.1824273143768664
 10
322.2416009735209
 20
10.71850301587663
 42
-0.2955531157668183
 10
324.5972063522907
 20
8.362897637100786
 42
0.088999169353165
 10
327.6982844696265
 20
2.353693921819271
 42
0.2340570430475208
 10
330.474227233233
 20
0.51762719296228
 42
-0.0653143858057285
 10
336.3799281409233
 20
-2.103458220450661
 42
-0.077879992807858
 10
339.5057709666015
 20
-4.438337731544919
 42
0.0454225981314692
 10
343.8269463624525
 20
-8.142708769387937
 42
-0.107869671601915
 10
346.0421931854995
 20
-12.32780711211573
 42
-0.0005941752670928
 10
348.2999304276536
 20
-19.7233681573166
 42
-0.1744654674299856
  0
LWPOLYLINE
  5
D2
330
D3F
100
AcDbEntity
  8
KONTUR
100
AcDbPolyline
 90
        4
 70
     1
 43
0.0
 10
329.4103059499549
 20
-30.38794057361416
 10
342.9770179418194
 20
-32.20442102351885
 10
343.3751425475813
 20
-29.23095557083673
 10
329.8084305557184
 20
-27.41447512093211
  0
LWPOLYLINE
  5
D3
330
D3F
100
AcDbEntity
  8
KONTUR
100
AcDbPolyline
 90
       24
 70
     1
 43
0.0
 10
369.1924206659614
 20
36.86842416755698
 42
0.3161931589712117
 10
368.4139364765125
 20
35.67776715228786
 42
0.1203422681257846
 10
369.0535245363273
 20
32.16346936394927
 42
-0.2807458825652832
 10
368.6546499361054
 20
29.03980125778324
 42
-0.3519776510674402
 10
365.9038640020156
 20
28.92033054037069
 42
0.1300331674108376
 10
361.3389299202112
 20
30.27193833339249
 42
0.2973865056506821
 10
359.4819266035866
 20
29.1997969686534
 42
0.2946497018954988
 10
360.17645919695
 20
27.12011078316377
 42
-0.0390405420583891
 10
364.4890327867754
 20
23.33477231629235
 42
-0.0573911107536907
 10
366.3654777542652
 20
19.97805124401293
 42
0.1859332279868495
 10
369.5135643051756
 20
17.2920032890941
 42
0.3108096824780469
 10
370.3343964706572
 20
17.51387202736514
 42
-0.1975527167051062
 10
372.1984226375889
 20
18.47625058928888
 42
-0.1774514681067027
 10
374.0361198279031
 20
17.98384111120906
 42
0.2277691113741982
 10
375.5409612587666
 20
17.63037545466479
 42
0.2885449449282722
 10
378.0622055170131
 20
20.25571135638267
 42
0.0738330823533694
 10
378.0987932875299
 20
24.27453542567846
 10
373.3814557775797
 20
23.36559312036948
 10
372.81385255663
 20
26.31140821700777
 10
377.6567305576991
 20
27.24453981620448
 42
0.110806945688871
 10
376.2786442148267
 20
29.7477349058965
 42
0.2479232526446679
 10
374.1137567588538
 20
30.66968179298974
 42
-0.2944346988137114
 10
372.9169400840685
 20
31.72409873605005
 42
0.0359611179986657
 10
371.1971867857353
 20
35.88810692882757
 42
0.3483301182759646
  0
LWPOLYLINE
  5
D4
330
D3F
100
AcDbEntity
  8
KONTUR
100
AcDbPolyline
 90
       24
 70
     1
 43
0.0
 10
402.7050814459119
 20
9.132629090924069
 42
-0.3161931589712117
 10
401.4108171035586
 20
8.542221118971724
 42
-0.1203422681257846
 10
398.0328189631894
 20
9.703466310569027
 42
0.2807458825652832
 10
394.8846996835653
 20
9.779284418365378
 42
0.3519776510674402
 10
394.3525642910947
 20
7.077816589280516
 42
-0.1300331674108376
 10
395.0016985536302
 20
2.361452363885817
 42
-0.2973865056506821
 10
393.6622699345702
 20
0.6869735200746732
 42
-0.2946497018954988
 10
391.7108104122582
 20
1.686611397580918
 42
0.0390405420583891
 10
388.6176867827908
 20
6.519795078064589
 42
0.0573911107536907
 10
385.5816318010296
 20
8.880090021669502
 42
-0.1859332279868495
 10
383.4000067995339
 20
12.39659608607566
 42
-0.3108096824780469
 10
383.7428929593368
 20
13.17468365333972
 42
0.1975527167051062
 10
384.9748661912205
 20
14.87262593839129
 42
0.1774514681067027
 10
384.7646611916003
 20
16.76350190352801
 42
-0.2277691113741982
 10
384.6417184862016
 20
18.30440124923088
 42
-0.2885449449282722
 10
387.6166240671939
 20
20.40178008738763
 42
-0.0738330823533694
 10
391.595173455696
 20
19.83307073442802
 10
389.9865708059156
 20
15.30627862386122
 10
392.8133968514385
 20
14.30176157155884
 10
394.4648085574378
 20
18.94902326979951
 42
-0.110806945688871
 10
396.7320695778468
 20
17.20987546388775
 42
-0.2479232526446679
 10
397.3176728036428
 20
14.93088607787028
 42
0.2944346988137114
 10
398.1799430619564
 20
13.58900111838809
 42
-0.0359611179986657
 10
402.0376726651424
 20
11.26210663316237
 42
-0.3483301182759646
  0
LWPOLYLINE
  5
D5
330
D3F
100
AcDbEntity
  8
KONTUR
100
AcDbPolyline
 90
       37
 70
     1
 43
0.0
 10
401.976121364286
 20
115.0004685242439
 42
-0.4487909555668337
 10
402.9350851432945
 20
115.5366161877456
 42
0.4325830279306774
 10
404.8430982681057
 20
116.2897358129049
 42
0.1566399756906419
 10
405.0832980402025
 20
119.1086389249361
 42
0.2463817149416525
 10
403.641620573679
 20
120.713480337344
 42
0.1454956634221099
 10
401.3044963797439
 20
120.7900720205843
 42
0.1291775148530419
 10
400.238923870077
 20
120.1089693012432
 42
-0.470938877801058
 10
398.9213325283165
 20
120.1089693012432
 42
-0.0836635494088038
 10
398.0370104844693
 20
121.6406600114384
 42
0.1515752065085514
 10
380.798568047386
 20
143.9662031560938
 42
0.2622625792707731
 10
379.7863050447376
 20
144.0210342172205
 42
0.3320983095995492
 10
379.5439993779115
 20
143.5070615435136
 42
0.1692443628746352
 10
381.8076056714955
 20
140.1553983556364
 42
-0.0619307477870739
 10
388.6700636194321
 20
131.8397711415511
 42
-0.0499395053553801
 10
395.0199581219205
 20
118.5564692451614
 42
-0.1325775120289443
 10
395.0199581219205
 20
115.7400208691197
 42
0.2360933214572545
 10
395.4161006613777
 20
114.7653178558345
 42
-0.1207633818084797
 10
400.4525219396554
 20
107.5599060514464
 42
-0.2242120609490528
 10
400.4525219396554
 20
104.8621574070215
 42
0.0258992297066774
 10
399.435915837247
 20
103.1013439863613
 42
0.1335667076175427
 10
397.6890727889704
 20
94.63911753778836
 42
0.0896623614781852
 10
391.9476391504011
 20
90.75527329518271
 10
396.8806245085492
 20
89.43348385219199
 10
396.1041673732387
 20
86.53570637332348
 10
391.0782622554471
 20
87.88239359087269
 10
391.0767758956322
 20
87.87684642053021
 42
0.2119434143931352
 10
391.8666206978785
 20
82.8518064724472
 42
0.2962356531345192
 10
395.0786838411519
 20
81.41281891620506
 42
0.0644290336088839
 10
398.2505997028579
 20
82.33692982102075
 42
0.2120082578540718
 10
402.3583242618622
 20
86.82849048185596
 42
-0.0429659026749088
 10
403.793253646843
 20
90.14047045350674
 42
0.1101031571183823
 10
404.6807036345179
 20
93.28102340519555
 42
0.0626116942243701
 10
404.2329227022431
 20
99.76164652867423
 42
-0.1397601991370127
 10
404.4777964512801
 20
102.3784882339147
 42
0.1823802767224102
 10
404.6457103020427
 20
106.4463245643309
 42
0.0216188603709099
 10
402.523051918365
 20
111.058259802032
 42
-0.1282621288564439
 10
401.8409606536119
 20
113.2156695178822
 42
-0.1127442720003905
  0
LWPOLYLINE
  5
D6
330
D3F
100
AcDbEntity
  8
KONTUR
100
AcDbPolyline
 90
       44
 70
     1
 43
0.0
 10
436.3980175355052
 20
115.3109419179279
 10
436.3980175355052
 20
95.25568595911776
 42
-0.2286435230885846
 10
429.9132497527592
 20
100.2973005542865
 10
432.9132497527586
 20
100.2973005542865
 10
432.9132497527586
 20
122.4618765902396
 10
429.9132497527592
 20
122.4618765902396
 10
430.2117350036407
 20
123.5758387118391
 42
-0.1908717204945726
 10
432.2552560498102
 20
126.3262053980459
 42
0.6327025392654054
 10
431.9579589252253
 20
128.968914970414
 42
0.1107759340504381
 10
430.6478427703208
 20
129.1134525576246
 42
-0.5159553984871545
 10
430.0555416126988
 20
129.7112552827232
 10
430.6300653937576
 20
131.9274690347742
 42
0.4495846543079561
 10
429.8984527625422
 20
133.1184542553915
 10
429.0490855456201
 20
133.2543231049565
 42
-0.6091856817792154
 10
428.6505608271683
 20
134.3296286534323
 10
430.3650128954958
 20
136.0440807217634
 42
0.2679491924311647
 10
430.60344125068
 20
136.933907457277
 42
-0.267949192431115
 10
431.2319057593013
 20
139.279368934203
 42
-0.1316524975873878
 10
433.377246748194
 20
140.5179821316423
 42
0.1316524975873616
 10
434.0131628009727
 20
140.8851284358961
 42
0.5773502691896864
 10
433.8423619929555
 20
141.5225657293956
 42
0.0853231930418154
 10
430.8923151760788
 20
141.7934451310214
 42
0.1586149956446072
 10
428.6789446158159
 20
140.8751358480621
 42
-0.7075015676263475
 10
428.13371307294
 20
141.189925426115
 42
-0.2241069027940849
 10
429.824376245051
 20
143.5321681633074
 42
-0.1005416256695288
 10
433.7386877012244
 20
144.761221978579
 42
-0.114835982641521
 10
444.9221474478529
 20
143.3577970477917
 42
-0.1246968595446899
 10
450.4892218837634
 20
139.5358869472028
 42
-0.5352269425123021
 10
450.3770923576658
 20
139.117413858776
 42
-0.1096373974864239
 10
449.7589965997595
 20
139.0505653582011
 10
443.9846346310002
 20
139.7441979959177
 42
0.1534134296255746
 10
443.1929473863417
 20
139.5961211181952
 42
0.2863860477028609
 10
442.9501472859781
 20
139.1755790082865
 10
443.9933115890869
 20
136.3652166491208
 42
-0.1796056157773701
 10
443.9933115890869
 20
132.9357010640622
 10
442.4377405735244
 20
129.4974117641065
 42
0.0817161915413353
 10
442.2363723584988
 20
128.7458953545983
 42
0.3216114799931365
 10
442.7020533039747
 20
127.9393122969125
 42
-0.2644488343880542
 10
444.6732616935104
 20
125.2292954439255
 10
442.79272740654
 20
125.2292954439255
 10
442.79272740654
 20
100.2973005542865
 10
446.8467057497336
 20
100.2973005542865
 42
-0.256000215062776
 10
439.3980175355058
 20
95.10051848816516
 10
439.3980175355058
 20
115.3109419179279
  0
LWPOLYLINE
  5
D7
330
D3F
100
AcDbEntity
  8
KONTUR
100
AcDbPolyline
 90
       22
 70
     1
 43
0.0
 10
582.4266192614791
 20
105.3398167425342
 10
582.4266192614791
 20
98.43299583661659
 10
579.3924682494587
 20
98.43299583661659
 10
579.0556558175152
 20
99.01637208135785
 42
-0.1316524975873925
 10
577.849884451574
 20
103.5163720813591
 10
577.849884451574
 20
105.3398167425342
 10
577.849884451574
 20
107.1632614037078
 42
-0.131652497587395
 10
579.0556558175152
 20
111.6632614037087
 10
579.3924682494587
 20
112.2466376484523
 10
627.6881899175353
 20
112.2466376484523
 10
628.0250023494777
 20
111.6632614037087
 42
-0.1316524975873976
 10
629.2307737154174
 20
107.1632614037078
 10
629.2307737154174
 20
105.3398167425342
 10
629.2307737154174
 20
103.5163720813591
 42
-0.1316524975873957
 10
628.0250023494777
 20
99.01637208135785
 10
627.6881899175353
 20
98.43299583661659
 10
624.6540389055152
 20
98.43299583661659
 10
624.6540389055152
 20
105.3398167425342
 10
621.6540389055142
 20
105.3398167425342
 10
621.6540389055142
 20
98.43299583661659
 10
585.4266192614804
 20
98.43299583661659
 10
585.4266192614804
 20
105.3398167425342
  0
LWPOLYLINE
  5
D8
330
D3F
100
AcDbEntity
  8
KONTUR
100
AcDbPolyline
 90
       16
 70
     1
 43
0.0
 10
483.8694268342566
 20
117.699505244468
 10
481.2184172596353
 20
119.1038371978482
 10
478.9197725182991
 20
114.764600165407
 10
476.9413316391474
 20
115.8126490940361
 42
-0.4142135623731159
 10
476.0063234232168
 20
118.8541552400349
 10
478.4971149758242
 20
123.5561149429828
 42
-0.4142135623730831
 10
481.5386211218235
 20
124.491123158914
 10
507.8558582365862
 20
110.5499675483368
 42
-0.4142135623730839
 10
508.7908664525197
 20
107.5084614023385
 10
506.300074899911
 20
102.8065016993898
 42
-0.4142135623731193
 10
503.2585687539128
 20
101.8714934834592
 10
501.2801278747607
 20
102.9195424120857
 10
503.578772616101
 20
107.258779444526
 10
500.9277630414811
 20
108.6631113979048
 10
498.6291183001402
 20
104.323874365465
 10
481.5707820929163
 20
113.3602682120303
  0
LWPOLYLINE
  5
D9
330
D3F
100
AcDbEntity
  8
KONTUR
100
AcDbPolyline
 90
       24
 70
     1
 43
0.0
 10
517.1013695655785
 20
60.80157393380821
 10
522.0793873027421
 20
58.94772007927281
 10
524.1975936903269
 20
64.6355842777252
 10
527.0089696708557
 20
63.58860524445657
 10
524.890763283271
 20
57.90074104600418
 10
529.8687810204344
 20
56.04688719146654
 10
531.8109064520156
 20
61.26193411793045
 42
0.2075296879076845
 10
543.1987009124043
 20
61.2891150061397
 42
0.2036620542539651
 10
549.4021236013623
 20
68.2337086118629
 42
0.2230981224766504
 10
548.3540795227944
 20
74.30432114555092
 10
539.3551445026678
 20
65.39597802383312
 10
537.2445828052187
 20
67.52800272380293
 10
546.1618781088553
 20
76.35552799260143
 42
0.0695951060191646
 10
544.3162938319256
 20
77.14578726667546
 42
0.130645322758459
 10
540.2100754730766
 20
77.3176590913902
 42
-0.3249678871705436
 10
523.1923541950675
 20
83.65519540652167
 42
0.130645322758459
 10
519.9739573531627
 20
86.21106921065864
 42
0.0695951060190499
 10
518.0610342001531
 20
86.8205083414888
 10
519.0320579086978
 20
74.31049351891985
 10
516.0410545057028
 20
74.07833270553556
 10
515.0611408706075
 20
86.70287934842638
 42
0.2230981224767741
 10
510.2976022404469
 20
82.79654697089098
 42
0.2036620542539651
 10
510.4474579680725
 20
73.48594136934821
 42
0.2075296879076852
 10
519.0434949971569
 20
66.01662086026966
  0
LWPOLYLINE
  5
DA
330
D3F
100
AcDbEntity
  8
KONTUR
100
AcDbPolyline
 90
       24
 70
     1
 43
0.0
 10
524.9273206891127
 20
100.4207963234759
 10
526.7177995490501
 20
102.827907756733
 10
519.931480460292
 20
107.875767484924
 10
523.0439972337483
 20
112.0602205266415
 42
0.0580552015372223
 10
539.4783335316385
 20
101.2700114230609
 42
-0.0309111277902073
 10
575.7842190233367
 20
80.30879866125923
 42
-0.3369361946242209
 10
590.1086180957277
 20
47.30486255689337
 42
-0.3853761078868213
 10
559.5122379451994
 20
32.12625872577644
 42
0.010846126108341
 10
520.3854805376749
 20
43.17244284181294
 42
0.0878135254525102
 10
503.2654513371693
 20
45.16180456057154
 42
0.4591224276155364
 10
493.6663485347574
 20
31.30403131467563
 42
0.1435962187021288
 10
504.6924765106524
 20
12.20621744966844
 42
-0.4555715671672609
 10
504.5218794671296
 20
9.164660822477941
 42
-0.3066816797496083
 10
501.4192701613455
 20
9.457584716609886
 42
-0.12942234343765
 10
489.0365799730723
 20
27.41172037935991
 42
-0.1912264472341173
 10
488.2844375834168
 20
42.28301810195347
 42
-0.3246145009172905
 10
503.4113605225461
 20
52.9504428015112
 42
-0.0610677998031459
 10
516.9901644710688
 20
52.13391709734299
 42
-0.0396145041456036
 10
550.6779912421882
 20
44.73711867610657
 42
0.0541635233651874
 10
566.5439000365871
 20
41.73986843857764
 42
0.6846990104176937
 10
577.2982025783626
 20
64.06659882850954
 42
0.1187898773655868
 10
558.1044033882969
 20
77.74500145232295
 42
-0.0189335750566575
 10
514.5509400706203
 20
100.6421940656101
 10
518.1410016003542
 20
105.4686560516668
  0
LWPOLYLINE
  5
DB
330
D3F
100
AcDbEntity
  8
KONTUR
100
AcDbPolyline
 90
       24
 70
     1
 43
0.0
 10
444.4671517561884
 20
-141.1962158103121
 10
444.9260869366788
 20
-144.1609044111787
 10
436.5678021616951
 20
-145.4547707992562
 10
437.3656018337026
 20
-150.6084998963983
 42
-0.0580552015372223
 10
456.9369297832374
 20
-148.7432534400627
 42
0.0309111277902073
 10
498.8296610087037
 20
-147.1656501145727
 42
0.3369361946242209
 10
526.9103787944624
 20
-124.6729513924804
 42
0.3853761078868213
 10
506.9454692788426
 20
-96.96138556499374
 42
-0.010846126108341
 10
467.1893186640001
 20
-88.45434042332701
 42
-0.0878135254525102
 10
451.1221707550232
 20
-82.21737658302124
 42
-0.4591224276155364
 10
449.1067342443921
 20
-65.48063049492284
 42
-0.1435962187021288
 10
467.7760912127338
 20
-53.74363330858919
 42
0.4555715671672609
 10
469.0458218977032
 20
-50.97452622230334
 42
0.3066816797496083
 10
466.165596848521
 20
-49.7844453098661
 42
0.12942234343765
 10
446.8308917401325
 20
-59.87657997340107
 42
0.1912264472341173
 10
439.2200975121444
 20
-72.67490116594405
 42
0.3246145009172905
 10
447.613457354056
 20
-89.17245425393916
 42
0.0610677998031459
 10
460.0015755819835
 20
-94.79252166179149
 42
0.0396145041456036
 10
493.2440053647249
 20
-103.9861695550267
 42
-0.0541635233651874
 10
508.6729656308157
 20
-108.7461859379943
 42
-0.6846990104176937
 10
507.7543843988393
 20
-133.510961761433
 42
-0.1187898773655868
 10
484.3941146817203
 20
-136.6412052713041
 42
0.0189335750566575
 10
435.1886631335212
 20
-136.545630838606
 10
436.1088669812049
 20
-142.4900821983898
  0
LWPOLYLINE
  5
DC
330
D3F
100
AcDbEntity
  8
KONTUR
100
AcDbPolyline
 90
       31
 70
     1
 43
0.0
 10
434.125737307008
 20
-38.10747960998241
 10
437.0841464855295
 20
-38.60528994779829
 10
435.6869008456534
 20
-46.9089028132682
 10
443.4397546902379
 20
-48.2134724513833
 10
443.4397546902379
 20
11.61855649033435
 42
-0.1972853106747277
 10
450.4493300340482
 20
28.69218497647901
 42
-0.3315625927044227
 10
463.2791709842057
 20
30.64892623437624
 42
-0.2052833281861401
 10
471.471718186186
 20
20.45327550626038
 42
-0.023865132941575
 10
476.4147351774879
 20
-1.220463028874746
 42
0.056973044424412
 10
486.9265391851745
 20
-34.88915770303942
 42
0.3437316987471106
 10
506.0972115167658
 20
-45.95735053422955
 42
0.1517753992447139
 10
517.3157458452074
 20
-40.16406611592873
 42
0.1311396070795701
 10
532.5335559609949
 20
-13.80604581544898
 42
0.090043215522561
 10
537.2591184098679
 20
11.63244354862217
 42
0.0868333323578366
 10
536.4775567216993
 20
16.2084419222997
 42
0.5248132669419992
 10
535.1279258301319
 20
16.57007442977496
 42
0.13134089990657
 10
533.5176876616511
 20
14.24050843432851
 42
0.0464356315661545
 10
530.4961643306255
 20
1.113138156879671
 42
-0.1523935638415331
 10
513.7119528482165
 20
-32.24694748998132
 42
-0.1815253473413702
 10
505.2382730402968
 20
-35.80001122070134
 42
-0.2589032934777889
 10
498.5660476261649
 20
-32.67977995189763
 42
-0.0753585461150974
 10
491.8043038477507
 20
-17.08002897527987
 42
-0.0219396209245288
 10
484.9243890557012
 20
18.50507790045172
 42
0.0939086466719975
 10
479.0420557949061
 20
33.3077406134386
 42
0.2799175967709447
 10
455.4414697704955
 20
44.79120462344133
 42
0.1675403384939796
 10
439.4623270619048
 20
35.7754241629213
 42
0.1441905202948241
 10
431.5014685707777
 20
20.73091732350761
 42
0.0414352166341661
 10
429.3832205484062
 20
3.169483535725291
 42
-0.0040279364385062
 10
428.0909286338371
 20
-34.83063163150248
 42
-0.0201309138953911
 10
426.9640800345686
 20
-45.44111721883127
 10
432.7284916671279
 20
-46.41109247545053
  0
LWPOLYLINE
  5
DD
330
D3F
100
AcDbEntity
  8
KONTUR
100
AcDbPolyline
 90
       31
 70
     1
 43
0.0
 10
541.167930990057
 20
-78.39378099482544
 10
541.1140686413729
 20
-75.39426455923271
 10
532.6950766217431
 20
-75.54544448888723
 10
532.5539240996006
 20
-67.68486431680634
 10
591.7252092527284
 20
-76.55225968464553
 42
0.1972853106747277
 10
609.6491412111644
 20
-72.15048739012638
 42
0.3315625927044227
 10
613.4857178944844
 20
-59.75232887727659
 42
0.2052833281861401
 10
604.616835945616
 20
-50.13920990353011
 42
0.023865132941575
 10
583.915026243798
 20
-42.03862757042037
 42
-0.056973044424412
 10
552.1760455553271
 20
-26.65304570248841
 42
-0.3437316987471106
 10
544.0712683700994
 20
-6.053721515232979
 42
-0.1517753992447139
 10
551.4632166534731
 20
4.182330331335236
 42
-0.1311396070795701
 10
579.7855099832162
 20
15.32569963440799
 42
-0.090043215522561
 10
605.6434253165396
 20
16.22896936092826
 42
-0.0868333323578366
 10
610.0530582974438
 20
14.77785366532087
 42
-0.5248132669419992
 10
610.2106753743039
 20
13.38953148692745
 42
-0.13134089990657
 10
607.6681904382793
 20
12.14232860187657
 42
-0.0464356315661545
 10
594.2379854761551
 20
11.09971250929189
 42
0.1523935638415331
 10
558.7588045551346
 20
-0.555020032701961
 42
0.1815253473413702
 10
553.9891381857528
 20
-8.408541159337403
 42
0.2589032934777889
 10
556.0860557671706
 20
-15.46951643224112
 42
0.0753585461150974
 10
570.5114107678599
 20
-24.46854652227947
 42
0.0219396209245288
 10
604.6839036241882
 20
-36.54636879649078
 42
-0.0939086466719975
 10
618.4513057376817
 20
-44.55756764752647
 42
-0.2799175967709447
 10
626.3102335495491
 20
-69.59942979898369
 42
-0.1675403384939796
 10
615.0258311235291
 20
-84.06592767861338
 42
-0.1441905202948241
 10
598.9676278353303
 20
-89.70920342164173
 42
-0.0414352166341661
 10
581.2861958704068
 20
-89.20136975123154
 42
0.0040279364385062
 10
543.5142039503242
 20
-84.84759007100722
 42
0.0201309138953911
 10
532.8538888710574
 20
-84.38946937142699
 10
532.7489389704254
 20
-78.54496092448065
  0
LWPOLYLINE
  5
DE
330
D3F
100
AcDbEntity
  8
KONTUR
100
AcDbPolyline
 90
       10
 70
     1
 43
0.0
 10
507.1919756521311
 20
-117.2864863822727
 42
-0.695099428862274
 10
503.7130760112305
 20
-129.4526891495467
 10
481.9597357330318
 20
-131.1402474747436
 42
-0.1107776791623588
 10
455.6013298154911
 20
-127.3388010965318
 42
-0.0136230015872534
 10
434.9722037286508
 20
-118.8317438006252
 42
-0.2019844307654333
 10
428.1597360126356
 20
-111.7840891439662
 42
-0.1898829531692606
 10
428.2492464197895
 20
-107.4593169195986
 42
-0.1708995688077634
 10
431.602364316452
 20
-104.1061990229381
 42
-0.1438475340621524
 10
449.0492250340388
 20
-103.5659719760462
 42
0.011789300355841
 10
502.1049825554245
 20
-114.8344321923893
 42
-0.0929105676377896
  0
LWPOLYLINE
  5
DF
330
D3F
100
AcDbEntity
  8
KONTUR
100
AcDbPolyline
 90
        4
 70
     1
 43
0.0
 10
466.3112191246699
 20
-118.4764921727186
 10
480.5363822440898
 20
-119.2714799487964
 10
480.3689853858258
 20
-122.2668060231735
 10
466.1438222664062
 20
-121.471818247096
  0
LWPOLYLINE
  5
E0
330
D3F
100
AcDbEntity
  8
KONTUR
100
AcDbPolyline
 90
       10
 70
     1
 43
0.0
 10
599.096321071913
 20
-70.15911730827949
 42
0.695099428862274
 10
600.7844808623181
 20
-57.61840963255616
 10
581.5305328984599
 20
-47.35482574753229
 42
0.1107776791623588
 10
555.8577938863876
 20
-40.27478134806983
 42
0.0136230015872534
 10
533.5484397246864
 20
-39.80193482936917
 42
0.2019844307654333
 10
524.4826309125861
 20
-43.52889916026775
 42
0.1898829531692606
 10
522.8315255834708
 20
-47.52708851268835
 42
0.1708995688077634
 10
524.5598909951235
 20
-51.94291824917433
 42
0.1438475340621524
 10
540.3280624871924
 20
-59.42954378794063
 42
-0.011789300355841
 10
593.4530231582122
 20
-70.36710089719034
 42
0.0929105676377896
  0
LWPOLYLINE
  5
E1
330
D3F
100
AcDbEntity
  8
KONTUR
100
AcDbPolyline
 90
        4
 70
     1
 43
0.0
 10
562.1186102602983
 20
-52.68624487209234
 10
575.4701657776049
 20
-57.65849150782933
 10
576.5171484990818
 20
-54.84711690082178
 10
563.1655929817753
 20
-49.87487026508429
  0
LWPOLYLINE
  5
E2
330
D3F
100
AcDbEntity
  8
KONTUR
100
AcDbPolyline
 90
       18
 70
     1
 43
0.0
 10
622.0622332916653
 20
-137.0152983136212
 10
624.8990282997738
 20
-134.4702257368645
 42
-0.3265207905512001
 10
624.8694967440309
 20
-140.0317721033427
 42
0.056522428128848
 10
623.1738313728133
 20
-142.9687506789244
 42
0.2082724491165155
 10
623.1738313728133
 20
-144.546681494927
 42
-0.0167666127066802
 10
624.7664121407702
 20
-148.5672855019211
 42
-0.2246966204597778
 10
624.3903493072565
 20
-152.3752619746106
 42
0.1402536206303376
 10
623.9534286603905
 20
-154.0058720275912
 42
-0.3388518059631433
 10
622.7762218891534
 20
-155.5984979809158
 42
-0.2797280457594595
 10
621.568421096226
 20
-155.247831907467
 42
-0.1047026954475772
 10
615.3491110081541
 20
-145.3808540267475
 42
-0.0776051707552281
 10
614.7756735494708
 20
-142.8369630518521
 42
0.1048802383644928
 10
613.905883230371
 20
-139.9660168461295
 42
-0.1597123824967607
 10
612.7889114383764
 20
-134.3171011824134
 42
-0.2108958515560199
 10
615.9654933273534
 20
-130.3307030728489
 42
-0.2047017218868195
 10
619.4597823189363
 20
-130.0628356997103
 42
-0.120845447347813
 10
623.0797925384033
 20
-132.0719778018349
 10
620.0588394217617
 20
-134.7822705479988
  0
LWPOLYLINE
  5
E3
330
D3F
100
AcDbEntity
  8
KONTUR
100
AcDbPolyline
 90
       17
 70
     1
 43
0.0
 10
625.1882156855494
 20
-181.0382771592103
 42
0.2573094355852101
 10
625.4253300117924
 20
-175.4805400327146
 10
623.7363583430578
 20
-172.3876461610161
 42
-0.1529143968959333
 10
622.9708190311234
 20
-169.6680263570514
 42
0.1774280976224419
 10
621.6345362218032
 20
-165.6639885205183
 42
0.0561017203217416
 10
619.8768636898023
 20
-163.9063159885178
 42
0.4446230457619482
 10
616.3702979416831
 20
-164.4845682638822
 42
0.0445053493047081
 10
614.4659285122351
 20
-167.92037437783
 42
0.3327378644256174
 10
614.7198478422641
 20
-169.9060928818088
 42
-0.2006579910238911
 10
615.3784179936796
 20
-172.3639101472365
 42
-0.0848125654963946
 10
614.2093321949123
 20
-175.5865231556235
 42
0.1627373137107167
 10
613.4747757480217
 20
-180.7596298497397
 42
0.1818803929826926
 10
616.0365917073705
 20
-184.5796274915966
 42
0.1606140991378405
 10
619.1925671273422
 20
-185.0321940853048
 42
0.1140479536515909
 10
623.1223117750462
 20
-183.233168081592
 10
620.5691473312533
 20
-180.3133101892339
 10
622.8275332093674
 20
-178.3385460955932
  0
LWPOLYLINE
  5
E4
330
D3F
100
AcDbEntity
  8
KONTUR
100
AcDbPolyline
 90
       20
 70
     1
 43
0.0
 10
468.6502205830492
 20
-66.51157747738356
 42
0.242759685390133
 10
467.4527961861615
 20
-71.36983219941408
 42
0.0803750447171647
 10
470.385806601429
 20
-77.94902450148317
 42
0.2475389951868145
 10
478.9352231411936
 20
-82.34410072580987
 42
0.1494014711090025
 10
488.1848898178051
 20
-79.86566000955498
 42
0.074981460956583
 10
491.4389142370814
 20
-76.93164613067195
 42
-0.4192276000137253
 10
497.9606171084483
 20
-76.1728553616546
 42
0.172931035465396
 10
502.2916880247321
 20
-77.53437488583552
 42
0.2041948517473028
 10
508.8222580741801
 20
-75.26682700281043
 42
0.0785294234767454
 10
510.5466064957248
 20
-73.12139381363016
 42
0.3321911573325615
 10
510.3053197372561
 20
-71.13985179280948
 42
0.0701657217809407
 10
505.7792252517739
 20
-67.56816228706464
 42
0.0374705906222223
 10
503.0011293307555
 20
-66.21564961756553
 42
-0.1095985682083873
 10
499.9876117929846
 20
-64.1694778548845
 42
0.1008433946956396
 10
493.7560299447524
 20
-59.77867751406511
 42
0.1034895834681007
 10
489.0000033860693
 20
-58.78207125995253
 42
0.0491480116056099
 10
480.1346501633343
 20
-59.65281434124992
 42
0.1235861576352704
 10
470.6476569457025
 20
-64.14285237021529
 10
476.0825105444962
 20
-71.7972097637087
 10
473.63640078986
 20
-73.53403072980768
  0
LWPOLYLINE
  5
E5
330
D3F
100
AcDbEntity
  8
KONTUR
100
AcDbPolyline
 90
       20
 70
     1
 43
0.0
 10
610.4448243776974
 20
24.3076930625106
 42
-0.242759685390133
 10
605.4650150544066
 20
24.79550781638832
 42
-0.0803750447171647
 10
600.2371144178617
 20
29.7510477847517
 42
-0.2475389951868145
 10
598.9381124755862
 20
39.27584763262769
 42
-0.1494014711090025
 10
604.3538117305108
 20
47.17326515942594
 42
-0.074981460956583
 10
608.2035840321903
 20
49.26524163824672
 42
0.4192276000137253
 10
611.0897289029875
 20
55.16257489645176
 42
-0.172931035465396
 10
611.2473417651621
 20
59.6998724271723
 42
-0.2041948517473028
 10
615.5591762794081
 20
65.10340846335859
 42
-0.0785294234767454
 10
618.1562059438565
 20
66.01538322732278
 42
-0.3321911573325615
 10
619.9444670145846
 20
65.12833733054382
 42
-0.0701657217809407
 10
621.8061061776254
 20
59.67152536350306
 42
-0.0374705906222223
 10
622.1568758389715
 20
56.60166085310689
 42
0.1095985682083873
 10
623.0834017703406
 20
53.07892661229709
 42
-0.1008433946956396
 10
625.1498153407391
 20
45.74123794895024
 42
-0.1034895834681007
 10
624.5066562306178
 20
40.92466665686996
 42
-0.0491480116056099
 10
620.7349058381026
 20
32.85456255257964
 42
-0.1235861576352704
 10
613.3433071432778
 20
25.40286807765668
 10
607.9342269565871
 20
33.07546035677655
 10
605.4822898634441
 20
31.3468758227547
  0
LWPOLYLINE
  5
E6
330
D3F
100
AcDbEntity
  8
KONTUR
100
AcDbPolyline
 90
       15
 70
     1
 43
0.0
 10
467.7269178266864
 20
2.838206978936867
 10
468.0468155946948
 20
-1.670673200217493
 42
0.014857315948818
 10
469.2114469011284
 20
-13.21512891356853
 42
0.0051113680744008
 10
470.8442388720556
 20
-24.76174959643532
 42
-0.0608660158129133
 10
471.1636245093189
 20
-35.72737400972112
 42
-0.3610298610512686
 10
465.8383148068635
 20
-41.05268371217299
 42
-0.233989562018785
 10
461.1378478135943
 20
-39.24443218623025
 42
-0.083684608018256
 10
456.2213863692816
 20
-31.68872376065048
 42
-0.0537913325620379
 10
450.5917337367207
 20
-13.64338513494735
 10
450.0487978024722
 20
4.543068728925206
 42
-0.1109877831609934
 10
452.5801492985185
 20
17.61882124847521
 42
-0.2276790120713271
 10
456.7012403374508
 20
21.16656672950734
 42
-0.1857974917129855
 10
459.7278975179285
 20
20.84956117158842
 42
-0.1361657965478396
 10
464.5661994488947
 20
16.41015250468084
 42
-0.1227184257139838
 10
467.4842828206299
 20
6.529732514829731
 42
0.0220463119455237
  0
LWPOLYLINE
  5
E7
330
D3F
100
AcDbEntity
  8
KONTUR
100
AcDbPolyline
 90
        4
 70
     1
 43
0.0
 10
460.3601003557789
 20
-22.63604872757149
 10
456.970060281029
 20
-8.904717152560181
 10
459.8826109562764
 20
-8.185656262152278
 10
463.2726510310256
 20
-21.91698783716376
  0
LWPOLYLINE
  5
E8
330
D3F
100
AcDbEntity
  8
KONTUR
100
AcDbPolyline
 90
       15
 70
     1
 43
0.0
 10
583.9010733802807
 20
-18.7131547882083
 10
588.4099535594343
 20
-19.03305255621814
 42
-0.014857315948818
 10
599.954409272786
 20
-20.19768386264972
 42
-0.0051113680744008
 10
611.5010299556551
 20
-21.83047583357825
 42
0.0608660158129133
 10
622.4666543689385
 20
-22.14986147083948
 42
0.3610298610512686
 10
627.7919640713936
 20
-16.82455176838769
 42
0.233989562018785
 10
625.983712545449
 20
-12.12408477512008
 42
0.083684608018256
 10
618.4280041198675
 20
-7.207623330806583
 42
0.0537913325620379
 10
600.3826654941681
 20
-1.577970698241557
 10
582.196211630292
 20
-1.035034763993053
 42
0.1109877831609934
 10
569.1204591107464
 20
-3.566386260040786
 42
0.2276790120713271
 10
565.5727136297136
 20
-7.687477298974826
 42
0.1857974917129855
 10
565.88971918763
 20
-10.71413447944768
 42
0.1361657965478396
 10
570.3291278545374
 20
-15.55243641041569
 42
0.1227184257139838
 10
580.2095478443923
 20
-18.47051978215076
 42
-0.0220463119455237
  0
LWPOLYLINE
  5
E9
330
D3F
100
AcDbEntity
  8
KONTUR
100
AcDbPolyline
 90
        4
 70
     1
 43
0.0
 10
609.3753290867905
 20
-11.3463373173025
 10
595.6439975117805
 20
-7.956297242552679
 10
594.9249366213737
 20
-10.86884791780046
 10
608.6562681963815
 20
-14.2588879925496
  0
LWPOLYLINE
  5
EA
330
D3F
100
AcDbEntity
  8
KONTUR
100
AcDbPolyline
 90
       26
 70
     1
 43
0.0
 10
505.338063284138
 20
26.46828420354754
 10
510.0253639868712
 20
26.46828420354754
 10
510.0253639868712
 20
29.46828420354842
 10
504.9528050908049
 20
29.46828420354842
 10
505.1300106906626
 20
31.19275788384781
 42
-0.3493534630377361
 10
508.1841515244611
 20
33.90306997470267
 42
-0.1142232185334186
 10
512.1838090470767
 20
33.25540361375286
 42
-0.1097586425443302
 10
515.7835196303974
 20
30.2806082082343
 42
0.018690568195668
 10
520.07354578957
 20
25.99058204906052
 42
-0.0895334029965283
 10
522.6269723017835
 20
22.92852385864472
 42
0.0769994624761169
 10
524.3707106055239
 20
20.69789843374491
 42
-0.3464581717438423
 10
524.7516878038776
 20
18.67678969307266
 42
-0.0314690881655439
 10
523.4249308784332
 20
12.15355063358903
 42
-0.2568866265292255
 10
521.666910325978
 20
10.3955300811328
 42
0.3320556501292281
 10
520.6692114232845
 20
8.509116952942633
 42
-0.0155891630761249
 10
521.2219029855267
 20
7.319819032753159
 42
-0.3298611972657476
 10
519.5148561770686
 20
4.01189573486539
 42
-0.2318569898890482
 10
516.051029558462
 20
4.01189573486539
 42
-0.1679873055243175
 10
514.2519339665621
 20
7.128020707705033
 42
-0.217771129594643
 10
515.6517342708862
 20
9.552545955245079
 42
0.2050154533016808
 10
519.028398857757
 20
15.99012668605547
 42
0.2451624169932506
 10
518.2553761659212
 20
18.05235225457166
 42
-0.042262046024116
 10
514.0339639394316
 20
21.34918791050546
 42
0.1396403863959154
 10
512.595123272659
 20
22.17990295678857
 42
0.0452388331244119
 10
509.3285902471463
 20
22.17990295678857
 42
-0.2340291631042235
 10
507.6231760459338
 20
22.86878332553687
 42
-0.1720176472681467
  0
LWPOLYLINE
  5
EB
330
D3F
100
AcDbEntity
  8
KONTUR
100
AcDbPolyline
 90
       16
 70
     1
 43
0.0
 10
619.3769795849334
 20
76.31647839947802
 10
594.0572270809962
 20
76.31647839947802
 10
594.0572270809962
 20
81.97284054414884
 10
591.0572270809954
 20
81.97284054414884
 10
591.0572270809954
 20
76.31647839947802
 10
588.8706072610417
 20
76.3164783994805
 42
-0.1807690510767497
 10
586.9477925124678
 20
81.8554272454318
 10
586.9477925124678
 20
82.09025384286537
 42
-0.1807690510767599
 10
588.8706072610417
 20
87.62920268881648
 10
624.5635994048825
 20
87.62920268881648
 42
-0.1807690510767558
 10
626.4864141534591
 20
82.09025384286537
 10
626.4864141534591
 20
81.8554272454318
 42
-0.1807690510767475
 10
624.5635994048858
 20
76.3164783994805
 10
622.3769795849318
 20
76.31647839947802
 10
622.3769795849318
 20
81.97284054414884
 10
619.3769795849334
 20
81.97284054414884
  0
ENDSEC
  0
SECTION
  2
OBJECTS
  0
DICTIONARY
  5
CDB
330
0
100
AcDbDictionary
281
     1
  3
ACAD_BACKGROUND
350
D4D
  3
ACAD_CIP_PREVIOUS_PRODUCT_INFO
350
D4C
  3
ACAD_COLOR
350
D31
  3
ACAD_DETAILVIEWSTYLE
350
D39
  3
ACAD_GROUP
350
CDC
  3
ACAD_LAYOUT
350
D30
  3
ACAD_MATERIAL
350
CDF
  3
ACAD_MLEADERSTYLE
350
D34
  3
ACAD_MLINESTYLE
350
D2D
  3
ACAD_PLOTSETTINGS
350
D2F
  3
ACAD_PLOTSTYLENAME
350
CDD
  3
ACAD_SCALELIST
350
D11
  3
ACAD_SECTIONVIEWSTYLE
350
D36
  3
ACAD_TABLESTYLE
350
D32
  3
ACAD_VISUALSTYLE
350
CF8
  3
ACDB_RECOMPOSE_DATA
350
EB2
  3
AcDbVariableDictionary
350
D54
  3
DWGPROPS
350
EB3
  0
DICTIONARY
  5
D50
330
D23
100
AcDbDictionary
280
     1
281
     1
  3
ADSK_XREC_LAYER_RECONCILED
360
D51
  0
DICTIONARY
  5
D52
330
D45
100
AcDbDictionary
280
     1
281
     1
  3
ADSK_XREC_LAYER_RECONCILED
360
D53
  0
DICTIONARY
  5
D4D
102
{ACAD_REACTORS
330
CDB
102
}
330
CDB
100
AcDbDictionary
281
     1
  0
XRECORD
  5
D4C
102
{ACAD_REACTORS
330
CDB
102
}
330
CDB
100
AcDbXrecord
280
     1
300
ACD
300
2013
300
ACD_F_S
  0
DICTIONARY
  5
D31
102
{ACAD_REACTORS
330
CDB
102
}
330
CDB
100
AcDbDictionary
281
     1
  0
DICTIONARY
  5
D39
102
{ACAD_REACTORS
330
CDB
102
}
330
CDB
100
AcDbDictionary
281
     1
  3
Imperial24
350
D3A
  0
DICTIONARY
  5
CDC
102
{ACAD_REACTORS
330
CDB
102
}
330
CDB
100
AcDbDictionary
281
     1
  0
DICTIONARY
  5
D30
102
{ACAD_REACTORS
330
CDB
102
}
330
CDB
100
AcDbDictionary
281
     1
  3
Layout1
350
D3E
  3
Model
350
D42
  0
DICTIONARY
  5
CDF
102
{ACAD_REACTORS
330
CDB
102
}
330
CDB
100
AcDbDictionary
281
     1
  3
ByBlock
350
CE8
  3
ByLayer
350
CE0
  3
Global
350
CF0
  0
DICTIONARY
  5
D34
102
{ACAD_REACTORS
330
CDB
102
}
330
CDB
100
AcDbDictionary
281
     1
  3
Standard
350
D35
  0
DICTIONARY
  5
D2D
102
{ACAD_REACTORS
330
CDB
102
}
330
CDB
100
AcDbDictionary
281
     1
  3
Standard
350
D2E
  0
DICTIONARY
  5
D2F
102
{ACAD_REACTORS
330
CDB
102
}
330
CDB
100
AcDbDictionary
281
     1
  0
ACDBDICTIONARYWDFLT
  5
CDD
102
{ACAD_REACTORS
330
CDB
102
}
330
CDB
100
AcDbDictionary
281
     1
  3
Normal
350
CDE
100
AcDbDictionaryWithDefault
340
CDE
  0
DICTIONARY
  5
D11
102
{ACAD_REACTORS
330
CDB
102
}
330
CDB
100
AcDbDictionary
281
     1
  3
A0
350
D12
  3
A1
350
D13
  3
A2
350
D14
  3
A3
350
D15
  3
A4
350
D16
  3
A5
350
D17
  3
A6
350
D18
  3
A7
350
D19
  3
A8
350
D1A
  3
A9
350
D1B
  3
B0
350
D1C
  3
B1
350
D1D
  3
B2
350
D1E
  3
B3
350
D1F
  3
B4
350
D20
  3
B5
350
D21
  3
B6
350
D22
  0
DICTIONARY
  5
D36
102
{ACAD_REACTORS
330
CDB
102
}
330
CDB
100
AcDbDictionary
281
     1
  3
Imperial24
350
D38
  0
DICTIONARY
  5
D32
102
{ACAD_REACTORS
330
CDB
102
}
330
CDB
100
AcDbDictionary
281
     1
  3
Standard
350
D33
  0
DICTIONARY
  5
CF8
102
{ACAD_REACTORS
330
CDB
102
}
330
CDB
100
AcDbDictionary
281
     1
  3
2dWireframe
350
CFE
  3
Basic
350
CFD
  3
Brighten
350
D04
  3
ColorChange
350
D08
  3
Conceptual
350
D01
  3
Dim
350
D03
  3
EdgeColorOff
350
D10
  3
Facepattern
350
D07
  3
Flat
350
CF9
  3
FlatWithEdges
350
CFA
  3
Gouraud
350
CFB
  3
GouraudWithEdges
350
CFC
  3
Hidden
350
D00
  3
JitterOff
350
D0E
  3
Linepattern
350
D06
  3
OverhangOff
350
D0F
  3
Realistic
350
D02
  3
Shaded
350
D0D
  3
Shaded with edges
350
D0C
  3
Shades of Gray
350
D09
  3
Sketchy
350
D0A
  3
Thicken
350
D05
  3
Wireframe
350
CFF
  3
X-Ray
350
D0B
  0
XRECORD
  5
EB2
102
{ACAD_REACTORS
330
CDB
102
}
330
CDB
100
AcDbXrecord
280
     1
 90
        1
330
D33
  0
DICTIONARY
  5
D54
102
{ACAD_REACTORS
330
CDB
102
}
330
CDB
100
AcDbDictionary
281
     1
  3
CANNOSCALE
350
D59
  3
CMLEADERSTYLE
350
D56
  3
CTABLESTYLE
350
D55
  3
CVIEWDETAILSTYLE
350
D57
  3
CVIEWSECTIONSTYLE
350
D58
  3
DIMASSOC
350
E07
  3
INDEXCTL
350
E06
  3
SORTENTS
350
E05
  3
XCLIPFRAME
350
E08
  0
XRECORD
  5
EB3
102
{ACAD_REACTORS
330
CDB
102
}
330
CDB
100
AcDbXrecord
280
     1
  1
DWGPROPS COOKIE
  2

  3

  4

  6

  7

  8
Paul
  9

300
=
301
=
302
=
303
=
304
=
305
=
306
=
307
=
308
=
309
=
 40
0.0032927546296296
 41
2454910.458333334
 42
2456235.775693901
  1

 90
        0
  0
XRECORD
  5
D51
102
{ACAD_REACTORS
330
D50
102
}
330
D50
100
AcDbXrecord
280
     1
290
     1
  0
XRECORD
  5
D53
102
{ACAD_REACTORS
330
D52
102
}
330
D52
100
AcDbXrecord
280
     1
290
     1
  0
ACDBDETAILVIEWSTYLE
  5
D3A
102
{ACAD_REACTORS
330
D39
102
}
330
D39
100
AcDbModelDocViewStyle
 70
     0
  3
Imperial24
290
     0
100
AcDbDetailViewStyle
 70
     0
 71
     0
 90
        3
 71
     1
340
D24
 40
0.24
340
0
 40
0.24
300

 40
0.36
280
     3
 71
     2
340
D2B
 90
       25
 71
     3
340
D24
 40
0.24
 90
        1
 40
0.75
 90
        1
300
%<\AcVar ViewType \f "%tc1">% %<\AcVar ViewDetailId>%\PSCALE %<\AcVar ViewScale \f "%sn">%
 71
     4
340
D2B
 90
       25
340
D2B
 90
       25
280
     0
  0
LAYOUT
  5
D3E
102
{ACAD_XDICTIONARY
360
EE5
102
}
102
{ACAD_REACTORS
330
D30
102
}
330
D30
100
AcDbPlotSettings
  1

  2
\\LRE-9DB5B9B44AA\HP Color LaserJet CP1215
  4

  6

 40
0.0
 41
0.0
 42
0.0
 43
0.0
 44
0.0
 45
0.0
 46
0.0
 47
0.0
 48
0.0
 49
0.0
140
0.0
141
0.0
142
1.0
143
1.0
 70
   688
 72
     0
 73
     0
 74
     5
  7

 75
    16
147
1.0
148
0.0
149
0.0
100
AcDbLayout
  1
Layout1
 70
     1
 71
     1
 10
0.0
 20
0.0
 11
12.0
 21
9.0
 12
0.0
 22
0.0
 32
0.0
 14
1.000000000000000E+20
 24
1.000000000000000E+20
 34
1.000000000000000E+20
 15
-1.000000000000000E+20
 25
-1.000000000000000E+20
 35
-1.000000000000000E+20
146
0.0
 13
0.0
 23
0.0
 33
0.0
 16
1.0
 26
0.0
 36
0.0
 17
0.0
 27
1.0
 37
0.0
 76
     0
330
D3B
  0
LAYOUT
  5
D42
102
{ACAD_XDICTIONARY
360
EE7
102
}
102
{ACAD_REACTORS
330
D30
102
}
330
D30
100
AcDbPlotSettings
  1

  2
\\LRE-9DB5B9B44AA\HP Color LaserJet CP1215
  4

  6

 40
0.0
 41
0.0
 42
0.0
 43
0.0
 44
0.0
 45
0.0
 46
0.0
 47
0.0
 48
0.0
 49
0.0
140
0.0
141
0.0
142
1.0
143
1.0
 70
  1712
 72
     0
 73
     0
 74
     0
  7

 75
     0
147
1.0
148
0.0
149
0.0
100
AcDbLayout
  1
Model
 70
     1
 71
     0
 10
0.0
 20
0.0
 11
12.0
 21
9.0
 12
0.0
 22
0.0
 32
0.0
 14
0.0
 24
0.0
 34
0.0
 15
0.0
 25
0.0
 35
0.0
146
0.0
 13
0.0
 23
0.0
 33
0.0
 16
1.0
 26
0.0
 36
0.0
 17
0.0
 27
1.0
 37
0.0
 76
     0
330
D3F
331
D43
  0
MATERIAL
  5
CE8
102
{ACAD_XDICTIONARY
360
CE9
102
}
102
{ACAD_REACTORS
330
CDF
102
}
330
CDF
100
AcDbMaterial
  1
ByBlock
 72
     0
 43
0.0208333333333333
 43
0.0
 43
0.0
 43
0.0
 43
0.0
 43
0.0208333333333333
 43
0.0
 43
0.0
 43
0.0
 43
0.0
 43
1.0
 43
0.0
 43
0.0
 43
0.0
 43
0.0
 43
1.0
 77
     0
 47
0.0208333333333333
 47
0.0
 47
0.0
 47
0.0
 47
0.0
 47
0.0208333333333333
 47
0.0
 47
0.0
 47
0.0
 47
0.0
 47
1.0
 47
0.0
 47
0.0
 47
0.0
 47
0.0
 47
1.0
171
     0
 49
0.0208333333333333
 49
0.0
 49
0.0
 49
0.0
 49
0.0
 49
0.0208333333333333
 49
0.0
 49
0.0
 49
0.0
 49
0.0
 49
1.0
 49
0.0
 49
0.0
 49
0.0
 49
0.0
 49
1.0
175
     0
142
0.0208333333333333
142
0.0
142
0.0
142
0.0
142
0.0
142
0.0208333333333333
142
0.0
142
0.0
142
0.0
142
0.0
142
1.0
142
0.0
142
0.0
142
0.0
142
0.0
142
1.0
179
     0
144
0.0208333333333333
144
0.0
144
0.0
144
0.0
144
0.0
144
0.0208333333333333
144
0.0
144
0.0
144
0.0
144
0.0
144
1.0
144
0.0
144
0.0
144
0.0
144
0.0
144
1.0
147
0.0208333333333333
147
0.0
147
0.0
147
0.0
147
0.0
147
0.0208333333333333
147
0.0
147
0.0
147
0.0
147
0.0
147
1.0
147
0.0
147
0.0
147
0.0
147
0.0
147
1.0
  0
MATERIAL
  5
CE0
102
{ACAD_XDICTIONARY
360
CE1
102
}
102
{ACAD_REACTORS
330
CDF
102
}
330
CDF
100
AcDbMaterial
  1
ByLayer
 72
     0
 43
0.0208333333333333
 43
0.0
 43
0.0
 43
0.0
 43
0.0
 43
0.0208333333333333
 43
0.0
 43
0.0
 43
0.0
 43
0.0
 43
1.0
 43
0.0
 43
0.0
 43
0.0
 43
0.0
 43
1.0
 77
     0
 47
0.0208333333333333
 47
0.0
 47
0.0
 47
0.0
 47
0.0
 47
0.0208333333333333
 47
0.0
 47
0.0
 47
0.0
 47
0.0
 47
1.0
 47
0.0
 47
0.0
 47
0.0
 47
0.0
 47
1.0
171
     0
 49
0.0208333333333333
 49
0.0
 49
0.0
 49
0.0
 49
0.0
 49
0.0208333333333333
 49
0.0
 49
0.0
 49
0.0
 49
0.0
 49
1.0
 49
0.0
 49
0.0
 49
0.0
 49
0.0
 49
1.0
175
     0
142
0.0208333333333333
142
0.0
142
0.0
142
0.0
142
0.0
142
0.0208333333333333
142
0.0
142
0.0
142
0.0
142
0.0
142
1.0
142
0.0
142
0.0
142
0.0
142
0.0
142
1.0
179
     0
144
0.0208333333333333
144
0.0
144
0.0
144
0.0
144
0.0
144
0.0208333333333333
144
0.0
144
0.0
144
0.0
144
0.0
144
1.0
144
0.0
144
0.0
144
0.0
144
0.0
144
1.0
147
0.0208333333333333
147
0.0
147
0.0
147
0.0
147
0.0
147
0.0208333333333333
147
0.0
147
0.0
147
0.0
147
0.0
147
1.0
147
0.0
147
0.0
147
0.0
147
0.0
147
1.0
  0
MATERIAL
  5
CF0
102
{ACAD_XDICTIONARY
360
CF1
102
}
102
{ACAD_REACTORS
330
CDF
102
}
330
CDF
100
AcDbMaterial
  1
Global
 72
     0
 43
0.0208333333333333
 43
0.0
 43
0.0
 43
0.0
 43
0.0
 43
0.0208333333333333
 43
0.0
 43
0.0
 43
0.0
 43
0.0
 43
1.0
 43
0.0
 43
0.0
 43
0.0
 43
0.0
 43
1.0
 77
     0
 47
0.0208333333333333
 47
0.0
 47
0.0
 47
0.0
 47
0.0
 47
0.0208333333333333
 47
0.0
 47
0.0
 47
0.0
 47
0.0
 47
1.0
 47
0.0
 47
0.0
 47
0.0
 47
0.0
 47
1.0
171
     0
 49
0.0208333333333333
 49
0.0
 49
0.0
 49
0.0
 49
0.0
 49
0.0208333333333333
 49
0.0
 49
0.0
 49
0.0
 49
0.0
 49
1.0
 49
0.0
 49
0.0
 49
0.0
 49
0.0
 49
1.0
175
     0
142
0.0208333333333333
142
0.0
142
0.0
142
0.0
142
0.0
142
0.0208333333333333
142
0.0
142
0.0
142
0.0
142
0.0
142
1.0
142
0.0
142
0.0
142
0.0
142
0.0
142
1.0
179
     0
144
0.0208333333333333
144
0.0
144
0.0
144
0.0
144
0.0
144
0.0208333333333333
144
0.0
144
0.0
144
0.0
144
0.0
144
1.0
144
0.0
144
0.0
144
0.0
144
0.0
144
1.0
147
0.0208333333333333
147
0.0
147
0.0
147
0.0
147
0.0
147
0.0208333333333333
147
0.0
147
0.0
147
0.0
147
0.0
147
1.0
147
0.0
147
0.0
147
0.0
147
0.0
147
1.0
  0
MLEADERSTYLE
  5
D35
102
{ACAD_REACTORS
330
D34
102
}
330
D34
100
AcDbMLeaderStyle
170
     2
171
     1
172
     0
 90
        2
 40
0.0
 41
0.0
173
     1
 91
-1056964608
340
D29
 92
       -2
290
     1
 42
0.09
291
     1
 43
0.36
  3
Standard
 44
0.18
300

342
D24
174
     1
178
     6
175
     1
176
     0
 93
-1056964608
 45
0.18
292
     0
297
     0
 46
0.18
 94
-1056964608
 47
1.0
 49
1.0
140
1.0
293
     1
141
0.0
294
     1
177
     0
142
1.0
295
     0
296
     0
143
0.125
1001
ACAD_MLEADERVER
1070
     2
  0
MLINESTYLE
  5
D2E
102
{ACAD_REACTORS
330
D2D
102
}
330
D2D
100
AcDbMlineStyle
  2
STANDARD
 70
     0
  3

 62
   256
 51
90.0
 52
90.0
 71
     2
 49
0.5
 62
   256
  6
BYLAYER
 49
-0.5
 62
   256
  6
BYLAYER
  0
ACDBPLACEHOLDER
  5
CDE
102
{ACAD_REACTORS
330
CDD
102
}
330
CDD
  0
SCALE
  5
D12
102
{ACAD_REACTORS
330
D11
102
}
330
D11
100
AcDbScale
 70
     0
300
1:1
140
1.0
141
1.0
290
     1
  0
SCALE
  5
D13
102
{ACAD_REACTORS
330
D11
102
}
330
D11
100
AcDbScale
 70
     0
300
1/128" = 1'-0"
140
0.0078125
141
12.0
290
     0
  0
SCALE
  5
D14
102
{ACAD_REACTORS
330
D11
102
}
330
D11
100
AcDbScale
 70
     0
300
1/64" = 1'-0"
140
0.015625
141
12.0
290
     0
  0
SCALE
  5
D15
102
{ACAD_REACTORS
330
D11
102
}
330
D11
100
AcDbScale
 70
     0
300
1/32" = 1'-0"
140
0.03125
141
12.0
290
     0
  0
SCALE
  5
D16
102
{ACAD_REACTORS
330
D11
102
}
330
D11
100
AcDbScale
 70
     0
300
1/16" = 1'-0"
140
0.0625
141
12.0
290
     0
  0
SCALE
  5
D17
102
{ACAD_REACTORS
330
D11
102
}
330
D11
100
AcDbScale
 70
     0
300
3/32" = 1'-0"
140
0.09375
141
12.0
290
     0
  0
SCALE
  5
D18
102
{ACAD_REACTORS
330
D11
102
}
330
D11
100
AcDbScale
 70
     0
300
1/8" = 1'-0"
140
0.125
141
12.0
290
     0
  0
SCALE
  5
D19
102
{ACAD_REACTORS
330
D11
102
}
330
D11
100
AcDbScale
 70
     0
300
3/16" = 1'-0"
140
0.1875
141
12.0
290
     0
  0
SCALE
  5
D1A
102
{ACAD_REACTORS
330
D11
102
}
330
D11
100
AcDbScale
 70
     0
300
1/4" = 1'-0"
140
0.25
141
12.0
290
     0
  0
SCALE
  5
D1B
102
{ACAD_REACTORS
330
D11
102
}
330
D11
100
AcDbScale
 70
     0
300
3/8" = 1'-0"
140
0.375
141
12.0
290
     0
  0
SCALE
  5
D1C
102
{ACAD_REACTORS
330
D11
102
}
330
D11
100
AcDbScale
 70
     0
300
1/2" = 1'-0"
140
0.5
141
12.0
290
     0
  0
SCALE
  5
D1D
102
{ACAD_REACTORS
330
D11
102
}
330
D11
100
AcDbScale
 70
     0
300
3/4" = 1'-0"
140
0.75
141
12.0
290
     0
  0
SCALE
  5
D1E
102
{ACAD_REACTORS
330
D11
102
}
330
D11
100
AcDbScale
 70
     0
300
1" = 1'-0"
140
1.0
141
12.0
290
     0
  0
SCALE
  5
D1F
102
{ACAD_REACTORS
330
D11
102
}
330
D11
100
AcDbScale
 70
     0
300
1-1/2" = 1'-0"
140
1.5
141
12.0
290
     0
  0
SCALE
  5
D20
102
{ACAD_REACTORS
330
D11
102
}
330
D11
100
AcDbScale
 70
     0
300
3" = 1'-0"
140
3.0
141
12.0
290
     0
  0
SCALE
  5
D21
102
{ACAD_REACTORS
330
D11
102
}
330
D11
100
AcDbScale
 70
     0
300
6" = 1'-0"
140
6.0
141
12.0
290
     0
  0
SCALE
  5
D22
102
{ACAD_REACTORS
330
D11
102
}
330
D11
100
AcDbScale
 70
     0
300
1'-0" = 1'-0"
140
12.0
141
12.0
290
     0
  0
ACDBSECTIONVIEWSTYLE
  5
D38
102
{ACAD_REACTORS
330
D36
102
}
330
D36
100
AcDbModelDocViewStyle
 70
     0
  3
Imperial24
290
     0
100
AcDbSectionViewStyle
 70
     0
 71
     0
 90
       78
 71
     1
340
D24
 40
0.24
340
0
340
0
 40
0.24
300
I, O, Q, S, X, Z
 40
0.48
 90
        3
 40
0.18
 90
        1
 71
     2
340
D37
 90
       25
340
D2B
 90
       50
 40
0.24
 40
0.0
 40
0.24
 71
     3
340
D24
 40
0.24
 90
        1
 40
0.75
 90
        1
300
%<\AcVar ViewType \f "%tc1">% %<\AcVar ViewSectionStartId>%-%<\AcVar ViewSectionEndId>%\PSCALE %<\AcVar ViewScale \f "%sn">%
 71
     4
300
ANSI31
 40
1.0
 90
        0
290
     0
290
     0
 90
        6
 40
0.0
 40
1.570796326794896
 40
0.2617993877991494
 40
1.308996938995747
 40
-0.2617993877991494
 40
1.832595714594044
  0
TABLESTYLE
  5
D33
102
{ACAD_XDICTIONARY
360
D5C
102
}
102
{ACAD_REACTORS
330
D32
102
}
330
D32
100
AcDbTableStyle
  3
Standard
 70
     0
 71
     0
 40
0.06
 41
0.06
280
     0
281
     0
  7
STANDARD
140
0.18
170
     2
 62
     0
 63
     7
283
     0
274
    -2
284
     1
 64
     0
275
    -2
285
     1
 65
     0
276
    -2
286
     1
 66
     0
277
    -2
287
     1
 67
     0
278
    -2
288
     1
 68
     0
279
    -2
289
     1
 69
     0
  7
STANDARD
140
0.25
170
     5
 62
     0
 63
     7
283
     0
274
    -2
284
     1
 64
     0
275
    -2
285
     1
 65
     0
276
    -2
286
     1
 66
     0
277
    -2
287
     1
 67
     0
278
    -2
288
     1
 68
     0
279
    -2
289
     1
 69
     0
  7
STANDARD
140
0.18
170
     5
 62
     0
 63
     7
283
     0
274
    -2
284
     1
 64
     0
275
    -2
285
     1
 65
     0
276
    -2
286
     1
 66
     0
277
    -2
287
     1
 67
     0
278
    -2
288
     1
 68
     0
279
    -2
289
     1
 69
     0
  0
VISUALSTYLE
  5
CFE
102
{ACAD_XDICTIONARY
360
EBE
102
}
102
{ACAD_REACTORS
330
CF8
102
}
330
CF8
100
AcDbVisualStyle
  2

 70
     4
 71
     0
 72
     2
 73
     0
 90
        0
 40
-0.6
 41
-30.0
 62
     5
 63
     7
 74
     1
 91
        4
 64
     7
 65
   257
 75
     1
175
     1
 42
1.0
 92
        0
 66
   257
 43
1.0
 76
     1
 77
     6
 78
     2
 67
     7
 79
     5
170
     0
171
     0
290
     0
174
     0
 93
        1
 44
0.0
173
     0
291
     0
 45
0.0
1001
ACAD
1000
AcDbSavedByObjectVersion
1070
     0
  0
VISUALSTYLE
  5
CFD
102
{ACAD_XDICTIONARY
360
EBC
102
}
102
{ACAD_REACTORS
330
CF8
102
}
330
CF8
100
AcDbVisualStyle
  2

 70
     7
 71
     1
 72
     0
 73
     1
 90
        0
 40
-0.6
 41
-30.0
 62
     5
 63
     7
 74
     0
 91
        4
 64
     7
 65
   257
 75
     1
175
     1
 42
1.0
 92
        8
 66
     7
 43
1.0
 76
     1
 77
     6
 78
     2
 67
     7
 79
     5
170
     0
171
     0
290
     0
174
     0
 93
        1
 44
0.0
173
     0
291
     1
 45
0.0
1001
ACAD
1000
AcDbSavedByObjectVersion
1070
     0
  0
VISUALSTYLE
  5
D04
102
{ACAD_XDICTIONARY
360
ECA
102
}
102
{ACAD_REACTORS
330
CF8
102
}
330
CF8
100
AcDbVisualStyle
  2

 70
    12
 71
     2
 72
     2
 73
     0
 90
        0
 40
-0.6
 41
-30.0
 62
     5
 63
     7
 74
     1
 91
        4
 64
     7
 65
   257
 75
     1
175
     1
 42
1.0
 92
        8
 66
     7
 43
1.0
 76
     1
 77
     6
 78
     2
 67
     7
 79
     5
170
     0
171
     0
290
     0
174
     0
 93
        1
 44
50.0
173
     0
291
     1
 45
0.0
1001
ACAD
1000
AcDbSavedByObjectVersion
1070
     0
  0
VISUALSTYLE
  5
D08
102
{ACAD_XDICTIONARY
360
ED2
102
}
102
{ACAD_REACTORS
330
CF8
102
}
330
CF8
100
AcDbVisualStyle
  2

 70
    16
 71
     2
 72
     2
 73
     3
 90
        0
 40
-0.6
 41
-30.0
 62
     5
 63
     8
 74
     1
 91
        4
 64
     7
 65
   257
 75
     1
175
     1
 42
1.0
 92
        8
 66
     8
 43
1.0
 76
     1
 77
     6
 78
     2
 67
     7
 79
     5
170
     0
171
     0
290
     0
174
     0
 93
        1
 44
0.0
173
     0
291
     1
 45
0.0
1001
ACAD
1000
AcDbSavedByObjectVersion
1070
     0
  0
VISUALSTYLE
  5
D01
102
{ACAD_XDICTIONARY
360
EC4
102
}
102
{ACAD_REACTORS
330
CF8
102
}
330
CF8
100
AcDbVisualStyle
  2

 70
     9
 71
     3
 72
     2
 73
     0
 90
        0
 40
-0.6
 41
-30.0
 62
     5
 63
     7
 74
     2
 91
        2
 64
     7
 65
   257
 75
     1
175
     1
 42
179.0
 92
        8
 66
     7
 43
1.0
 76
     1
 77
     6
 78
     2
 67
     7
 79
     3
170
     0
171
     0
290
     0
174
     0
 93
        1
 44
0.0
173
     0
291
     0
 45
0.0
1001
ACAD
1000
AcDbSavedByObjectVersion
1070
     0
  0
VISUALSTYLE
  5
D03
102
{ACAD_XDICTIONARY
360
EC8
102
}
102
{ACAD_REACTORS
330
CF8
102
}
330
CF8
100
AcDbVisualStyle
  2

 70
    11
 71
     2
 72
     2
 73
     0
 90
        0
 40
-0.6
 41
-30.0
 62
     5
 63
     7
 74
     1
 91
        4
 64
     7
 65
   257
 75
     1
175
     1
 42
1.0
 92
        8
 66
     7
 43
1.0
 76
     1
 77
     6
 78
     2
 67
     7
 79
     5
170
     0
171
     0
290
     0
174
     0
 93
        1
 44
-50.0
173
     0
291
     1
 45
0.0
1001
ACAD
1000
AcDbSavedByObjectVersion
1070
     0
  0
VISUALSTYLE
  5
D10
102
{ACAD_XDICTIONARY
360
EE2
102
}
102
{ACAD_REACTORS
330
CF8
102
}
330
CF8
100
AcDbVisualStyle
  2

 70
    22
 71
     2
 72
     2
 73
     0
 90
        0
 40
-0.6
 41
-30.0
 62
     5
 63
     7
 74
     1
 91
        4
 64
     7
 65
   257
 75
     1
175
     1
 42
1.0
 92
        8
 66
     7
 43
1.0
 76
     1
 77
     6
 78
     2
 67
     7
 79
     5
170
     0
171
     0
290
     0
174
     0
 93
        1
 44
0.0
173
     0
291
     1
 45
0.0
1001
ACAD
1000
AcDbSavedByObjectVersion
1070
     0
  0
VISUALSTYLE
  5
D07
102
{ACAD_XDICTIONARY
360
ED0
102
}
102
{ACAD_REACTORS
330
CF8
102
}
330
CF8
100
AcDbVisualStyle
  2

 70
    15
 71
     2
 72
     2
 73
     0
 90
        0
 40
-0.6
 41
-30.0
 62
     5
 63
     7
 74
     1
 91
        4
 64
     7
 65
   257
 75
     1
175
     1
 42
1.0
 92
        8
 66
     7
 43
1.0
 76
     1
 77
     6
 78
     2
 67
     7
 79
     5
170
     0
171
     0
290
     0
174
     0
 93
        1
 44
0.0
173
     0
291
     1
 45
0.0
1001
ACAD
1000
AcDbSavedByObjectVersion
1070
     0
  0
VISUALSTYLE
  5
CF9
102
{ACAD_XDICTIONARY
360
EB4
102
}
102
{ACAD_REACTORS
330
CF8
102
}
330
CF8
100
AcDbVisualStyle
  2

 70
     0
 71
     2
 72
     1
 73
     1
 90
        2
 40
-0.6
 41
30.0
 62
     5
 63
     7
 74
     0
 91
        0
 64
     7
 65
   257
 75
     1
175
     1
 42
1.0
 92
        8
 66
     7
 43
1.0
 76
     1
 77
     6
 78
     2
 67
     7
 79
     5
170
     0
171
     0
290
     0
174
     0
 93
       13
 44
0.0
173
     0
291
     1
 45
0.0
1001
ACAD
1000
AcDbSavedByObjectVersion
1070
     0
  0
VISUALSTYLE
  5
CFA
102
{ACAD_XDICTIONARY
360
EB6
102
}
102
{ACAD_REACTORS
330
CF8
102
}
330
CF8
100
AcDbVisualStyle
  2

 70
     1
 71
     2
 72
     1
 73
     1
 90
        2
 40
-0.6
 41
30.0
 62
     5
 63
     7
 74
     1
 91
        0
 64
     7
 65
   257
 75
     1
175
     1
 42
1.0
 92
        0
 66
   257
 43
1.0
 76
     1
 77
     6
 78
     2
 67
     7
 79
     5
170
     0
171
     0
290
     0
174
     0
 93
       13
 44
0.0
173
     0
291
     1
 45
0.0
1001
ACAD
1000
AcDbSavedByObjectVersion
1070
     0
  0
VISUALSTYLE
  5
CFB
102
{ACAD_XDICTIONARY
360
EB8
102
}
102
{ACAD_REACTORS
330
CF8
102
}
330
CF8
100
AcDbVisualStyle
  2

 70
     2
 71
     2
 72
     2
 73
     1
 90
        2
 40
-0.6
 41
30.0
 62
     5
 63
     7
 74
     0
 91
        0
 64
     7
 65
   257
 75
     1
175
     1
 42
1.0
 92
        0
 66
     7
 43
1.0
 76
     1
 77
     6
 78
     2
 67
     7
 79
     5
170
     0
171
     0
290
     0
174
     0
 93
       13
 44
0.0
173
     0
291
     1
 45
0.0
1001
ACAD
1000
AcDbSavedByObjectVersion
1070
     0
  0
VISUALSTYLE
  5
CFC
102
{ACAD_XDICTIONARY
360
EBA
102
}
102
{ACAD_REACTORS
330
CF8
102
}
330
CF8
100
AcDbVisualStyle
  2

 70
     3
 71
     2
 72
     2
 73
     1
 90
        2
 40
-0.6
 41
30.0
 62
     5
 63
     7
 74
     1
 91
        0
 64
     7
 65
   257
 75
     1
175
     1
 42
1.0
 92
        0
 66
   257
 43
1.0
 76
     1
 77
     6
 78
     2
 67
     7
 79
     5
170
     0
171
     0
290
     0
174
     0
 93
       13
 44
0.0
173
     0
291
     1
 45
0.0
1001
ACAD
1000
AcDbSavedByObjectVersion
1070
     0
  0
VISUALSTYLE
  5
D00
102
{ACAD_XDICTIONARY
360
EC2
102
}
102
{ACAD_REACTORS
330
CF8
102
}
330
CF8
100
AcDbVisualStyle
  2

 70
     6
 71
     1
 72
     2
 73
     2
 90
        0
 40
-0.6
 41
-30.0
 62
     5
 63
     7
 74
     2
 91
        2
 64
     7
 65
   257
 75
     2
175
     1
 42
40.0
 92
        0
 66
   257
 43
1.0
 76
     1
 77
     6
 78
     2
 67
     7
 79
     3
170
     0
171
     0
290
     0
174
     0
 93
        1
 44
0.0
173
     0
291
     0
 45
0.0
1001
ACAD
1000
AcDbSavedByObjectVersion
1070
     0
  0
VISUALSTYLE
  5
D0E
102
{ACAD_XDICTIONARY
360
EDE
102
}
102
{ACAD_REACTORS
330
CF8
102
}
330
CF8
100
AcDbVisualStyle
  2

 70
    20
 71
     2
 72
     2
 73
     0
 90
        0
 40
-0.6
 41
-30.0
 62
     5
 63
     7
 74
     1
 91
        4
 64
     7
 65
   257
 75
     1
175
     1
 42
1.0
 92
       10
 66
     7
 43
1.0
 76
     1
 77
     6
 78
     2
 67
     7
 79
     5
170
     0
171
     0
290
     0
174
     0
 93
        1
 44
0.0
173
     0
291
     1
 45
0.0
1001
ACAD
1000
AcDbSavedByObjectVersion
1070
     0
  0
VISUALSTYLE
  5
D06
102
{ACAD_XDICTIONARY
360
ECE
102
}
102
{ACAD_REACTORS
330
CF8
102
}
330
CF8
100
AcDbVisualStyle
  2

 70
    14
 71
     2
 72
     2
 73
     0
 90
        0
 40
-0.6
 41
-30.0
 62
     5
 63
     7
 74
     1
 91
        4
 64
     7
 65
   257
 75
     7
175
     7
 42
1.0
 92
        8
 66
     7
 43
1.0
 76
     1
 77
     6
 78
     2
 67
     7
 79
     5
170
     0
171
     0
290
     0
174
     0
 93
        1
 44
0.0
173
     0
291
     1
 45
0.0
1001
ACAD
1000
AcDbSavedByObjectVersion
1070
     0
  0
VISUALSTYLE
  5
D0F
102
{ACAD_XDICTIONARY
360
EE0
102
}
102
{ACAD_REACTORS
330
CF8
102
}
330
CF8
100
AcDbVisualStyle
  2

 70
    21
 71
     2
 72
     2
 73
     0
 90
        0
 40
-0.6
 41
-30.0
 62
     5
 63
     7
 74
     1
 91
        4
 64
     7
 65
   257
 75
     1
175
     1
 42
1.0
 92
        9
 66
     7
 43
1.0
 76
     1
 77
     6
 78
     2
 67
     7
 79
     5
170
     0
171
     0
290
     0
174
     0
 93
        1
 44
0.0
173
     0
291
     1
 45
0.0
1001
ACAD
1000
AcDbSavedByObjectVersion
1070
     0
  0
VISUALSTYLE
  5
D02
102
{ACAD_XDICTIONARY
360
EC6
102
}
102
{ACAD_REACTORS
330
CF8
102
}
330
CF8
100
AcDbVisualStyle
  2

 70
     8
 71
     2
 72
     3
 73
     0
 90
        2
 40
-0.6
 41
30.0
 62
     5
 63
     7
 74
     0
 91
        0
 64
     7
 65
   257
 75
     1
175
     1
 42
1.0
 92
        8
 66
   257
 43
1.0
 76
     1
 77
     6
 78
     2
 67
     7
 79
     3
170
     0
171
     0
290
     0
174
     0
 93
       13
 44
0.0
173
     0
291
     0
 45
0.0
1001
ACAD
1000
AcDbSavedByObjectVersion
1070
     0
  0
VISUALSTYLE
  5
D0D
102
{ACAD_XDICTIONARY
360
EDC
102
}
102
{ACAD_REACTORS
330
CF8
102
}
330
CF8
100
AcDbVisualStyle
  2

 70
    27
 71
     2
 72
     2
 73
     1
 90
        2
 40
-0.6
 41
30.0
 62
     5
 63
     7
 74
     0
 91
        4
 64
     7
 65
   257
 75
     1
175
     1
 42
1.0
 92
        8
 66
   257
 43
1.0
 76
     1
 77
     6
 78
     2
 67
     8
 79
     3
170
     0
171
     0
290
     0
174
     0
 93
        5
 44
0.0
173
     0
291
     0
 45
0.0
1001
ACAD
1000
AcDbSavedByObjectVersion
1070
     0
  0
VISUALSTYLE
  5
D0C
102
{ACAD_XDICTIONARY
360
EDA
102
}
102
{ACAD_REACTORS
330
CF8
102
}
330
CF8
100
AcDbVisualStyle
  2

 70
    26
 71
     2
 72
     2
 73
     1
 90
        2
 40
-0.6
 41
30.0
 62
     5
 63
     7
 74
     1
 91
       10
 64
     7
 65
   257
 75
     2
175
     1
 42
1.0
 92
        8
 66
   257
 43
1.0
 76
     1
 77
     6
 78
     2
 67
     7
 79
     3
170
     0
171
     0
290
     0
174
     0
 93
        5
 44
0.0
173
     0
291
     0
 45
0.0
1001
ACAD
1000
AcDbSavedByObjectVersion
1070
     0
  0
VISUALSTYLE
  5
D09
102
{ACAD_XDICTIONARY
360
ED4
102
}
102
{ACAD_REACTORS
330
CF8
102
}
330
CF8
100
AcDbVisualStyle
  2

 70
    23
 71
     2
 72
     2
 73
     3
 90
        0
 40
-0.6
 41
-30.0
 62
     5
 63
     7
 74
     2
 91
        2
 64
     7
 65
     7
 75
     1
175
     1
 42
40.0
 92
        8
 66
     7
 43
1.0
 76
     1
 77
     6
 78
     2
 67
     7
 79
     3
170
     0
171
     0
290
     0
174
     0
 93
        1
 44
0.0
173
     0
291
     0
 45
0.0
1001
ACAD
1000
AcDbSavedByObjectVersion
1070
     0
  0
VISUALSTYLE
  5
D0A
102
{ACAD_XDICTIONARY
360
ED6
102
}
102
{ACAD_REACTORS
330
CF8
102
}
330
CF8
100
AcDbVisualStyle
  2

 70
    24
 71
     1
 72
     2
 73
     2
 90
        0
 40
-0.6
 41
-30.0
 62
     5
 63
     7
 74
     2
 91
        2
 64
     7
 65
     7
 75
     1
175
     1
 42
40.0
 92
       11
 66
     7
 43
1.0
 76
     1
 77
     6
 78
     2
 67
     7
 79
     6
170
     0
171
     0
290
     0
174
     0
 93
        1
 44
0.0
173
     0
291
     0
 45
0.0
1001
ACAD
1000
AcDbSavedByObjectVersion
1070
     0
  0
VISUALSTYLE
  5
D05
102
{ACAD_XDICTIONARY
360
ECC
102
}
102
{ACAD_REACTORS
330
CF8
102
}
330
CF8
100
AcDbVisualStyle
  2

 70
    13
 71
     2
 72
     2
 73
     0
 90
        0
 40
-0.6
 41
-30.0
 62
     5
 63
     7
 74
     1
 91
        4
 64
     7
 65
   257
 75
     1
175
     1
 42
1.0
 92
       12
 66
     7
 43
1.0
 76
     1
 77
     6
 78
     2
 67
     7
 79
     5
170
     0
171
     0
290
     0
174
     0
 93
        1
 44
0.0
173
     0
291
     1
 45
0.0
1001
ACAD
1000
AcDbSavedByObjectVersion
1070
     0
  0
VISUALSTYLE
  5
CFF
102
{ACAD_XDICTIONARY
360
EC0
102
}
102
{ACAD_REACTORS
330
CF8
102
}
330
CF8
100
AcDbVisualStyle
  2

 70
     5
 71
     0
 72
     2
 73
     0
 90
        0
 40
-0.6
 41
-30.0
 62
     5
 63
     7
 74
     1
 91
        4
 64
     7
 65
   257
 75
     1
175
     1
 42
1.0
 92
        0
 66
   257
 43
1.0
 76
     1
 77
     6
 78
     2
 67
     7
 79
     3
170
     0
171
     0
290
     0
174
     0
 93
        1
 44
0.0
173
     0
291
     0
 45
0.0
1001
ACAD
1000
AcDbSavedByObjectVersion
1070
     0
  0
VISUALSTYLE
  5
D0B
102
{ACAD_XDICTIONARY
360
ED8
102
}
102
{ACAD_REACTORS
330
CF8
102
}
330
CF8
100
AcDbVisualStyle
  2

 70
    25
 71
     2
 72
     2
 73
     1
 90
        1
 40
0.5
 41
-30.0
 62
     5
 63
     7
 74
     1
 91
        0
 64
     7
 65
   257
 75
     1
175
     1
 42
1.0
 92
        8
 66
     7
 43
1.0
 76
     1
 77
     6
 78
     2
 67
     7
 79
     3
170
     0
171
     0
290
     0
174
     0
 93
       13
 44
0.0
173
     0
291
     0
 45
0.0
1001
ACAD
1000
AcDbSavedByObjectVersion
1070
     0
  0
DICTIONARYVAR
  5
D59
102
{ACAD_REACTORS
330
D54
102
}
330
D54
100
DictionaryVariables
280
     0
  1
1:1
  0
DICTIONARYVAR
  5
D56
102
{ACAD_REACTORS
330
D54
102
}
330
D54
100
DictionaryVariables
280
     0
  1
STANDARD
  0
DICTIONARYVAR
  5
D55
102
{ACAD_REACTORS
330
D54
102
}
330
D54
100
DictionaryVariables
280
     0
  1
STANDARD
  0
DICTIONARYVAR
  5
D57
102
{ACAD_REACTORS
330
D54
102
}
330
D54
100
DictionaryVariables
280
     0
  1
Imperial24
  0
DICTIONARYVAR
  5
D58
102
{ACAD_REACTORS
330
D54
102
}
330
D54
100
DictionaryVariables
280
     0
  1
Imperial24
  0
DICTIONARYVAR
  5
E07
102
{ACAD_REACTORS
330
D54
102
}
330
D54
100
DictionaryVariables
280
     0
  1
1
  0
DICTIONARYVAR
  5
E06
102
{ACAD_REACTORS
330
D54
102
}
330
D54
100
DictionaryVariables
280
     0
  1
0
  0
DICTIONARYVAR
  5
E05
102
{ACAD_REACTORS
330
D54
102
}
330
D54
100
DictionaryVariables
280
     0
  1
127
  0
DICTIONARYVAR
  5
E08
102
{ACAD_REACTORS
330
D54
102
}
330
D54
100
DictionaryVariables
280
     0
  1
2
  0
DICTIONARY
  5
EE5
330
D3E
100
AcDbDictionary
280
     1
281
     1
  3
ACAD_XREC_ROUNDTRIP
360
EE6
  0
DICTIONARY
  5
EE7
330
D42
100
AcDbDictionary
280
     1
281
     1
  3
ACAD_XREC_ROUNDTRIP
360
EE8
  0
DICTIONARY
  5
CE9
330
CE8
100
AcDbDictionary
280
     1
281
     1
  3
ACAD_XREC_ROUNDTRIP
360
D60
  3
BUMPTILE
360
CEB
  3
DIFFUSETILE
360
CEA
  3
OPACITYTILE
360
CEE
  3
REFLECTIONTILE
360
CED
  3
REFRACTIONTILE
360
CEF
  3
SPECULARTILE
360
CEC
  0
DICTIONARY
  5
CE1
330
CE0
100
AcDbDictionary
280
     1
281
     1
  3
ACAD_XREC_ROUNDTRIP
360
D5F
  3
BUMPTILE
360
CE3
  3
DIFFUSETILE
360
CE2
  3
OPACITYTILE
360
CE6
  3
REFLECTIONTILE
360
CE5
  3
REFRACTIONTILE
360
CE7
  3
SPECULARTILE
360
CE4
  0
DICTIONARY
  5
CF1
330
CF0
100
AcDbDictionary
280
     1
281
     1
  3
ACAD_XREC_ROUNDTRIP
360
D61
  3
BUMPTILE
360
CF3
  3
DIFFUSETILE
360
CF2
  3
OPACITYTILE
360
CF6
  3
REFLECTIONTILE
360
CF5
  3
REFRACTIONTILE
360
CF7
  3
SPECULARTILE
360
CF4
  0
DICTIONARY
  5
D5C
330
D33
100
AcDbDictionary
280
     1
281
     1
  3
ACAD_ROUNDTRIP_2008_TABLESTYLE_CELLSTYLEMAP
360
EB1
  3
ACAD_XREC_ROUNDTRIP
360
EE4
  0
DICTIONARY
  5
EBE
330
CFE
100
AcDbDictionary
280
     1
281
     1
  3
ACAD_XREC_ROUNDTRIP
360
EBF
  0
DICTIONARY
  5
EBC
330
CFD
100
AcDbDictionary
280
     1
281
     1
  3
ACAD_XREC_ROUNDTRIP
360
EBD
  0
DICTIONARY
  5
ECA
330
D04
100
AcDbDictionary
280
     1
281
     1
  3
ACAD_XREC_ROUNDTRIP
360
ECB
  0
DICTIONARY
  5
ED2
330
D08
100
AcDbDictionary
280
     1
281
     1
  3
ACAD_XREC_ROUNDTRIP
360
ED3
  0
DICTIONARY
  5
EC4
330
D01
100
AcDbDictionary
280
     1
281
     1
  3
ACAD_XREC_ROUNDTRIP
360
EC5
  0
DICTIONARY
  5
EC8
330
D03
100
AcDbDictionary
280
     1
281
     1
  3
ACAD_XREC_ROUNDTRIP
360
EC9
  0
DICTIONARY
  5
EE2
330
D10
100
AcDbDictionary
280
     1
281
     1
  3
ACAD_XREC_ROUNDTRIP
360
EE3
  0
DICTIONARY
  5
ED0
330
D07
100
AcDbDictionary
280
     1
281
     1
  3
ACAD_XREC_ROUNDTRIP
360
ED1
  0
DICTIONARY
  5
EB4
330
CF9
100
AcDbDictionary
280
     1
281
     1
  3
ACAD_XREC_ROUNDTRIP
360
EB5
  0
DICTIONARY
  5
EB6
330
CFA
100
AcDbDictionary
280
     1
281
     1
  3
ACAD_XREC_ROUNDTRIP
360
EB7
  0
DICTIONARY
  5
EB8
330
CFB
100
AcDbDictionary
280
     1
281
     1
  3
ACAD_XREC_ROUNDTRIP
360
EB9
  0
DICTIONARY
  5
EBA
330
CFC
100
AcDbDictionary
280
     1
281
     1
  3
ACAD_XREC_ROUNDTRIP
360
EBB
  0
DICTIONARY
  5
EC2
330
D00
100
AcDbDictionary
280
     1
281
     1
  3
ACAD_XREC_ROUNDTRIP
360
EC3
  0
DICTIONARY
  5
EDE
330
D0E
100
AcDbDictionary
280
     1
281
     1
  3
ACAD_XREC_ROUNDTRIP
360
EDF
  0
DICTIONARY
  5
ECE
330
D06
100
AcDbDictionary
280
     1
281
     1
  3
ACAD_XREC_ROUNDTRIP
360
ECF
  0
DICTIONARY
  5
EE0
330
D0F
100
AcDbDictionary
280
     1
281
     1
  3
ACAD_XREC_ROUNDTRIP
360
EE1
  0
DICTIONARY
  5
EC6
330
D02
100
AcDbDictionary
280
     1
281
     1
  3
ACAD_XREC_ROUNDTRIP
360
EC7
  0
DICTIONARY
  5
EDC
330
D0D
100
AcDbDictionary
280
     1
281
     1
  3
ACAD_XREC_ROUNDTRIP
360
EDD
  0
DICTIONARY
  5
EDA
330
D0C
100
AcDbDictionary
280
     1
281
     1
  3
ACAD_XREC_ROUNDTRIP
360
EDB
  0
DICTIONARY
  5
ED4
330
D09
100
AcDbDictionary
280
     1
281
     1
  3
ACAD_XREC_ROUNDTRIP
360
ED5
  0
DICTIONARY
  5
ED6
330
D0A
100
AcDbDictionary
280
     1
281
     1
  3
ACAD_XREC_ROUNDTRIP
360
ED7
  0
DICTIONARY
  5
ECC
330
D05
100
AcDbDictionary
280
     1
281
     1
  3
ACAD_XREC_ROUNDTRIP
360
ECD
  0
DICTIONARY
  5
EC0
330
CFF
100
AcDbDictionary
280
     1
281
     1
  3
ACAD_XREC_ROUNDTRIP
360
EC1
  0
DICTIONARY
  5
ED8
330
D0B
100
AcDbDictionary
280
     1
281
     1
  3
ACAD_XREC_ROUNDTRIP
360
ED9
  0
XRECORD
  5
EE6
102
{ACAD_REACTORS
330
EE5
102
}
330
EE5
100
AcDbXrecord
280
     1
102
SHADEPLOT
 70
     0
102
SHADEPLOTRESLEVEL
 70
     2
102
SHADEPLOTCUSTOMDPI
 70
   300
  0
XRECORD
  5
EE8
102
{ACAD_REACTORS
330
EE7
102
}
330
EE7
100
AcDbXrecord
280
     1
102
SHADEPLOT
 70
     0
102
SHADEPLOTRESLEVEL
 70
     2
102
SHADEPLOTCUSTOMDPI
 70
   300
  0
XRECORD
  5
D60
102
{ACAD_REACTORS
330
CE9
102
}
330
CE9
100
AcDbXrecord
280
     1
102
MATERIAL
148
0.0
149
0.0
149
0.0
 93
        0
 94
      127
282
     0
 72
     0
 77
     0
171
     0
175
     0
179
     0
273
     0
  0
XRECORD
  5
CEB
102
{ACAD_REACTORS
330
CE9
102
}
330
CE9
100
AcDbXrecord
280
     1
270
     1
271
     1
  0
XRECORD
  5
CEA
102
{ACAD_REACTORS
330
CE9
102
}
330
CE9
100
AcDbXrecord
280
     1
270
     1
271
     1
  0
XRECORD
  5
CEE
102
{ACAD_REACTORS
330
CE9
102
}
330
CE9
100
AcDbXrecord
280
     1
270
     1
271
     1
  0
XRECORD
  5
CED
102
{ACAD_REACTORS
330
CE9
102
}
330
CE9
100
AcDbXrecord
280
     1
270
     1
271
     1
  0
XRECORD
  5
CEF
102
{ACAD_REACTORS
330
CE9
102
}
330
CE9
100
AcDbXrecord
280
     1
270
     1
271
     1
  0
XRECORD
  5
CEC
102
{ACAD_REACTORS
330
CE9
102
}
330
CE9
100
AcDbXrecord
280
     1
270
     1
271
     1
  0
XRECORD
  5
D5F
102
{ACAD_REACTORS
330
CE1
102
}
330
CE1
100
AcDbXrecord
280
     1
102
MATERIAL
148
0.0
149
0.0
149
0.0
 93
        0
 94
      127
282
     0
 72
     0
 77
     0
171
     0
175
     0
179
     0
273
     0
  0
XRECORD
  5
CE3
102
{ACAD_REACTORS
330
CE1
102
}
330
CE1
100
AcDbXrecord
280
     1
270
     1
271
     1
  0
XRECORD
  5
CE2
102
{ACAD_REACTORS
330
CE1
102
}
330
CE1
100
AcDbXrecord
280
     1
270
     1
271
     1
  0
XRECORD
  5
CE6
102
{ACAD_REACTORS
330
CE1
102
}
330
CE1
100
AcDbXrecord
280
     1
270
     1
271
     1
  0
XRECORD
  5
CE5
102
{ACAD_REACTORS
330
CE1
102
}
330
CE1
100
AcDbXrecord
280
     1
270
     1
271
     1
  0
XRECORD
  5
CE7
102
{ACAD_REACTORS
330
CE1
102
}
330
CE1
100
AcDbXrecord
280
     1
270
     1
271
     1
  0
XRECORD
  5
CE4
102
{ACAD_REACTORS
330
CE1
102
}
330
CE1
100
AcDbXrecord
280
     1
270
     1
271
     1
  0
XRECORD
  5
D61
102
{ACAD_REACTORS
330
CF1
102
}
330
CF1
100
AcDbXrecord
280
     1
102
MATERIAL
148
0.0
149
0.0
149
0.0
 93
        0
 94
      127
282
     0
 72
     0
 77
     0
171
     0
175
     0
179
     0
273
     0
  0
XRECORD
  5
CF3
102
{ACAD_REACTORS
330
CF1
102
}
330
CF1
100
AcDbXrecord
280
     1
270
     1
271
     1
  0
XRECORD
  5
CF2
102
{ACAD_REACTORS
330
CF1
102
}
330
CF1
100
AcDbXrecord
280
     1
270
     1
271
     1
  0
XRECORD
  5
CF6
102
{ACAD_REACTORS
330
CF1
102
}
330
CF1
100
AcDbXrecord
280
     1
270
     1
271
     1
  0
XRECORD
  5
CF5
102
{ACAD_REACTORS
330
CF1
102
}
330
CF1
100
AcDbXrecord
280
     1
270
     1
271
     1
  0
XRECORD
  5
CF7
102
{ACAD_REACTORS
330
CF1
102
}
330
CF1
100
AcDbXrecord
280
     1
270
     1
271
     1
  0
XRECORD
  5
CF4
102
{ACAD_REACTORS
330
CF1
102
}
330
CF1
100
AcDbXrecord
280
     1
270
     1
271
     1
  0
CELLSTYLEMAP
  5
EB1
102
{ACAD_REACTORS
330
D5C
102
}
330
D5C
100
AcDbCellStyleMap
 90
        3
300
CELLSTYLE
  1
TABLEFORMAT_BEGIN
 90
        5
170
     1
 91
        0
 92
    32768
 62
   257
 93
        1
300
CONTENTFORMAT
  1
CONTENTFORMAT_BEGIN
 90
        0
 91
        0
 92
      512
 93
        0
300

 40
0.0
140
1.0
 94
        5
 62
     0
340
D24
144
0.25
309
CONTENTFORMAT_END
171
     1
301
MARGIN
  1
CELLMARGIN_BEGIN
 40
0.06
 40
0.06
 40
0.06
 40
0.06
 40
0.18
 40
0.18
309
CELLMARGIN_END
 94
        6
 95
        1
302
GRIDFORMAT
  1
GRIDFORMAT_BEGIN
 90
        0
 91
        1
 62
     0
 92
       -2
340
0
 93
        0
 40
0.045
309
GRIDFORMAT_END
 95
        2
302
GRIDFORMAT
  1
GRIDFORMAT_BEGIN
 90
        0
 91
        1
 62
     0
 92
       -2
340
0
 93
        0
 40
0.045
309
GRIDFORMAT_END
 95
        4
302
GRIDFORMAT
  1
GRIDFORMAT_BEGIN
 90
        0
 91
        1
 62
     0
 92
       -2
340
0
 93
        0
 40
0.045
309
GRIDFORMAT_END
 95
        8
302
GRIDFORMAT
  1
GRIDFORMAT_BEGIN
 90
        0
 91
        1
 62
     0
 92
       -2
340
0
 93
        0
 40
0.045
309
GRIDFORMAT_END
 95
       16
302
GRIDFORMAT
  1
GRIDFORMAT_BEGIN
 90
        0
 91
        1
 62
     0
 92
       -2
340
0
 93
        0
 40
0.045
309
GRIDFORMAT_END
 95
       32
302
GRIDFORMAT
  1
GRIDFORMAT_BEGIN
 90
        0
 91
        1
 62
     0
 92
       -2
340
0
 93
        0
 40
0.045
309
GRIDFORMAT_END
309
TABLEFORMAT_END
  1
CELLSTYLE_BEGIN
 90
        1
 91
        1
300
_TITLE
309
CELLSTYLE_END
300
CELLSTYLE
  1
TABLEFORMAT_BEGIN
 90
        5
170
     1
 91
        0
 92
        0
 62
   257
 93
        1
300
CONTENTFORMAT
  1
CONTENTFORMAT_BEGIN
 90
        0
 91
        0
 92
      512
 93
        0
300

 40
0.0
140
1.0
 94
        5
 62
     0
340
D24
144
0.18
309
CONTENTFORMAT_END
171
     1
301
MARGIN
  1
CELLMARGIN_BEGIN
 40
0.06
 40
0.06
 40
0.06
 40
0.06
 40
0.18
 40
0.18
309
CELLMARGIN_END
 94
        6
 95
        1
302
GRIDFORMAT
  1
GRIDFORMAT_BEGIN
 90
        0
 91
        1
 62
     0
 92
       -2
340
0
 93
        0
 40
0.045
309
GRIDFORMAT_END
 95
        2
302
GRIDFORMAT
  1
GRIDFORMAT_BEGIN
 90
        0
 91
        1
 62
     0
 92
       -2
340
0
 93
        0
 40
0.045
309
GRIDFORMAT_END
 95
        4
302
GRIDFORMAT
  1
GRIDFORMAT_BEGIN
 90
        0
 91
        1
 62
     0
 92
       -2
340
0
 93
        0
 40
0.045
309
GRIDFORMAT_END
 95
        8
302
GRIDFORMAT
  1
GRIDFORMAT_BEGIN
 90
        0
 91
        1
 62
     0
 92
       -2
340
0
 93
        0
 40
0.045
309
GRIDFORMAT_END
 95
       16
302
GRIDFORMAT
  1
GRIDFORMAT_BEGIN
 90
        0
 91
        1
 62
     0
 92
       -2
340
0
 93
        0
 40
0.045
309
GRIDFORMAT_END
 95
       32
302
GRIDFORMAT
  1
GRIDFORMAT_BEGIN
 90
        0
 91
        1
 62
     0
 92
       -2
340
0
 93
        0
 40
0.045
309
GRIDFORMAT_END
309
TABLEFORMAT_END
  1
CELLSTYLE_BEGIN
 90
        2
 91
        1
300
_HEADER
309
CELLSTYLE_END
300
CELLSTYLE
  1
TABLEFORMAT_BEGIN
 90
        5
170
     1
 91
        0
 92
        0
 62
   257
 93
        1
300
CONTENTFORMAT
  1
CONTENTFORMAT_BEGIN
 90
        0
 91
        0
 92
      512
 93
        0
300

 40
0.0
140
1.0
 94
        2
 62
     0
340
D24
144
0.18
309
CONTENTFORMAT_END
171
     1
301
MARGIN
  1
CELLMARGIN_BEGIN
 40
0.06
 40
0.06
 40
0.06
 40
0.06
 40
0.18
 40
0.18
309
CELLMARGIN_END
 94
        6
 95
        1
302
GRIDFORMAT
  1
GRIDFORMAT_BEGIN
 90
        0
 91
        1
 62
     0
 92
       -2
340
0
 93
        0
 40
0.045
309
GRIDFORMAT_END
 95
        2
302
GRIDFORMAT
  1
GRIDFORMAT_BEGIN
 90
        0
 91
        1
 62
     0
 92
       -2
340
0
 93
        0
 40
0.045
309
GRIDFORMAT_END
 95
        4
302
GRIDFORMAT
  1
GRIDFORMAT_BEGIN
 90
        0
 91
        1
 62
     0
 92
       -2
340
0
 93
        0
 40
0.045
309
GRIDFORMAT_END
 95
        8
302
GRIDFORMAT
  1
GRIDFORMAT_BEGIN
 90
        0
 91
        1
 62
     0
 92
       -2
340
0
 93
        0
 40
0.045
309
GRIDFORMAT_END
 95
       16
302
GRIDFORMAT
  1
GRIDFORMAT_BEGIN
 90
        0
 91
        1
 62
     0
 92
       -2
340
0
 93
        0
 40
0.045
309
GRIDFORMAT_END
 95
       32
302
GRIDFORMAT
  1
GRIDFORMAT_BEGIN
 90
        0
 91
        1
 62
     0
 92
       -2
340
0
 93
        0
 40
0.045
309
GRIDFORMAT_END
309
TABLEFORMAT_END
  1
CELLSTYLE_BEGIN
 90
        3
 91
        2
300
_DATA
309
CELLSTYLE_END
  0
XRECORD
  5
EE4
102
{ACAD_REACTORS
330
D5C
102
}
330
D5C
100
AcDbXrecord
280
     1
102
ACAD_ROUNDTRIP_PRE2007_TABLESTYLE
 90
      512
 91
        0
  1

 92
      512
 93
        0
  2

 94
      512
 95
        0
  3

  0
XRECORD
  5
EBF
102
{ACAD_REACTORS
330
EBE
102
}
330
EBE
100
AcDbXrecord
280
     1
102
RTVSPost2010Prop28
280
     1
102
RTVSPost2010PropOp28
 70
     1
102
RTVSPost2010Prop29
280
     1
102
RTVSPost2010PropOp29
 70
     1
102
RTVSPost2010Prop30
280
     0
102
RTVSPost2010PropOp30
 70
     1
102
RTVSPost2010Prop31
280
     0
102
RTVSPost2010PropOp31
 70
     1
102
RTVSPost2010Prop32
280
     0
102
RTVSPost2010PropOp32
 70
     1
102
RTVSPost2010Prop33
280
     0
102
RTVSPost2010PropOp33
 70
     1
102
RTVSPost2010Prop34
280
     0
102
RTVSPost2010PropOp34
 70
     1
102
RTVSPost2010Prop35
280
     0
102
RTVSPost2010PropOp35
 70
     1
102
RTVSPost2010Prop36
280
     0
102
RTVSPost2010PropOp36
 70
     1
102
RTVSPost2010Prop37
 90
       50
102
RTVSPost2010PropOp37
 70
     1
102
RTVSPost2010Prop38
140
0.0
102
RTVSPost2010PropOp38
 70
     1
102
RTVSPost2010Prop39
140
1.0
102
RTVSPost2010PropOp39
 70
     1
102
RTVSPost2010Prop40
 90
        0
102
RTVSPost2010PropOp40
 70
     1
102
RTVSPost2010Prop41ColorIndex
 90
       18
102
RTVSPost2010Prop41ColorRGB
 90
        0
102
RTVSPost2010PropOp41
 70
     1
102
RTVSPost2010Prop42
 90
       50
102
RTVSPost2010PropOp42
 70
     1
102
RTVSPost2010Prop43
 90
        3
102
RTVSPost2010PropOp43
 70
     1
102
RTVSPost2010Prop44ColorIndex
 90
        5
102
RTVSPost2010Prop44ColorRGB
 90
      255
102
RTVSPost2010PropOp44
 70
     1
102
RTVSPost2010Prop45
280
     0
102
RTVSPost2010PropOp45
 70
     1
102
RTVSPost2010Prop46
 90
       50
102
RTVSPost2010PropOp46
 70
     1
102
RTVSPost2010Prop47
 90
       50
102
RTVSPost2010PropOp47
 70
     1
102
RTVSPost2010Prop48
 90
       50
102
RTVSPost2010PropOp48
 70
     1
102
RTVSPost2010Prop49
280
     0
102
RTVSPost2010PropOp49
 70
     1
102
RTVSPost2010Prop50
 90
       50
102
RTVSPost2010PropOp50
 70
     1
102
RTVSPost2010Prop51ColorIndex
 90
      256
102
RTVSPost2010Prop51ColorRGB
 90
-16777216
102
RTVSPost2010PropOp51
 70
     0
102
RTVSPost2010Prop52
140
1.0
102
RTVSPost2010PropOp52
 70
     0
102
RTVSPost2010Prop53
 90
        2
102
RTVSPost2010PropOp53
 70
     1
102
RTVSPost2010Prop54
  1
strokes_ogs.tif
102
RTVSPost2010PropOp54
 70
     1
102
RTVSPost2010Prop55
280
     0
102
RTVSPost2010PropOp55
 70
     1
102
RTVSPost2010Prop56
140
1.0
102
RTVSPost2010PropOp56
 70
     1
102
RTVSPost2010Prop57
140
1.0
102
RTVSPost2010PropOp57
 70
     1
102
RTVSPropertyOp0
 70
     1
102
RTVSPropertyOp1
 70
     1
102
RTVSPropertyOp2
 70
     1
102
RTVSPropertyOp3
 70
     1
102
RTVSPropertyOp4
 70
     1
102
RTVSPropertyOp5
 70
     1
102
RTVSPropertyOp6
 70
     1
102
RTVSPropertyOp7
 70
     1
102
RTVSPropertyOp8
 70
     1
102
RTVSPropertyOp9
 70
     1
102
RTVSPropertyOp10
 70
     1
102
RTVSPropertyOp11
 70
     1
102
RTVSPropertyOp12
 70
     1
102
RTVSPropertyOp13
 70
     1
102
RTVSPropertyOp14
 70
     1
102
RTVSPropertyOp15
 70
     1
102
RTVSPropertyOp16
 70
     1
102
RTVSPropertyOp17
 70
     1
102
RTVSPropertyOp18
 70
     1
102
RTVSPropertyOp19
 70
     1
102
RTVSPropertyOp20
 70
     1
102
RTVSPropertyOp21
 70
     1
102
RTVSPropertyOp22
 70
     1
102
RTVSPropertyOp23
 70
     1
102
RTVSPropertyOp24
 70
     1
102
RTVSPropertyOp25
 70
     1
102
RTVSPropertyOp26
 70
     1
102
RTVSPropertyOp27
 70
     1
102
RTVSPropertyOp28
 70
     1
102
RTVSPropertyOp29
 70
     1
102
RTVSPropertyOp30
 70
     1
102
RTVSPropertyOp31
 70
     1
102
RTVSPropertyOp32
 70
     1
102
RTVSPropertyOp33
 70
     1
102
RTVSPropertyOp34
 70
     1
102
RTVSPropertyOp35
 70
     1
102
RTVSPropertyOp36
 70
     1
102
RTVSPropertyOp37
 70
     1
102
RTVSPropertyOp38
 70
     1
102
RTVSPropertyOp39
 70
     1
102
RTVSPropertyOp40
 70
     1
102
RTVSPropertyOp41
 70
     1
102
RTVSPropertyOp42
 70
     1
102
RTVSPropertyOp43
 70
     1
102
RTVSPropertyOp44
 70
     1
102
RTVSPropertyOp45
 70
     1
102
RTVSPropertyOp46
 70
     1
102
RTVSPropertyOp47
 70
     1
102
RTVSPropertyOp48
 70
     1
102
RTVSPropertyOp49
 70
     1
102
RTVSPropertyOp50
 70
     1
102
RTVSPropertyOp51
 70
     0
102
RTVSPropertyOp52
 70
     0
102
RTVSPropertyOp53
 70
     1
102
RTVSPropertyOp54
 70
     1
102
RTVSPropertyOp55
 70
     1
102
RTVSPropertyOp56
 70
     1
102
RTVSPropertyOp57
 70
     1
102
RTVSPropertyOp58
 70
     1
102
RTVSPropertyOp59
 70
     1
102
RTVSPropertyOp60
 70
     1
102
RTVSPropertyOp61
 70
     1
102
RTVSPropertyOp62
 70
     1
  0
XRECORD
  5
EBD
102
{ACAD_REACTORS
330
EBC
102
}
330
EBC
100
AcDbXrecord
280
     1
102
RTVSPost2010Prop28
280
     0
102
RTVSPost2010PropOp28
 70
     1
102
RTVSPost2010Prop29
280
     1
102
RTVSPost2010PropOp29
 70
     1
102
RTVSPost2010Prop30
280
     1
102
RTVSPost2010PropOp30
 70
     1
102
RTVSPost2010Prop31
280
     0
102
RTVSPost2010PropOp31
 70
     1
102
RTVSPost2010Prop32
280
     0
102
RTVSPost2010PropOp32
 70
     1
102
RTVSPost2010Prop33
280
     0
102
RTVSPost2010PropOp33
 70
     1
102
RTVSPost2010Prop34
280
     0
102
RTVSPost2010PropOp34
 70
     1
102
RTVSPost2010Prop35
280
     0
102
RTVSPost2010PropOp35
 70
     1
102
RTVSPost2010Prop36
280
     0
102
RTVSPost2010PropOp36
 70
     1
102
RTVSPost2010Prop37
 90
       50
102
RTVSPost2010PropOp37
 70
     1
102
RTVSPost2010Prop38
140
0.0
102
RTVSPost2010PropOp38
 70
     1
102
RTVSPost2010Prop39
140
1.0
102
RTVSPost2010PropOp39
 70
     1
102
RTVSPost2010Prop40
 90
        0
102
RTVSPost2010PropOp40
 70
     1
102
RTVSPost2010Prop41ColorIndex
 90
       18
102
RTVSPost2010Prop41ColorRGB
 90
        0
102
RTVSPost2010PropOp41
 70
     1
102
RTVSPost2010Prop42
 90
       50
102
RTVSPost2010PropOp42
 70
     1
102
RTVSPost2010Prop43
 90
        3
102
RTVSPost2010PropOp43
 70
     1
102
RTVSPost2010Prop44ColorIndex
 90
        5
102
RTVSPost2010Prop44ColorRGB
 90
      255
102
RTVSPost2010PropOp44
 70
     1
102
RTVSPost2010Prop45
280
     0
102
RTVSPost2010PropOp45
 70
     1
102
RTVSPost2010Prop46
 90
       50
102
RTVSPost2010PropOp46
 70
     1
102
RTVSPost2010Prop47
 90
       50
102
RTVSPost2010PropOp47
 70
     1
102
RTVSPost2010Prop48
 90
       50
102
RTVSPost2010PropOp48
 70
     1
102
RTVSPost2010Prop49
280
     0
102
RTVSPost2010PropOp49
 70
     1
102
RTVSPost2010Prop50
 90
       50
102
RTVSPost2010PropOp50
 70
     1
102
RTVSPost2010Prop51ColorIndex
 90
      256
102
RTVSPost2010Prop51ColorRGB
 90
-16777216
102
RTVSPost2010PropOp51
 70
     0
102
RTVSPost2010Prop52
140
1.0
102
RTVSPost2010PropOp52
 70
     0
102
RTVSPost2010Prop53
 90
        2
102
RTVSPost2010PropOp53
 70
     1
102
RTVSPost2010Prop54
  1
strokes_ogs.tif
102
RTVSPost2010PropOp54
 70
     1
102
RTVSPost2010Prop55
280
     0
102
RTVSPost2010PropOp55
 70
     1
102
RTVSPost2010Prop56
140
1.0
102
RTVSPost2010PropOp56
 70
     1
102
RTVSPost2010Prop57
140
1.0
102
RTVSPost2010PropOp57
 70
     1
102
RTVSPropertyOp0
 70
     1
102
RTVSPropertyOp1
 70
     1
102
RTVSPropertyOp2
 70
     1
102
RTVSPropertyOp3
 70
     1
102
RTVSPropertyOp4
 70
     1
102
RTVSPropertyOp5
 70
     1
102
RTVSPropertyOp6
 70
     1
102
RTVSPropertyOp7
 70
     1
102
RTVSPropertyOp8
 70
     1
102
RTVSPropertyOp9
 70
     1
102
RTVSPropertyOp10
 70
     1
102
RTVSPropertyOp11
 70
     1
102
RTVSPropertyOp12
 70
     1
102
RTVSPropertyOp13
 70
     1
102
RTVSPropertyOp14
 70
     1
102
RTVSPropertyOp15
 70
     1
102
RTVSPropertyOp16
 70
     1
102
RTVSPropertyOp17
 70
     1
102
RTVSPropertyOp18
 70
     1
102
RTVSPropertyOp19
 70
     1
102
RTVSPropertyOp20
 70
     1
102
RTVSPropertyOp21
 70
     1
102
RTVSPropertyOp22
 70
     1
102
RTVSPropertyOp23
 70
     1
102
RTVSPropertyOp24
 70
     1
102
RTVSPropertyOp25
 70
     1
102
RTVSPropertyOp26
 70
     1
102
RTVSPropertyOp27
 70
     1
102
RTVSPropertyOp28
 70
     1
102
RTVSPropertyOp29
 70
     1
102
RTVSPropertyOp30
 70
     1
102
RTVSPropertyOp31
 70
     1
102
RTVSPropertyOp32
 70
     1
102
RTVSPropertyOp33
 70
     1
102
RTVSPropertyOp34
 70
     1
102
RTVSPropertyOp35
 70
     1
102
RTVSPropertyOp36
 70
     1
102
RTVSPropertyOp37
 70
     1
102
RTVSPropertyOp38
 70
     1
102
RTVSPropertyOp39
 70
     1
102
RTVSPropertyOp40
 70
     1
102
RTVSPropertyOp41
 70
     1
102
RTVSPropertyOp42
 70
     1
102
RTVSPropertyOp43
 70
     1
102
RTVSPropertyOp44
 70
     1
102
RTVSPropertyOp45
 70
     1
102
RTVSPropertyOp46
 70
     1
102
RTVSPropertyOp47
 70
     1
102
RTVSPropertyOp48
 70
     1
102
RTVSPropertyOp49
 70
     1
102
RTVSPropertyOp50
 70
     1
102
RTVSPropertyOp51
 70
     0
102
RTVSPropertyOp52
 70
     0
102
RTVSPropertyOp53
 70
     1
102
RTVSPropertyOp54
 70
     1
102
RTVSPropertyOp55
 70
     1
102
RTVSPropertyOp56
 70
     1
102
RTVSPropertyOp57
 70
     1
102
RTVSPropertyOp58
 70
     1
102
RTVSPropertyOp59
 70
     1
102
RTVSPropertyOp60
 70
     1
102
RTVSPropertyOp61
 70
     1
102
RTVSPropertyOp62
 70
     1
  0
XRECORD
  5
ECB
102
{ACAD_REACTORS
330
ECA
102
}
330
ECA
100
AcDbXrecord
280
     1
102
RTVSPost2010Prop28
280
     0
102
RTVSPost2010PropOp28
 70
     1
102
RTVSPost2010Prop29
280
     1
102
RTVSPost2010PropOp29
 70
     1
102
RTVSPost2010Prop30
280
     1
102
RTVSPost2010PropOp30
 70
     1
102
RTVSPost2010Prop31
280
     0
102
RTVSPost2010PropOp31
 70
     1
102
RTVSPost2010Prop32
280
     0
102
RTVSPost2010PropOp32
 70
     1
102
RTVSPost2010Prop33
280
     0
102
RTVSPost2010PropOp33
 70
     1
102
RTVSPost2010Prop34
280
     0
102
RTVSPost2010PropOp34
 70
     1
102
RTVSPost2010Prop35
280
     0
102
RTVSPost2010PropOp35
 70
     1
102
RTVSPost2010Prop36
280
     0
102
RTVSPost2010PropOp36
 70
     1
102
RTVSPost2010Prop37
 90
       50
102
RTVSPost2010PropOp37
 70
     1
102
RTVSPost2010Prop38
140
0.0
102
RTVSPost2010PropOp38
 70
     1
102
RTVSPost2010Prop39
140
1.0
102
RTVSPost2010PropOp39
 70
     1
102
RTVSPost2010Prop40
 90
        0
102
RTVSPost2010PropOp40
 70
     1
102
RTVSPost2010Prop41ColorIndex
 90
       18
102
RTVSPost2010Prop41ColorRGB
 90
        0
102
RTVSPost2010PropOp41
 70
     1
102
RTVSPost2010Prop42
 90
       50
102
RTVSPost2010PropOp42
 70
     1
102
RTVSPost2010Prop43
 90
        3
102
RTVSPost2010PropOp43
 70
     1
102
RTVSPost2010Prop44ColorIndex
 90
        5
102
RTVSPost2010Prop44ColorRGB
 90
      255
102
RTVSPost2010PropOp44
 70
     1
102
RTVSPost2010Prop45
280
     0
102
RTVSPost2010PropOp45
 70
     1
102
RTVSPost2010Prop46
 90
       50
102
RTVSPost2010PropOp46
 70
     1
102
RTVSPost2010Prop47
 90
       50
102
RTVSPost2010PropOp47
 70
     1
102
RTVSPost2010Prop48
 90
       50
102
RTVSPost2010PropOp48
 70
     1
102
RTVSPost2010Prop49
280
     0
102
RTVSPost2010PropOp49
 70
     1
102
RTVSPost2010Prop50
 90
       50
102
RTVSPost2010PropOp50
 70
     1
102
RTVSPost2010Prop51ColorIndex
 90
      256
102
RTVSPost2010Prop51ColorRGB
 90
-16777216
102
RTVSPost2010PropOp51
 70
     0
102
RTVSPost2010Prop52
140
1.0
102
RTVSPost2010PropOp52
 70
     0
102
RTVSPost2010Prop53
 90
        2
102
RTVSPost2010PropOp53
 70
     1
102
RTVSPost2010Prop54
  1
strokes_ogs.tif
102
RTVSPost2010PropOp54
 70
     1
102
RTVSPost2010Prop55
280
     0
102
RTVSPost2010PropOp55
 70
     1
102
RTVSPost2010Prop56
140
1.0
102
RTVSPost2010PropOp56
 70
     1
102
RTVSPost2010Prop57
140
1.0
102
RTVSPost2010PropOp57
 70
     1
102
RTVSPropertyOp0
 70
     1
102
RTVSPropertyOp1
 70
     1
102
RTVSPropertyOp2
 70
     1
102
RTVSPropertyOp3
 70
     1
102
RTVSPropertyOp4
 70
     1
102
RTVSPropertyOp5
 70
     1
102
RTVSPropertyOp6
 70
     1
102
RTVSPropertyOp7
 70
     1
102
RTVSPropertyOp8
 70
     1
102
RTVSPropertyOp9
 70
     1
102
RTVSPropertyOp10
 70
     1
102
RTVSPropertyOp11
 70
     1
102
RTVSPropertyOp12
 70
     1
102
RTVSPropertyOp13
 70
     1
102
RTVSPropertyOp14
 70
     1
102
RTVSPropertyOp15
 70
     1
102
RTVSPropertyOp16
 70
     1
102
RTVSPropertyOp17
 70
     1
102
RTVSPropertyOp18
 70
     1
102
RTVSPropertyOp19
 70
     1
102
RTVSPropertyOp20
 70
     1
102
RTVSPropertyOp21
 70
     1
102
RTVSPropertyOp22
 70
     1
102
RTVSPropertyOp23
 70
     1
102
RTVSPropertyOp24
 70
     1
102
RTVSPropertyOp25
 70
     1
102
RTVSPropertyOp26
 70
     1
102
RTVSPropertyOp27
 70
     1
102
RTVSPropertyOp28
 70
     1
102
RTVSPropertyOp29
 70
     1
102
RTVSPropertyOp30
 70
     1
102
RTVSPropertyOp31
 70
     1
102
RTVSPropertyOp32
 70
     1
102
RTVSPropertyOp33
 70
     1
102
RTVSPropertyOp34
 70
     1
102
RTVSPropertyOp35
 70
     1
102
RTVSPropertyOp36
 70
     1
102
RTVSPropertyOp37
 70
     1
102
RTVSPropertyOp38
 70
     1
102
RTVSPropertyOp39
 70
     1
102
RTVSPropertyOp40
 70
     1
102
RTVSPropertyOp41
 70
     1
102
RTVSPropertyOp42
 70
     1
102
RTVSPropertyOp43
 70
     1
102
RTVSPropertyOp44
 70
     1
102
RTVSPropertyOp45
 70
     1
102
RTVSPropertyOp46
 70
     1
102
RTVSPropertyOp47
 70
     1
102
RTVSPropertyOp48
 70
     1
102
RTVSPropertyOp49
 70
     1
102
RTVSPropertyOp50
 70
     1
102
RTVSPropertyOp51
 70
     0
102
RTVSPropertyOp52
 70
     0
102
RTVSPropertyOp53
 70
     1
102
RTVSPropertyOp54
 70
     1
102
RTVSPropertyOp55
 70
     1
102
RTVSPropertyOp56
 70
     1
102
RTVSPropertyOp57
 70
     1
102
RTVSPropertyOp58
 70
     1
102
RTVSPropertyOp59
 70
     1
102
RTVSPropertyOp60
 70
     1
102
RTVSPropertyOp61
 70
     1
102
RTVSPropertyOp62
 70
     1
  0
XRECORD
  5
ED3
102
{ACAD_REACTORS
330
ED2
102
}
330
ED2
100
AcDbXrecord
280
     1
102
RTVSPost2010Prop28
280
     0
102
RTVSPost2010PropOp28
 70
     1
102
RTVSPost2010Prop29
280
     1
102
RTVSPost2010PropOp29
 70
     1
102
RTVSPost2010Prop30
280
     1
102
RTVSPost2010PropOp30
 70
     1
102
RTVSPost2010Prop31
280
     0
102
RTVSPost2010PropOp31
 70
     1
102
RTVSPost2010Prop32
280
     0
102
RTVSPost2010PropOp32
 70
     1
102
RTVSPost2010Prop33
280
     0
102
RTVSPost2010PropOp33
 70
     1
102
RTVSPost2010Prop34
280
     0
102
RTVSPost2010PropOp34
 70
     1
102
RTVSPost2010Prop35
280
     0
102
RTVSPost2010PropOp35
 70
     1
102
RTVSPost2010Prop36
280
     0
102
RTVSPost2010PropOp36
 70
     1
102
RTVSPost2010Prop37
 90
       50
102
RTVSPost2010PropOp37
 70
     1
102
RTVSPost2010Prop38
140
0.0
102
RTVSPost2010PropOp38
 70
     1
102
RTVSPost2010Prop39
140
1.0
102
RTVSPost2010PropOp39
 70
     1
102
RTVSPost2010Prop40
 90
        0
102
RTVSPost2010PropOp40
 70
     1
102
RTVSPost2010Prop41ColorIndex
 90
       18
102
RTVSPost2010Prop41ColorRGB
 90
        0
102
RTVSPost2010PropOp41
 70
     1
102
RTVSPost2010Prop42
 90
       50
102
RTVSPost2010PropOp42
 70
     1
102
RTVSPost2010Prop43
 90
        3
102
RTVSPost2010PropOp43
 70
     1
102
RTVSPost2010Prop44ColorIndex
 90
        5
102
RTVSPost2010Prop44ColorRGB
 90
      255
102
RTVSPost2010PropOp44
 70
     1
102
RTVSPost2010Prop45
280
     0
102
RTVSPost2010PropOp45
 70
     1
102
RTVSPost2010Prop46
 90
       50
102
RTVSPost2010PropOp46
 70
     1
102
RTVSPost2010Prop47
 90
       50
102
RTVSPost2010PropOp47
 70
     1
102
RTVSPost2010Prop48
 90
       50
102
RTVSPost2010PropOp48
 70
     1
102
RTVSPost2010Prop49
280
     0
102
RTVSPost2010PropOp49
 70
     1
102
RTVSPost2010Prop50
 90
       50
102
RTVSPost2010PropOp50
 70
     1
102
RTVSPost2010Prop51ColorIndex
 90
      256
102
RTVSPost2010Prop51ColorRGB
 90
-16777216
102
RTVSPost2010PropOp51
 70
     0
102
RTVSPost2010Prop52
140
1.0
102
RTVSPost2010PropOp52
 70
     0
102
RTVSPost2010Prop53
 90
        2
102
RTVSPost2010PropOp53
 70
     1
102
RTVSPost2010Prop54
  1
strokes_ogs.tif
102
RTVSPost2010PropOp54
 70
     1
102
RTVSPost2010Prop55
280
     0
102
RTVSPost2010PropOp55
 70
     1
102
RTVSPost2010Prop56
140
1.0
102
RTVSPost2010PropOp56
 70
     1
102
RTVSPost2010Prop57
140
1.0
102
RTVSPost2010PropOp57
 70
     1
102
RTVSPropertyOp0
 70
     1
102
RTVSPropertyOp1
 70
     1
102
RTVSPropertyOp2
 70
     1
102
RTVSPropertyOp3
 70
     1
102
RTVSPropertyOp4
 70
     1
102
RTVSPropertyOp5
 70
     1
102
RTVSPropertyOp6
 70
     1
102
RTVSPropertyOp7
 70
     1
102
RTVSPropertyOp8
 70
     1
102
RTVSPropertyOp9
 70
     1
102
RTVSPropertyOp10
 70
     1
102
RTVSPropertyOp11
 70
     1
102
RTVSPropertyOp12
 70
     1
102
RTVSPropertyOp13
 70
     1
102
RTVSPropertyOp14
 70
     1
102
RTVSPropertyOp15
 70
     1
102
RTVSPropertyOp16
 70
     1
102
RTVSPropertyOp17
 70
     1
102
RTVSPropertyOp18
 70
     1
102
RTVSPropertyOp19
 70
     1
102
RTVSPropertyOp20
 70
     1
102
RTVSPropertyOp21
 70
     1
102
RTVSPropertyOp22
 70
     1
102
RTVSPropertyOp23
 70
     1
102
RTVSPropertyOp24
 70
     1
102
RTVSPropertyOp25
 70
     1
102
RTVSPropertyOp26
 70
     1
102
RTVSPropertyOp27
 70
     1
102
RTVSPropertyOp28
 70
     1
102
RTVSPropertyOp29
 70
     1
102
RTVSPropertyOp30
 70
     1
102
RTVSPropertyOp31
 70
     1
102
RTVSPropertyOp32
 70
     1
102
RTVSPropertyOp33
 70
     1
102
RTVSPropertyOp34
 70
     1
102
RTVSPropertyOp35
 70
     1
102
RTVSPropertyOp36
 70
     1
102
RTVSPropertyOp37
 70
     1
102
RTVSPropertyOp38
 70
     1
102
RTVSPropertyOp39
 70
     1
102
RTVSPropertyOp40
 70
     1
102
RTVSPropertyOp41
 70
     1
102
RTVSPropertyOp42
 70
     1
102
RTVSPropertyOp43
 70
     1
102
RTVSPropertyOp44
 70
     1
102
RTVSPropertyOp45
 70
     1
102
RTVSPropertyOp46
 70
     1
102
RTVSPropertyOp47
 70
     1
102
RTVSPropertyOp48
 70
     1
102
RTVSPropertyOp49
 70
     1
102
RTVSPropertyOp50
 70
     1
102
RTVSPropertyOp51
 70
     0
102
RTVSPropertyOp52
 70
     0
102
RTVSPropertyOp53
 70
     1
102
RTVSPropertyOp54
 70
     1
102
RTVSPropertyOp55
 70
     1
102
RTVSPropertyOp56
 70
     1
102
RTVSPropertyOp57
 70
     1
102
RTVSPropertyOp58
 70
     1
102
RTVSPropertyOp59
 70
     1
102
RTVSPropertyOp60
 70
     1
102
RTVSPropertyOp61
 70
     1
102
RTVSPropertyOp62
 70
     1
  0
XRECORD
  5
EC5
102
{ACAD_REACTORS
330
EC4
102
}
330
EC4
100
AcDbXrecord
280
     1
102
RTVSPost2010Prop28
280
     0
102
RTVSPost2010PropOp28
 70
     1
102
RTVSPost2010Prop29
280
     1
102
RTVSPost2010PropOp29
 70
     1
102
RTVSPost2010Prop30
280
     1
102
RTVSPost2010PropOp30
 70
     1
102
RTVSPost2010Prop31
280
     0
102
RTVSPost2010PropOp31
 70
     1
102
RTVSPost2010Prop32
280
     0
102
RTVSPost2010PropOp32
 70
     1
102
RTVSPost2010Prop33
280
     0
102
RTVSPost2010PropOp33
 70
     1
102
RTVSPost2010Prop34
280
     0
102
RTVSPost2010PropOp34
 70
     1
102
RTVSPost2010Prop35
280
     0
102
RTVSPost2010PropOp35
 70
     1
102
RTVSPost2010Prop36
280
     0
102
RTVSPost2010PropOp36
 70
     1
102
RTVSPost2010Prop37
 90
       50
102
RTVSPost2010PropOp37
 70
     1
102
RTVSPost2010Prop38
140
0.0
102
RTVSPost2010PropOp38
 70
     1
102
RTVSPost2010Prop39
140
1.0
102
RTVSPost2010PropOp39
 70
     1
102
RTVSPost2010Prop40
 90
        0
102
RTVSPost2010PropOp40
 70
     1
102
RTVSPost2010Prop41ColorIndex
 90
       18
102
RTVSPost2010Prop41ColorRGB
 90
        0
102
RTVSPost2010PropOp41
 70
     1
102
RTVSPost2010Prop42
 90
       50
102
RTVSPost2010PropOp42
 70
     1
102
RTVSPost2010Prop43
 90
        3
102
RTVSPost2010PropOp43
 70
     1
102
RTVSPost2010Prop44ColorIndex
 90
        5
102
RTVSPost2010Prop44ColorRGB
 90
      255
102
RTVSPost2010PropOp44
 70
     1
102
RTVSPost2010Prop45
280
     0
102
RTVSPost2010PropOp45
 70
     1
102
RTVSPost2010Prop46
 90
       50
102
RTVSPost2010PropOp46
 70
     1
102
RTVSPost2010Prop47
 90
       50
102
RTVSPost2010PropOp47
 70
     1
102
RTVSPost2010Prop48
 90
       50
102
RTVSPost2010PropOp48
 70
     1
102
RTVSPost2010Prop49
280
     0
102
RTVSPost2010PropOp49
 70
     1
102
RTVSPost2010Prop50
 90
       50
102
RTVSPost2010PropOp50
 70
     1
102
RTVSPost2010Prop51ColorIndex
 90
      256
102
RTVSPost2010Prop51ColorRGB
 90
-16777216
102
RTVSPost2010PropOp51
 70
     0
102
RTVSPost2010Prop52
140
1.0
102
RTVSPost2010PropOp52
 70
     0
102
RTVSPost2010Prop53
 90
        2
102
RTVSPost2010PropOp53
 70
     1
102
RTVSPost2010Prop54
  1
strokes_ogs.tif
102
RTVSPost2010PropOp54
 70
     1
102
RTVSPost2010Prop55
280
     0
102
RTVSPost2010PropOp55
 70
     1
102
RTVSPost2010Prop56
140
1.0
102
RTVSPost2010PropOp56
 70
     1
102
RTVSPost2010Prop57
140
1.0
102
RTVSPost2010PropOp57
 70
     1
102
RTVSPropertyOp0
 70
     1
102
RTVSPropertyOp1
 70
     1
102
RTVSPropertyOp2
 70
     1
102
RTVSPropertyOp3
 70
     1
102
RTVSPropertyOp4
 70
     1
102
RTVSPropertyOp5
 70
     1
102
RTVSPropertyOp6
 70
     1
102
RTVSPropertyOp7
 70
     1
102
RTVSPropertyOp8
 70
     1
102
RTVSPropertyOp9
 70
     1
102
RTVSPropertyOp10
 70
     1
102
RTVSPropertyOp11
 70
     1
102
RTVSPropertyOp12
 70
     1
102
RTVSPropertyOp13
 70
     1
102
RTVSPropertyOp14
 70
     1
102
RTVSPropertyOp15
 70
     1
102
RTVSPropertyOp16
 70
     1
102
RTVSPropertyOp17
 70
     1
102
RTVSPropertyOp18
 70
     1
102
RTVSPropertyOp19
 70
     1
102
RTVSPropertyOp20
 70
     1
102
RTVSPropertyOp21
 70
     1
102
RTVSPropertyOp22
 70
     1
102
RTVSPropertyOp23
 70
     1
102
RTVSPropertyOp24
 70
     1
102
RTVSPropertyOp25
 70
     1
102
RTVSPropertyOp26
 70
     1
102
RTVSPropertyOp27
 70
     1
102
RTVSPropertyOp28
 70
     1
102
RTVSPropertyOp29
 70
     1
102
RTVSPropertyOp30
 70
     1
102
RTVSPropertyOp31
 70
     1
102
RTVSPropertyOp32
 70
     1
102
RTVSPropertyOp33
 70
     1
102
RTVSPropertyOp34
 70
     1
102
RTVSPropertyOp35
 70
     1
102
RTVSPropertyOp36
 70
     1
102
RTVSPropertyOp37
 70
     1
102
RTVSPropertyOp38
 70
     1
102
RTVSPropertyOp39
 70
     1
102
RTVSPropertyOp40
 70
     1
102
RTVSPropertyOp41
 70
     1
102
RTVSPropertyOp42
 70
     1
102
RTVSPropertyOp43
 70
     1
102
RTVSPropertyOp44
 70
     1
102
RTVSPropertyOp45
 70
     1
102
RTVSPropertyOp46
 70
     1
102
RTVSPropertyOp47
 70
     1
102
RTVSPropertyOp48
 70
     1
102
RTVSPropertyOp49
 70
     1
102
RTVSPropertyOp50
 70
     1
102
RTVSPropertyOp51
 70
     0
102
RTVSPropertyOp52
 70
     0
102
RTVSPropertyOp53
 70
     1
102
RTVSPropertyOp54
 70
     1
102
RTVSPropertyOp55
 70
     1
102
RTVSPropertyOp56
 70
     1
102
RTVSPropertyOp57
 70
     1
102
RTVSPropertyOp58
 70
     1
102
RTVSPropertyOp59
 70
     1
102
RTVSPropertyOp60
 70
     1
102
RTVSPropertyOp61
 70
     1
102
RTVSPropertyOp62
 70
     1
  0
XRECORD
  5
EC9
102
{ACAD_REACTORS
330
EC8
102
}
330
EC8
100
AcDbXrecord
280
     1
102
RTVSPost2010Prop28
280
     0
102
RTVSPost2010PropOp28
 70
     1
102
RTVSPost2010Prop29
280
     1
102
RTVSPost2010PropOp29
 70
     1
102
RTVSPost2010Prop30
280
     1
102
RTVSPost2010PropOp30
 70
     1
102
RTVSPost2010Prop31
280
     0
102
RTVSPost2010PropOp31
 70
     1
102
RTVSPost2010Prop32
280
     0
102
RTVSPost2010PropOp32
 70
     1
102
RTVSPost2010Prop33
280
     0
102
RTVSPost2010PropOp33
 70
     1
102
RTVSPost2010Prop34
280
     0
102
RTVSPost2010PropOp34
 70
     1
102
RTVSPost2010Prop35
280
     0
102
RTVSPost2010PropOp35
 70
     1
102
RTVSPost2010Prop36
280
     0
102
RTVSPost2010PropOp36
 70
     1
102
RTVSPost2010Prop37
 90
       50
102
RTVSPost2010PropOp37
 70
     1
102
RTVSPost2010Prop38
140
0.0
102
RTVSPost2010PropOp38
 70
     1
102
RTVSPost2010Prop39
140
1.0
102
RTVSPost2010PropOp39
 70
     1
102
RTVSPost2010Prop40
 90
        0
102
RTVSPost2010PropOp40
 70
     1
102
RTVSPost2010Prop41ColorIndex
 90
       18
102
RTVSPost2010Prop41ColorRGB
 90
        0
102
RTVSPost2010PropOp41
 70
     1
102
RTVSPost2010Prop42
 90
       50
102
RTVSPost2010PropOp42
 70
     1
102
RTVSPost2010Prop43
 90
        3
102
RTVSPost2010PropOp43
 70
     1
102
RTVSPost2010Prop44ColorIndex
 90
        5
102
RTVSPost2010Prop44ColorRGB
 90
      255
102
RTVSPost2010PropOp44
 70
     1
102
RTVSPost2010Prop45
280
     0
102
RTVSPost2010PropOp45
 70
     1
102
RTVSPost2010Prop46
 90
       50
102
RTVSPost2010PropOp46
 70
     1
102
RTVSPost2010Prop47
 90
       50
102
RTVSPost2010PropOp47
 70
     1
102
RTVSPost2010Prop48
 90
       50
102
RTVSPost2010PropOp48
 70
     1
102
RTVSPost2010Prop49
280
     0
102
RTVSPost2010PropOp49
 70
     1
102
RTVSPost2010Prop50
 90
       50
102
RTVSPost2010PropOp50
 70
     1
102
RTVSPost2010Prop51ColorIndex
 90
      256
102
RTVSPost2010Prop51ColorRGB
 90
-16777216
102
RTVSPost2010PropOp51
 70
     0
102
RTVSPost2010Prop52
140
1.0
102
RTVSPost2010PropOp52
 70
     0
102
RTVSPost2010Prop53
 90
        2
102
RTVSPost2010PropOp53
 70
     1
102
RTVSPost2010Prop54
  1
strokes_ogs.tif
102
RTVSPost2010PropOp54
 70
     1
102
RTVSPost2010Prop55
280
     0
102
RTVSPost2010PropOp55
 70
     1
102
RTVSPost2010Prop56
140
1.0
102
RTVSPost2010PropOp56
 70
     1
102
RTVSPost2010Prop57
140
1.0
102
RTVSPost2010PropOp57
 70
     1
102
RTVSPropertyOp0
 70
     1
102
RTVSPropertyOp1
 70
     1
102
RTVSPropertyOp2
 70
     1
102
RTVSPropertyOp3
 70
     1
102
RTVSPropertyOp4
 70
     1
102
RTVSPropertyOp5
 70
     1
102
RTVSPropertyOp6
 70
     1
102
RTVSPropertyOp7
 70
     1
102
RTVSPropertyOp8
 70
     1
102
RTVSPropertyOp9
 70
     1
102
RTVSPropertyOp10
 70
     1
102
RTVSPropertyOp11
 70
     1
102
RTVSPropertyOp12
 70
     1
102
RTVSPropertyOp13
 70
     1
102
RTVSPropertyOp14
 70
     1
102
RTVSPropertyOp15
 70
     1
102
RTVSPropertyOp16
 70
     1
102
RTVSPropertyOp17
 70
     1
102
RTVSPropertyOp18
 70
     1
102
RTVSPropertyOp19
 70
     1
102
RTVSPropertyOp20
 70
     1
102
RTVSPropertyOp21
 70
     1
102
RTVSPropertyOp22
 70
     1
102
RTVSPropertyOp23
 70
     1
102
RTVSPropertyOp24
 70
     1
102
RTVSPropertyOp25
 70
     1
102
RTVSPropertyOp26
 70
     1
102
RTVSPropertyOp27
 70
     1
102
RTVSPropertyOp28
 70
     1
102
RTVSPropertyOp29
 70
     1
102
RTVSPropertyOp30
 70
     1
102
RTVSPropertyOp31
 70
     1
102
RTVSPropertyOp32
 70
     1
102
RTVSPropertyOp33
 70
     1
102
RTVSPropertyOp34
 70
     1
102
RTVSPropertyOp35
 70
     1
102
RTVSPropertyOp36
 70
     1
102
RTVSPropertyOp37
 70
     1
102
RTVSPropertyOp38
 70
     1
102
RTVSPropertyOp39
 70
     1
102
RTVSPropertyOp40
 70
     1
102
RTVSPropertyOp41
 70
     1
102
RTVSPropertyOp42
 70
     1
102
RTVSPropertyOp43
 70
     1
102
RTVSPropertyOp44
 70
     1
102
RTVSPropertyOp45
 70
     1
102
RTVSPropertyOp46
 70
     1
102
RTVSPropertyOp47
 70
     1
102
RTVSPropertyOp48
 70
     1
102
RTVSPropertyOp49
 70
     1
102
RTVSPropertyOp50
 70
     1
102
RTVSPropertyOp51
 70
     0
102
RTVSPropertyOp52
 70
     0
102
RTVSPropertyOp53
 70
     1
102
RTVSPropertyOp54
 70
     1
102
RTVSPropertyOp55
 70
     1
102
RTVSPropertyOp56
 70
     1
102
RTVSPropertyOp57
 70
     1
102
RTVSPropertyOp58
 70
     1
102
RTVSPropertyOp59
 70
     1
102
RTVSPropertyOp60
 70
     1
102
RTVSPropertyOp61
 70
     1
102
RTVSPropertyOp62
 70
     1
  0
XRECORD
  5
EE3
102
{ACAD_REACTORS
330
EE2
102
}
330
EE2
100
AcDbXrecord
280
     1
102
RTVSPost2010Prop28
280
     0
102
RTVSPost2010PropOp28
 70
     1
102
RTVSPost2010Prop29
280
     1
102
RTVSPost2010PropOp29
 70
     1
102
RTVSPost2010Prop30
280
     1
102
RTVSPost2010PropOp30
 70
     1
102
RTVSPost2010Prop31
280
     0
102
RTVSPost2010PropOp31
 70
     1
102
RTVSPost2010Prop32
280
     0
102
RTVSPost2010PropOp32
 70
     1
102
RTVSPost2010Prop33
280
     0
102
RTVSPost2010PropOp33
 70
     1
102
RTVSPost2010Prop34
280
     0
102
RTVSPost2010PropOp34
 70
     1
102
RTVSPost2010Prop35
280
     0
102
RTVSPost2010PropOp35
 70
     1
102
RTVSPost2010Prop36
280
     0
102
RTVSPost2010PropOp36
 70
     1
102
RTVSPost2010Prop37
 90
       50
102
RTVSPost2010PropOp37
 70
     0
102
RTVSPost2010Prop38
140
0.0
102
RTVSPost2010PropOp38
 70
     0
102
RTVSPost2010Prop39
140
1.0
102
RTVSPost2010PropOp39
 70
     0
102
RTVSPost2010Prop40
 90
        0
102
RTVSPost2010PropOp40
 70
     0
102
RTVSPost2010Prop41ColorIndex
 90
       18
102
RTVSPost2010Prop41ColorRGB
 90
        0
102
RTVSPost2010PropOp41
 70
     0
102
RTVSPost2010Prop42
 90
       50
102
RTVSPost2010PropOp42
 70
     0
102
RTVSPost2010Prop43
 90
        3
102
RTVSPost2010PropOp43
 70
     0
102
RTVSPost2010Prop44ColorIndex
 90
        5
102
RTVSPost2010Prop44ColorRGB
 90
      255
102
RTVSPost2010PropOp44
 70
     0
102
RTVSPost2010Prop45
280
     0
102
RTVSPost2010PropOp45
 70
     1
102
RTVSPost2010Prop46
 90
       50
102
RTVSPost2010PropOp46
 70
     0
102
RTVSPost2010Prop47
 90
       50
102
RTVSPost2010PropOp47
 70
     0
102
RTVSPost2010Prop48
 90
       50
102
RTVSPost2010PropOp48
 70
     0
102
RTVSPost2010Prop49
280
     0
102
RTVSPost2010PropOp49
 70
     1
102
RTVSPost2010Prop50
 90
       50
102
RTVSPost2010PropOp50
 70
     0
102
RTVSPost2010Prop51ColorIndex
 90
      256
102
RTVSPost2010Prop51ColorRGB
 90
-16777216
102
RTVSPost2010PropOp51
 70
     0
102
RTVSPost2010Prop52
140
1.0
102
RTVSPost2010PropOp52
 70
     0
102
RTVSPost2010Prop53
 90
        2
102
RTVSPost2010PropOp53
 70
     0
102
RTVSPost2010Prop54
  1
strokes_ogs.tif
102
RTVSPost2010PropOp54
 70
     0
102
RTVSPost2010Prop55
280
     0
102
RTVSPost2010PropOp55
 70
     1
102
RTVSPost2010Prop56
140
1.0
102
RTVSPost2010PropOp56
 70
     0
102
RTVSPost2010Prop57
140
1.0
102
RTVSPost2010PropOp57
 70
     0
102
RTVSPropertyOp0
 70
     0
102
RTVSPropertyOp1
 70
     0
102
RTVSPropertyOp2
 70
     0
102
RTVSPropertyOp3
 70
     0
102
RTVSPropertyOp4
 70
     0
102
RTVSPropertyOp5
 70
     0
102
RTVSPropertyOp6
 70
     0
102
RTVSPropertyOp7
 70
     0
102
RTVSPropertyOp8
 70
     0
102
RTVSPropertyOp9
 70
     0
102
RTVSPropertyOp10
 70
     0
102
RTVSPropertyOp11
 70
     0
102
RTVSPropertyOp12
 70
     0
102
RTVSPropertyOp13
 70
     0
102
RTVSPropertyOp14
 70
     2
102
RTVSPropertyOp15
 70
     0
102
RTVSPropertyOp16
 70
     0
102
RTVSPropertyOp17
 70
     0
102
RTVSPropertyOp18
 70
     0
102
RTVSPropertyOp19
 70
     0
102
RTVSPropertyOp20
 70
     0
102
RTVSPropertyOp21
 70
     0
102
RTVSPropertyOp22
 70
     0
102
RTVSPropertyOp23
 70
     0
102
RTVSPropertyOp24
 70
     0
102
RTVSPropertyOp25
 70
     0
102
RTVSPropertyOp26
 70
     0
102
RTVSPropertyOp27
 70
     0
102
RTVSPropertyOp28
 70
     1
102
RTVSPropertyOp29
 70
     1
102
RTVSPropertyOp30
 70
     1
102
RTVSPropertyOp31
 70
     1
102
RTVSPropertyOp32
 70
     1
102
RTVSPropertyOp33
 70
     1
102
RTVSPropertyOp34
 70
     1
102
RTVSPropertyOp35
 70
     1
102
RTVSPropertyOp36
 70
     1
102
RTVSPropertyOp37
 70
     0
102
RTVSPropertyOp38
 70
     0
102
RTVSPropertyOp39
 70
     0
102
RTVSPropertyOp40
 70
     0
102
RTVSPropertyOp41
 70
     0
102
RTVSPropertyOp42
 70
     0
102
RTVSPropertyOp43
 70
     0
102
RTVSPropertyOp44
 70
     0
102
RTVSPropertyOp45
 70
     1
102
RTVSPropertyOp46
 70
     0
102
RTVSPropertyOp47
 70
     0
102
RTVSPropertyOp48
 70
     0
102
RTVSPropertyOp49
 70
     1
102
RTVSPropertyOp50
 70
     0
102
RTVSPropertyOp51
 70
     0
102
RTVSPropertyOp52
 70
     0
102
RTVSPropertyOp53
 70
     0
102
RTVSPropertyOp54
 70
     0
102
RTVSPropertyOp55
 70
     1
102
RTVSPropertyOp56
 70
     0
102
RTVSPropertyOp57
 70
     0
102
RTVSPropertyOp58
 70
     0
102
RTVSPropertyOp59
 70
     0
102
RTVSPropertyOp60
 70
     0
102
RTVSPropertyOp61
 70
     0
102
RTVSPropertyOp62
 70
     0
  0
XRECORD
  5
ED1
102
{ACAD_REACTORS
330
ED0
102
}
330
ED0
100
AcDbXrecord
280
     1
102
RTVSPost2010Prop28
280
     0
102
RTVSPost2010PropOp28
 70
     1
102
RTVSPost2010Prop29
280
     1
102
RTVSPost2010PropOp29
 70
     1
102
RTVSPost2010Prop30
280
     1
102
RTVSPost2010PropOp30
 70
     1
102
RTVSPost2010Prop31
280
     0
102
RTVSPost2010PropOp31
 70
     1
102
RTVSPost2010Prop32
280
     0
102
RTVSPost2010PropOp32
 70
     1
102
RTVSPost2010Prop33
280
     0
102
RTVSPost2010PropOp33
 70
     1
102
RTVSPost2010Prop34
280
     0
102
RTVSPost2010PropOp34
 70
     1
102
RTVSPost2010Prop35
280
     0
102
RTVSPost2010PropOp35
 70
     1
102
RTVSPost2010Prop36
280
     0
102
RTVSPost2010PropOp36
 70
     1
102
RTVSPost2010Prop37
 90
       50
102
RTVSPost2010PropOp37
 70
     1
102
RTVSPost2010Prop38
140
0.0
102
RTVSPost2010PropOp38
 70
     1
102
RTVSPost2010Prop39
140
1.0
102
RTVSPost2010PropOp39
 70
     1
102
RTVSPost2010Prop40
 90
        0
102
RTVSPost2010PropOp40
 70
     1
102
RTVSPost2010Prop41ColorIndex
 90
       18
102
RTVSPost2010Prop41ColorRGB
 90
        0
102
RTVSPost2010PropOp41
 70
     1
102
RTVSPost2010Prop42
 90
       50
102
RTVSPost2010PropOp42
 70
     1
102
RTVSPost2010Prop43
 90
        3
102
RTVSPost2010PropOp43
 70
     1
102
RTVSPost2010Prop44ColorIndex
 90
        5
102
RTVSPost2010Prop44ColorRGB
 90
      255
102
RTVSPost2010PropOp44
 70
     1
102
RTVSPost2010Prop45
280
     0
102
RTVSPost2010PropOp45
 70
     1
102
RTVSPost2010Prop46
 90
       50
102
RTVSPost2010PropOp46
 70
     1
102
RTVSPost2010Prop47
 90
       50
102
RTVSPost2010PropOp47
 70
     1
102
RTVSPost2010Prop48
 90
       50
102
RTVSPost2010PropOp48
 70
     1
102
RTVSPost2010Prop49
280
     0
102
RTVSPost2010PropOp49
 70
     1
102
RTVSPost2010Prop50
 90
       50
102
RTVSPost2010PropOp50
 70
     1
102
RTVSPost2010Prop51ColorIndex
 90
      256
102
RTVSPost2010Prop51ColorRGB
 90
-16777216
102
RTVSPost2010PropOp51
 70
     0
102
RTVSPost2010Prop52
140
1.0
102
RTVSPost2010PropOp52
 70
     0
102
RTVSPost2010Prop53
 90
        2
102
RTVSPost2010PropOp53
 70
     1
102
RTVSPost2010Prop54
  1
strokes_ogs.tif
102
RTVSPost2010PropOp54
 70
     1
102
RTVSPost2010Prop55
280
     0
102
RTVSPost2010PropOp55
 70
     1
102
RTVSPost2010Prop56
140
1.0
102
RTVSPost2010PropOp56
 70
     1
102
RTVSPost2010Prop57
140
1.0
102
RTVSPost2010PropOp57
 70
     1
102
RTVSPropertyOp0
 70
     1
102
RTVSPropertyOp1
 70
     1
102
RTVSPropertyOp2
 70
     1
102
RTVSPropertyOp3
 70
     1
102
RTVSPropertyOp4
 70
     1
102
RTVSPropertyOp5
 70
     1
102
RTVSPropertyOp6
 70
     1
102
RTVSPropertyOp7
 70
     1
102
RTVSPropertyOp8
 70
     1
102
RTVSPropertyOp9
 70
     1
102
RTVSPropertyOp10
 70
     1
102
RTVSPropertyOp11
 70
     1
102
RTVSPropertyOp12
 70
     1
102
RTVSPropertyOp13
 70
     1
102
RTVSPropertyOp14
 70
     1
102
RTVSPropertyOp15
 70
     1
102
RTVSPropertyOp16
 70
     1
102
RTVSPropertyOp17
 70
     1
102
RTVSPropertyOp18
 70
     1
102
RTVSPropertyOp19
 70
     1
102
RTVSPropertyOp20
 70
     1
102
RTVSPropertyOp21
 70
     1
102
RTVSPropertyOp22
 70
     1
102
RTVSPropertyOp23
 70
     1
102
RTVSPropertyOp24
 70
     1
102
RTVSPropertyOp25
 70
     1
102
RTVSPropertyOp26
 70
     1
102
RTVSPropertyOp27
 70
     1
102
RTVSPropertyOp28
 70
     1
102
RTVSPropertyOp29
 70
     1
102
RTVSPropertyOp30
 70
     1
102
RTVSPropertyOp31
 70
     1
102
RTVSPropertyOp32
 70
     1
102
RTVSPropertyOp33
 70
     1
102
RTVSPropertyOp34
 70
     1
102
RTVSPropertyOp35
 70
     1
102
RTVSPropertyOp36
 70
     1
102
RTVSPropertyOp37
 70
     1
102
RTVSPropertyOp38
 70
     1
102
RTVSPropertyOp39
 70
     1
102
RTVSPropertyOp40
 70
     1
102
RTVSPropertyOp41
 70
     1
102
RTVSPropertyOp42
 70
     1
102
RTVSPropertyOp43
 70
     1
102
RTVSPropertyOp44
 70
     1
102
RTVSPropertyOp45
 70
     1
102
RTVSPropertyOp46
 70
     1
102
RTVSPropertyOp47
 70
     1
102
RTVSPropertyOp48
 70
     1
102
RTVSPropertyOp49
 70
     1
102
RTVSPropertyOp50
 70
     1
102
RTVSPropertyOp51
 70
     0
102
RTVSPropertyOp52
 70
     0
102
RTVSPropertyOp53
 70
     1
102
RTVSPropertyOp54
 70
     1
102
RTVSPropertyOp55
 70
     1
102
RTVSPropertyOp56
 70
     1
102
RTVSPropertyOp57
 70
     1
102
RTVSPropertyOp58
 70
     1
102
RTVSPropertyOp59
 70
     1
102
RTVSPropertyOp60
 70
     1
102
RTVSPropertyOp61
 70
     1
102
RTVSPropertyOp62
 70
     1
  0
XRECORD
  5
EB5
102
{ACAD_REACTORS
330
EB4
102
}
330
EB4
100
AcDbXrecord
280
     1
102
RTVSPost2010Prop28
280
     0
102
RTVSPost2010PropOp28
 70
     1
102
RTVSPost2010Prop29
280
     1
102
RTVSPost2010PropOp29
 70
     1
102
RTVSPost2010Prop30
280
     1
102
RTVSPost2010PropOp30
 70
     1
102
RTVSPost2010Prop31
280
     0
102
RTVSPost2010PropOp31
 70
     1
102
RTVSPost2010Prop32
280
     0
102
RTVSPost2010PropOp32
 70
     1
102
RTVSPost2010Prop33
280
     0
102
RTVSPost2010PropOp33
 70
     1
102
RTVSPost2010Prop34
280
     0
102
RTVSPost2010PropOp34
 70
     1
102
RTVSPost2010Prop35
280
     0
102
RTVSPost2010PropOp35
 70
     1
102
RTVSPost2010Prop36
280
     0
102
RTVSPost2010PropOp36
 70
     1
102
RTVSPost2010Prop37
 90
       50
102
RTVSPost2010PropOp37
 70
     1
102
RTVSPost2010Prop38
140
0.0
102
RTVSPost2010PropOp38
 70
     1
102
RTVSPost2010Prop39
140
1.0
102
RTVSPost2010PropOp39
 70
     1
102
RTVSPost2010Prop40
 90
        0
102
RTVSPost2010PropOp40
 70
     1
102
RTVSPost2010Prop41ColorIndex
 90
       18
102
RTVSPost2010Prop41ColorRGB
 90
        0
102
RTVSPost2010PropOp41
 70
     1
102
RTVSPost2010Prop42
 90
       50
102
RTVSPost2010PropOp42
 70
     1
102
RTVSPost2010Prop43
 90
        3
102
RTVSPost2010PropOp43
 70
     1
102
RTVSPost2010Prop44ColorIndex
 90
        5
102
RTVSPost2010Prop44ColorRGB
 90
      255
102
RTVSPost2010PropOp44
 70
     1
102
RTVSPost2010Prop45
280
     0
102
RTVSPost2010PropOp45
 70
     1
102
RTVSPost2010Prop46
 90
       50
102
RTVSPost2010PropOp46
 70
     1
102
RTVSPost2010Prop47
 90
       50
102
RTVSPost2010PropOp47
 70
     1
102
RTVSPost2010Prop48
 90
       50
102
RTVSPost2010PropOp48
 70
     1
102
RTVSPost2010Prop49
280
     0
102
RTVSPost2010PropOp49
 70
     1
102
RTVSPost2010Prop50
 90
       50
102
RTVSPost2010PropOp50
 70
     1
102
RTVSPost2010Prop51ColorIndex
 90
      256
102
RTVSPost2010Prop51ColorRGB
 90
-16777216
102
RTVSPost2010PropOp51
 70
     0
102
RTVSPost2010Prop52
140
1.0
102
RTVSPost2010PropOp52
 70
     0
102
RTVSPost2010Prop53
 90
        2
102
RTVSPost2010PropOp53
 70
     1
102
RTVSPost2010Prop54
  1
strokes_ogs.tif
102
RTVSPost2010PropOp54
 70
     1
102
RTVSPost2010Prop55
280
     0
102
RTVSPost2010PropOp55
 70
     1
102
RTVSPost2010Prop56
140
1.0
102
RTVSPost2010PropOp56
 70
     1
102
RTVSPost2010Prop57
140
1.0
102
RTVSPost2010PropOp57
 70
     1
102
RTVSPropertyOp0
 70
     1
102
RTVSPropertyOp1
 70
     1
102
RTVSPropertyOp2
 70
     1
102
RTVSPropertyOp3
 70
     1
102
RTVSPropertyOp4
 70
     1
102
RTVSPropertyOp5
 70
     1
102
RTVSPropertyOp6
 70
     1
102
RTVSPropertyOp7
 70
     1
102
RTVSPropertyOp8
 70
     1
102
RTVSPropertyOp9
 70
     1
102
RTVSPropertyOp10
 70
     1
102
RTVSPropertyOp11
 70
     1
102
RTVSPropertyOp12
 70
     1
102
RTVSPropertyOp13
 70
     1
102
RTVSPropertyOp14
 70
     1
102
RTVSPropertyOp15
 70
     1
102
RTVSPropertyOp16
 70
     1
102
RTVSPropertyOp17
 70
     1
102
RTVSPropertyOp18
 70
     1
102
RTVSPropertyOp19
 70
     1
102
RTVSPropertyOp20
 70
     1
102
RTVSPropertyOp21
 70
     1
102
RTVSPropertyOp22
 70
     1
102
RTVSPropertyOp23
 70
     1
102
RTVSPropertyOp24
 70
     1
102
RTVSPropertyOp25
 70
     1
102
RTVSPropertyOp26
 70
     1
102
RTVSPropertyOp27
 70
     1
102
RTVSPropertyOp28
 70
     1
102
RTVSPropertyOp29
 70
     1
102
RTVSPropertyOp30
 70
     1
102
RTVSPropertyOp31
 70
     1
102
RTVSPropertyOp32
 70
     1
102
RTVSPropertyOp33
 70
     1
102
RTVSPropertyOp34
 70
     1
102
RTVSPropertyOp35
 70
     1
102
RTVSPropertyOp36
 70
     1
102
RTVSPropertyOp37
 70
     1
102
RTVSPropertyOp38
 70
     1
102
RTVSPropertyOp39
 70
     1
102
RTVSPropertyOp40
 70
     1
102
RTVSPropertyOp41
 70
     1
102
RTVSPropertyOp42
 70
     1
102
RTVSPropertyOp43
 70
     1
102
RTVSPropertyOp44
 70
     1
102
RTVSPropertyOp45
 70
     1
102
RTVSPropertyOp46
 70
     1
102
RTVSPropertyOp47
 70
     1
102
RTVSPropertyOp48
 70
     1
102
RTVSPropertyOp49
 70
     1
102
RTVSPropertyOp50
 70
     1
102
RTVSPropertyOp51
 70
     0
102
RTVSPropertyOp52
 70
     0
102
RTVSPropertyOp53
 70
     1
102
RTVSPropertyOp54
 70
     1
102
RTVSPropertyOp55
 70
     1
102
RTVSPropertyOp56
 70
     1
102
RTVSPropertyOp57
 70
     1
102
RTVSPropertyOp58
 70
     1
102
RTVSPropertyOp59
 70
     1
102
RTVSPropertyOp60
 70
     1
102
RTVSPropertyOp61
 70
     1
102
RTVSPropertyOp62
 70
     1
  0
XRECORD
  5
EB7
102
{ACAD_REACTORS
330
EB6
102
}
330
EB6
100
AcDbXrecord
280
     1
102
RTVSPost2010Prop28
280
     0
102
RTVSPost2010PropOp28
 70
     1
102
RTVSPost2010Prop29
280
     1
102
RTVSPost2010PropOp29
 70
     1
102
RTVSPost2010Prop30
280
     1
102
RTVSPost2010PropOp30
 70
     1
102
RTVSPost2010Prop31
280
     0
102
RTVSPost2010PropOp31
 70
     1
102
RTVSPost2010Prop32
280
     0
102
RTVSPost2010PropOp32
 70
     1
102
RTVSPost2010Prop33
280
     0
102
RTVSPost2010PropOp33
 70
     1
102
RTVSPost2010Prop34
280
     0
102
RTVSPost2010PropOp34
 70
     1
102
RTVSPost2010Prop35
280
     0
102
RTVSPost2010PropOp35
 70
     1
102
RTVSPost2010Prop36
280
     0
102
RTVSPost2010PropOp36
 70
     1
102
RTVSPost2010Prop37
 90
       50
102
RTVSPost2010PropOp37
 70
     1
102
RTVSPost2010Prop38
140
0.0
102
RTVSPost2010PropOp38
 70
     1
102
RTVSPost2010Prop39
140
1.0
102
RTVSPost2010PropOp39
 70
     1
102
RTVSPost2010Prop40
 90
        0
102
RTVSPost2010PropOp40
 70
     1
102
RTVSPost2010Prop41ColorIndex
 90
       18
102
RTVSPost2010Prop41ColorRGB
 90
        0
102
RTVSPost2010PropOp41
 70
     1
102
RTVSPost2010Prop42
 90
       50
102
RTVSPost2010PropOp42
 70
     1
102
RTVSPost2010Prop43
 90
        3
102
RTVSPost2010PropOp43
 70
     1
102
RTVSPost2010Prop44ColorIndex
 90
        5
102
RTVSPost2010Prop44ColorRGB
 90
      255
102
RTVSPost2010PropOp44
 70
     1
102
RTVSPost2010Prop45
280
     0
102
RTVSPost2010PropOp45
 70
     1
102
RTVSPost2010Prop46
 90
       50
102
RTVSPost2010PropOp46
 70
     1
102
RTVSPost2010Prop47
 90
       50
102
RTVSPost2010PropOp47
 70
     1
102
RTVSPost2010Prop48
 90
       50
102
RTVSPost2010PropOp48
 70
     1
102
RTVSPost2010Prop49
280
     0
102
RTVSPost2010PropOp49
 70
     1
102
RTVSPost2010Prop50
 90
       50
102
RTVSPost2010PropOp50
 70
     1
102
RTVSPost2010Prop51ColorIndex
 90
      256
102
RTVSPost2010Prop51ColorRGB
 90
-16777216
102
RTVSPost2010PropOp51
 70
     0
102
RTVSPost2010Prop52
140
1.0
102
RTVSPost2010PropOp52
 70
     0
102
RTVSPost2010Prop53
 90
        2
102
RTVSPost2010PropOp53
 70
     1
102
RTVSPost2010Prop54
  1
strokes_ogs.tif
102
RTVSPost2010PropOp54
 70
     1
102
RTVSPost2010Prop55
280
     0
102
RTVSPost2010PropOp55
 70
     1
102
RTVSPost2010Prop56
140
1.0
102
RTVSPost2010PropOp56
 70
     1
102
RTVSPost2010Prop57
140
1.0
102
RTVSPost2010PropOp57
 70
     1
102
RTVSPropertyOp0
 70
     1
102
RTVSPropertyOp1
 70
     1
102
RTVSPropertyOp2
 70
     1
102
RTVSPropertyOp3
 70
     1
102
RTVSPropertyOp4
 70
     1
102
RTVSPropertyOp5
 70
     1
102
RTVSPropertyOp6
 70
     1
102
RTVSPropertyOp7
 70
     1
102
RTVSPropertyOp8
 70
     1
102
RTVSPropertyOp9
 70
     1
102
RTVSPropertyOp10
 70
     1
102
RTVSPropertyOp11
 70
     1
102
RTVSPropertyOp12
 70
     1
102
RTVSPropertyOp13
 70
     1
102
RTVSPropertyOp14
 70
     1
102
RTVSPropertyOp15
 70
     1
102
RTVSPropertyOp16
 70
     1
102
RTVSPropertyOp17
 70
     1
102
RTVSPropertyOp18
 70
     1
102
RTVSPropertyOp19
 70
     1
102
RTVSPropertyOp20
 70
     1
102
RTVSPropertyOp21
 70
     1
102
RTVSPropertyOp22
 70
     1
102
RTVSPropertyOp23
 70
     1
102
RTVSPropertyOp24
 70
     1
102
RTVSPropertyOp25
 70
     1
102
RTVSPropertyOp26
 70
     1
102
RTVSPropertyOp27
 70
     1
102
RTVSPropertyOp28
 70
     1
102
RTVSPropertyOp29
 70
     1
102
RTVSPropertyOp30
 70
     1
102
RTVSPropertyOp31
 70
     1
102
RTVSPropertyOp32
 70
     1
102
RTVSPropertyOp33
 70
     1
102
RTVSPropertyOp34
 70
     1
102
RTVSPropertyOp35
 70
     1
102
RTVSPropertyOp36
 70
     1
102
RTVSPropertyOp37
 70
     1
102
RTVSPropertyOp38
 70
     1
102
RTVSPropertyOp39
 70
     1
102
RTVSPropertyOp40
 70
     1
102
RTVSPropertyOp41
 70
     1
102
RTVSPropertyOp42
 70
     1
102
RTVSPropertyOp43
 70
     1
102
RTVSPropertyOp44
 70
     1
102
RTVSPropertyOp45
 70
     1
102
RTVSPropertyOp46
 70
     1
102
RTVSPropertyOp47
 70
     1
102
RTVSPropertyOp48
 70
     1
102
RTVSPropertyOp49
 70
     1
102
RTVSPropertyOp50
 70
     1
102
RTVSPropertyOp51
 70
     0
102
RTVSPropertyOp52
 70
     0
102
RTVSPropertyOp53
 70
     1
102
RTVSPropertyOp54
 70
     1
102
RTVSPropertyOp55
 70
     1
102
RTVSPropertyOp56
 70
     1
102
RTVSPropertyOp57
 70
     1
102
RTVSPropertyOp58
 70
     1
102
RTVSPropertyOp59
 70
     1
102
RTVSPropertyOp60
 70
     1
102
RTVSPropertyOp61
 70
     1
102
RTVSPropertyOp62
 70
     1
  0
XRECORD
  5
EB9
102
{ACAD_REACTORS
330
EB8
102
}
330
EB8
100
AcDbXrecord
280
     1
102
RTVSPost2010Prop28
280
     0
102
RTVSPost2010PropOp28
 70
     1
102
RTVSPost2010Prop29
280
     1
102
RTVSPost2010PropOp29
 70
     1
102
RTVSPost2010Prop30
280
     1
102
RTVSPost2010PropOp30
 70
     1
102
RTVSPost2010Prop31
280
     0
102
RTVSPost2010PropOp31
 70
     1
102
RTVSPost2010Prop32
280
     0
102
RTVSPost2010PropOp32
 70
     1
102
RTVSPost2010Prop33
280
     0
102
RTVSPost2010PropOp33
 70
     1
102
RTVSPost2010Prop34
280
     0
102
RTVSPost2010PropOp34
 70
     1
102
RTVSPost2010Prop35
280
     0
102
RTVSPost2010PropOp35
 70
     1
102
RTVSPost2010Prop36
280
     0
102
RTVSPost2010PropOp36
 70
     1
102
RTVSPost2010Prop37
 90
       50
102
RTVSPost2010PropOp37
 70
     1
102
RTVSPost2010Prop38
140
0.0
102
RTVSPost2010PropOp38
 70
     1
102
RTVSPost2010Prop39
140
1.0
102
RTVSPost2010PropOp39
 70
     1
102
RTVSPost2010Prop40
 90
        0
102
RTVSPost2010PropOp40
 70
     1
102
RTVSPost2010Prop41ColorIndex
 90
       18
102
RTVSPost2010Prop41ColorRGB
 90
        0
102
RTVSPost2010PropOp41
 70
     1
102
RTVSPost2010Prop42
 90
       50
102
RTVSPost2010PropOp42
 70
     1
102
RTVSPost2010Prop43
 90
        3
102
RTVSPost2010PropOp43
 70
     1
102
RTVSPost2010Prop44ColorIndex
 90
        5
102
RTVSPost2010Prop44ColorRGB
 90
      255
102
RTVSPost2010PropOp44
 70
     1
102
RTVSPost2010Prop45
280
     0
102
RTVSPost2010PropOp45
 70
     1
102
RTVSPost2010Prop46
 90
       50
102
RTVSPost2010PropOp46
 70
     1
102
RTVSPost2010Prop47
 90
       50
102
RTVSPost2010PropOp47
 70
     1
102
RTVSPost2010Prop48
 90
       50
102
RTVSPost2010PropOp48
 70
     1
102
RTVSPost2010Prop49
280
     0
102
RTVSPost2010PropOp49
 70
     1
102
RTVSPost2010Prop50
 90
       50
102
RTVSPost2010PropOp50
 70
     1
102
RTVSPost2010Prop51ColorIndex
 90
      256
102
RTVSPost2010Prop51ColorRGB
 90
-16777216
102
RTVSPost2010PropOp51
 70
     0
102
RTVSPost2010Prop52
140
1.0
102
RTVSPost2010PropOp52
 70
     0
102
RTVSPost2010Prop53
 90
        2
102
RTVSPost2010PropOp53
 70
     1
102
RTVSPost2010Prop54
  1
strokes_ogs.tif
102
RTVSPost2010PropOp54
 70
     1
102
RTVSPost2010Prop55
280
     0
102
RTVSPost2010PropOp55
 70
     1
102
RTVSPost2010Prop56
140
1.0
102
RTVSPost2010PropOp56
 70
     1
102
RTVSPost2010Prop57
140
1.0
102
RTVSPost2010PropOp57
 70
     1
102
RTVSPropertyOp0
 70
     1
102
RTVSPropertyOp1
 70
     1
102
RTVSPropertyOp2
 70
     1
102
RTVSPropertyOp3
 70
     1
102
RTVSPropertyOp4
 70
     1
102
RTVSPropertyOp5
 70
     1
102
RTVSPropertyOp6
 70
     1
102
RTVSPropertyOp7
 70
     1
102
RTVSPropertyOp8
 70
     1
102
RTVSPropertyOp9
 70
     1
102
RTVSPropertyOp10
 70
     1
102
RTVSPropertyOp11
 70
     1
102
RTVSPropertyOp12
 70
     1
102
RTVSPropertyOp13
 70
     1
102
RTVSPropertyOp14
 70
     1
102
RTVSPropertyOp15
 70
     1
102
RTVSPropertyOp16
 70
     1
102
RTVSPropertyOp17
 70
     1
102
RTVSPropertyOp18
 70
     1
102
RTVSPropertyOp19
 70
     1
102
RTVSPropertyOp20
 70
     1
102
RTVSPropertyOp21
 70
     1
102
RTVSPropertyOp22
 70
     1
102
RTVSPropertyOp23
 70
     1
102
RTVSPropertyOp24
 70
     1
102
RTVSPropertyOp25
 70
     1
102
RTVSPropertyOp26
 70
     1
102
RTVSPropertyOp27
 70
     1
102
RTVSPropertyOp28
 70
     1
102
RTVSPropertyOp29
 70
     1
102
RTVSPropertyOp30
 70
     1
102
RTVSPropertyOp31
 70
     1
102
RTVSPropertyOp32
 70
     1
102
RTVSPropertyOp33
 70
     1
102
RTVSPropertyOp34
 70
     1
102
RTVSPropertyOp35
 70
     1
102
RTVSPropertyOp36
 70
     1
102
RTVSPropertyOp37
 70
     1
102
RTVSPropertyOp38
 70
     1
102
RTVSPropertyOp39
 70
     1
102
RTVSPropertyOp40
 70
     1
102
RTVSPropertyOp41
 70
     1
102
RTVSPropertyOp42
 70
     1
102
RTVSPropertyOp43
 70
     1
102
RTVSPropertyOp44
 70
     1
102
RTVSPropertyOp45
 70
     1
102
RTVSPropertyOp46
 70
     1
102
RTVSPropertyOp47
 70
     1
102
RTVSPropertyOp48
 70
     1
102
RTVSPropertyOp49
 70
     1
102
RTVSPropertyOp50
 70
     1
102
RTVSPropertyOp51
 70
     0
102
RTVSPropertyOp52
 70
     0
102
RTVSPropertyOp53
 70
     1
102
RTVSPropertyOp54
 70
     1
102
RTVSPropertyOp55
 70
     1
102
RTVSPropertyOp56
 70
     1
102
RTVSPropertyOp57
 70
     1
102
RTVSPropertyOp58
 70
     1
102
RTVSPropertyOp59
 70
     1
102
RTVSPropertyOp60
 70
     1
102
RTVSPropertyOp61
 70
     1
102
RTVSPropertyOp62
 70
     1
  0
XRECORD
  5
EBB
102
{ACAD_REACTORS
330
EBA
102
}
330
EBA
100
AcDbXrecord
280
     1
102
RTVSPost2010Prop28
280
     0
102
RTVSPost2010PropOp28
 70
     1
102
RTVSPost2010Prop29
280
     1
102
RTVSPost2010PropOp29
 70
     1
102
RTVSPost2010Prop30
280
     1
102
RTVSPost2010PropOp30
 70
     1
102
RTVSPost2010Prop31
280
     0
102
RTVSPost2010PropOp31
 70
     1
102
RTVSPost2010Prop32
280
     0
102
RTVSPost2010PropOp32
 70
     1
102
RTVSPost2010Prop33
280
     0
102
RTVSPost2010PropOp33
 70
     1
102
RTVSPost2010Prop34
280
     0
102
RTVSPost2010PropOp34
 70
     1
102
RTVSPost2010Prop35
280
     0
102
RTVSPost2010PropOp35
 70
     1
102
RTVSPost2010Prop36
280
     0
102
RTVSPost2010PropOp36
 70
     1
102
RTVSPost2010Prop37
 90
       50
102
RTVSPost2010PropOp37
 70
     1
102
RTVSPost2010Prop38
140
0.0
102
RTVSPost2010PropOp38
 70
     1
102
RTVSPost2010Prop39
140
1.0
102
RTVSPost2010PropOp39
 70
     1
102
RTVSPost2010Prop40
 90
        0
102
RTVSPost2010PropOp40
 70
     1
102
RTVSPost2010Prop41ColorIndex
 90
       18
102
RTVSPost2010Prop41ColorRGB
 90
        0
102
RTVSPost2010PropOp41
 70
     1
102
RTVSPost2010Prop42
 90
       50
102
RTVSPost2010PropOp42
 70
     1
102
RTVSPost2010Prop43
 90
        3
102
RTVSPost2010PropOp43
 70
     1
102
RTVSPost2010Prop44ColorIndex
 90
        5
102
RTVSPost2010Prop44ColorRGB
 90
      255
102
RTVSPost2010PropOp44
 70
     1
102
RTVSPost2010Prop45
280
     0
102
RTVSPost2010PropOp45
 70
     1
102
RTVSPost2010Prop46
 90
       50
102
RTVSPost2010PropOp46
 70
     1
102
RTVSPost2010Prop47
 90
       50
102
RTVSPost2010PropOp47
 70
     1
102
RTVSPost2010Prop48
 90
       50
102
RTVSPost2010PropOp48
 70
     1
102
RTVSPost2010Prop49
280
     0
102
RTVSPost2010PropOp49
 70
     1
102
RTVSPost2010Prop50
 90
       50
102
RTVSPost2010PropOp50
 70
     1
102
RTVSPost2010Prop51ColorIndex
 90
      256
102
RTVSPost2010Prop51ColorRGB
 90
-16777216
102
RTVSPost2010PropOp51
 70
     0
102
RTVSPost2010Prop52
140
1.0
102
RTVSPost2010PropOp52
 70
     0
102
RTVSPost2010Prop53
 90
        2
102
RTVSPost2010PropOp53
 70
     1
102
RTVSPost2010Prop54
  1
strokes_ogs.tif
102
RTVSPost2010PropOp54
 70
     1
102
RTVSPost2010Prop55
280
     0
102
RTVSPost2010PropOp55
 70
     1
102
RTVSPost2010Prop56
140
1.0
102
RTVSPost2010PropOp56
 70
     1
102
RTVSPost2010Prop57
140
1.0
102
RTVSPost2010PropOp57
 70
     1
102
RTVSPropertyOp0
 70
     1
102
RTVSPropertyOp1
 70
     1
102
RTVSPropertyOp2
 70
     1
102
RTVSPropertyOp3
 70
     1
102
RTVSPropertyOp4
 70
     1
102
RTVSPropertyOp5
 70
     1
102
RTVSPropertyOp6
 70
     1
102
RTVSPropertyOp7
 70
     1
102
RTVSPropertyOp8
 70
     1
102
RTVSPropertyOp9
 70
     1
102
RTVSPropertyOp10
 70
     1
102
RTVSPropertyOp11
 70
     1
102
RTVSPropertyOp12
 70
     1
102
RTVSPropertyOp13
 70
     1
102
RTVSPropertyOp14
 70
     1
102
RTVSPropertyOp15
 70
     1
102
RTVSPropertyOp16
 70
     1
102
RTVSPropertyOp17
 70
     1
102
RTVSPropertyOp18
 70
     1
102
RTVSPropertyOp19
 70
     1
102
RTVSPropertyOp20
 70
     1
102
RTVSPropertyOp21
 70
     1
102
RTVSPropertyOp22
 70
     1
102
RTVSPropertyOp23
 70
     1
102
RTVSPropertyOp24
 70
     1
102
RTVSPropertyOp25
 70
     1
102
RTVSPropertyOp26
 70
     1
102
RTVSPropertyOp27
 70
     1
102
RTVSPropertyOp28
 70
     1
102
RTVSPropertyOp29
 70
     1
102
RTVSPropertyOp30
 70
     1
102
RTVSPropertyOp31
 70
     1
102
RTVSPropertyOp32
 70
     1
102
RTVSPropertyOp33
 70
     1
102
RTVSPropertyOp34
 70
     1
102
RTVSPropertyOp35
 70
     1
102
RTVSPropertyOp36
 70
     1
102
RTVSPropertyOp37
 70
     1
102
RTVSPropertyOp38
 70
     1
102
RTVSPropertyOp39
 70
     1
102
RTVSPropertyOp40
 70
     1
102
RTVSPropertyOp41
 70
     1
102
RTVSPropertyOp42
 70
     1
102
RTVSPropertyOp43
 70
     1
102
RTVSPropertyOp44
 70
     1
102
RTVSPropertyOp45
 70
     1
102
RTVSPropertyOp46
 70
     1
102
RTVSPropertyOp47
 70
     1
102
RTVSPropertyOp48
 70
     1
102
RTVSPropertyOp49
 70
     1
102
RTVSPropertyOp50
 70
     1
102
RTVSPropertyOp51
 70
     0
102
RTVSPropertyOp52
 70
     0
102
RTVSPropertyOp53
 70
     1
102
RTVSPropertyOp54
 70
     1
102
RTVSPropertyOp55
 70
     1
102
RTVSPropertyOp56
 70
     1
102
RTVSPropertyOp57
 70
     1
102
RTVSPropertyOp58
 70
     1
102
RTVSPropertyOp59
 70
     1
102
RTVSPropertyOp60
 70
     1
102
RTVSPropertyOp61
 70
     1
102
RTVSPropertyOp62
 70
     1
  0
XRECORD
  5
EC3
102
{ACAD_REACTORS
330
EC2
102
}
330
EC2
100
AcDbXrecord
280
     1
102
RTVSPost2010Prop28
280
     0
102
RTVSPost2010PropOp28
 70
     1
102
RTVSPost2010Prop29
280
     1
102
RTVSPost2010PropOp29
 70
     1
102
RTVSPost2010Prop30
280
     1
102
RTVSPost2010PropOp30
 70
     1
102
RTVSPost2010Prop31
280
     0
102
RTVSPost2010PropOp31
 70
     1
102
RTVSPost2010Prop32
280
     0
102
RTVSPost2010PropOp32
 70
     1
102
RTVSPost2010Prop33
280
     0
102
RTVSPost2010PropOp33
 70
     1
102
RTVSPost2010Prop34
280
     0
102
RTVSPost2010PropOp34
 70
     1
102
RTVSPost2010Prop35
280
     0
102
RTVSPost2010PropOp35
 70
     1
102
RTVSPost2010Prop36
280
     0
102
RTVSPost2010PropOp36
 70
     1
102
RTVSPost2010Prop37
 90
       50
102
RTVSPost2010PropOp37
 70
     1
102
RTVSPost2010Prop38
140
0.0
102
RTVSPost2010PropOp38
 70
     1
102
RTVSPost2010Prop39
140
1.0
102
RTVSPost2010PropOp39
 70
     1
102
RTVSPost2010Prop40
 90
        0
102
RTVSPost2010PropOp40
 70
     1
102
RTVSPost2010Prop41ColorIndex
 90
       18
102
RTVSPost2010Prop41ColorRGB
 90
        0
102
RTVSPost2010PropOp41
 70
     1
102
RTVSPost2010Prop42
 90
       50
102
RTVSPost2010PropOp42
 70
     1
102
RTVSPost2010Prop43
 90
        3
102
RTVSPost2010PropOp43
 70
     1
102
RTVSPost2010Prop44ColorIndex
 90
        5
102
RTVSPost2010Prop44ColorRGB
 90
      255
102
RTVSPost2010PropOp44
 70
     1
102
RTVSPost2010Prop45
280
     0
102
RTVSPost2010PropOp45
 70
     1
102
RTVSPost2010Prop46
 90
       50
102
RTVSPost2010PropOp46
 70
     1
102
RTVSPost2010Prop47
 90
       50
102
RTVSPost2010PropOp47
 70
     1
102
RTVSPost2010Prop48
 90
       50
102
RTVSPost2010PropOp48
 70
     1
102
RTVSPost2010Prop49
280
     0
102
RTVSPost2010PropOp49
 70
     1
102
RTVSPost2010Prop50
 90
       50
102
RTVSPost2010PropOp50
 70
     1
102
RTVSPost2010Prop51ColorIndex
 90
      256
102
RTVSPost2010Prop51ColorRGB
 90
-16777216
102
RTVSPost2010PropOp51
 70
     0
102
RTVSPost2010Prop52
140
1.0
102
RTVSPost2010PropOp52
 70
     0
102
RTVSPost2010Prop53
 90
        2
102
RTVSPost2010PropOp53
 70
     1
102
RTVSPost2010Prop54
  1
strokes_ogs.tif
102
RTVSPost2010PropOp54
 70
     1
102
RTVSPost2010Prop55
280
     0
102
RTVSPost2010PropOp55
 70
     1
102
RTVSPost2010Prop56
140
1.0
102
RTVSPost2010PropOp56
 70
     1
102
RTVSPost2010Prop57
140
1.0
102
RTVSPost2010PropOp57
 70
     1
102
RTVSPropertyOp0
 70
     1
102
RTVSPropertyOp1
 70
     1
102
RTVSPropertyOp2
 70
     1
102
RTVSPropertyOp3
 70
     1
102
RTVSPropertyOp4
 70
     1
102
RTVSPropertyOp5
 70
     1
102
RTVSPropertyOp6
 70
     1
102
RTVSPropertyOp7
 70
     1
102
RTVSPropertyOp8
 70
     1
102
RTVSPropertyOp9
 70
     1
102
RTVSPropertyOp10
 70
     1
102
RTVSPropertyOp11
 70
     1
102
RTVSPropertyOp12
 70
     1
102
RTVSPropertyOp13
 70
     1
102
RTVSPropertyOp14
 70
     1
102
RTVSPropertyOp15
 70
     1
102
RTVSPropertyOp16
 70
     1
102
RTVSPropertyOp17
 70
     1
102
RTVSPropertyOp18
 70
     1
102
RTVSPropertyOp19
 70
     1
102
RTVSPropertyOp20
 70
     1
102
RTVSPropertyOp21
 70
     1
102
RTVSPropertyOp22
 70
     1
102
RTVSPropertyOp23
 70
     1
102
RTVSPropertyOp24
 70
     1
102
RTVSPropertyOp25
 70
     1
102
RTVSPropertyOp26
 70
     1
102
RTVSPropertyOp27
 70
     1
102
RTVSPropertyOp28
 70
     1
102
RTVSPropertyOp29
 70
     1
102
RTVSPropertyOp30
 70
     1
102
RTVSPropertyOp31
 70
     1
102
RTVSPropertyOp32
 70
     1
102
RTVSPropertyOp33
 70
     1
102
RTVSPropertyOp34
 70
     1
102
RTVSPropertyOp35
 70
     1
102
RTVSPropertyOp36
 70
     1
102
RTVSPropertyOp37
 70
     1
102
RTVSPropertyOp38
 70
     1
102
RTVSPropertyOp39
 70
     1
102
RTVSPropertyOp40
 70
     1
102
RTVSPropertyOp41
 70
     1
102
RTVSPropertyOp42
 70
     1
102
RTVSPropertyOp43
 70
     1
102
RTVSPropertyOp44
 70
     1
102
RTVSPropertyOp45
 70
     1
102
RTVSPropertyOp46
 70
     1
102
RTVSPropertyOp47
 70
     1
102
RTVSPropertyOp48
 70
     1
102
RTVSPropertyOp49
 70
     1
102
RTVSPropertyOp50
 70
     1
102
RTVSPropertyOp51
 70
     0
102
RTVSPropertyOp52
 70
     0
102
RTVSPropertyOp53
 70
     1
102
RTVSPropertyOp54
 70
     1
102
RTVSPropertyOp55
 70
     1
102
RTVSPropertyOp56
 70
     1
102
RTVSPropertyOp57
 70
     1
102
RTVSPropertyOp58
 70
     1
102
RTVSPropertyOp59
 70
     1
102
RTVSPropertyOp60
 70
     1
102
RTVSPropertyOp61
 70
     1
102
RTVSPropertyOp62
 70
     1
  0
XRECORD
  5
EDF
102
{ACAD_REACTORS
330
EDE
102
}
330
EDE
100
AcDbXrecord
280
     1
102
RTVSPost2010Prop28
280
     0
102
RTVSPost2010PropOp28
 70
     1
102
RTVSPost2010Prop29
280
     1
102
RTVSPost2010PropOp29
 70
     1
102
RTVSPost2010Prop30
280
     1
102
RTVSPost2010PropOp30
 70
     1
102
RTVSPost2010Prop31
280
     0
102
RTVSPost2010PropOp31
 70
     1
102
RTVSPost2010Prop32
280
     0
102
RTVSPost2010PropOp32
 70
     1
102
RTVSPost2010Prop33
280
     0
102
RTVSPost2010PropOp33
 70
     1
102
RTVSPost2010Prop34
280
     0
102
RTVSPost2010PropOp34
 70
     1
102
RTVSPost2010Prop35
280
     0
102
RTVSPost2010PropOp35
 70
     1
102
RTVSPost2010Prop36
280
     0
102
RTVSPost2010PropOp36
 70
     1
102
RTVSPost2010Prop37
 90
       50
102
RTVSPost2010PropOp37
 70
     0
102
RTVSPost2010Prop38
140
0.0
102
RTVSPost2010PropOp38
 70
     0
102
RTVSPost2010Prop39
140
1.0
102
RTVSPost2010PropOp39
 70
     0
102
RTVSPost2010Prop40
 90
        0
102
RTVSPost2010PropOp40
 70
     0
102
RTVSPost2010Prop41ColorIndex
 90
       18
102
RTVSPost2010Prop41ColorRGB
 90
        0
102
RTVSPost2010PropOp41
 70
     0
102
RTVSPost2010Prop42
 90
       50
102
RTVSPost2010PropOp42
 70
     0
102
RTVSPost2010Prop43
 90
        3
102
RTVSPost2010PropOp43
 70
     0
102
RTVSPost2010Prop44ColorIndex
 90
        5
102
RTVSPost2010Prop44ColorRGB
 90
      255
102
RTVSPost2010PropOp44
 70
     0
102
RTVSPost2010Prop45
280
     0
102
RTVSPost2010PropOp45
 70
     1
102
RTVSPost2010Prop46
 90
       50
102
RTVSPost2010PropOp46
 70
     0
102
RTVSPost2010Prop47
 90
       50
102
RTVSPost2010PropOp47
 70
     0
102
RTVSPost2010Prop48
 90
       50
102
RTVSPost2010PropOp48
 70
     0
102
RTVSPost2010Prop49
280
     0
102
RTVSPost2010PropOp49
 70
     1
102
RTVSPost2010Prop50
 90
       50
102
RTVSPost2010PropOp50
 70
     0
102
RTVSPost2010Prop51ColorIndex
 90
      256
102
RTVSPost2010Prop51ColorRGB
 90
-16777216
102
RTVSPost2010PropOp51
 70
     0
102
RTVSPost2010Prop52
140
1.0
102
RTVSPost2010PropOp52
 70
     0
102
RTVSPost2010Prop53
 90
        2
102
RTVSPost2010PropOp53
 70
     0
102
RTVSPost2010Prop54
  1
strokes_ogs.tif
102
RTVSPost2010PropOp54
 70
     0
102
RTVSPost2010Prop55
280
     0
102
RTVSPost2010PropOp55
 70
     1
102
RTVSPost2010Prop56
140
1.0
102
RTVSPost2010PropOp56
 70
     0
102
RTVSPost2010Prop57
140
1.0
102
RTVSPost2010PropOp57
 70
     0
102
RTVSPropertyOp0
 70
     0
102
RTVSPropertyOp1
 70
     0
102
RTVSPropertyOp2
 70
     0
102
RTVSPropertyOp3
 70
     0
102
RTVSPropertyOp4
 70
     0
102
RTVSPropertyOp5
 70
     0
102
RTVSPropertyOp6
 70
     0
102
RTVSPropertyOp7
 70
     0
102
RTVSPropertyOp8
 70
     0
102
RTVSPropertyOp9
 70
     0
102
RTVSPropertyOp10
 70
     0
102
RTVSPropertyOp11
 70
     0
102
RTVSPropertyOp12
 70
     0
102
RTVSPropertyOp13
 70
     0
102
RTVSPropertyOp14
 70
     2
102
RTVSPropertyOp15
 70
     0
102
RTVSPropertyOp16
 70
     0
102
RTVSPropertyOp17
 70
     0
102
RTVSPropertyOp18
 70
     0
102
RTVSPropertyOp19
 70
     0
102
RTVSPropertyOp20
 70
     0
102
RTVSPropertyOp21
 70
     0
102
RTVSPropertyOp22
 70
     0
102
RTVSPropertyOp23
 70
     0
102
RTVSPropertyOp24
 70
     0
102
RTVSPropertyOp25
 70
     0
102
RTVSPropertyOp26
 70
     0
102
RTVSPropertyOp27
 70
     0
102
RTVSPropertyOp28
 70
     1
102
RTVSPropertyOp29
 70
     1
102
RTVSPropertyOp30
 70
     1
102
RTVSPropertyOp31
 70
     1
102
RTVSPropertyOp32
 70
     1
102
RTVSPropertyOp33
 70
     1
102
RTVSPropertyOp34
 70
     1
102
RTVSPropertyOp35
 70
     1
102
RTVSPropertyOp36
 70
     1
102
RTVSPropertyOp37
 70
     0
102
RTVSPropertyOp38
 70
     0
102
RTVSPropertyOp39
 70
     0
102
RTVSPropertyOp40
 70
     0
102
RTVSPropertyOp41
 70
     0
102
RTVSPropertyOp42
 70
     0
102
RTVSPropertyOp43
 70
     0
102
RTVSPropertyOp44
 70
     0
102
RTVSPropertyOp45
 70
     1
102
RTVSPropertyOp46
 70
     0
102
RTVSPropertyOp47
 70
     0
102
RTVSPropertyOp48
 70
     0
102
RTVSPropertyOp49
 70
     1
102
RTVSPropertyOp50
 70
     0
102
RTVSPropertyOp51
 70
     0
102
RTVSPropertyOp52
 70
     0
102
RTVSPropertyOp53
 70
     0
102
RTVSPropertyOp54
 70
     0
102
RTVSPropertyOp55
 70
     1
102
RTVSPropertyOp56
 70
     0
102
RTVSPropertyOp57
 70
     0
102
RTVSPropertyOp58
 70
     0
102
RTVSPropertyOp59
 70
     0
102
RTVSPropertyOp60
 70
     0
102
RTVSPropertyOp61
 70
     0
102
RTVSPropertyOp62
 70
     0
  0
XRECORD
  5
ECF
102
{ACAD_REACTORS
330
ECE
102
}
330
ECE
100
AcDbXrecord
280
     1
102
RTVSPost2010Prop28
280
     0
102
RTVSPost2010PropOp28
 70
     1
102
RTVSPost2010Prop29
280
     1
102
RTVSPost2010PropOp29
 70
     1
102
RTVSPost2010Prop30
280
     1
102
RTVSPost2010PropOp30
 70
     1
102
RTVSPost2010Prop31
280
     0
102
RTVSPost2010PropOp31
 70
     1
102
RTVSPost2010Prop32
280
     0
102
RTVSPost2010PropOp32
 70
     1
102
RTVSPost2010Prop33
280
     0
102
RTVSPost2010PropOp33
 70
     1
102
RTVSPost2010Prop34
280
     0
102
RTVSPost2010PropOp34
 70
     1
102
RTVSPost2010Prop35
280
     0
102
RTVSPost2010PropOp35
 70
     1
102
RTVSPost2010Prop36
280
     0
102
RTVSPost2010PropOp36
 70
     1
102
RTVSPost2010Prop37
 90
       50
102
RTVSPost2010PropOp37
 70
     1
102
RTVSPost2010Prop38
140
0.0
102
RTVSPost2010PropOp38
 70
     1
102
RTVSPost2010Prop39
140
1.0
102
RTVSPost2010PropOp39
 70
     1
102
RTVSPost2010Prop40
 90
        0
102
RTVSPost2010PropOp40
 70
     1
102
RTVSPost2010Prop41ColorIndex
 90
       18
102
RTVSPost2010Prop41ColorRGB
 90
        0
102
RTVSPost2010PropOp41
 70
     1
102
RTVSPost2010Prop42
 90
       50
102
RTVSPost2010PropOp42
 70
     1
102
RTVSPost2010Prop43
 90
        3
102
RTVSPost2010PropOp43
 70
     1
102
RTVSPost2010Prop44ColorIndex
 90
        5
102
RTVSPost2010Prop44ColorRGB
 90
      255
102
RTVSPost2010PropOp44
 70
     1
102
RTVSPost2010Prop45
280
     0
102
RTVSPost2010PropOp45
 70
     1
102
RTVSPost2010Prop46
 90
       50
102
RTVSPost2010PropOp46
 70
     1
102
RTVSPost2010Prop47
 90
       50
102
RTVSPost2010PropOp47
 70
     1
102
RTVSPost2010Prop48
 90
       50
102
RTVSPost2010PropOp48
 70
     1
102
RTVSPost2010Prop49
280
     0
102
RTVSPost2010PropOp49
 70
     1
102
RTVSPost2010Prop50
 90
       50
102
RTVSPost2010PropOp50
 70
     1
102
RTVSPost2010Prop51ColorIndex
 90
      256
102
RTVSPost2010Prop51ColorRGB
 90
-16777216
102
RTVSPost2010PropOp51
 70
     0
102
RTVSPost2010Prop52
140
1.0
102
RTVSPost2010PropOp52
 70
     0
102
RTVSPost2010Prop53
 90
        2
102
RTVSPost2010PropOp53
 70
     1
102
RTVSPost2010Prop54
  1
strokes_ogs.tif
102
RTVSPost2010PropOp54
 70
     1
102
RTVSPost2010Prop55
280
     0
102
RTVSPost2010PropOp55
 70
     1
102
RTVSPost2010Prop56
140
1.0
102
RTVSPost2010PropOp56
 70
     1
102
RTVSPost2010Prop57
140
1.0
102
RTVSPost2010PropOp57
 70
     1
102
RTVSPropertyOp0
 70
     1
102
RTVSPropertyOp1
 70
     1
102
RTVSPropertyOp2
 70
     1
102
RTVSPropertyOp3
 70
     1
102
RTVSPropertyOp4
 70
     1
102
RTVSPropertyOp5
 70
     1
102
RTVSPropertyOp6
 70
     1
102
RTVSPropertyOp7
 70
     1
102
RTVSPropertyOp8
 70
     1
102
RTVSPropertyOp9
 70
     1
102
RTVSPropertyOp10
 70
     1
102
RTVSPropertyOp11
 70
     1
102
RTVSPropertyOp12
 70
     1
102
RTVSPropertyOp13
 70
     1
102
RTVSPropertyOp14
 70
     1
102
RTVSPropertyOp15
 70
     1
102
RTVSPropertyOp16
 70
     1
102
RTVSPropertyOp17
 70
     1
102
RTVSPropertyOp18
 70
     1
102
RTVSPropertyOp19
 70
     1
102
RTVSPropertyOp20
 70
     1
102
RTVSPropertyOp21
 70
     1
102
RTVSPropertyOp22
 70
     1
102
RTVSPropertyOp23
 70
     1
102
RTVSPropertyOp24
 70
     1
102
RTVSPropertyOp25
 70
     1
102
RTVSPropertyOp26
 70
     1
102
RTVSPropertyOp27
 70
     1
102
RTVSPropertyOp28
 70
     1
102
RTVSPropertyOp29
 70
     1
102
RTVSPropertyOp30
 70
     1
102
RTVSPropertyOp31
 70
     1
102
RTVSPropertyOp32
 70
     1
102
RTVSPropertyOp33
 70
     1
102
RTVSPropertyOp34
 70
     1
102
RTVSPropertyOp35
 70
     1
102
RTVSPropertyOp36
 70
     1
102
RTVSPropertyOp37
 70
     1
102
RTVSPropertyOp38
 70
     1
102
RTVSPropertyOp39
 70
     1
102
RTVSPropertyOp40
 70
     1
102
RTVSPropertyOp41
 70
     1
102
RTVSPropertyOp42
 70
     1
102
RTVSPropertyOp43
 70
     1
102
RTVSPropertyOp44
 70
     1
102
RTVSPropertyOp45
 70
     1
102
RTVSPropertyOp46
 70
     1
102
RTVSPropertyOp47
 70
     1
102
RTVSPropertyOp48
 70
     1
102
RTVSPropertyOp49
 70
     1
102
RTVSPropertyOp50
 70
     1
102
RTVSPropertyOp51
 70
     0
102
RTVSPropertyOp52
 70
     0
102
RTVSPropertyOp53
 70
     1
102
RTVSPropertyOp54
 70
     1
102
RTVSPropertyOp55
 70
     1
102
RTVSPropertyOp56
 70
     1
102
RTVSPropertyOp57
 70
     1
102
RTVSPropertyOp58
 70
     1
102
RTVSPropertyOp59
 70
     1
102
RTVSPropertyOp60
 70
     1
102
RTVSPropertyOp61
 70
     1
102
RTVSPropertyOp62
 70
     1
  0
XRECORD
  5
EE1
102
{ACAD_REACTORS
330
EE0
102
}
330
EE0
100
AcDbXrecord
280
     1
102
RTVSPost2010Prop28
280
     0
102
RTVSPost2010PropOp28
 70
     1
102
RTVSPost2010Prop29
280
     1
102
RTVSPost2010PropOp29
 70
     1
102
RTVSPost2010Prop30
280
     1
102
RTVSPost2010PropOp30
 70
     1
102
RTVSPost2010Prop31
280
     0
102
RTVSPost2010PropOp31
 70
     1
102
RTVSPost2010Prop32
280
     0
102
RTVSPost2010PropOp32
 70
     1
102
RTVSPost2010Prop33
280
     0
102
RTVSPost2010PropOp33
 70
     1
102
RTVSPost2010Prop34
280
     0
102
RTVSPost2010PropOp34
 70
     1
102
RTVSPost2010Prop35
280
     0
102
RTVSPost2010PropOp35
 70
     1
102
RTVSPost2010Prop36
280
     0
102
RTVSPost2010PropOp36
 70
     1
102
RTVSPost2010Prop37
 90
       50
102
RTVSPost2010PropOp37
 70
     0
102
RTVSPost2010Prop38
140
0.0
102
RTVSPost2010PropOp38
 70
     0
102
RTVSPost2010Prop39
140
1.0
102
RTVSPost2010PropOp39
 70
     0
102
RTVSPost2010Prop40
 90
        0
102
RTVSPost2010PropOp40
 70
     0
102
RTVSPost2010Prop41ColorIndex
 90
       18
102
RTVSPost2010Prop41ColorRGB
 90
        0
102
RTVSPost2010PropOp41
 70
     0
102
RTVSPost2010Prop42
 90
       50
102
RTVSPost2010PropOp42
 70
     0
102
RTVSPost2010Prop43
 90
        3
102
RTVSPost2010PropOp43
 70
     0
102
RTVSPost2010Prop44ColorIndex
 90
        5
102
RTVSPost2010Prop44ColorRGB
 90
      255
102
RTVSPost2010PropOp44
 70
     0
102
RTVSPost2010Prop45
280
     0
102
RTVSPost2010PropOp45
 70
     1
102
RTVSPost2010Prop46
 90
       50
102
RTVSPost2010PropOp46
 70
     0
102
RTVSPost2010Prop47
 90
       50
102
RTVSPost2010PropOp47
 70
     0
102
RTVSPost2010Prop48
 90
       50
102
RTVSPost2010PropOp48
 70
     0
102
RTVSPost2010Prop49
280
     0
102
RTVSPost2010PropOp49
 70
     1
102
RTVSPost2010Prop50
 90
       50
102
RTVSPost2010PropOp50
 70
     0
102
RTVSPost2010Prop51ColorIndex
 90
      256
102
RTVSPost2010Prop51ColorRGB
 90
-16777216
102
RTVSPost2010PropOp51
 70
     0
102
RTVSPost2010Prop52
140
1.0
102
RTVSPost2010PropOp52
 70
     0
102
RTVSPost2010Prop53
 90
        2
102
RTVSPost2010PropOp53
 70
     0
102
RTVSPost2010Prop54
  1
strokes_ogs.tif
102
RTVSPost2010PropOp54
 70
     0
102
RTVSPost2010Prop55
280
     0
102
RTVSPost2010PropOp55
 70
     1
102
RTVSPost2010Prop56
140
1.0
102
RTVSPost2010PropOp56
 70
     0
102
RTVSPost2010Prop57
140
1.0
102
RTVSPost2010PropOp57
 70
     0
102
RTVSPropertyOp0
 70
     0
102
RTVSPropertyOp1
 70
     0
102
RTVSPropertyOp2
 70
     0
102
RTVSPropertyOp3
 70
     0
102
RTVSPropertyOp4
 70
     0
102
RTVSPropertyOp5
 70
     0
102
RTVSPropertyOp6
 70
     0
102
RTVSPropertyOp7
 70
     0
102
RTVSPropertyOp8
 70
     0
102
RTVSPropertyOp9
 70
     0
102
RTVSPropertyOp10
 70
     0
102
RTVSPropertyOp11
 70
     0
102
RTVSPropertyOp12
 70
     0
102
RTVSPropertyOp13
 70
     0
102
RTVSPropertyOp14
 70
     2
102
RTVSPropertyOp15
 70
     0
102
RTVSPropertyOp16
 70
     0
102
RTVSPropertyOp17
 70
     0
102
RTVSPropertyOp18
 70
     0
102
RTVSPropertyOp19
 70
     0
102
RTVSPropertyOp20
 70
     0
102
RTVSPropertyOp21
 70
     0
102
RTVSPropertyOp22
 70
     0
102
RTVSPropertyOp23
 70
     0
102
RTVSPropertyOp24
 70
     0
102
RTVSPropertyOp25
 70
     0
102
RTVSPropertyOp26
 70
     0
102
RTVSPropertyOp27
 70
     0
102
RTVSPropertyOp28
 70
     1
102
RTVSPropertyOp29
 70
     1
102
RTVSPropertyOp30
 70
     1
102
RTVSPropertyOp31
 70
     1
102
RTVSPropertyOp32
 70
     1
102
RTVSPropertyOp33
 70
     1
102
RTVSPropertyOp34
 70
     1
102
RTVSPropertyOp35
 70
     1
102
RTVSPropertyOp36
 70
     1
102
RTVSPropertyOp37
 70
     0
102
RTVSPropertyOp38
 70
     0
102
RTVSPropertyOp39
 70
     0
102
RTVSPropertyOp40
 70
     0
102
RTVSPropertyOp41
 70
     0
102
RTVSPropertyOp42
 70
     0
102
RTVSPropertyOp43
 70
     0
102
RTVSPropertyOp44
 70
     0
102
RTVSPropertyOp45
 70
     1
102
RTVSPropertyOp46
 70
     0
102
RTVSPropertyOp47
 70
     0
102
RTVSPropertyOp48
 70
     0
102
RTVSPropertyOp49
 70
     1
102
RTVSPropertyOp50
 70
     0
102
RTVSPropertyOp51
 70
     0
102
RTVSPropertyOp52
 70
     0
102
RTVSPropertyOp53
 70
     0
102
RTVSPropertyOp54
 70
     0
102
RTVSPropertyOp55
 70
     1
102
RTVSPropertyOp56
 70
     0
102
RTVSPropertyOp57
 70
     0
102
RTVSPropertyOp58
 70
     0
102
RTVSPropertyOp59
 70
     0
102
RTVSPropertyOp60
 70
     0
102
RTVSPropertyOp61
 70
     0
102
RTVSPropertyOp62
 70
     0
  0
XRECORD
  5
EC7
102
{ACAD_REACTORS
330
EC6
102
}
330
EC6
100
AcDbXrecord
280
     1
102
RTVSPost2010Prop28
280
     0
102
RTVSPost2010PropOp28
 70
     1
102
RTVSPost2010Prop29
280
     1
102
RTVSPost2010PropOp29
 70
     1
102
RTVSPost2010Prop30
280
     1
102
RTVSPost2010PropOp30
 70
     1
102
RTVSPost2010Prop31
280
     0
102
RTVSPost2010PropOp31
 70
     1
102
RTVSPost2010Prop32
280
     0
102
RTVSPost2010PropOp32
 70
     1
102
RTVSPost2010Prop33
280
     0
102
RTVSPost2010PropOp33
 70
     1
102
RTVSPost2010Prop34
280
     0
102
RTVSPost2010PropOp34
 70
     1
102
RTVSPost2010Prop35
280
     0
102
RTVSPost2010PropOp35
 70
     1
102
RTVSPost2010Prop36
280
     0
102
RTVSPost2010PropOp36
 70
     1
102
RTVSPost2010Prop37
 90
       50
102
RTVSPost2010PropOp37
 70
     1
102
RTVSPost2010Prop38
140
0.0
102
RTVSPost2010PropOp38
 70
     1
102
RTVSPost2010Prop39
140
1.0
102
RTVSPost2010PropOp39
 70
     1
102
RTVSPost2010Prop40
 90
        0
102
RTVSPost2010PropOp40
 70
     1
102
RTVSPost2010Prop41ColorIndex
 90
       18
102
RTVSPost2010Prop41ColorRGB
 90
        0
102
RTVSPost2010PropOp41
 70
     1
102
RTVSPost2010Prop42
 90
       50
102
RTVSPost2010PropOp42
 70
     1
102
RTVSPost2010Prop43
 90
        3
102
RTVSPost2010PropOp43
 70
     1
102
RTVSPost2010Prop44ColorIndex
 90
        5
102
RTVSPost2010Prop44ColorRGB
 90
      255
102
RTVSPost2010PropOp44
 70
     1
102
RTVSPost2010Prop45
280
     0
102
RTVSPost2010PropOp45
 70
     1
102
RTVSPost2010Prop46
 90
       50
102
RTVSPost2010PropOp46
 70
     1
102
RTVSPost2010Prop47
 90
       50
102
RTVSPost2010PropOp47
 70
     1
102
RTVSPost2010Prop48
 90
       50
102
RTVSPost2010PropOp48
 70
     1
102
RTVSPost2010Prop49
280
     0
102
RTVSPost2010PropOp49
 70
     1
102
RTVSPost2010Prop50
 90
       50
102
RTVSPost2010PropOp50
 70
     1
102
RTVSPost2010Prop51ColorIndex
 90
      256
102
RTVSPost2010Prop51ColorRGB
 90
-16777216
102
RTVSPost2010PropOp51
 70
     0
102
RTVSPost2010Prop52
140
1.0
102
RTVSPost2010PropOp52
 70
     0
102
RTVSPost2010Prop53
 90
        2
102
RTVSPost2010PropOp53
 70
     1
102
RTVSPost2010Prop54
  1
strokes_ogs.tif
102
RTVSPost2010PropOp54
 70
     1
102
RTVSPost2010Prop55
280
     0
102
RTVSPost2010PropOp55
 70
     1
102
RTVSPost2010Prop56
140
1.0
102
RTVSPost2010PropOp56
 70
     1
102
RTVSPost2010Prop57
140
1.0
102
RTVSPost2010PropOp57
 70
     1
102
RTVSPropertyOp0
 70
     1
102
RTVSPropertyOp1
 70
     1
102
RTVSPropertyOp2
 70
     1
102
RTVSPropertyOp3
 70
     1
102
RTVSPropertyOp4
 70
     1
102
RTVSPropertyOp5
 70
     1
102
RTVSPropertyOp6
 70
     1
102
RTVSPropertyOp7
 70
     1
102
RTVSPropertyOp8
 70
     1
102
RTVSPropertyOp9
 70
     1
102
RTVSPropertyOp10
 70
     1
102
RTVSPropertyOp11
 70
     1
102
RTVSPropertyOp12
 70
     1
102
RTVSPropertyOp13
 70
     1
102
RTVSPropertyOp14
 70
     1
102
RTVSPropertyOp15
 70
     1
102
RTVSPropertyOp16
 70
     1
102
RTVSPropertyOp17
 70
     1
102
RTVSPropertyOp18
 70
     1
102
RTVSPropertyOp19
 70
     1
102
RTVSPropertyOp20
 70
     1
102
RTVSPropertyOp21
 70
     1
102
RTVSPropertyOp22
 70
     1
102
RTVSPropertyOp23
 70
     1
102
RTVSPropertyOp24
 70
     1
102
RTVSPropertyOp25
 70
     1
102
RTVSPropertyOp26
 70
     1
102
RTVSPropertyOp27
 70
     1
102
RTVSPropertyOp28
 70
     1
102
RTVSPropertyOp29
 70
     1
102
RTVSPropertyOp30
 70
     1
102
RTVSPropertyOp31
 70
     1
102
RTVSPropertyOp32
 70
     1
102
RTVSPropertyOp33
 70
     1
102
RTVSPropertyOp34
 70
     1
102
RTVSPropertyOp35
 70
     1
102
RTVSPropertyOp36
 70
     1
102
RTVSPropertyOp37
 70
     1
102
RTVSPropertyOp38
 70
     1
102
RTVSPropertyOp39
 70
     1
102
RTVSPropertyOp40
 70
     1
102
RTVSPropertyOp41
 70
     1
102
RTVSPropertyOp42
 70
     1
102
RTVSPropertyOp43
 70
     1
102
RTVSPropertyOp44
 70
     1
102
RTVSPropertyOp45
 70
     1
102
RTVSPropertyOp46
 70
     1
102
RTVSPropertyOp47
 70
     1
102
RTVSPropertyOp48
 70
     1
102
RTVSPropertyOp49
 70
     1
102
RTVSPropertyOp50
 70
     1
102
RTVSPropertyOp51
 70
     0
102
RTVSPropertyOp52
 70
     0
102
RTVSPropertyOp53
 70
     1
102
RTVSPropertyOp54
 70
     1
102
RTVSPropertyOp55
 70
     1
102
RTVSPropertyOp56
 70
     1
102
RTVSPropertyOp57
 70
     1
102
RTVSPropertyOp58
 70
     1
102
RTVSPropertyOp59
 70
     1
102
RTVSPropertyOp60
 70
     1
102
RTVSPropertyOp61
 70
     1
102
RTVSPropertyOp62
 70
     1
  0
XRECORD
  5
EDD
102
{ACAD_REACTORS
330
EDC
102
}
330
EDC
100
AcDbXrecord
280
     1
102
RTVSPost2010Prop28
280
     0
102
RTVSPost2010PropOp28
 70
     1
102
RTVSPost2010Prop29
280
     1
102
RTVSPost2010PropOp29
 70
     1
102
RTVSPost2010Prop30
280
     1
102
RTVSPost2010PropOp30
 70
     1
102
RTVSPost2010Prop31
280
     0
102
RTVSPost2010PropOp31
 70
     1
102
RTVSPost2010Prop32
280
     0
102
RTVSPost2010PropOp32
 70
     1
102
RTVSPost2010Prop33
280
     0
102
RTVSPost2010PropOp33
 70
     1
102
RTVSPost2010Prop34
280
     0
102
RTVSPost2010PropOp34
 70
     1
102
RTVSPost2010Prop35
280
     0
102
RTVSPost2010PropOp35
 70
     1
102
RTVSPost2010Prop36
280
     0
102
RTVSPost2010PropOp36
 70
     1
102
RTVSPost2010Prop37
 90
       50
102
RTVSPost2010PropOp37
 70
     1
102
RTVSPost2010Prop38
140
0.0
102
RTVSPost2010PropOp38
 70
     1
102
RTVSPost2010Prop39
140
1.0
102
RTVSPost2010PropOp39
 70
     1
102
RTVSPost2010Prop40
 90
        0
102
RTVSPost2010PropOp40
 70
     1
102
RTVSPost2010Prop41ColorIndex
 90
       18
102
RTVSPost2010Prop41ColorRGB
 90
        0
102
RTVSPost2010PropOp41
 70
     1
102
RTVSPost2010Prop42
 90
       50
102
RTVSPost2010PropOp42
 70
     1
102
RTVSPost2010Prop43
 90
        3
102
RTVSPost2010PropOp43
 70
     1
102
RTVSPost2010Prop44ColorIndex
 90
        5
102
RTVSPost2010Prop44ColorRGB
 90
      255
102
RTVSPost2010PropOp44
 70
     1
102
RTVSPost2010Prop45
280
     0
102
RTVSPost2010PropOp45
 70
     1
102
RTVSPost2010Prop46
 90
       50
102
RTVSPost2010PropOp46
 70
     1
102
RTVSPost2010Prop47
 90
       50
102
RTVSPost2010PropOp47
 70
     1
102
RTVSPost2010Prop48
 90
       50
102
RTVSPost2010PropOp48
 70
     1
102
RTVSPost2010Prop49
280
     0
102
RTVSPost2010PropOp49
 70
     1
102
RTVSPost2010Prop50
 90
       50
102
RTVSPost2010PropOp50
 70
     1
102
RTVSPost2010Prop51ColorIndex
 90
      256
102
RTVSPost2010Prop51ColorRGB
 90
-16777216
102
RTVSPost2010PropOp51
 70
     0
102
RTVSPost2010Prop52
140
1.0
102
RTVSPost2010PropOp52
 70
     0
102
RTVSPost2010Prop53
 90
        2
102
RTVSPost2010PropOp53
 70
     1
102
RTVSPost2010Prop54
  1
strokes_ogs.tif
102
RTVSPost2010PropOp54
 70
     1
102
RTVSPost2010Prop55
280
     0
102
RTVSPost2010PropOp55
 70
     1
102
RTVSPost2010Prop56
140
1.0
102
RTVSPost2010PropOp56
 70
     1
102
RTVSPost2010Prop57
140
1.0
102
RTVSPost2010PropOp57
 70
     1
102
RTVSPropertyOp0
 70
     1
102
RTVSPropertyOp1
 70
     1
102
RTVSPropertyOp2
 70
     1
102
RTVSPropertyOp3
 70
     1
102
RTVSPropertyOp4
 70
     1
102
RTVSPropertyOp5
 70
     1
102
RTVSPropertyOp6
 70
     1
102
RTVSPropertyOp7
 70
     1
102
RTVSPropertyOp8
 70
     1
102
RTVSPropertyOp9
 70
     1
102
RTVSPropertyOp10
 70
     1
102
RTVSPropertyOp11
 70
     1
102
RTVSPropertyOp12
 70
     1
102
RTVSPropertyOp13
 70
     1
102
RTVSPropertyOp14
 70
     1
102
RTVSPropertyOp15
 70
     1
102
RTVSPropertyOp16
 70
     1
102
RTVSPropertyOp17
 70
     1
102
RTVSPropertyOp18
 70
     1
102
RTVSPropertyOp19
 70
     1
102
RTVSPropertyOp20
 70
     1
102
RTVSPropertyOp21
 70
     1
102
RTVSPropertyOp22
 70
     1
102
RTVSPropertyOp23
 70
     1
102
RTVSPropertyOp24
 70
     1
102
RTVSPropertyOp25
 70
     1
102
RTVSPropertyOp26
 70
     1
102
RTVSPropertyOp27
 70
     1
102
RTVSPropertyOp28
 70
     1
102
RTVSPropertyOp29
 70
     1
102
RTVSPropertyOp30
 70
     1
102
RTVSPropertyOp31
 70
     1
102
RTVSPropertyOp32
 70
     1
102
RTVSPropertyOp33
 70
     1
102
RTVSPropertyOp34
 70
     1
102
RTVSPropertyOp35
 70
     1
102
RTVSPropertyOp36
 70
     1
102
RTVSPropertyOp37
 70
     1
102
RTVSPropertyOp38
 70
     1
102
RTVSPropertyOp39
 70
     1
102
RTVSPropertyOp40
 70
     1
102
RTVSPropertyOp41
 70
     1
102
RTVSPropertyOp42
 70
     1
102
RTVSPropertyOp43
 70
     1
102
RTVSPropertyOp44
 70
     1
102
RTVSPropertyOp45
 70
     1
102
RTVSPropertyOp46
 70
     1
102
RTVSPropertyOp47
 70
     1
102
RTVSPropertyOp48
 70
     1
102
RTVSPropertyOp49
 70
     1
102
RTVSPropertyOp50
 70
     1
102
RTVSPropertyOp51
 70
     0
102
RTVSPropertyOp52
 70
     0
102
RTVSPropertyOp53
 70
     1
102
RTVSPropertyOp54
 70
     1
102
RTVSPropertyOp55
 70
     1
102
RTVSPropertyOp56
 70
     1
102
RTVSPropertyOp57
 70
     1
102
RTVSPropertyOp58
 70
     1
102
RTVSPropertyOp59
 70
     1
102
RTVSPropertyOp60
 70
     1
102
RTVSPropertyOp61
 70
     1
102
RTVSPropertyOp62
 70
     1
  0
XRECORD
  5
EDB
102
{ACAD_REACTORS
330
EDA
102
}
330
EDA
100
AcDbXrecord
280
     1
102
RTVSPost2010Prop28
280
     0
102
RTVSPost2010PropOp28
 70
     1
102
RTVSPost2010Prop29
280
     1
102
RTVSPost2010PropOp29
 70
     1
102
RTVSPost2010Prop30
280
     1
102
RTVSPost2010PropOp30
 70
     1
102
RTVSPost2010Prop31
280
     0
102
RTVSPost2010PropOp31
 70
     1
102
RTVSPost2010Prop32
280
     0
102
RTVSPost2010PropOp32
 70
     1
102
RTVSPost2010Prop33
280
     0
102
RTVSPost2010PropOp33
 70
     1
102
RTVSPost2010Prop34
280
     0
102
RTVSPost2010PropOp34
 70
     1
102
RTVSPost2010Prop35
280
     0
102
RTVSPost2010PropOp35
 70
     1
102
RTVSPost2010Prop36
280
     0
102
RTVSPost2010PropOp36
 70
     1
102
RTVSPost2010Prop37
 90
       50
102
RTVSPost2010PropOp37
 70
     1
102
RTVSPost2010Prop38
140
0.0
102
RTVSPost2010PropOp38
 70
     1
102
RTVSPost2010Prop39
140
1.0
102
RTVSPost2010PropOp39
 70
     1
102
RTVSPost2010Prop40
 90
        0
102
RTVSPost2010PropOp40
 70
     1
102
RTVSPost2010Prop41ColorIndex
 90
       18
102
RTVSPost2010Prop41ColorRGB
 90
        0
102
RTVSPost2010PropOp41
 70
     1
102
RTVSPost2010Prop42
 90
       50
102
RTVSPost2010PropOp42
 70
     1
102
RTVSPost2010Prop43
 90
        3
102
RTVSPost2010PropOp43
 70
     1
102
RTVSPost2010Prop44ColorIndex
 90
        5
102
RTVSPost2010Prop44ColorRGB
 90
      255
102
RTVSPost2010PropOp44
 70
     1
102
RTVSPost2010Prop45
280
     0
102
RTVSPost2010PropOp45
 70
     1
102
RTVSPost2010Prop46
 90
       50
102
RTVSPost2010PropOp46
 70
     1
102
RTVSPost2010Prop47
 90
       50
102
RTVSPost2010PropOp47
 70
     1
102
RTVSPost2010Prop48
 90
       50
102
RTVSPost2010PropOp48
 70
     1
102
RTVSPost2010Prop49
280
     0
102
RTVSPost2010PropOp49
 70
     1
102
RTVSPost2010Prop50
 90
       50
102
RTVSPost2010PropOp50
 70
     1
102
RTVSPost2010Prop51ColorIndex
 90
      256
102
RTVSPost2010Prop51ColorRGB
 90
-16777216
102
RTVSPost2010PropOp51
 70
     0
102
RTVSPost2010Prop52
140
1.0
102
RTVSPost2010PropOp52
 70
     0
102
RTVSPost2010Prop53
 90
        2
102
RTVSPost2010PropOp53
 70
     1
102
RTVSPost2010Prop54
  1
strokes_ogs.tif
102
RTVSPost2010PropOp54
 70
     1
102
RTVSPost2010Prop55
280
     0
102
RTVSPost2010PropOp55
 70
     1
102
RTVSPost2010Prop56
140
1.0
102
RTVSPost2010PropOp56
 70
     1
102
RTVSPost2010Prop57
140
1.0
102
RTVSPost2010PropOp57
 70
     1
102
RTVSPropertyOp0
 70
     1
102
RTVSPropertyOp1
 70
     1
102
RTVSPropertyOp2
 70
     1
102
RTVSPropertyOp3
 70
     1
102
RTVSPropertyOp4
 70
     1
102
RTVSPropertyOp5
 70
     1
102
RTVSPropertyOp6
 70
     1
102
RTVSPropertyOp7
 70
     1
102
RTVSPropertyOp8
 70
     1
102
RTVSPropertyOp9
 70
     1
102
RTVSPropertyOp10
 70
     1
102
RTVSPropertyOp11
 70
     1
102
RTVSPropertyOp12
 70
     1
102
RTVSPropertyOp13
 70
     1
102
RTVSPropertyOp14
 70
     1
102
RTVSPropertyOp15
 70
     1
102
RTVSPropertyOp16
 70
     1
102
RTVSPropertyOp17
 70
     1
102
RTVSPropertyOp18
 70
     1
102
RTVSPropertyOp19
 70
     1
102
RTVSPropertyOp20
 70
     1
102
RTVSPropertyOp21
 70
     1
102
RTVSPropertyOp22
 70
     1
102
RTVSPropertyOp23
 70
     1
102
RTVSPropertyOp24
 70
     1
102
RTVSPropertyOp25
 70
     1
102
RTVSPropertyOp26
 70
     1
102
RTVSPropertyOp27
 70
     1
102
RTVSPropertyOp28
 70
     1
102
RTVSPropertyOp29
 70
     1
102
RTVSPropertyOp30
 70
     1
102
RTVSPropertyOp31
 70
     1
102
RTVSPropertyOp32
 70
     1
102
RTVSPropertyOp33
 70
     1
102
RTVSPropertyOp34
 70
     1
102
RTVSPropertyOp35
 70
     1
102
RTVSPropertyOp36
 70
     1
102
RTVSPropertyOp37
 70
     1
102
RTVSPropertyOp38
 70
     1
102
RTVSPropertyOp39
 70
     1
102
RTVSPropertyOp40
 70
     1
102
RTVSPropertyOp41
 70
     1
102
RTVSPropertyOp42
 70
     1
102
RTVSPropertyOp43
 70
     1
102
RTVSPropertyOp44
 70
     1
102
RTVSPropertyOp45
 70
     1
102
RTVSPropertyOp46
 70
     1
102
RTVSPropertyOp47
 70
     1
102
RTVSPropertyOp48
 70
     1
102
RTVSPropertyOp49
 70
     1
102
RTVSPropertyOp50
 70
     1
102
RTVSPropertyOp51
 70
     0
102
RTVSPropertyOp52
 70
     0
102
RTVSPropertyOp53
 70
     1
102
RTVSPropertyOp54
 70
     1
102
RTVSPropertyOp55
 70
     1
102
RTVSPropertyOp56
 70
     1
102
RTVSPropertyOp57
 70
     1
102
RTVSPropertyOp58
 70
     1
102
RTVSPropertyOp59
 70
     1
102
RTVSPropertyOp60
 70
     1
102
RTVSPropertyOp61
 70
     1
102
RTVSPropertyOp62
 70
     1
  0
XRECORD
  5
ED5
102
{ACAD_REACTORS
330
ED4
102
}
330
ED4
100
AcDbXrecord
280
     1
102
RTVSPost2010Prop28
280
     0
102
RTVSPost2010PropOp28
 70
     1
102
RTVSPost2010Prop29
280
     1
102
RTVSPost2010PropOp29
 70
     1
102
RTVSPost2010Prop30
280
     1
102
RTVSPost2010PropOp30
 70
     1
102
RTVSPost2010Prop31
280
     0
102
RTVSPost2010PropOp31
 70
     1
102
RTVSPost2010Prop32
280
     0
102
RTVSPost2010PropOp32
 70
     1
102
RTVSPost2010Prop33
280
     0
102
RTVSPost2010PropOp33
 70
     1
102
RTVSPost2010Prop34
280
     0
102
RTVSPost2010PropOp34
 70
     1
102
RTVSPost2010Prop35
280
     0
102
RTVSPost2010PropOp35
 70
     1
102
RTVSPost2010Prop36
280
     0
102
RTVSPost2010PropOp36
 70
     1
102
RTVSPost2010Prop37
 90
       50
102
RTVSPost2010PropOp37
 70
     1
102
RTVSPost2010Prop38
140
0.0
102
RTVSPost2010PropOp38
 70
     1
102
RTVSPost2010Prop39
140
1.0
102
RTVSPost2010PropOp39
 70
     1
102
RTVSPost2010Prop40
 90
        0
102
RTVSPost2010PropOp40
 70
     1
102
RTVSPost2010Prop41ColorIndex
 90
       18
102
RTVSPost2010Prop41ColorRGB
 90
        0
102
RTVSPost2010PropOp41
 70
     1
102
RTVSPost2010Prop42
 90
       50
102
RTVSPost2010PropOp42
 70
     1
102
RTVSPost2010Prop43
 90
        3
102
RTVSPost2010PropOp43
 70
     1
102
RTVSPost2010Prop44ColorIndex
 90
        5
102
RTVSPost2010Prop44ColorRGB
 90
      255
102
RTVSPost2010PropOp44
 70
     1
102
RTVSPost2010Prop45
280
     0
102
RTVSPost2010PropOp45
 70
     1
102
RTVSPost2010Prop46
 90
       50
102
RTVSPost2010PropOp46
 70
     1
102
RTVSPost2010Prop47
 90
       50
102
RTVSPost2010PropOp47
 70
     1
102
RTVSPost2010Prop48
 90
       50
102
RTVSPost2010PropOp48
 70
     1
102
RTVSPost2010Prop49
280
     0
102
RTVSPost2010PropOp49
 70
     1
102
RTVSPost2010Prop50
 90
       50
102
RTVSPost2010PropOp50
 70
     1
102
RTVSPost2010Prop51ColorIndex
 90
      256
102
RTVSPost2010Prop51ColorRGB
 90
-16777216
102
RTVSPost2010PropOp51
 70
     0
102
RTVSPost2010Prop52
140
1.0
102
RTVSPost2010PropOp52
 70
     0
102
RTVSPost2010Prop53
 90
        2
102
RTVSPost2010PropOp53
 70
     1
102
RTVSPost2010Prop54
  1
strokes_ogs.tif
102
RTVSPost2010PropOp54
 70
     1
102
RTVSPost2010Prop55
280
     0
102
RTVSPost2010PropOp55
 70
     1
102
RTVSPost2010Prop56
140
1.0
102
RTVSPost2010PropOp56
 70
     1
102
RTVSPost2010Prop57
140
1.0
102
RTVSPost2010PropOp57
 70
     1
102
RTVSPropertyOp0
 70
     1
102
RTVSPropertyOp1
 70
     1
102
RTVSPropertyOp2
 70
     1
102
RTVSPropertyOp3
 70
     1
102
RTVSPropertyOp4
 70
     1
102
RTVSPropertyOp5
 70
     1
102
RTVSPropertyOp6
 70
     1
102
RTVSPropertyOp7
 70
     1
102
RTVSPropertyOp8
 70
     1
102
RTVSPropertyOp9
 70
     1
102
RTVSPropertyOp10
 70
     1
102
RTVSPropertyOp11
 70
     1
102
RTVSPropertyOp12
 70
     1
102
RTVSPropertyOp13
 70
     1
102
RTVSPropertyOp14
 70
     1
102
RTVSPropertyOp15
 70
     1
102
RTVSPropertyOp16
 70
     1
102
RTVSPropertyOp17
 70
     1
102
RTVSPropertyOp18
 70
     1
102
RTVSPropertyOp19
 70
     1
102
RTVSPropertyOp20
 70
     1
102
RTVSPropertyOp21
 70
     1
102
RTVSPropertyOp22
 70
     1
102
RTVSPropertyOp23
 70
     1
102
RTVSPropertyOp24
 70
     1
102
RTVSPropertyOp25
 70
     1
102
RTVSPropertyOp26
 70
     1
102
RTVSPropertyOp27
 70
     1
102
RTVSPropertyOp28
 70
     1
102
RTVSPropertyOp29
 70
     1
102
RTVSPropertyOp30
 70
     1
102
RTVSPropertyOp31
 70
     1
102
RTVSPropertyOp32
 70
     1
102
RTVSPropertyOp33
 70
     1
102
RTVSPropertyOp34
 70
     1
102
RTVSPropertyOp35
 70
     1
102
RTVSPropertyOp36
 70
     1
102
RTVSPropertyOp37
 70
     1
102
RTVSPropertyOp38
 70
     1
102
RTVSPropertyOp39
 70
     1
102
RTVSPropertyOp40
 70
     1
102
RTVSPropertyOp41
 70
     1
102
RTVSPropertyOp42
 70
     1
102
RTVSPropertyOp43
 70
     1
102
RTVSPropertyOp44
 70
     1
102
RTVSPropertyOp45
 70
     1
102
RTVSPropertyOp46
 70
     1
102
RTVSPropertyOp47
 70
     1
102
RTVSPropertyOp48
 70
     1
102
RTVSPropertyOp49
 70
     1
102
RTVSPropertyOp50
 70
     1
102
RTVSPropertyOp51
 70
     0
102
RTVSPropertyOp52
 70
     0
102
RTVSPropertyOp53
 70
     1
102
RTVSPropertyOp54
 70
     1
102
RTVSPropertyOp55
 70
     1
102
RTVSPropertyOp56
 70
     1
102
RTVSPropertyOp57
 70
     1
102
RTVSPropertyOp58
 70
     1
102
RTVSPropertyOp59
 70
     1
102
RTVSPropertyOp60
 70
     1
102
RTVSPropertyOp61
 70
     1
102
RTVSPropertyOp62
 70
     1
  0
XRECORD
  5
ED7
102
{ACAD_REACTORS
330
ED6
102
}
330
ED6
100
AcDbXrecord
280
     1
102
RTVSPost2010Prop28
280
     0
102
RTVSPost2010PropOp28
 70
     1
102
RTVSPost2010Prop29
280
     1
102
RTVSPost2010PropOp29
 70
     1
102
RTVSPost2010Prop30
280
     1
102
RTVSPost2010PropOp30
 70
     1
102
RTVSPost2010Prop31
280
     0
102
RTVSPost2010PropOp31
 70
     1
102
RTVSPost2010Prop32
280
     0
102
RTVSPost2010PropOp32
 70
     1
102
RTVSPost2010Prop33
280
     0
102
RTVSPost2010PropOp33
 70
     1
102
RTVSPost2010Prop34
280
     0
102
RTVSPost2010PropOp34
 70
     1
102
RTVSPost2010Prop35
280
     0
102
RTVSPost2010PropOp35
 70
     1
102
RTVSPost2010Prop36
280
     0
102
RTVSPost2010PropOp36
 70
     1
102
RTVSPost2010Prop37
 90
       50
102
RTVSPost2010PropOp37
 70
     1
102
RTVSPost2010Prop38
140
0.0
102
RTVSPost2010PropOp38
 70
     1
102
RTVSPost2010Prop39
140
1.0
102
RTVSPost2010PropOp39
 70
     1
102
RTVSPost2010Prop40
 90
        0
102
RTVSPost2010PropOp40
 70
     1
102
RTVSPost2010Prop41ColorIndex
 90
       18
102
RTVSPost2010Prop41ColorRGB
 90
        0
102
RTVSPost2010PropOp41
 70
     1
102
RTVSPost2010Prop42
 90
       50
102
RTVSPost2010PropOp42
 70
     1
102
RTVSPost2010Prop43
 90
        3
102
RTVSPost2010PropOp43
 70
     1
102
RTVSPost2010Prop44ColorIndex
 90
        5
102
RTVSPost2010Prop44ColorRGB
 90
      255
102
RTVSPost2010PropOp44
 70
     1
102
RTVSPost2010Prop45
280
     0
102
RTVSPost2010PropOp45
 70
     1
102
RTVSPost2010Prop46
 90
       50
102
RTVSPost2010PropOp46
 70
     1
102
RTVSPost2010Prop47
 90
       50
102
RTVSPost2010PropOp47
 70
     1
102
RTVSPost2010Prop48
 90
       50
102
RTVSPost2010PropOp48
 70
     1
102
RTVSPost2010Prop49
280
     0
102
RTVSPost2010PropOp49
 70
     1
102
RTVSPost2010Prop50
 90
       50
102
RTVSPost2010PropOp50
 70
     1
102
RTVSPost2010Prop51ColorIndex
 90
      256
102
RTVSPost2010Prop51ColorRGB
 90
-16777216
102
RTVSPost2010PropOp51
 70
     0
102
RTVSPost2010Prop52
140
1.0
102
RTVSPost2010PropOp52
 70
     0
102
RTVSPost2010Prop53
 90
        2
102
RTVSPost2010PropOp53
 70
     1
102
RTVSPost2010Prop54
  1
strokes_ogs.tif
102
RTVSPost2010PropOp54
 70
     1
102
RTVSPost2010Prop55
280
     0
102
RTVSPost2010PropOp55
 70
     1
102
RTVSPost2010Prop56
140
1.0
102
RTVSPost2010PropOp56
 70
     1
102
RTVSPost2010Prop57
140
1.0
102
RTVSPost2010PropOp57
 70
     1
102
RTVSPropertyOp0
 70
     1
102
RTVSPropertyOp1
 70
     1
102
RTVSPropertyOp2
 70
     1
102
RTVSPropertyOp3
 70
     1
102
RTVSPropertyOp4
 70
     1
102
RTVSPropertyOp5
 70
     1
102
RTVSPropertyOp6
 70
     1
102
RTVSPropertyOp7
 70
     1
102
RTVSPropertyOp8
 70
     1
102
RTVSPropertyOp9
 70
     1
102
RTVSPropertyOp10
 70
     1
102
RTVSPropertyOp11
 70
     1
102
RTVSPropertyOp12
 70
     1
102
RTVSPropertyOp13
 70
     1
102
RTVSPropertyOp14
 70
     1
102
RTVSPropertyOp15
 70
     1
102
RTVSPropertyOp16
 70
     1
102
RTVSPropertyOp17
 70
     1
102
RTVSPropertyOp18
 70
     1
102
RTVSPropertyOp19
 70
     1
102
RTVSPropertyOp20
 70
     1
102
RTVSPropertyOp21
 70
     1
102
RTVSPropertyOp22
 70
     1
102
RTVSPropertyOp23
 70
     1
102
RTVSPropertyOp24
 70
     1
102
RTVSPropertyOp25
 70
     1
102
RTVSPropertyOp26
 70
     1
102
RTVSPropertyOp27
 70
     1
102
RTVSPropertyOp28
 70
     1
102
RTVSPropertyOp29
 70
     1
102
RTVSPropertyOp30
 70
     1
102
RTVSPropertyOp31
 70
     1
102
RTVSPropertyOp32
 70
     1
102
RTVSPropertyOp33
 70
     1
102
RTVSPropertyOp34
 70
     1
102
RTVSPropertyOp35
 70
     1
102
RTVSPropertyOp36
 70
     1
102
RTVSPropertyOp37
 70
     1
102
RTVSPropertyOp38
 70
     1
102
RTVSPropertyOp39
 70
     1
102
RTVSPropertyOp40
 70
     1
102
RTVSPropertyOp41
 70
     1
102
RTVSPropertyOp42
 70
     1
102
RTVSPropertyOp43
 70
     1
102
RTVSPropertyOp44
 70
     1
102
RTVSPropertyOp45
 70
     1
102
RTVSPropertyOp46
 70
     1
102
RTVSPropertyOp47
 70
     1
102
RTVSPropertyOp48
 70
     1
102
RTVSPropertyOp49
 70
     1
102
RTVSPropertyOp50
 70
     1
102
RTVSPropertyOp51
 70
     0
102
RTVSPropertyOp52
 70
     0
102
RTVSPropertyOp53
 70
     1
102
RTVSPropertyOp54
 70
     1
102
RTVSPropertyOp55
 70
     1
102
RTVSPropertyOp56
 70
     1
102
RTVSPropertyOp57
 70
     1
102
RTVSPropertyOp58
 70
     1
102
RTVSPropertyOp59
 70
     1
102
RTVSPropertyOp60
 70
     1
102
RTVSPropertyOp61
 70
     1
102
RTVSPropertyOp62
 70
     1
  0
XRECORD
  5
ECD
102
{ACAD_REACTORS
330
ECC
102
}
330
ECC
100
AcDbXrecord
280
     1
102
RTVSPost2010Prop28
280
     0
102
RTVSPost2010PropOp28
 70
     1
102
RTVSPost2010Prop29
280
     1
102
RTVSPost2010PropOp29
 70
     1
102
RTVSPost2010Prop30
280
     1
102
RTVSPost2010PropOp30
 70
     1
102
RTVSPost2010Prop31
280
     0
102
RTVSPost2010PropOp31
 70
     1
102
RTVSPost2010Prop32
280
     0
102
RTVSPost2010PropOp32
 70
     1
102
RTVSPost2010Prop33
280
     0
102
RTVSPost2010PropOp33
 70
     1
102
RTVSPost2010Prop34
280
     0
102
RTVSPost2010PropOp34
 70
     1
102
RTVSPost2010Prop35
280
     0
102
RTVSPost2010PropOp35
 70
     1
102
RTVSPost2010Prop36
280
     0
102
RTVSPost2010PropOp36
 70
     1
102
RTVSPost2010Prop37
 90
       50
102
RTVSPost2010PropOp37
 70
     1
102
RTVSPost2010Prop38
140
0.0
102
RTVSPost2010PropOp38
 70
     1
102
RTVSPost2010Prop39
140
1.0
102
RTVSPost2010PropOp39
 70
     1
102
RTVSPost2010Prop40
 90
        0
102
RTVSPost2010PropOp40
 70
     1
102
RTVSPost2010Prop41ColorIndex
 90
       18
102
RTVSPost2010Prop41ColorRGB
 90
        0
102
RTVSPost2010PropOp41
 70
     1
102
RTVSPost2010Prop42
 90
       50
102
RTVSPost2010PropOp42
 70
     1
102
RTVSPost2010Prop43
 90
        3
102
RTVSPost2010PropOp43
 70
     1
102
RTVSPost2010Prop44ColorIndex
 90
        5
102
RTVSPost2010Prop44ColorRGB
 90
      255
102
RTVSPost2010PropOp44
 70
     1
102
RTVSPost2010Prop45
280
     0
102
RTVSPost2010PropOp45
 70
     1
102
RTVSPost2010Prop46
 90
       50
102
RTVSPost2010PropOp46
 70
     1
102
RTVSPost2010Prop47
 90
       50
102
RTVSPost2010PropOp47
 70
     1
102
RTVSPost2010Prop48
 90
       50
102
RTVSPost2010PropOp48
 70
     1
102
RTVSPost2010Prop49
280
     0
102
RTVSPost2010PropOp49
 70
     1
102
RTVSPost2010Prop50
 90
       50
102
RTVSPost2010PropOp50
 70
     1
102
RTVSPost2010Prop51ColorIndex
 90
      256
102
RTVSPost2010Prop51ColorRGB
 90
-16777216
102
RTVSPost2010PropOp51
 70
     0
102
RTVSPost2010Prop52
140
1.0
102
RTVSPost2010PropOp52
 70
     0
102
RTVSPost2010Prop53
 90
        2
102
RTVSPost2010PropOp53
 70
     1
102
RTVSPost2010Prop54
  1
strokes_ogs.tif
102
RTVSPost2010PropOp54
 70
     1
102
RTVSPost2010Prop55
280
     0
102
RTVSPost2010PropOp55
 70
     1
102
RTVSPost2010Prop56
140
1.0
102
RTVSPost2010PropOp56
 70
     1
102
RTVSPost2010Prop57
140
1.0
102
RTVSPost2010PropOp57
 70
     1
102
RTVSPropertyOp0
 70
     1
102
RTVSPropertyOp1
 70
     1
102
RTVSPropertyOp2
 70
     1
102
RTVSPropertyOp3
 70
     1
102
RTVSPropertyOp4
 70
     1
102
RTVSPropertyOp5
 70
     1
102
RTVSPropertyOp6
 70
     1
102
RTVSPropertyOp7
 70
     1
102
RTVSPropertyOp8
 70
     1
102
RTVSPropertyOp9
 70
     1
102
RTVSPropertyOp10
 70
     1
102
RTVSPropertyOp11
 70
     1
102
RTVSPropertyOp12
 70
     1
102
RTVSPropertyOp13
 70
     1
102
RTVSPropertyOp14
 70
     1
102
RTVSPropertyOp15
 70
     1
102
RTVSPropertyOp16
 70
     1
102
RTVSPropertyOp17
 70
     1
102
RTVSPropertyOp18
 70
     1
102
RTVSPropertyOp19
 70
     1
102
RTVSPropertyOp20
 70
     1
102
RTVSPropertyOp21
 70
     1
102
RTVSPropertyOp22
 70
     1
102
RTVSPropertyOp23
 70
     1
102
RTVSPropertyOp24
 70
     1
102
RTVSPropertyOp25
 70
     1
102
RTVSPropertyOp26
 70
     1
102
RTVSPropertyOp27
 70
     1
102
RTVSPropertyOp28
 70
     1
102
RTVSPropertyOp29
 70
     1
102
RTVSPropertyOp30
 70
     1
102
RTVSPropertyOp31
 70
     1
102
RTVSPropertyOp32
 70
     1
102
RTVSPropertyOp33
 70
     1
102
RTVSPropertyOp34
 70
     1
102
RTVSPropertyOp35
 70
     1
102
RTVSPropertyOp36
 70
     1
102
RTVSPropertyOp37
 70
     1
102
RTVSPropertyOp38
 70
     1
102
RTVSPropertyOp39
 70
     1
102
RTVSPropertyOp40
 70
     1
102
RTVSPropertyOp41
 70
     1
102
RTVSPropertyOp42
 70
     1
102
RTVSPropertyOp43
 70
     1
102
RTVSPropertyOp44
 70
     1
102
RTVSPropertyOp45
 70
     1
102
RTVSPropertyOp46
 70
     1
102
RTVSPropertyOp47
 70
     1
102
RTVSPropertyOp48
 70
     1
102
RTVSPropertyOp49
 70
     1
102
RTVSPropertyOp50
 70
     1
102
RTVSPropertyOp51
 70
     0
102
RTVSPropertyOp52
 70
     0
102
RTVSPropertyOp53
 70
     1
102
RTVSPropertyOp54
 70
     1
102
RTVSPropertyOp55
 70
     1
102
RTVSPropertyOp56
 70
     1
102
RTVSPropertyOp57
 70
     1
102
RTVSPropertyOp58
 70
     1
102
RTVSPropertyOp59
 70
     1
102
RTVSPropertyOp60
 70
     1
102
RTVSPropertyOp61
 70
     1
102
RTVSPropertyOp62
 70
     1
  0
XRECORD
  5
EC1
102
{ACAD_REACTORS
330
EC0
102
}
330
EC0
100
AcDbXrecord
280
     1
102
RTVSPost2010Prop28
280
     0
102
RTVSPost2010PropOp28
 70
     1
102
RTVSPost2010Prop29
280
     1
102
RTVSPost2010PropOp29
 70
     1
102
RTVSPost2010Prop30
280
     1
102
RTVSPost2010PropOp30
 70
     1
102
RTVSPost2010Prop31
280
     0
102
RTVSPost2010PropOp31
 70
     1
102
RTVSPost2010Prop32
280
     0
102
RTVSPost2010PropOp32
 70
     1
102
RTVSPost2010Prop33
280
     0
102
RTVSPost2010PropOp33
 70
     1
102
RTVSPost2010Prop34
280
     0
102
RTVSPost2010PropOp34
 70
     1
102
RTVSPost2010Prop35
280
     0
102
RTVSPost2010PropOp35
 70
     1
102
RTVSPost2010Prop36
280
     0
102
RTVSPost2010PropOp36
 70
     1
102
RTVSPost2010Prop37
 90
       50
102
RTVSPost2010PropOp37
 70
     1
102
RTVSPost2010Prop38
140
0.0
102
RTVSPost2010PropOp38
 70
     1
102
RTVSPost2010Prop39
140
1.0
102
RTVSPost2010PropOp39
 70
     1
102
RTVSPost2010Prop40
 90
        0
102
RTVSPost2010PropOp40
 70
     1
102
RTVSPost2010Prop41ColorIndex
 90
       18
102
RTVSPost2010Prop41ColorRGB
 90
        0
102
RTVSPost2010PropOp41
 70
     1
102
RTVSPost2010Prop42
 90
       50
102
RTVSPost2010PropOp42
 70
     1
102
RTVSPost2010Prop43
 90
        3
102
RTVSPost2010PropOp43
 70
     1
102
RTVSPost2010Prop44ColorIndex
 90
        5
102
RTVSPost2010Prop44ColorRGB
 90
      255
102
RTVSPost2010PropOp44
 70
     1
102
RTVSPost2010Prop45
280
     0
102
RTVSPost2010PropOp45
 70
     1
102
RTVSPost2010Prop46
 90
       50
102
RTVSPost2010PropOp46
 70
     1
102
RTVSPost2010Prop47
 90
       50
102
RTVSPost2010PropOp47
 70
     1
102
RTVSPost2010Prop48
 90
       50
102
RTVSPost2010PropOp48
 70
     1
102
RTVSPost2010Prop49
280
     0
102
RTVSPost2010PropOp49
 70
     1
102
RTVSPost2010Prop50
 90
       50
102
RTVSPost2010PropOp50
 70
     1
102
RTVSPost2010Prop51ColorIndex
 90
      256
102
RTVSPost2010Prop51ColorRGB
 90
-16777216
102
RTVSPost2010PropOp51
 70
     0
102
RTVSPost2010Prop52
140
1.0
102
RTVSPost2010PropOp52
 70
     0
102
RTVSPost2010Prop53
 90
        2
102
RTVSPost2010PropOp53
 70
     1
102
RTVSPost2010Prop54
  1
strokes_ogs.tif
102
RTVSPost2010PropOp54
 70
     1
102
RTVSPost2010Prop55
280
     0
102
RTVSPost2010PropOp55
 70
     1
102
RTVSPost2010Prop56
140
1.0
102
RTVSPost2010PropOp56
 70
     1
102
RTVSPost2010Prop57
140
1.0
102
RTVSPost2010PropOp57
 70
     1
102
RTVSPropertyOp0
 70
     1
102
RTVSPropertyOp1
 70
     1
102
RTVSPropertyOp2
 70
     1
102
RTVSPropertyOp3
 70
     1
102
RTVSPropertyOp4
 70
     1
102
RTVSPropertyOp5
 70
     1
102
RTVSPropertyOp6
 70
     1
102
RTVSPropertyOp7
 70
     1
102
RTVSPropertyOp8
 70
     1
102
RTVSPropertyOp9
 70
     1
102
RTVSPropertyOp10
 70
     1
102
RTVSPropertyOp11
 70
     1
102
RTVSPropertyOp12
 70
     1
102
RTVSPropertyOp13
 70
     1
102
RTVSPropertyOp14
 70
     1
102
RTVSPropertyOp15
 70
     1
102
RTVSPropertyOp16
 70
     1
102
RTVSPropertyOp17
 70
     1
102
RTVSPropertyOp18
 70
     1
102
RTVSPropertyOp19
 70
     1
102
RTVSPropertyOp20
 70
     1
102
RTVSPropertyOp21
 70
     1
102
RTVSPropertyOp22
 70
     1
102
RTVSPropertyOp23
 70
     1
102
RTVSPropertyOp24
 70
     1
102
RTVSPropertyOp25
 70
     1
102
RTVSPropertyOp26
 70
     1
102
RTVSPropertyOp27
 70
     1
102
RTVSPropertyOp28
 70
     1
102
RTVSPropertyOp29
 70
     1
102
RTVSPropertyOp30
 70
     1
102
RTVSPropertyOp31
 70
     1
102
RTVSPropertyOp32
 70
     1
102
RTVSPropertyOp33
 70
     1
102
RTVSPropertyOp34
 70
     1
102
RTVSPropertyOp35
 70
     1
102
RTVSPropertyOp36
 70
     1
102
RTVSPropertyOp37
 70
     1
102
RTVSPropertyOp38
 70
     1
102
RTVSPropertyOp39
 70
     1
102
RTVSPropertyOp40
 70
     1
102
RTVSPropertyOp41
 70
     1
102
RTVSPropertyOp42
 70
     1
102
RTVSPropertyOp43
 70
     1
102
RTVSPropertyOp44
 70
     1
102
RTVSPropertyOp45
 70
     1
102
RTVSPropertyOp46
 70
     1
102
RTVSPropertyOp47
 70
     1
102
RTVSPropertyOp48
 70
     1
102
RTVSPropertyOp49
 70
     1
102
RTVSPropertyOp50
 70
     1
102
RTVSPropertyOp51
 70
     0
102
RTVSPropertyOp52
 70
     0
102
RTVSPropertyOp53
 70
     1
102
RTVSPropertyOp54
 70
     1
102
RTVSPropertyOp55
 70
     1
102
RTVSPropertyOp56
 70
     1
102
RTVSPropertyOp57
 70
     1
102
RTVSPropertyOp58
 70
     1
102
RTVSPropertyOp59
 70
     1
102
RTVSPropertyOp60
 70
     1
102
RTVSPropertyOp61
 70
     1
102
RTVSPropertyOp62
 70
     1
  0
XRECORD
  5
ED9
102
{ACAD_REACTORS
330
ED8
102
}
330
ED8
100
AcDbXrecord
280
     1
102
RTVSPost2010Prop28
280
     0
102
RTVSPost2010PropOp28
 70
     1
102
RTVSPost2010Prop29
280
     1
102
RTVSPost2010PropOp29
 70
     1
102
RTVSPost2010Prop30
280
     1
102
RTVSPost2010PropOp30
 70
     1
102
RTVSPost2010Prop31
280
     0
102
RTVSPost2010PropOp31
 70
     1
102
RTVSPost2010Prop32
280
     0
102
RTVSPost2010PropOp32
 70
     1
102
RTVSPost2010Prop33
280
     0
102
RTVSPost2010PropOp33
 70
     1
102
RTVSPost2010Prop34
280
     0
102
RTVSPost2010PropOp34
 70
     1
102
RTVSPost2010Prop35
280
     0
102
RTVSPost2010PropOp35
 70
     1
102
RTVSPost2010Prop36
280
     0
102
RTVSPost2010PropOp36
 70
     1
102
RTVSPost2010Prop37
 90
       50
102
RTVSPost2010PropOp37
 70
     1
102
RTVSPost2010Prop38
140
0.0
102
RTVSPost2010PropOp38
 70
     1
102
RTVSPost2010Prop39
140
1.0
102
RTVSPost2010PropOp39
 70
     1
102
RTVSPost2010Prop40
 90
        0
102
RTVSPost2010PropOp40
 70
     1
102
RTVSPost2010Prop41ColorIndex
 90
       18
102
RTVSPost2010Prop41ColorRGB
 90
        0
102
RTVSPost2010PropOp41
 70
     1
102
RTVSPost2010Prop42
 90
       50
102
RTVSPost2010PropOp42
 70
     1
102
RTVSPost2010Prop43
 90
        3
102
RTVSPost2010PropOp43
 70
     1
102
RTVSPost2010Prop44ColorIndex
 90
        5
102
RTVSPost2010Prop44ColorRGB
 90
      255
102
RTVSPost2010PropOp44
 70
     1
102
RTVSPost2010Prop45
280
     0
102
RTVSPost2010PropOp45
 70
     1
102
RTVSPost2010Prop46
 90
       50
102
RTVSPost2010PropOp46
 70
     1
102
RTVSPost2010Prop47
 90
       50
102
RTVSPost2010PropOp47
 70
     1
102
RTVSPost2010Prop48
 90
       50
102
RTVSPost2010PropOp48
 70
     1
102
RTVSPost2010Prop49
280
     0
102
RTVSPost2010PropOp49
 70
     1
102
RTVSPost2010Prop50
 90
       50
102
RTVSPost2010PropOp50
 70
     1
102
RTVSPost2010Prop51ColorIndex
 90
      256
102
RTVSPost2010Prop51ColorRGB
 90
-16777216
102
RTVSPost2010PropOp51
 70
     0
102
RTVSPost2010Prop52
140
1.0
102
RTVSPost2010PropOp52
 70
     0
102
RTVSPost2010Prop53
 90
        2
102
RTVSPost2010PropOp53
 70
     1
102
RTVSPost2010Prop54
  1
strokes_ogs.tif
102
RTVSPost2010PropOp54
 70
     1
102
RTVSPost2010Prop55
280
     0
102
RTVSPost2010PropOp55
 70
     1
102
RTVSPost2010Prop56
140
1.0
102
RTVSPost2010PropOp56
 70
     1
102
RTVSPost2010Prop57
140
1.0
102
RTVSPost2010PropOp57
 70
     1
102
RTVSPropertyOp0
 70
     1
102
RTVSPropertyOp1
 70
     1
102
RTVSPropertyOp2
 70
     1
102
RTVSPropertyOp3
 70
     1
102
RTVSPropertyOp4
 70
     1
102
RTVSPropertyOp5
 70
     1
102
RTVSPropertyOp6
 70
     1
102
RTVSPropertyOp7
 70
     1
102
RTVSPropertyOp8
 70
     1
102
RTVSPropertyOp9
 70
     1
102
RTVSPropertyOp10
 70
     1
102
RTVSPropertyOp11
 70
     1
102
RTVSPropertyOp12
 70
     1
102
RTVSPropertyOp13
 70
     1
102
RTVSPropertyOp14
 70
     1
102
RTVSPropertyOp15
 70
     1
102
RTVSPropertyOp16
 70
     1
102
RTVSPropertyOp17
 70
     1
102
RTVSPropertyOp18
 70
     1
102
RTVSPropertyOp19
 70
     1
102
RTVSPropertyOp20
 70
     1
102
RTVSPropertyOp21
 70
     1
102
RTVSPropertyOp22
 70
     1
102
RTVSPropertyOp23
 70
     1
102
RTVSPropertyOp24
 70
     1
102
RTVSPropertyOp25
 70
     1
102
RTVSPropertyOp26
 70
     1
102
RTVSPropertyOp27
 70
     1
102
RTVSPropertyOp28
 70
     1
102
RTVSPropertyOp29
 70
     1
102
RTVSPropertyOp30
 70
     1
102
RTVSPropertyOp31
 70
     1
102
RTVSPropertyOp32
 70
     1
102
RTVSPropertyOp33
 70
     1
102
RTVSPropertyOp34
 70
     1
102
RTVSPropertyOp35
 70
     1
102
RTVSPropertyOp36
 70
     1
102
RTVSPropertyOp37
 70
     1
102
RTVSPropertyOp38
 70
     1
102
RTVSPropertyOp39
 70
     1
102
RTVSPropertyOp40
 70
     1
102
RTVSPropertyOp41
 70
     1
102
RTVSPropertyOp42
 70
     1
102
RTVSPropertyOp43
 70
     1
102
RTVSPropertyOp44
 70
     1
102
RTVSPropertyOp45
 70
     1
102
RTVSPropertyOp46
 70
     1
102
RTVSPropertyOp47
 70
     1
102
RTVSPropertyOp48
 70
     1
102
RTVSPropertyOp49
 70
     1
102
RTVSPropertyOp50
 70
     1
102
RTVSPropertyOp51
 70
     0
102
RTVSPropertyOp52
 70
     0
102
RTVSPropertyOp53
 70
     1
102
RTVSPropertyOp54
 70
     1
102
RTVSPropertyOp55
 70
     1
102
RTVSPropertyOp56
 70
     1
102
RTVSPropertyOp57
 70
     1
102
RTVSPropertyOp58
 70
     1
102
RTVSPropertyOp59
 70
     1
102
RTVSPropertyOp60
 70
     1
102
RTVSPropertyOp61
 70
     1
102
RTVSPropertyOp62
 70
     1
  0
ENDSEC
  0
EOF
